  0
SECTION
  2
HEADER
  9
$ACADVER
  1
AC1024
  9
$ACADMAINTVER
 70
     6
  9
$DWGCODEPAGE
  3
UNDEFINED
  9
$INSBASE
 10
0.0
 20
0.0
 30
0.0
  9
$EXTMIN
 10
1.000000000000000E+20
 20
1.000000000000000E+20
 30
1.000000000000000E+20
  9
$EXTMAX
 10
-1.000000000000000E+20
 20
-1.000000000000000E+20
 30
-1.000000000000000E+20
  9
$LIMMIN
 10
0.0
 20
0.0
  9
$LIMMAX
 10
12.0
 20
9.0
  9
$ORTHOMODE
 70
     0
  9
$REGENMODE
 70
     1
  9
$FILLMODE
 70
     1
  9
$QTEXTMODE
 70
     0
  9
$MIRRTEXT
 70
     1
  9
$LTSCALE
 40
1.0
  9
$ATTMODE
 70
     1
  9
$TEXTSIZE
 40
0.2
  9
$TRACEWID
 40
0.05
  9
$TEXTSTYLE
  7
Standard
  9
$CLAYER
  8
0
  9
$CELTYPE
  6
ByLayer
  9
$CECOLOR
 62
   256
  9
$CELTSCALE
 40
1.0
  9
$DISPSILH
 70
     0
  9
$DIMSCALE
 40
1.0
  9
$DIMASZ
 40
0.18
  9
$DIMEXO
 40
0.0625
  9
$DIMDLI
 40
0.38
  9
$DIMRND
 40
0.0
  9
$DIMDLE
 40
0.0
  9
$DIMEXE
 40
0.18
  9
$DIMTP
 40
0.0
  9
$DIMTM
 40
0.0
  9
$DIMTXT
 40
0.18
  9
$DIMCEN
 40
0.09
  9
$DIMTSZ
 40
0.0
  9
$DIMTOL
 70
     0
  9
$DIMLIM
 70
     0
  9
$DIMTIH
 70
     1
  9
$DIMTOH
 70
     1
  9
$DIMSE1
 70
     0
  9
$DIMSE2
 70
     0
  9
$DIMTAD
 70
     0
  9
$DIMZIN
 70
     0
  9
$DIMBLK
  1

  9
$DIMASO
 70
     1
  9
$DIMSHO
 70
     1
  9
$DIMPOST
  1

  9
$DIMAPOST
  1

  9
$DIMALT
 70
     0
  9
$DIMALTD
 70
     2
  9
$DIMALTF
 40
25.4
  9
$DIMLFAC
 40
1.0
  9
$DIMTOFL
 70
     0
  9
$DIMTVP
 40
0.0
  9
$DIMTIX
 70
     0
  9
$DIMSOXD
 70
     0
  9
$DIMSAH
 70
     0
  9
$DIMBLK1
  1

  9
$DIMBLK2
  1

  9
$DIMSTYLE
  2
Standard
  9
$DIMCLRD
 70
     0
  9
$DIMCLRE
 70
     0
  9
$DIMCLRT
 70
     0
  9
$DIMTFAC
 40
1.0
  9
$DIMGAP
 40
0.09
  9
$DIMJUST
 70
     0
  9
$DIMSD1
 70
     0
  9
$DIMSD2
 70
     0
  9
$DIMTOLJ
 70
     1
  9
$DIMTZIN
 70
     0
  9
$DIMALTZ
 70
     0
  9
$DIMALTTZ
 70
     0
  9
$DIMUPT
 70
     0
  9
$DIMDEC
 70
     4
  9
$DIMTDEC
 70
     4
  9
$DIMALTU
 70
     2
  9
$DIMALTTD
 70
     2
  9
$DIMTXSTY
  7
Standard
  9
$DIMAUNIT
 70
     0
  9
$DIMADEC
 70
     0
  9
$DIMALTRND
 40
0.0
  9
$DIMAZIN
 70
     0
  9
$DIMDSEP
 70
    46
  9
$DIMATFIT
 70
     3
  9
$DIMFRAC
 70
     0
  9
$DIMLDRBLK
  1

  9
$DIMLUNIT
 70
     2
  9
$DIMLWD
 70
    -2
  9
$DIMLWE
 70
    -2
  9
$DIMTMOVE
 70
     0
  9
$DIMFXL
 40
1.0
  9
$DIMFXLON
 70
     0
  9
$DIMJOGANG
 40
0.7853981633974483
  9
$DIMTFILL
 70
     0
  9
$DIMTFILLCLR
 70
     0
  9
$DIMARCSYM
 70
     0
  9
$DIMLTYPE
  6

  9
$DIMLTEX1
  6

  9
$DIMLTEX2
  6

  9
$DIMTXTDIRECTION
 70
     0
  9
$LUNITS
 70
     2
  9
$LUPREC
 70
     4
  9
$SKETCHINC
 40
0.1
  9
$FILLETRAD
 40
0.5
  9
$AUNITS
 70
     0
  9
$AUPREC
 70
     0
  9
$MENU
  1
.
  9
$ELEVATION
 40
0.0
  9
$PELEVATION
 40
0.0
  9
$THICKNESS
 40
0.0
  9
$LIMCHECK
 70
     0
  9
$CHAMFERA
 40
0.5
  9
$CHAMFERB
 40
0.5
  9
$CHAMFERC
 40
1.0
  9
$CHAMFERD
 40
0.0
  9
$SKPOLY
 70
     0
  9
$TDCREATE
 40
2457917.628124989
  9
$TDUCREATE
 40
2457917.253125
  9
$TDUPDATE
 40
2457917.628124989
  9
$TDUUPDATE
 40
2457917.253125
  9
$TDINDWG
 40
0.0000000116
  9
$TDUSRTIMER
 40
0.0000000116
  9
$USRTIMER
 70
     1
  9
$ANGBASE
 50
0.0
  9
$ANGDIR
 70
     0
  9
$PDMODE
 70
     0
  9
$PDSIZE
 40
0.0
  9
$PLINEWID
 40
0.0
  9
$SPLFRAME
 70
     0
  9
$SPLINETYPE
 70
     6
  9
$SPLINESEGS
 70
     8
  9
$HANDSEED
  5
13F
  9
$SURFTAB1
 70
     6
  9
$SURFTAB2
 70
     6
  9
$SURFTYPE
 70
     6
  9
$SURFU
 70
     6
  9
$SURFV
 70
     6
  9
$UCSBASE
  2

  9
$UCSNAME
  2

  9
$UCSORG
 10
0.0
 20
0.0
 30
0.0
  9
$UCSXDIR
 10
1.0
 20
0.0
 30
0.0
  9
$UCSYDIR
 10
0.0
 20
1.0
 30
0.0
  9
$UCSORTHOREF
  2

  9
$UCSORTHOVIEW
 70
     0
  9
$UCSORGTOP
 10
0.0
 20
0.0
 30
0.0
  9
$UCSORGBOTTOM
 10
0.0
 20
0.0
 30
0.0
  9
$UCSORGLEFT
 10
0.0
 20
0.0
 30
0.0
  9
$UCSORGRIGHT
 10
0.0
 20
0.0
 30
0.0
  9
$UCSORGFRONT
 10
0.0
 20
0.0
 30
0.0
  9
$UCSORGBACK
 10
0.0
 20
0.0
 30
0.0
  9
$PUCSBASE
  2

  9
$PUCSNAME
  2

  9
$PUCSORG
 10
0.0
 20
0.0
 30
0.0
  9
$PUCSXDIR
 10
1.0
 20
0.0
 30
0.0
  9
$PUCSYDIR
 10
0.0
 20
1.0
 30
0.0
  9
$PUCSORTHOREF
  2

  9
$PUCSORTHOVIEW
 70
     0
  9
$PUCSORGTOP
 10
0.0
 20
0.0
 30
0.0
  9
$PUCSORGBOTTOM
 10
0.0
 20
0.0
 30
0.0
  9
$PUCSORGLEFT
 10
0.0
 20
0.0
 30
0.0
  9
$PUCSORGRIGHT
 10
0.0
 20
0.0
 30
0.0
  9
$PUCSORGFRONT
 10
0.0
 20
0.0
 30
0.0
  9
$PUCSORGBACK
 10
0.0
 20
0.0
 30
0.0
  9
$USERI1
 70
     0
  9
$USERI2
 70
     0
  9
$USERI3
 70
     0
  9
$USERI4
 70
     0
  9
$USERI5
 70
     0
  9
$USERR1
 40
0.0
  9
$USERR2
 40
0.0
  9
$USERR3
 40
0.0
  9
$USERR4
 40
0.0
  9
$USERR5
 40
0.0
  9
$WORLDVIEW
 70
     1
  9
$SHADEDGE
 70
     3
  9
$SHADEDIF
 70
    70
  9
$TILEMODE
 70
     1
  9
$MAXACTVP
 70
    64
  9
$PINSBASE
 10
0.0
 20
0.0
 30
0.0
  9
$PLIMCHECK
 70
     0
  9
$PEXTMIN
 10
1.000000000000000E+20
 20
1.000000000000000E+20
 30
1.000000000000000E+20
  9
$PEXTMAX
 10
-1.000000000000000E+20
 20
-1.000000000000000E+20
 30
-1.000000000000000E+20
  9
$PLIMMIN
 10
0.0
 20
0.0
  9
$PLIMMAX
 10
12.0
 20
9.0
  9
$UNITMODE
 70
     0
  9
$VISRETAIN
 70
     1
  9
$PLINEGEN
 70
     0
  9
$PSLTSCALE
 70
     1
  9
$TREEDEPTH
 70
  3020
  9
$CMLSTYLE
  2
Standard
  9
$CMLJUST
 70
     0
  9
$CMLSCALE
 40
1.0
  9
$PROXYGRAPHICS
 70
     1
  9
$MEASUREMENT
 70
     0
  9
$CELWEIGHT
370
    -1
  9
$ENDCAPS
280
     0
  9
$JOINSTYLE
280
     0
  9
$LWDISPLAY
290
     1
  9
$INSUNITS
 70
     1
  9
$HYPERLINKBASE
  1

  9
$STYLESHEET
  1

  9
$XEDIT
290
     1
  9
$CEPSNTYPE
380
     0
  9
$PSTYLEMODE
290
     1
  9
$FINGERPRINTGUID
  2
{A89776A9-CC52-1001-AB01-196E5D7A83EC}
  9
$VERSIONGUID
  2
{FAEB1C32-E019-11D5-929B-00C0DF256EC4}
  9
$EXTNAMES
290
     1
  9
$PSVPSCALE
 40
0.0
  9
$OLESTARTUP
290
     0
  9
$SORTENTS
280
   127
  9
$INDEXCTL
280
     0
  9
$HIDETEXT
280
     1
  9
$XCLIPFRAME
280
     2
  9
$HALOGAP
280
     0
  9
$OBSCOLOR
 70
   257
  9
$OBSLTYPE
280
     0
  9
$INTERSECTIONDISPLAY
280
     0
  9
$INTERSECTIONCOLOR
 70
   257
  9
$DIMASSOC
280
     2
  9
$PROJECTNAME
  1

  9
$CAMERADISPLAY
290
     0
  9
$LENSLENGTH
 40
50.0
  9
$CAMERAHEIGHT
 40
0.0
  9
$STEPSPERSEC
 40
2.0
  9
$STEPSIZE
 40
6.0
  9
$3DDWFPREC
 40
2.0
  9
$PSOLWIDTH
 40
0.25
  9
$PSOLHEIGHT
 40
4.0
  9
$LOFTANG1
 40
1.570796326794897
  9
$LOFTANG2
 40
1.570796326794897
  9
$LOFTMAG1
 40
0.0
  9
$LOFTMAG2
 40
0.0
  9
$LOFTPARAM
 70
     7
  9
$LOFTNORMALS
280
     1
  9
$LATITUDE
 40
37.795
  9
$LONGITUDE
 40
-122.394
  9
$NORTHDIRECTION
 40
0.0
  9
$TIMEZONE
 70
 -8000
  9
$LIGHTGLYPHDISPLAY
280
     1
  9
$TILEMODELIGHTSYNCH
280
     1
  9
$CMATERIAL
347
3C
  9
$SOLIDHIST
280
     1
  9
$SHOWHIST
280
     1
  9
$DWFFRAME
280
     2
  9
$DGNFRAME
280
     2
  9
$REALWORLDSCALE
290
     1
  9
$INTERFERECOLOR
 62
   256
  9
$CSHADOW
280
     0
  9
$SHADOWPLANELOCATION
 40
0.0
  0
ENDSEC
  0
SECTION
  2
CLASSES
  0
CLASS
  1
ACDBDICTIONARYWDFLT
  2
AcDbDictionaryWithDefault
  3
ObjectDBX Classes
 90
        0
 91
        4
280
     0
281
     0
  0
CLASS
  1
VISUALSTYLE
  2
AcDbVisualStyle
  3
ObjectDBX Classes
 90
     4095
 91
        4
280
     0
281
     0
  0
CLASS
  1
MATERIAL
  2
AcDbMaterial
  3
ObjectDBX Classes
 90
     1153
 91
        4
280
     0
281
     0
  0
CLASS
  1
SUN
  2
AcDbSun
  3
SCENEOE
 90
     1024
 91
        4
280
     0
281
     0
  0
ENDSEC
  0
SECTION
  2
TABLES
  0
TABLE
  2
VPORT
  5
8
330
0
100
AcDbSymbolTable
 70
     1
  0
VPORT
  5
29
330
8
100
AcDbSymbolTableRecord
100
AcDbViewportTableRecord
  2
*Active
 70
     0
 10
0.0
 20
0.0
 11
1.0
 21
1.0
 12
0.0
 22
0.0
 13
0.0
 23
0.0
 14
0.5
 24
0.5
 15
0.5
 25
0.5
 16
0.0
 26
0.0
 36
1.0
 17
91.00082462281999
 27
-128.4993055234307
 37
0.0
 40
256.9986110468615
 41
0.7081814508812795
 42
50.0
 43
0.0
 44
0.0
 50
0.0
 51
0.0
 71
     0
 72
   100
 73
     1
 74
     3
 75
     0
 76
     0
 77
     0
 78
     0
281
     0
 65
     1
110
0.0
120
0.0
130
0.0
111
1.0
121
0.0
131
0.0
112
0.0
122
1.0
132
0.0
 79
     0
146
0.0
 60
     3
 61
     5
292
     1
282
     1
141
0.0
142
0.0
 63
   250
361
3F
  0
ENDTAB
  0
TABLE
  2
LTYPE
  5
5
330
0
100
AcDbSymbolTable
 70
     3
  0
LTYPE
  5
14
330
5
100
AcDbSymbolTableRecord
100
AcDbLinetypeTableRecord
  2
ByBlock
 70
     0
  3

 72
    65
 73
     0
 40
0.0
  0
LTYPE
  5
15
330
5
100
AcDbSymbolTableRecord
100
AcDbLinetypeTableRecord
  2
ByLayer
 70
     0
  3

 72
    65
 73
     0
 40
0.0
  0
LTYPE
  5
16
330
5
100
AcDbSymbolTableRecord
100
AcDbLinetypeTableRecord
  2
Continuous
 70
     0
  3
Solid line
 72
    65
 73
     0
 40
0.0
  0
LTYPE
  5
6C
330
5
100
AcDbSymbolTableRecord
100
AcDbLinetypeTableRecord
  2
AI-Linetype-1
 70
     0
  3
Adobe Illustrator Linetype No. 1
 72
    65
 73
     4
 40
2.1166666661375
 49
1.05833333306875
 74
     0
 49
-0.3527777776895833
 74
     0
 49
0.3527777776895833
 74
     0
 49
-0.3527777776895833
 74
     0
  0
LTYPE
  5
71
330
5
100
AcDbSymbolTableRecord
100
AcDbLinetypeTableRecord
  2
AI-Linetype-2
 70
     0
  3
Adobe Illustrator Linetype No. 2
 72
    65
 73
     4
 40
2.1166666661375
 49
1.05833333306875
 74
     0
 49
-0.3527777776895833
 74
     0
 49
0.3527777776895833
 74
     0
 49
-0.3527777776895833
 74
     0
  0
ENDTAB
  0
TABLE
  2
LAYER
  5
2
330
0
100
AcDbSymbolTable
 70
     2
  0
LAYER
  5
10
330
2
100
AcDbSymbolTableRecord
100
AcDbLayerTableRecord
  2
0
 70
     0
 62
     7
  6
Continuous
370
    -3
390
F
347
3E
  0
LAYER
  5
40
330
2
100
AcDbSymbolTableRecord
100
AcDbLayerTableRecord
  2
_U+30EC_U+30A4_U+30E4_U+30FC 1
 70
     0
 62
     7
  6
Continuous
370
    -3
390
F
347
3E
  0
ENDTAB
  0
TABLE
  2
STYLE
  5
3
330
0
100
AcDbSymbolTable
 70
     1
  0
STYLE
  5
11
330
3
100
AcDbSymbolTableRecord
100
AcDbTextStyleTableRecord
  2
Standard
 70
     0
 40
0.0
 41
1.0
 50
0.0
 71
     0
 42
0.2
  3
txt
  4

  0
ENDTAB
  0
TABLE
  2
VIEW
  5
6
330
0
100
AcDbSymbolTable
 70
     0
  0
ENDTAB
  0
TABLE
  2
UCS
  5
7
330
0
100
AcDbSymbolTable
 70
     0
  0
ENDTAB
  0
TABLE
  2
APPID
  5
9
330
0
100
AcDbSymbolTable
 70
     1
  0
APPID
  5
12
330
9
100
AcDbSymbolTableRecord
100
AcDbRegAppTableRecord
  2
ACAD
 70
     0
  0
ENDTAB
  0
TABLE
  2
DIMSTYLE
  5
A
330
0
100
AcDbSymbolTable
 70
     1
100
AcDbDimStyleTable
  0
DIMSTYLE
105
27
330
A
100
AcDbSymbolTableRecord
100
AcDbDimStyleTableRecord
  2
Standard
 70
     0
178
     0
340
11
  0
ENDTAB
  0
TABLE
  2
BLOCK_RECORD
  5
1
330
0
100
AcDbSymbolTable
 70
     7
  0
BLOCK_RECORD
  5
1F
330
1
100
AcDbSymbolTableRecord
100
AcDbBlockTableRecord
  2
*Model_Space
340
22
 70
     0
280
     1
281
     0
  0
BLOCK_RECORD
  5
1B
330
1
100
AcDbSymbolTableRecord
100
AcDbBlockTableRecord
  2
*Paper_Space
340
1E
 70
     0
280
     1
281
     0
  0
BLOCK_RECORD
  5
23
330
1
100
AcDbSymbolTableRecord
100
AcDbBlockTableRecord
  2
*Paper_Space0
340
26
 70
     0
280
     1
281
     0
  0
BLOCK_RECORD
  5
8F
330
1
100
AcDbSymbolTableRecord
100
AcDbBlockTableRecord
  2
block 2
340
0
102
{BLKREFS
331
90
102
}
 70
     0
280
     1
281
     0
  0
BLOCK_RECORD
  5
A7
330
1
100
AcDbSymbolTableRecord
100
AcDbBlockTableRecord
  2
block 3
340
0
102
{BLKREFS
331
A8
102
}
 70
     0
280
     1
281
     0
  0
BLOCK_RECORD
  5
D2
330
1
100
AcDbSymbolTableRecord
100
AcDbBlockTableRecord
  2
block 4
340
0
102
{BLKREFS
331
D3
102
}
 70
     0
280
     1
281
     0
  0
BLOCK_RECORD
  5
F1
330
1
100
AcDbSymbolTableRecord
100
AcDbBlockTableRecord
  2
block 5
340
0
102
{BLKREFS
331
F2
102
}
 70
     0
280
     1
281
     0
  0
BLOCK_RECORD
  5
121
330
1
100
AcDbSymbolTableRecord
100
AcDbBlockTableRecord
  2
block 6
340
0
102
{BLKREFS
331
122
102
}
 70
     0
280
     1
281
     0
  0
BLOCK_RECORD
  5
132
330
1
100
AcDbSymbolTableRecord
100
AcDbBlockTableRecord
  2
block 7
340
0
102
{BLKREFS
331
133
102
}
 70
     0
280
     1
281
     0
  0
ENDTAB
  0
ENDSEC
  0
SECTION
  2
BLOCKS
  0
BLOCK
  5
20
330
1F
100
AcDbEntity
  8
0
100
AcDbBlockBegin
  2
*Model_Space
 70
     0
 10
0.0
 20
0.0
 30
0.0
  3
*Model_Space
  1

  0
ENDBLK
  5
21
330
1F
100
AcDbEntity
  8
0
100
AcDbBlockEnd
  0
BLOCK
  5
1C
330
1B
100
AcDbEntity
 67
     1
  8
0
100
AcDbBlockBegin
  2
*Paper_Space
 70
     0
 10
0.0
 20
0.0
 30
0.0
  3
*Paper_Space
  1

  0
ENDBLK
  5
1D
330
1B
100
AcDbEntity
 67
     1
  8
0
100
AcDbBlockEnd
  0
BLOCK
  5
24
330
23
100
AcDbEntity
  8
0
100
AcDbBlockBegin
  2
*Paper_Space0
 70
     0
 10
0.0
 20
0.0
 30
0.0
  3
*Paper_Space0
  1

  0
ENDBLK
  5
25
330
23
100
AcDbEntity
  8
0
100
AcDbBlockEnd
  0
BLOCK
  5
91
330
8F
100
AcDbEntity
  8
0
100
AcDbBlockBegin
  2
block 2
 70
     0
 10
0.0
 20
0.0
 30
0.0
  3
block 2
  1

  0
SPLINE
  5
93
330
8F
100
AcDbEntity
  8
_U+30EC_U+30A4_U+30E4_U+30FC 1
370
     0
100
AcDbSpline
210
0.0
220
0.0
230
1.0
 70
    11
 71
     3
 72
    26
 73
    22
 74
     0
 42
0.0000000001
 43
0.0000000001
 12
1.0
 22
0.0
 32
0.0
 13
1.0
 23
0.0
 33
0.0
 40
0.0
 40
0.0
 40
0.0
 40
0.0
 40
1.0
 40
1.0
 40
1.0
 40
2.0
 40
2.0
 40
2.0
 40
3.0
 40
3.0
 40
3.0
 40
4.0
 40
4.0
 40
4.0
 40
5.0
 40
5.0
 40
5.0
 40
6.0
 40
6.0
 40
6.0
 40
7.0
 40
7.0
 40
7.0
 40
7.0
 10
100.8996120624487
 20
-114.3795816771343
 30
0.0
 10
100.8996120624487
 20
-114.3795816771343
 30
0.0
 10
99.79545895942614
 20
-114.3795816771343
 30
0.0
 10
99.79545895942614
 20
-114.3795816771343
 30
0.0
 10
99.79545895942614
 20
-114.3795816771343
 30
0.0
 10
99.79545895942614
 20
-114.7096218246212
 30
0.0
 10
99.79545895942614
 20
-114.7096218246212
 30
0.0
 10
99.79545895942614
 20
-114.7096218246212
 30
0.0
 10
99.64731985356039
 20
-114.7096218246212
 30
0.0
 10
99.64731985356039
 20
-114.7096218246212
 30
0.0
 10
99.63250594297382
 20
-114.3775146198431
 30
0.0
 10
99.4695529265215
 20
-114.3310058307923
 30
0.0
 10
99.35517575641121
 20
-114.3013780096191
 30
0.0
 10
99.35517575641121
 20
-114.3013780096191
 30
0.0
 10
99.35517575641121
 20
-114.1553059610445
 30
0.0
 10
99.35517575641121
 20
-114.1553059610445
 30
0.0
 10
99.35517575641121
 20
-114.1553059610445
 30
0.0
 10
100.8996120624487
 20
-114.1553059610445
 30
0.0
 10
100.8996120624487
 20
-114.1553059610445
 30
0.0
 10
100.8996120624487
 20
-114.1553059610445
 30
0.0
 10
100.8996120624487
 20
-114.3795816771343
 30
0.0
 10
100.8996120624487
 20
-114.3795816771343
 30
0.0
  0
HATCH
  5
94
330
8F
100
AcDbEntity
  8
_U+30EC_U+30A4_U+30E4_U+30FC 1
 62
   179
420
  2234388
100
AcDbHatch
 10
0.0
 20
0.0
 30
0.0
210
0.0
220
0.0
230
1.0
  2
SOLID
 70
     1
 71
     0
 91
        1
 92
        1
 93
        1
 72
     4
 94
        3
 73
     0
 74
     1
 95
       26
 96
       22
 40
0.0
 40
0.0
 40
0.0
 40
0.0
 40
1.0
 40
1.0
 40
1.0
 40
2.0
 40
2.0
 40
2.0
 40
3.0
 40
3.0
 40
3.0
 40
4.0
 40
4.0
 40
4.0
 40
5.0
 40
5.0
 40
5.0
 40
6.0
 40
6.0
 40
6.0
 40
7.0
 40
7.0
 40
7.0
 40
7.0
 10
100.8996120624487
 20
-114.3795816771343
 10
100.8996120624487
 20
-114.3795816771343
 10
99.79545895942614
 20
-114.3795816771343
 10
99.79545895942614
 20
-114.3795816771343
 10
99.79545895942614
 20
-114.3795816771343
 10
99.79545895942614
 20
-114.7096218246212
 10
99.79545895942614
 20
-114.7096218246212
 10
99.79545895942614
 20
-114.7096218246212
 10
99.64731985356039
 20
-114.7096218246212
 10
99.64731985356039
 20
-114.7096218246212
 10
99.63250594297382
 20
-114.3775146198431
 10
99.4695529265215
 20
-114.3310058307923
 10
99.35517575641121
 20
-114.3013780096191
 10
99.35517575641121
 20
-114.3013780096191
 10
99.35517575641121
 20
-114.1553059610445
 10
99.35517575641121
 20
-114.1553059610445
 10
99.35517575641121
 20
-114.1553059610445
 10
100.8996120624487
 20
-114.1553059610445
 10
100.8996120624487
 20
-114.1553059610445
 10
100.8996120624487
 20
-114.1553059610445
 10
100.8996120624487
 20
-114.3795816771343
 10
100.8996120624487
 20
-114.3795816771343
 97
        0
 97
        0
 75
     2
 76
     1
 98
        0
  0
SPLINE
  5
95
330
8F
100
AcDbEntity
  8
_U+30EC_U+30A4_U+30E4_U+30FC 1
370
     0
100
AcDbSpline
210
0.0
220
0.0
230
1.0
 70
    11
 71
     3
 72
    29
 73
    25
 74
     0
 42
0.0000000001
 43
0.0000000001
 12
1.0
 22
0.0
 32
0.0
 13
1.0
 23
0.0
 33
0.0
 40
0.0
 40
0.0
 40
0.0
 40
0.0
 40
1.0
 40
1.0
 40
1.0
 40
2.0
 40
2.0
 40
2.0
 40
3.0
 40
3.0
 40
3.0
 40
4.0
 40
4.0
 40
4.0
 40
5.0
 40
5.0
 40
5.0
 40
6.0
 40
6.0
 40
6.0
 40
7.0
 40
7.0
 40
7.0
 40
8.0
 40
8.0
 40
8.0
 40
8.0
 10
100.7218451354098
 20
-112.7562526844846
 30
0.0
 10
100.931306940913
 20
-112.8644286827214
 30
0.0
 10
100.9502549660819
 20
-113.0377169856295
 30
0.0
 10
100.9502549660819
 20
-113.1541612130309
 30
0.0
 10
100.9502549660819
 20
-113.3150471721921
 30
0.0
 10
100.903746177031
 20
-113.4566405966359
 30
0.0
 10
100.7218451354098
 20
-113.5517252320287
 30
0.0
 10
100.5271972404932
 20
-113.6554226061348
 30
0.0
 10
100.290174671108
 20
-113.6743706313036
 30
0.0
 10
100.1275661642042
 20
-113.6743706313036
 30
0.0
 10
99.98356117292079
 20
-113.6743706313036
 30
0.0
 10
99.73172469294902
 20
-113.6574896634259
 30
0.0
 10
99.5329426834501
 20
-113.5517252320287
 30
0.0
 10
99.33002655936889
 20
-113.4438937433404
 30
0.0
 10
99.30659991006918
 20
-113.2830077841792
 30
0.0
 10
99.30659991006918
 20
-113.1541612130309
 30
0.0
 10
99.30659991006918
 20
-112.9953423111609
 30
0.0
 10
99.35104164182891
 20
-112.851681829426
 30
0.0
 10
99.5329426834501
 20
-112.7562526844846
 30
0.0
 10
99.72552352107557
 20
-112.6570339345094
 30
0.0
 10
99.95393335174764
 20
-112.6336072852097
 30
0.0
 10
100.1275661642042
 20
-112.6336072852097
 30
0.0
 10
100.2987874098211
 20
-112.6336072852097
 30
0.0
 10
100.5292642977844
 20
-112.6549668772182
 30
0.0
 10
100.7218451354098
 20
-112.7562526844846
 30
0.0
  0
SPLINE
  5
96
330
8F
100
AcDbEntity
  8
_U+30EC_U+30A4_U+30E4_U+30FC 1
370
     0
100
AcDbSpline
210
0.0
220
0.0
230
1.0
 70
    11
 71
     3
 72
    17
 73
    13
 74
     0
 42
0.0000000001
 43
0.0000000001
 12
1.0
 22
0.0
 32
0.0
 13
1.0
 23
0.0
 33
0.0
 40
0.0
 40
0.0
 40
0.0
 40
0.0
 40
1.0
 40
1.0
 40
1.0
 40
2.0
 40
2.0
 40
2.0
 40
3.0
 40
3.0
 40
3.0
 40
4.0
 40
4.0
 40
4.0
 40
4.0
 10
99.49918074769465
 20
-113.1541612130309
 30
0.0
 10
99.49918074769465
 20
-113.403586126163
 30
0.0
 10
99.78271210613072
 20
-113.4504394247624
 30
0.0
 10
100.1275661642042
 20
-113.4504394247624
 30
0.0
 10
100.4469265156869
 20
-113.4504394247624
 30
0.0
 10
100.7556070711653
 20
-113.4142659221673
 30
0.0
 10
100.7556070711653
 20
-113.1541612130309
 30
0.0
 10
100.7556070711653
 20
-112.9064588476414
 30
0.0
 10
100.4744872795689
 20
-112.8578830012994
 30
0.0
 10
100.1275661642042
 20
-112.8578830012994
 30
0.0
 10
99.80786130317304
 20
-112.8578830012994
 30
0.0
 10
99.49918074769465
 20
-112.8961235611857
 30
0.0
 10
99.49918074769465
 20
-113.1541612130309
 30
0.0
  0
HATCH
  5
97
330
8F
100
AcDbEntity
  8
_U+30EC_U+30A4_U+30E4_U+30FC 1
 62
   179
420
  2234388
100
AcDbHatch
 10
0.0
 20
0.0
 30
0.0
210
0.0
220
0.0
230
1.0
  2
SOLID
 70
     1
 71
     0
 91
        2
 92
        1
 93
        1
 72
     4
 94
        3
 73
     0
 74
     1
 95
       29
 96
       25
 40
0.0
 40
0.0
 40
0.0
 40
0.0
 40
1.0
 40
1.0
 40
1.0
 40
2.0
 40
2.0
 40
2.0
 40
3.0
 40
3.0
 40
3.0
 40
4.0
 40
4.0
 40
4.0
 40
5.0
 40
5.0
 40
5.0
 40
6.0
 40
6.0
 40
6.0
 40
7.0
 40
7.0
 40
7.0
 40
8.0
 40
8.0
 40
8.0
 40
8.0
 10
100.7218451354098
 20
-112.7562526844846
 10
100.931306940913
 20
-112.8644286827214
 10
100.9502549660819
 20
-113.0377169856295
 10
100.9502549660819
 20
-113.1541612130309
 10
100.9502549660819
 20
-113.3150471721921
 10
100.903746177031
 20
-113.4566405966359
 10
100.7218451354098
 20
-113.5517252320287
 10
100.5271972404932
 20
-113.6554226061348
 10
100.290174671108
 20
-113.6743706313036
 10
100.1275661642042
 20
-113.6743706313036
 10
99.98356117292079
 20
-113.6743706313036
 10
99.73172469294902
 20
-113.6574896634259
 10
99.5329426834501
 20
-113.5517252320287
 10
99.33002655936889
 20
-113.4438937433404
 10
99.30659991006918
 20
-113.2830077841792
 10
99.30659991006918
 20
-113.1541612130309
 10
99.30659991006918
 20
-112.9953423111609
 10
99.35104164182891
 20
-112.851681829426
 10
99.5329426834501
 20
-112.7562526844846
 10
99.72552352107557
 20
-112.6570339345094
 10
99.95393335174764
 20
-112.6336072852097
 10
100.1275661642042
 20
-112.6336072852097
 10
100.2987874098211
 20
-112.6336072852097
 10
100.5292642977844
 20
-112.6549668772182
 10
100.7218451354098
 20
-112.7562526844846
 97
        0
 97
        0
 92
        1
 93
        1
 72
     4
 94
        3
 73
     0
 74
     1
 95
       17
 96
       13
 40
0.0
 40
0.0
 40
0.0
 40
0.0
 40
1.0
 40
1.0
 40
1.0
 40
2.0
 40
2.0
 40
2.0
 40
3.0
 40
3.0
 40
3.0
 40
4.0
 40
4.0
 40
4.0
 40
4.0
 10
99.49918074769465
 20
-113.1541612130309
 10
99.49918074769465
 20
-113.403586126163
 10
99.78271210613072
 20
-113.4504394247624
 10
100.1275661642042
 20
-113.4504394247624
 10
100.4469265156869
 20
-113.4504394247624
 10
100.7556070711653
 20
-113.4142659221673
 10
100.7556070711653
 20
-113.1541612130309
 10
100.7556070711653
 20
-112.9064588476414
 10
100.4744872795689
 20
-112.8578830012994
 10
100.1275661642042
 20
-112.8578830012994
 10
99.80786130317304
 20
-112.8578830012994
 10
99.49918074769465
 20
-112.8961235611857
 10
99.49918074769465
 20
-113.1541612130309
 97
        0
 97
        0
 75
     2
 76
     1
 98
        0
  0
ENDBLK
  5
92
330
8F
100
AcDbEntity
  8
0
100
AcDbBlockEnd
  0
BLOCK
  5
A9
330
A7
100
AcDbEntity
  8
0
100
AcDbBlockBegin
  2
block 3
 70
     0
 10
0.0
 20
0.0
 30
0.0
  3
block 3
  1

  0
SPLINE
  5
AB
330
A7
100
AcDbEntity
  8
_U+30EC_U+30A4_U+30E4_U+30FC 1
370
     0
100
AcDbSpline
210
0.0
220
0.0
230
1.0
 70
    11
 71
     3
 72
    32
 73
    28
 74
     0
 42
0.0000000001
 43
0.0000000001
 12
1.0
 22
0.0
 32
0.0
 13
1.0
 23
0.0
 33
0.0
 40
0.0
 40
0.0
 40
0.0
 40
0.0
 40
1.0
 40
1.0
 40
1.0
 40
2.0
 40
2.0
 40
2.0
 40
3.0
 40
3.0
 40
3.0
 40
4.0
 40
4.0
 40
4.0
 40
5.0
 40
5.0
 40
5.0
 40
6.0
 40
6.0
 40
6.0
 40
7.0
 40
7.0
 40
7.0
 40
8.0
 40
8.0
 40
8.0
 40
9.0
 40
9.0
 40
9.0
 40
9.0
 10
102.9725260159235
 20
-130.0020561740967
 30
0.0
 10
102.9725260159235
 20
-130.5181314777871
 30
0.0
 10
102.4185546618954
 20
-130.5263997069517
 30
0.0
 10
102.2046142322613
 20
-130.5263997069517
 30
0.0
 10
101.9741373442981
 20
-130.5263997069517
 30
0.0
 10
101.3268039026197
 20
-130.5074516817829
 30
0.0
 10
101.3268039026197
 20
-129.9638156142104
 30
0.0
 10
101.3268039026197
 20
-129.7905273113024
 30
0.0
 10
101.3967393409703
 20
-129.5448920032041
 30
0.0
 10
101.7288465457484
 20
-129.5069959528663
 30
0.0
 10
101.7288465457484
 20
-129.5069959528663
 30
0.0
 10
101.7288465457484
 20
-129.7205918729518
 30
0.0
 10
101.7288465457484
 20
-129.7205918729518
 30
0.0
 10
101.6716579606932
 20
-129.7312716689561
 30
0.0
 10
101.5235188548275
 20
-129.7629665474204
 30
0.0
 10
101.5235188548275
 20
-129.9658826715016
 30
0.0
 10
101.5235188548275
 20
-130.2580267686508
 30
0.0
 10
101.8514919450232
 20
-130.2979898762797
 30
0.0
 10
102.0564751263956
 20
-130.3107367295751
 30
0.0
 10
101.9782714588804
 20
-130.2177191514733
 30
0.0
 10
101.9190158165341
 20
-130.1498507704139
 30
0.0
 10
101.9190158165341
 20
-129.9679497287927
 30
0.0
 10
101.9190158165341
 20
-129.7881157444627
 30
0.0
 10
102.027191814771
 20
-129.4856363608578
 30
0.0
 10
102.4333685724819
 20
-129.4856363608578
 30
0.0
 10
102.7527289239646
 20
-129.4856363608578
 30
0.0
 10
102.9725260159235
 20
-129.6847628799052
 30
0.0
 10
102.9725260159235
 20
-130.0020561740967
 30
0.0
  0
SPLINE
  5
AC
330
A7
100
AcDbEntity
  8
_U+30EC_U+30A4_U+30E4_U+30FC 1
370
     0
100
AcDbSpline
210
0.0
220
0.0
230
1.0
 70
    11
 71
     3
 72
    17
 73
    13
 74
     0
 42
0.0000000001
 43
0.0000000001
 12
1.0
 22
0.0
 32
0.0
 13
1.0
 23
0.0
 33
0.0
 40
0.0
 40
0.0
 40
0.0
 40
0.0
 40
1.0
 40
1.0
 40
1.0
 40
2.0
 40
2.0
 40
2.0
 40
3.0
 40
3.0
 40
3.0
 40
4.0
 40
4.0
 40
4.0
 40
4.0
 10
102.1136637114508
 20
-129.9848306966705
 30
0.0
 10
102.1136637114508
 20
-130.2473469726465
 30
0.0
 10
102.3251925742451
 20
-130.2852430229842
 30
0.0
 10
102.4416368016465
 20
-130.2852430229842
 30
0.0
 10
102.6173366713943
 20
-130.2852430229842
 30
0.0
 10
102.7802896878466
 20
-130.1901583875914
 30
0.0
 10
102.7802896878466
 20
-130.006190288679
 30
0.0
 10
102.7802896878466
 20
-129.8856119466953
 30
0.0
 10
102.7210340455003
 20
-129.7099120769475
 30
0.0
 10
102.4354356297731
 20
-129.7099120769475
 30
0.0
 10
102.2111599136833
 20
-129.7099120769475
 30
0.0
 10
102.1136637114508
 20
-129.8497829536487
 30
0.0
 10
102.1136637114508
 20
-129.9848306966705
 30
0.0
  0
HATCH
  5
AD
330
A7
100
AcDbEntity
  8
_U+30EC_U+30A4_U+30E4_U+30FC 1
 62
   179
420
  2234388
100
AcDbHatch
 10
0.0
 20
0.0
 30
0.0
210
0.0
220
0.0
230
1.0
  2
SOLID
 70
     1
 71
     0
 91
        2
 92
        1
 93
        1
 72
     4
 94
        3
 73
     0
 74
     1
 95
       32
 96
       28
 40
0.0
 40
0.0
 40
0.0
 40
0.0
 40
1.0
 40
1.0
 40
1.0
 40
2.0
 40
2.0
 40
2.0
 40
3.0
 40
3.0
 40
3.0
 40
4.0
 40
4.0
 40
4.0
 40
5.0
 40
5.0
 40
5.0
 40
6.0
 40
6.0
 40
6.0
 40
7.0
 40
7.0
 40
7.0
 40
8.0
 40
8.0
 40
8.0
 40
9.0
 40
9.0
 40
9.0
 40
9.0
 10
102.9725260159235
 20
-130.0020561740967
 10
102.9725260159235
 20
-130.5181314777871
 10
102.4185546618954
 20
-130.5263997069517
 10
102.2046142322613
 20
-130.5263997069517
 10
101.9741373442981
 20
-130.5263997069517
 10
101.3268039026197
 20
-130.5074516817829
 10
101.3268039026197
 20
-129.9638156142104
 10
101.3268039026197
 20
-129.7905273113024
 10
101.3967393409703
 20
-129.5448920032041
 10
101.7288465457484
 20
-129.5069959528663
 10
101.7288465457484
 20
-129.5069959528663
 10
101.7288465457484
 20
-129.7205918729518
 10
101.7288465457484
 20
-129.7205918729518
 10
101.6716579606932
 20
-129.7312716689561
 10
101.5235188548275
 20
-129.7629665474204
 10
101.5235188548275
 20
-129.9658826715016
 10
101.5235188548275
 20
-130.2580267686508
 10
101.8514919450232
 20
-130.2979898762797
 10
102.0564751263956
 20
-130.3107367295751
 10
101.9782714588804
 20
-130.2177191514733
 10
101.9190158165341
 20
-130.1498507704139
 10
101.9190158165341
 20
-129.9679497287927
 10
101.9190158165341
 20
-129.7881157444627
 10
102.027191814771
 20
-129.4856363608578
 10
102.4333685724819
 20
-129.4856363608578
 10
102.7527289239646
 20
-129.4856363608578
 10
102.9725260159235
 20
-129.6847628799052
 10
102.9725260159235
 20
-130.0020561740967
 97
        0
 97
        0
 92
        1
 93
        1
 72
     4
 94
        3
 73
     0
 74
     1
 95
       17
 96
       13
 40
0.0
 40
0.0
 40
0.0
 40
0.0
 40
1.0
 40
1.0
 40
1.0
 40
2.0
 40
2.0
 40
2.0
 40
3.0
 40
3.0
 40
3.0
 40
4.0
 40
4.0
 40
4.0
 40
4.0
 10
102.1136637114508
 20
-129.9848306966705
 10
102.1136637114508
 20
-130.2473469726465
 10
102.3251925742451
 20
-130.2852430229842
 10
102.4416368016465
 20
-130.2852430229842
 10
102.6173366713943
 20
-130.2852430229842
 10
102.7802896878466
 20
-130.1901583875914
 10
102.7802896878466
 20
-130.006190288679
 10
102.7802896878466
 20
-129.8856119466953
 10
102.7210340455003
 20
-129.7099120769475
 10
102.4354356297731
 20
-129.7099120769475
 10
102.2111599136833
 20
-129.7099120769475
 10
102.1136637114508
 20
-129.8497829536487
 10
102.1136637114508
 20
-129.9848306966705
 97
        0
 97
        0
 75
     2
 76
     1
 98
        0
  0
SPLINE
  5
AE
330
A7
100
AcDbEntity
  8
_U+30EC_U+30A4_U+30E4_U+30FC 1
370
     0
100
AcDbSpline
210
0.0
220
0.0
230
1.0
 70
    11
 71
     3
 72
    29
 73
    25
 74
     0
 42
0.0000000001
 43
0.0000000001
 12
1.0
 22
0.0
 32
0.0
 13
1.0
 23
0.0
 33
0.0
 40
0.0
 40
0.0
 40
0.0
 40
0.0
 40
1.0
 40
1.0
 40
1.0
 40
2.0
 40
2.0
 40
2.0
 40
3.0
 40
3.0
 40
3.0
 40
4.0
 40
4.0
 40
4.0
 40
5.0
 40
5.0
 40
5.0
 40
6.0
 40
6.0
 40
6.0
 40
7.0
 40
7.0
 40
7.0
 40
8.0
 40
8.0
 40
8.0
 40
8.0
 10
102.7441161852515
 20
-128.4314371423713
 30
0.0
 10
102.9535779907547
 20
-128.5396131406082
 30
0.0
 10
102.9725260159235
 20
-128.7129014435162
 30
0.0
 10
102.9725260159235
 20
-128.8293456709177
 30
0.0
 10
102.9725260159235
 20
-128.9902316300788
 30
0.0
 10
102.9260172268727
 20
-129.1318250545226
 30
0.0
 10
102.7441161852515
 20
-129.2269096899155
 30
0.0
 10
102.5494682903349
 20
-129.3306070640215
 30
0.0
 10
102.3124457209497
 20
-129.3495550891904
 30
0.0
 10
102.1498372140459
 20
-129.3495550891904
 30
0.0
 10
102.0058322227624
 20
-129.3495550891904
 30
0.0
 10
101.7539957427907
 20
-129.3326741213127
 30
0.0
 10
101.5552137332918
 20
-129.2269096899155
 30
0.0
 10
101.3522976092105
 20
-129.1190782012272
 30
0.0
 10
101.3288709599108
 20
-128.958192242066
 30
0.0
 10
101.3288709599108
 20
-128.8293456709177
 30
0.0
 10
101.3288709599108
 20
-128.6705267690477
 30
0.0
 10
101.3733126916706
 20
-128.5268662873127
 30
0.0
 10
101.5552137332918
 20
-128.4314371423713
 30
0.0
 10
101.7477945709172
 20
-128.3322183923961
 30
0.0
 10
101.9762044015893
 20
-128.3087917430964
 30
0.0
 10
102.1498372140459
 20
-128.3087917430964
 30
0.0
 10
102.3210584596628
 20
-128.3087917430964
 30
0.0
 10
102.551535347626
 20
-128.330151335105
 30
0.0
 10
102.7441161852515
 20
-128.4314371423713
 30
0.0
  0
SPLINE
  5
AF
330
A7
100
AcDbEntity
  8
_U+30EC_U+30A4_U+30E4_U+30FC 1
370
     0
100
AcDbSpline
210
0.0
220
0.0
230
1.0
 70
    11
 71
     3
 72
    17
 73
    13
 74
     0
 42
0.0000000001
 43
0.0000000001
 12
1.0
 22
0.0
 32
0.0
 13
1.0
 23
0.0
 33
0.0
 40
0.0
 40
0.0
 40
0.0
 40
0.0
 40
1.0
 40
1.0
 40
1.0
 40
2.0
 40
2.0
 40
2.0
 40
3.0
 40
3.0
 40
3.0
 40
4.0
 40
4.0
 40
4.0
 40
4.0
 10
101.5214517975363
 20
-128.8293456709177
 30
0.0
 10
101.5214517975363
 20
-129.0787705840497
 30
0.0
 10
101.8049831559724
 20
-129.1256238826492
 30
0.0
 10
102.1498372140459
 20
-129.1256238826492
 30
0.0
 10
102.4691975655285
 20
-129.1256238826492
 30
0.0
 10
102.7778781210069
 20
-129.089450380054
 30
0.0
 10
102.7778781210069
 20
-128.8293456709177
 30
0.0
 10
102.7778781210069
 20
-128.5816433055282
 30
0.0
 10
102.4967583294105
 20
-128.5330674591862
 30
0.0
 10
102.1498372140459
 20
-128.5330674591862
 30
0.0
 10
101.8301323530147
 20
-128.5330674591862
 30
0.0
 10
101.5214517975363
 20
-128.5713080190725
 30
0.0
 10
101.5214517975363
 20
-128.8293456709177
 30
0.0
  0
HATCH
  5
B0
330
A7
100
AcDbEntity
  8
_U+30EC_U+30A4_U+30E4_U+30FC 1
 62
   179
420
  2234388
100
AcDbHatch
 10
0.0
 20
0.0
 30
0.0
210
0.0
220
0.0
230
1.0
  2
SOLID
 70
     1
 71
     0
 91
        2
 92
        1
 93
        1
 72
     4
 94
        3
 73
     0
 74
     1
 95
       29
 96
       25
 40
0.0
 40
0.0
 40
0.0
 40
0.0
 40
1.0
 40
1.0
 40
1.0
 40
2.0
 40
2.0
 40
2.0
 40
3.0
 40
3.0
 40
3.0
 40
4.0
 40
4.0
 40
4.0
 40
5.0
 40
5.0
 40
5.0
 40
6.0
 40
6.0
 40
6.0
 40
7.0
 40
7.0
 40
7.0
 40
8.0
 40
8.0
 40
8.0
 40
8.0
 10
102.7441161852515
 20
-128.4314371423713
 10
102.9535779907547
 20
-128.5396131406082
 10
102.9725260159235
 20
-128.7129014435162
 10
102.9725260159235
 20
-128.8293456709177
 10
102.9725260159235
 20
-128.9902316300788
 10
102.9260172268727
 20
-129.1318250545226
 10
102.7441161852515
 20
-129.2269096899155
 10
102.5494682903349
 20
-129.3306070640215
 10
102.3124457209497
 20
-129.3495550891904
 10
102.1498372140459
 20
-129.3495550891904
 10
102.0058322227624
 20
-129.3495550891904
 10
101.7539957427907
 20
-129.3326741213127
 10
101.5552137332918
 20
-129.2269096899155
 10
101.3522976092105
 20
-129.1190782012272
 10
101.3288709599108
 20
-128.958192242066
 10
101.3288709599108
 20
-128.8293456709177
 10
101.3288709599108
 20
-128.6705267690477
 10
101.3733126916706
 20
-128.5268662873127
 10
101.5552137332918
 20
-128.4314371423713
 10
101.7477945709172
 20
-128.3322183923961
 10
101.9762044015893
 20
-128.3087917430964
 10
102.1498372140459
 20
-128.3087917430964
 10
102.3210584596628
 20
-128.3087917430964
 10
102.551535347626
 20
-128.330151335105
 10
102.7441161852515
 20
-128.4314371423713
 97
        0
 97
        0
 92
        1
 93
        1
 72
     4
 94
        3
 73
     0
 74
     1
 95
       17
 96
       13
 40
0.0
 40
0.0
 40
0.0
 40
0.0
 40
1.0
 40
1.0
 40
1.0
 40
2.0
 40
2.0
 40
2.0
 40
3.0
 40
3.0
 40
3.0
 40
4.0
 40
4.0
 40
4.0
 40
4.0
 10
101.5214517975363
 20
-128.8293456709177
 10
101.5214517975363
 20
-129.0787705840497
 10
101.8049831559724
 20
-129.1256238826492
 10
102.1498372140459
 20
-129.1256238826492
 10
102.4691975655285
 20
-129.1256238826492
 10
102.7778781210069
 20
-129.089450380054
 10
102.7778781210069
 20
-128.8293456709177
 10
102.7778781210069
 20
-128.5816433055282
 10
102.4967583294105
 20
-128.5330674591862
 10
102.1498372140459
 20
-128.5330674591862
 10
101.8301323530147
 20
-128.5330674591862
 10
101.5214517975363
 20
-128.5713080190725
 10
101.5214517975363
 20
-128.8293456709177
 97
        0
 97
        0
 75
     2
 76
     1
 98
        0
  0
SPLINE
  5
B1
330
A7
100
AcDbEntity
  8
_U+30EC_U+30A4_U+30E4_U+30FC 1
370
     0
100
AcDbSpline
210
0.0
220
0.0
230
1.0
 70
    11
 71
     3
 72
    17
 73
    13
 74
     0
 42
0.0000000001
 43
0.0000000001
 12
1.0
 22
0.0
 32
0.0
 13
1.0
 23
0.0
 33
0.0
 40
0.0
 40
0.0
 40
0.0
 40
0.0
 40
1.0
 40
1.0
 40
1.0
 40
2.0
 40
2.0
 40
2.0
 40
3.0
 40
3.0
 40
3.0
 40
4.0
 40
4.0
 40
4.0
 40
4.0
 10
102.1181423355816
 20
-127.6252847988228
 30
0.0
 10
102.2321749961434
 20
-127.6252847988228
 30
0.0
 10
102.323125516954
 20
-127.7183023769246
 30
0.0
 10
102.323125516954
 20
-127.8306124897437
 30
0.0
 10
102.323125516954
 20
-127.9446451503055
 30
0.0
 10
102.2301079388522
 20
-128.0355956711161
 30
0.0
 10
102.1181423355816
 20
-128.0355956711161
 30
0.0
 10
102.0037651654713
 20
-128.0355956711161
 30
0.0
 10
101.9128146446607
 20
-127.9425780930144
 30
0.0
 10
101.9128146446607
 20
-127.8306124897437
 30
0.0
 10
101.9128146446607
 20
-127.7203694342157
 30
0.0
 10
102.0016981081801
 20
-127.6252847988228
 30
0.0
 10
102.1181423355816
 20
-127.6252847988228
 30
0.0
  0
HATCH
  5
B2
330
A7
100
AcDbEntity
  8
_U+30EC_U+30A4_U+30E4_U+30FC 1
 62
   179
420
  2234388
100
AcDbHatch
 10
0.0
 20
0.0
 30
0.0
210
0.0
220
0.0
230
1.0
  2
SOLID
 70
     1
 71
     0
 91
        1
 92
        1
 93
        1
 72
     4
 94
        3
 73
     0
 74
     1
 95
       17
 96
       13
 40
0.0
 40
0.0
 40
0.0
 40
0.0
 40
1.0
 40
1.0
 40
1.0
 40
2.0
 40
2.0
 40
2.0
 40
3.0
 40
3.0
 40
3.0
 40
4.0
 40
4.0
 40
4.0
 40
4.0
 10
102.1181423355816
 20
-127.6252847988228
 10
102.2321749961434
 20
-127.6252847988228
 10
102.323125516954
 20
-127.7183023769246
 10
102.323125516954
 20
-127.8306124897437
 10
102.323125516954
 20
-127.9446451503055
 10
102.2301079388522
 20
-128.0355956711161
 10
102.1181423355816
 20
-128.0355956711161
 10
102.0037651654713
 20
-128.0355956711161
 10
101.9128146446607
 20
-127.9425780930144
 10
101.9128146446607
 20
-127.8306124897437
 10
101.9128146446607
 20
-127.7203694342157
 10
102.0016981081801
 20
-127.6252847988228
 10
102.1181423355816
 20
-127.6252847988228
 97
        0
 97
        0
 75
     2
 76
     1
 98
        0
  0
SPLINE
  5
B3
330
A7
100
AcDbEntity
  8
_U+30EC_U+30A4_U+30E4_U+30FC 1
370
     0
100
AcDbSpline
210
0.0
220
0.0
230
1.0
 70
    11
 71
     3
 72
    26
 73
    22
 74
     0
 42
0.0000000001
 43
0.0000000001
 12
1.0
 22
0.0
 32
0.0
 13
1.0
 23
0.0
 33
0.0
 40
0.0
 40
0.0
 40
0.0
 40
0.0
 40
1.0
 40
1.0
 40
1.0
 40
2.0
 40
2.0
 40
2.0
 40
3.0
 40
3.0
 40
3.0
 40
4.0
 40
4.0
 40
4.0
 40
5.0
 40
5.0
 40
5.0
 40
6.0
 40
6.0
 40
6.0
 40
7.0
 40
7.0
 40
7.0
 40
7.0
 10
102.9218831122904
 20
-126.9200737529922
 30
0.0
 10
102.9218831122904
 20
-126.9200737529922
 30
0.0
 10
102.9218831122904
 20
-127.1570963223774
 30
0.0
 10
102.9218831122904
 20
-127.1570963223774
 30
0.0
 10
102.6128580472635
 20
-127.1316026157865
 30
0.0
 10
102.0947156862819
 20
-126.9390217781611
 30
0.0
 10
101.5889756690472
 20
-126.5328450204501
 30
0.0
 10
101.5889756690472
 20
-126.5328450204501
 30
0.0
 10
101.5889756690472
 20
-127.3706922424629
 30
0.0
 10
101.5889756690472
 20
-127.3706922424629
 30
0.0
 10
101.5889756690472
 20
-127.3706922424629
 30
0.0
 10
101.3774468062529
 20
-127.3706922424629
 30
0.0
 10
101.3774468062529
 20
-127.3706922424629
 30
0.0
 10
101.3774468062529
 20
-127.3706922424629
 30
0.0
 10
101.3774468062529
 20
-126.2958224510649
 30
0.0
 10
101.3774468062529
 20
-126.2958224510649
 30
0.0
 10
101.3774468062529
 20
-126.2958224510649
 30
0.0
 10
101.5889756690472
 20
-126.2958224510649
 30
0.0
 10
101.5889756690472
 20
-126.2958224510649
 30
0.0
 10
101.8790527089052
 20
-126.6196614266784
 30
0.0
 10
102.4712646228197
 20
-126.8863118172368
 30
0.0
 10
102.9218831122904
 20
-126.9200737529922
 30
0.0
  0
HATCH
  5
B4
330
A7
100
AcDbEntity
  8
_U+30EC_U+30A4_U+30E4_U+30FC 1
 62
   179
420
  2234388
100
AcDbHatch
 10
0.0
 20
0.0
 30
0.0
210
0.0
220
0.0
230
1.0
  2
SOLID
 70
     1
 71
     0
 91
        1
 92
        1
 93
        1
 72
     4
 94
        3
 73
     0
 74
     1
 95
       26
 96
       22
 40
0.0
 40
0.0
 40
0.0
 40
0.0
 40
1.0
 40
1.0
 40
1.0
 40
2.0
 40
2.0
 40
2.0
 40
3.0
 40
3.0
 40
3.0
 40
4.0
 40
4.0
 40
4.0
 40
5.0
 40
5.0
 40
5.0
 40
6.0
 40
6.0
 40
6.0
 40
7.0
 40
7.0
 40
7.0
 40
7.0
 10
102.9218831122904
 20
-126.9200737529922
 10
102.9218831122904
 20
-126.9200737529922
 10
102.9218831122904
 20
-127.1570963223774
 10
102.9218831122904
 20
-127.1570963223774
 10
102.6128580472635
 20
-127.1316026157865
 10
102.0947156862819
 20
-126.9390217781611
 10
101.5889756690472
 20
-126.5328450204501
 10
101.5889756690472
 20
-126.5328450204501
 10
101.5889756690472
 20
-127.3706922424629
 10
101.5889756690472
 20
-127.3706922424629
 10
101.5889756690472
 20
-127.3706922424629
 10
101.3774468062529
 20
-127.3706922424629
 10
101.3774468062529
 20
-127.3706922424629
 10
101.3774468062529
 20
-127.3706922424629
 10
101.3774468062529
 20
-126.2958224510649
 10
101.3774468062529
 20
-126.2958224510649
 10
101.3774468062529
 20
-126.2958224510649
 10
101.5889756690472
 20
-126.2958224510649
 10
101.5889756690472
 20
-126.2958224510649
 10
101.8790527089052
 20
-126.6196614266784
 10
102.4712646228197
 20
-126.8863118172368
 10
102.9218831122904
 20
-126.9200737529922
 97
        0
 97
        0
 75
     2
 76
     1
 98
        0
  0
SPLINE
  5
B5
330
A7
100
AcDbEntity
  8
_U+30EC_U+30A4_U+30E4_U+30FC 1
370
     0
100
AcDbSpline
210
0.0
220
0.0
230
1.0
 70
    11
 71
     3
 72
    53
 73
    49
 74
     0
 42
0.0000000001
 43
0.0000000001
 12
1.0
 22
0.0
 32
0.0
 13
1.0
 23
0.0
 33
0.0
 40
0.0
 40
0.0
 40
0.0
 40
0.0
 40
1.0
 40
1.0
 40
1.0
 40
2.0
 40
2.0
 40
2.0
 40
3.0
 40
3.0
 40
3.0
 40
4.0
 40
4.0
 40
4.0
 40
5.0
 40
5.0
 40
5.0
 40
6.0
 40
6.0
 40
6.0
 40
7.0
 40
7.0
 40
7.0
 40
8.0
 40
8.0
 40
8.0
 40
9.0
 40
9.0
 40
9.0
 40
10.0
 40
10.0
 40
10.0
 40
11.0
 40
11.0
 40
11.0
 40
12.0
 40
12.0
 40
12.0
 40
13.0
 40
13.0
 40
13.0
 40
14.0
 40
14.0
 40
14.0
 40
15.0
 40
15.0
 40
15.0
 40
16.0
 40
16.0
 40
16.0
 40
16.0
 10
102.9725260159235
 20
-125.6732936968803
 30
0.0
 10
102.9725260159235
 20
-125.7514973643955
 30
0.0
 10
102.9556450480458
 20
-125.8531276812103
 30
0.0
 10
102.8922552911172
 20
-125.9547579980252
 30
0.0
 10
102.7823567451377
 20
-126.1280463009333
 30
0.0
 10
102.6510986071497
 20
-126.1494058929418
 30
0.0
 10
102.5432671184614
 20
-126.1683539181107
 30
0.0
 10
102.5432671184614
 20
-126.1683539181107
 30
0.0
 10
102.5432671184614
 20
-125.9461452593121
 30
0.0
 10
102.5432671184614
 20
-125.9461452593121
 30
0.0
 10
102.7420491279603
 20
-125.8913682410966
 30
0.0
 10
102.7716769491335
 20
-125.7642442176909
 30
0.0
 10
102.7716769491335
 20
-125.6712266395892
 30
0.0
 10
102.7716769491335
 20
-125.5317002724365
 30
0.0
 10
102.6721136896098
 20
-125.3794270519885
 30
0.0
 10
102.4395697443554
 20
-125.3794270519885
 30
0.0
 10
102.1835991498013
 20
-125.3794270519885
 30
0.0
 10
102.1136637114508
 20
-125.5592610363185
 30
0.0
 10
102.1136637114508
 20
-125.6798393783023
 30
0.0
 10
102.1136637114508
 20
-125.7115342567666
 30
0.0
 10
102.1136637114508
 20
-125.8531276812103
 30
0.0
 10
102.2428547921476
 20
-125.9420111447298
 30
0.0
 10
102.2428547921476
 20
-125.9420111447298
 30
0.0
 10
102.2239067669787
 20
-126.1177110144775
 30
0.0
 10
102.2239067669787
 20
-126.1177110144775
 30
0.0
 10
102.2239067669787
 20
-126.1177110144775
 30
0.0
 10
101.3774468062529
 20
-125.9971326724938
 30
0.0
 10
101.3774468062529
 20
-125.9971326724938
 30
0.0
 10
101.3774468062529
 20
-125.9971326724938
 30
0.0
 10
101.3774468062529
 20
-125.2185410928273
 30
0.0
 10
101.3774468062529
 20
-125.2185410928273
 30
0.0
 10
101.3774468062529
 20
-125.2185410928273
 30
0.0
 10
101.5720947011695
 20
-125.2185410928273
 30
0.0
 10
101.5720947011695
 20
-125.2185410928273
 30
0.0
 10
101.5720947011695
 20
-125.2185410928273
 30
0.0
 10
101.5720947011695
 20
-125.8341796560415
 30
0.0
 10
101.5720947011695
 20
-125.8341796560415
 30
0.0
 10
101.5720947011695
 20
-125.8341796560415
 30
0.0
 10
101.9951524267582
 20
-125.8996364702612
 30
0.0
 10
101.9951524267582
 20
-125.8996364702612
 30
0.0
 10
101.9613904910027
 20
-125.8383137706238
 30
0.0
 10
101.9210828738253
 20
-125.7559759885263
 30
0.0
 10
101.9210828738253
 20
-125.6374647038337
 30
0.0
 10
101.9210828738253
 20
-125.3835611665708
 30
0.0
 10
102.1074625395773
 20
-125.1465385971856
 30
0.0
 10
102.4206217191865
 20
-125.1465385971856
 30
0.0
 10
102.737915013378
 20
-125.1465385971856
 30
0.0
 10
102.9725260159235
 20
-125.3708143132754
 30
0.0
 10
102.9725260159235
 20
-125.6732936968803
 30
0.0
  0
HATCH
  5
B6
330
A7
100
AcDbEntity
  8
_U+30EC_U+30A4_U+30E4_U+30FC 1
 62
   179
420
  2234388
100
AcDbHatch
 10
0.0
 20
0.0
 30
0.0
210
0.0
220
0.0
230
1.0
  2
SOLID
 70
     1
 71
     0
 91
        1
 92
        1
 93
        1
 72
     4
 94
        3
 73
     0
 74
     1
 95
       53
 96
       49
 40
0.0
 40
0.0
 40
0.0
 40
0.0
 40
1.0
 40
1.0
 40
1.0
 40
2.0
 40
2.0
 40
2.0
 40
3.0
 40
3.0
 40
3.0
 40
4.0
 40
4.0
 40
4.0
 40
5.0
 40
5.0
 40
5.0
 40
6.0
 40
6.0
 40
6.0
 40
7.0
 40
7.0
 40
7.0
 40
8.0
 40
8.0
 40
8.0
 40
9.0
 40
9.0
 40
9.0
 40
10.0
 40
10.0
 40
10.0
 40
11.0
 40
11.0
 40
11.0
 40
12.0
 40
12.0
 40
12.0
 40
13.0
 40
13.0
 40
13.0
 40
14.0
 40
14.0
 40
14.0
 40
15.0
 40
15.0
 40
15.0
 40
16.0
 40
16.0
 40
16.0
 40
16.0
 10
102.9725260159235
 20
-125.6732936968803
 10
102.9725260159235
 20
-125.7514973643955
 10
102.9556450480458
 20
-125.8531276812103
 10
102.8922552911172
 20
-125.9547579980252
 10
102.7823567451377
 20
-126.1280463009333
 10
102.6510986071497
 20
-126.1494058929418
 10
102.5432671184614
 20
-126.1683539181107
 10
102.5432671184614
 20
-126.1683539181107
 10
102.5432671184614
 20
-125.9461452593121
 10
102.5432671184614
 20
-125.9461452593121
 10
102.7420491279603
 20
-125.8913682410966
 10
102.7716769491335
 20
-125.7642442176909
 10
102.7716769491335
 20
-125.6712266395892
 10
102.7716769491335
 20
-125.5317002724365
 10
102.6721136896098
 20
-125.3794270519885
 10
102.4395697443554
 20
-125.3794270519885
 10
102.1835991498013
 20
-125.3794270519885
 10
102.1136637114508
 20
-125.5592610363185
 10
102.1136637114508
 20
-125.6798393783023
 10
102.1136637114508
 20
-125.7115342567666
 10
102.1136637114508
 20
-125.8531276812103
 10
102.2428547921476
 20
-125.9420111447298
 10
102.2428547921476
 20
-125.9420111447298
 10
102.2239067669787
 20
-126.1177110144775
 10
102.2239067669787
 20
-126.1177110144775
 10
102.2239067669787
 20
-126.1177110144775
 10
101.3774468062529
 20
-125.9971326724938
 10
101.3774468062529
 20
-125.9971326724938
 10
101.3774468062529
 20
-125.9971326724938
 10
101.3774468062529
 20
-125.2185410928273
 10
101.3774468062529
 20
-125.2185410928273
 10
101.3774468062529
 20
-125.2185410928273
 10
101.5720947011695
 20
-125.2185410928273
 10
101.5720947011695
 20
-125.2185410928273
 10
101.5720947011695
 20
-125.2185410928273
 10
101.5720947011695
 20
-125.8341796560415
 10
101.5720947011695
 20
-125.8341796560415
 10
101.5720947011695
 20
-125.8341796560415
 10
101.9951524267582
 20
-125.8996364702612
 10
101.9951524267582
 20
-125.8996364702612
 10
101.9613904910027
 20
-125.8383137706238
 10
101.9210828738253
 20
-125.7559759885263
 10
101.9210828738253
 20
-125.6374647038337
 10
101.9210828738253
 20
-125.3835611665708
 10
102.1074625395773
 20
-125.1465385971856
 10
102.4206217191865
 20
-125.1465385971856
 10
102.737915013378
 20
-125.1465385971856
 10
102.9725260159235
 20
-125.3708143132754
 10
102.9725260159235
 20
-125.6732936968803
 97
        0
 97
        0
 75
     2
 76
     1
 98
        0
  0
SPLINE
  5
B7
330
A7
100
AcDbEntity
  8
_U+30EC_U+30A4_U+30E4_U+30FC 1
370
     0
100
AcDbSpline
210
0.0
220
0.0
230
1.0
 70
    11
 71
     3
 72
    17
 73
    13
 74
     0
 42
0.0000000001
 43
0.0000000001
 12
1.0
 22
0.0
 32
0.0
 13
1.0
 23
0.0
 33
0.0
 40
0.0
 40
0.0
 40
0.0
 40
0.0
 40
1.0
 40
1.0
 40
1.0
 40
2.0
 40
2.0
 40
2.0
 40
3.0
 40
3.0
 40
3.0
 40
4.0
 40
4.0
 40
4.0
 40
4.0
 10
102.1181423355816
 20
-124.4502847996166
 30
0.0
 10
102.2321749961434
 20
-124.4502847996166
 30
0.0
 10
102.323125516954
 20
-124.5433023777183
 30
0.0
 10
102.323125516954
 20
-124.6556124905375
 30
0.0
 10
102.323125516954
 20
-124.7696451510993
 30
0.0
 10
102.2301079388522
 20
-124.8605956719099
 30
0.0
 10
102.1181423355816
 20
-124.8605956719099
 30
0.0
 10
102.0037651654713
 20
-124.8605956719099
 30
0.0
 10
101.9128146446607
 20
-124.7675780938081
 30
0.0
 10
101.9128146446607
 20
-124.6556124905375
 30
0.0
 10
101.9128146446607
 20
-124.5453694350095
 30
0.0
 10
102.0016981081801
 20
-124.4502847996166
 30
0.0
 10
102.1181423355816
 20
-124.4502847996166
 30
0.0
  0
HATCH
  5
B8
330
A7
100
AcDbEntity
  8
_U+30EC_U+30A4_U+30E4_U+30FC 1
 62
   179
420
  2234388
100
AcDbHatch
 10
0.0
 20
0.0
 30
0.0
210
0.0
220
0.0
230
1.0
  2
SOLID
 70
     1
 71
     0
 91
        1
 92
        1
 93
        1
 72
     4
 94
        3
 73
     0
 74
     1
 95
       17
 96
       13
 40
0.0
 40
0.0
 40
0.0
 40
0.0
 40
1.0
 40
1.0
 40
1.0
 40
2.0
 40
2.0
 40
2.0
 40
3.0
 40
3.0
 40
3.0
 40
4.0
 40
4.0
 40
4.0
 40
4.0
 10
102.1181423355816
 20
-124.4502847996166
 10
102.2321749961434
 20
-124.4502847996166
 10
102.323125516954
 20
-124.5433023777183
 10
102.323125516954
 20
-124.6556124905375
 10
102.323125516954
 20
-124.7696451510993
 10
102.2301079388522
 20
-124.8605956719099
 10
102.1181423355816
 20
-124.8605956719099
 10
102.0037651654713
 20
-124.8605956719099
 10
101.9128146446607
 20
-124.7675780938081
 10
101.9128146446607
 20
-124.6556124905375
 10
101.9128146446607
 20
-124.5453694350095
 10
102.0016981081801
 20
-124.4502847996166
 10
102.1181423355816
 20
-124.4502847996166
 97
        0
 97
        0
 75
     2
 76
     1
 98
        0
  0
SPLINE
  5
B9
330
A7
100
AcDbEntity
  8
_U+30EC_U+30A4_U+30E4_U+30FC 1
370
     0
100
AcDbSpline
210
0.0
220
0.0
230
1.0
 70
    11
 71
     3
 72
    32
 73
    28
 74
     0
 42
0.0000000001
 43
0.0000000001
 12
1.0
 22
0.0
 32
0.0
 13
1.0
 23
0.0
 33
0.0
 40
0.0
 40
0.0
 40
0.0
 40
0.0
 40
1.0
 40
1.0
 40
1.0
 40
2.0
 40
2.0
 40
2.0
 40
3.0
 40
3.0
 40
3.0
 40
4.0
 40
4.0
 40
4.0
 40
5.0
 40
5.0
 40
5.0
 40
6.0
 40
6.0
 40
6.0
 40
7.0
 40
7.0
 40
7.0
 40
8.0
 40
8.0
 40
8.0
 40
9.0
 40
9.0
 40
9.0
 40
9.0
 10
102.9725260159235
 20
-123.6985649647351
 30
0.0
 10
102.9725260159235
 20
-123.8718532676431
 30
0.0
 10
102.9029350871215
 20
-124.1174885757415
 30
0.0
 10
102.5708278823434
 20
-124.1553846260792
 30
0.0
 10
102.5708278823434
 20
-124.1553846260792
 30
0.0
 10
102.5708278823434
 20
-123.9417887059937
 30
0.0
 10
102.5708278823434
 20
-123.9417887059937
 30
0.0
 10
102.6300835246897
 20
-123.9311089099894
 30
0.0
 10
102.7778781210069
 20
-123.8994140315252
 30
0.0
 10
102.7778781210069
 20
-123.6964979074439
 30
0.0
 10
102.7778781210069
 20
-123.4043538102948
 30
0.0
 10
102.4481824830685
 20
-123.366457759957
 30
0.0
 10
102.2428547921476
 20
-123.3537109066616
 30
0.0
 10
102.323125516954
 20
-123.4446614274722
 30
0.0
 10
102.3803141020091
 20
-123.5121852989831
 30
0.0
 10
102.3803141020091
 20
-123.6940863406043
 30
0.0
 10
102.3803141020091
 20
-123.8739203249343
 30
0.0
 10
102.2745496706119
 20
-124.1763997085392
 30
0.0
 10
101.868372912901
 20
-124.1763997085392
 30
0.0
 10
101.5490125614183
 20
-124.1763997085392
 30
0.0
 10
101.3288709599108
 20
-123.9776176990403
 30
0.0
 10
101.3288709599108
 20
-123.6603244048488
 30
0.0
 10
101.3288709599108
 20
-123.1463161584495
 30
0.0
 10
101.8831868234875
 20
-123.1356363624453
 30
0.0
 10
102.096782743573
 20
-123.1356363624453
 30
0.0
 10
102.3272596315363
 20
-123.1356363624453
 30
0.0
 10
102.9725260159235
 20
-123.1549288971627
 30
0.0
 10
102.9725260159235
 20
-123.6985649647351
 30
0.0
  0
SPLINE
  5
BA
330
A7
100
AcDbEntity
  8
_U+30EC_U+30A4_U+30E4_U+30FC 1
370
     0
100
AcDbSpline
210
0.0
220
0.0
230
1.0
 70
    11
 71
     3
 72
    17
 73
    13
 74
     0
 42
0.0000000001
 43
0.0000000001
 12
1.0
 22
0.0
 32
0.0
 13
1.0
 23
0.0
 33
0.0
 40
0.0
 40
0.0
 40
0.0
 40
0.0
 40
1.0
 40
1.0
 40
1.0
 40
2.0
 40
2.0
 40
2.0
 40
3.0
 40
3.0
 40
3.0
 40
4.0
 40
4.0
 40
4.0
 40
4.0
 10
101.5214517975363
 20
-123.6582573475577
 30
0.0
 10
101.5214517975363
 20
-123.7767686322503
 30
0.0
 10
101.5786403825915
 20
-123.952468501998
 30
0.0
 10
101.8642387983187
 20
-123.952468501998
 30
0.0
 10
102.0905815716996
 20
-123.952468501998
 30
0.0
 10
102.1856662070925
 20
-123.8125976252969
 30
0.0
 10
102.1856662070925
 20
-123.6772053727265
 30
0.0
 10
102.1856662070925
 20
-123.415033606299
 30
0.0
 10
101.9762044015893
 20
-123.3767930464128
 30
0.0
 10
101.8597601741878
 20
-123.3767930464128
 30
0.0
 10
101.6844048139886
 20
-123.3767930464128
 30
0.0
 10
101.5214517975363
 20
-123.4722221913542
 30
0.0
 10
101.5214517975363
 20
-123.6582573475577
 30
0.0
  0
HATCH
  5
BB
330
A7
100
AcDbEntity
  8
_U+30EC_U+30A4_U+30E4_U+30FC 1
 62
   179
420
  2234388
100
AcDbHatch
 10
0.0
 20
0.0
 30
0.0
210
0.0
220
0.0
230
1.0
  2
SOLID
 70
     1
 71
     0
 91
        2
 92
        1
 93
        1
 72
     4
 94
        3
 73
     0
 74
     1
 95
       32
 96
       28
 40
0.0
 40
0.0
 40
0.0
 40
0.0
 40
1.0
 40
1.0
 40
1.0
 40
2.0
 40
2.0
 40
2.0
 40
3.0
 40
3.0
 40
3.0
 40
4.0
 40
4.0
 40
4.0
 40
5.0
 40
5.0
 40
5.0
 40
6.0
 40
6.0
 40
6.0
 40
7.0
 40
7.0
 40
7.0
 40
8.0
 40
8.0
 40
8.0
 40
9.0
 40
9.0
 40
9.0
 40
9.0
 10
102.9725260159235
 20
-123.6985649647351
 10
102.9725260159235
 20
-123.8718532676431
 10
102.9029350871215
 20
-124.1174885757415
 10
102.5708278823434
 20
-124.1553846260792
 10
102.5708278823434
 20
-124.1553846260792
 10
102.5708278823434
 20
-123.9417887059937
 10
102.5708278823434
 20
-123.9417887059937
 10
102.6300835246897
 20
-123.9311089099894
 10
102.7778781210069
 20
-123.8994140315252
 10
102.7778781210069
 20
-123.6964979074439
 10
102.7778781210069
 20
-123.4043538102948
 10
102.4481824830685
 20
-123.366457759957
 10
102.2428547921476
 20
-123.3537109066616
 10
102.323125516954
 20
-123.4446614274722
 10
102.3803141020091
 20
-123.5121852989831
 10
102.3803141020091
 20
-123.6940863406043
 10
102.3803141020091
 20
-123.8739203249343
 10
102.2745496706119
 20
-124.1763997085392
 10
101.868372912901
 20
-124.1763997085392
 10
101.5490125614183
 20
-124.1763997085392
 10
101.3288709599108
 20
-123.9776176990403
 10
101.3288709599108
 20
-123.6603244048488
 10
101.3288709599108
 20
-123.1463161584495
 10
101.8831868234875
 20
-123.1356363624453
 10
102.096782743573
 20
-123.1356363624453
 10
102.3272596315363
 20
-123.1356363624453
 10
102.9725260159235
 20
-123.1549288971627
 10
102.9725260159235
 20
-123.6985649647351
 97
        0
 97
        0
 92
        1
 93
        1
 72
     4
 94
        3
 73
     0
 74
     1
 95
       17
 96
       13
 40
0.0
 40
0.0
 40
0.0
 40
0.0
 40
1.0
 40
1.0
 40
1.0
 40
2.0
 40
2.0
 40
2.0
 40
3.0
 40
3.0
 40
3.0
 40
4.0
 40
4.0
 40
4.0
 40
4.0
 10
101.5214517975363
 20
-123.6582573475577
 10
101.5214517975363
 20
-123.7767686322503
 10
101.5786403825915
 20
-123.952468501998
 10
101.8642387983187
 20
-123.952468501998
 10
102.0905815716996
 20
-123.952468501998
 10
102.1856662070925
 20
-123.8125976252969
 10
102.1856662070925
 20
-123.6772053727265
 10
102.1856662070925
 20
-123.415033606299
 10
101.9762044015893
 20
-123.3767930464128
 10
101.8597601741878
 20
-123.3767930464128
 10
101.6844048139886
 20
-123.3767930464128
 10
101.5214517975363
 20
-123.4722221913542
 10
101.5214517975363
 20
-123.6582573475577
 97
        0
 97
        0
 75
     2
 76
     1
 98
        0
  0
SPLINE
  5
BC
330
A7
100
AcDbEntity
  8
_U+30EC_U+30A4_U+30E4_U+30FC 1
370
     0
100
AcDbSpline
210
0.0
220
0.0
230
1.0
 70
    11
 71
     3
 72
    29
 73
    25
 74
     0
 42
0.0000000001
 43
0.0000000001
 12
1.0
 22
0.0
 32
0.0
 13
1.0
 23
0.0
 33
0.0
 40
0.0
 40
0.0
 40
0.0
 40
0.0
 40
1.0
 40
1.0
 40
1.0
 40
2.0
 40
2.0
 40
2.0
 40
3.0
 40
3.0
 40
3.0
 40
4.0
 40
4.0
 40
4.0
 40
5.0
 40
5.0
 40
5.0
 40
6.0
 40
6.0
 40
6.0
 40
7.0
 40
7.0
 40
7.0
 40
8.0
 40
8.0
 40
8.0
 40
8.0
 10
102.7441161852515
 20
-122.0814371439588
 30
0.0
 10
102.9535779907547
 20
-122.1896131421957
 30
0.0
 10
102.9725260159235
 20
-122.3629014451037
 30
0.0
 10
102.9725260159235
 20
-122.4793456725052
 30
0.0
 10
102.9725260159235
 20
-122.6402316316663
 30
0.0
 10
102.9260172268727
 20
-122.7818250561101
 30
0.0
 10
102.7441161852515
 20
-122.876909691503
 30
0.0
 10
102.5494682903349
 20
-122.980607065609
 30
0.0
 10
102.3124457209497
 20
-122.9995550907779
 30
0.0
 10
102.1498372140459
 20
-122.9995550907779
 30
0.0
 10
102.0058322227624
 20
-122.9995550907779
 30
0.0
 10
101.7539957427907
 20
-122.9826741229002
 30
0.0
 10
101.5552137332918
 20
-122.876909691503
 30
0.0
 10
101.3522976092105
 20
-122.7690782028147
 30
0.0
 10
101.3288709599108
 20
-122.6081922436535
 30
0.0
 10
101.3288709599108
 20
-122.4793456725052
 30
0.0
 10
101.3288709599108
 20
-122.3205267706352
 30
0.0
 10
101.3733126916706
 20
-122.1768662889002
 30
0.0
 10
101.5552137332918
 20
-122.0814371439588
 30
0.0
 10
101.7477945709172
 20
-121.9822183939836
 30
0.0
 10
101.9762044015893
 20
-121.9587917446839
 30
0.0
 10
102.1498372140459
 20
-121.9587917446839
 30
0.0
 10
102.3210584596628
 20
-121.9587917446839
 30
0.0
 10
102.551535347626
 20
-121.9801513366925
 30
0.0
 10
102.7441161852515
 20
-122.0814371439588
 30
0.0
  0
SPLINE
  5
BD
330
A7
100
AcDbEntity
  8
_U+30EC_U+30A4_U+30E4_U+30FC 1
370
     0
100
AcDbSpline
210
0.0
220
0.0
230
1.0
 70
    11
 71
     3
 72
    17
 73
    13
 74
     0
 42
0.0000000001
 43
0.0000000001
 12
1.0
 22
0.0
 32
0.0
 13
1.0
 23
0.0
 33
0.0
 40
0.0
 40
0.0
 40
0.0
 40
0.0
 40
1.0
 40
1.0
 40
1.0
 40
2.0
 40
2.0
 40
2.0
 40
3.0
 40
3.0
 40
3.0
 40
4.0
 40
4.0
 40
4.0
 40
4.0
 10
101.5214517975363
 20
-122.4793456725052
 30
0.0
 10
101.5214517975363
 20
-122.7287705856373
 30
0.0
 10
101.8049831559724
 20
-122.7756238842367
 30
0.0
 10
102.1498372140459
 20
-122.7756238842367
 30
0.0
 10
102.4691975655285
 20
-122.7756238842367
 30
0.0
 10
102.7778781210069
 20
-122.7394503816415
 30
0.0
 10
102.7778781210069
 20
-122.4793456725052
 30
0.0
 10
102.7778781210069
 20
-122.2316433071157
 30
0.0
 10
102.4967583294105
 20
-122.1830674607737
 30
0.0
 10
102.1498372140459
 20
-122.1830674607737
 30
0.0
 10
101.8301323530147
 20
-122.1830674607737
 30
0.0
 10
101.5214517975363
 20
-122.22130802066
 30
0.0
 10
101.5214517975363
 20
-122.4793456725052
 30
0.0
  0
HATCH
  5
BE
330
A7
100
AcDbEntity
  8
_U+30EC_U+30A4_U+30E4_U+30FC 1
 62
   179
420
  2234388
100
AcDbHatch
 10
0.0
 20
0.0
 30
0.0
210
0.0
220
0.0
230
1.0
  2
SOLID
 70
     1
 71
     0
 91
        2
 92
        1
 93
        1
 72
     4
 94
        3
 73
     0
 74
     1
 95
       29
 96
       25
 40
0.0
 40
0.0
 40
0.0
 40
0.0
 40
1.0
 40
1.0
 40
1.0
 40
2.0
 40
2.0
 40
2.0
 40
3.0
 40
3.0
 40
3.0
 40
4.0
 40
4.0
 40
4.0
 40
5.0
 40
5.0
 40
5.0
 40
6.0
 40
6.0
 40
6.0
 40
7.0
 40
7.0
 40
7.0
 40
8.0
 40
8.0
 40
8.0
 40
8.0
 10
102.7441161852515
 20
-122.0814371439588
 10
102.9535779907547
 20
-122.1896131421957
 10
102.9725260159235
 20
-122.3629014451037
 10
102.9725260159235
 20
-122.4793456725052
 10
102.9725260159235
 20
-122.6402316316663
 10
102.9260172268727
 20
-122.7818250561101
 10
102.7441161852515
 20
-122.876909691503
 10
102.5494682903349
 20
-122.980607065609
 10
102.3124457209497
 20
-122.9995550907779
 10
102.1498372140459
 20
-122.9995550907779
 10
102.0058322227624
 20
-122.9995550907779
 10
101.7539957427907
 20
-122.9826741229002
 10
101.5552137332918
 20
-122.876909691503
 10
101.3522976092105
 20
-122.7690782028147
 10
101.3288709599108
 20
-122.6081922436535
 10
101.3288709599108
 20
-122.4793456725052
 10
101.3288709599108
 20
-122.3205267706352
 10
101.3733126916706
 20
-122.1768662889002
 10
101.5552137332918
 20
-122.0814371439588
 10
101.7477945709172
 20
-121.9822183939836
 10
101.9762044015893
 20
-121.9587917446839
 10
102.1498372140459
 20
-121.9587917446839
 10
102.3210584596628
 20
-121.9587917446839
 10
102.551535347626
 20
-121.9801513366925
 10
102.7441161852515
 20
-122.0814371439588
 97
        0
 97
        0
 92
        1
 93
        1
 72
     4
 94
        3
 73
     0
 74
     1
 95
       17
 96
       13
 40
0.0
 40
0.0
 40
0.0
 40
0.0
 40
1.0
 40
1.0
 40
1.0
 40
2.0
 40
2.0
 40
2.0
 40
3.0
 40
3.0
 40
3.0
 40
4.0
 40
4.0
 40
4.0
 40
4.0
 10
101.5214517975363
 20
-122.4793456725052
 10
101.5214517975363
 20
-122.7287705856373
 10
101.8049831559724
 20
-122.7756238842367
 10
102.1498372140459
 20
-122.7756238842367
 10
102.4691975655285
 20
-122.7756238842367
 10
102.7778781210069
 20
-122.7394503816415
 10
102.7778781210069
 20
-122.4793456725052
 10
102.7778781210069
 20
-122.2316433071157
 10
102.4967583294105
 20
-122.1830674607737
 10
102.1498372140459
 20
-122.1830674607737
 10
101.8301323530147
 20
-122.1830674607737
 10
101.5214517975363
 20
-122.22130802066
 10
101.5214517975363
 20
-122.4793456725052
 97
        0
 97
        0
 75
     2
 76
     1
 98
        0
  0
ENDBLK
  5
AA
330
A7
100
AcDbEntity
  8
0
100
AcDbBlockEnd
  0
BLOCK
  5
D4
330
D2
100
AcDbEntity
  8
0
100
AcDbBlockBegin
  2
block 4
 70
     0
 10
0.0
 20
0.0
 30
0.0
  3
block 4
  1

  0
SPLINE
  5
D6
330
D2
100
AcDbEntity
  8
_U+30EC_U+30A4_U+30E4_U+30FC 1
370
     0
100
AcDbSpline
210
0.0
220
0.0
230
1.0
 70
    11
 71
     3
 72
    26
 73
    22
 74
     0
 42
0.0000000001
 43
0.0000000001
 12
1.0
 22
0.0
 32
0.0
 13
1.0
 23
0.0
 33
0.0
 40
0.0
 40
0.0
 40
0.0
 40
0.0
 40
1.0
 40
1.0
 40
1.0
 40
2.0
 40
2.0
 40
2.0
 40
3.0
 40
3.0
 40
3.0
 40
4.0
 40
4.0
 40
4.0
 40
5.0
 40
5.0
 40
5.0
 40
6.0
 40
6.0
 40
6.0
 40
7.0
 40
7.0
 40
7.0
 40
7.0
 10
79.48662107387835
 20
-142.6775959929764
 30
0.0
 10
79.48662107387835
 20
-142.6775959929764
 30
0.0
 10
79.48662107387835
 20
-141.5734428899539
 30
0.0
 10
79.48662107387835
 20
-141.5734428899539
 30
0.0
 10
79.48662107387835
 20
-141.5734428899539
 30
0.0
 10
79.15658092639141
 20
-141.5734428899539
 30
0.0
 10
79.15658092639141
 20
-141.5734428899539
 30
0.0
 10
79.15658092639141
 20
-141.5734428899539
 30
0.0
 10
79.15658092639141
 20
-141.4253037840881
 30
0.0
 10
79.15658092639141
 20
-141.4253037840881
 30
0.0
 10
79.4886881311695
 20
-141.4104898735015
 30
0.0
 10
79.53519692022037
 20
-141.2475368570492
 30
0.0
 10
79.56482474139352
 20
-141.1331596869389
 30
0.0
 10
79.56482474139352
 20
-141.1331596869389
 30
0.0
 10
79.71089678996812
 20
-141.1331596869389
 30
0.0
 10
79.71089678996812
 20
-141.1331596869389
 30
0.0
 10
79.71089678996812
 20
-141.1331596869389
 30
0.0
 10
79.71089678996812
 20
-142.6775959929764
 30
0.0
 10
79.71089678996812
 20
-142.6775959929764
 30
0.0
 10
79.71089678996812
 20
-142.6775959929764
 30
0.0
 10
79.48662107387835
 20
-142.6775959929764
 30
0.0
 10
79.48662107387835
 20
-142.6775959929764
 30
0.0
  0
HATCH
  5
D7
330
D2
100
AcDbEntity
  8
_U+30EC_U+30A4_U+30E4_U+30FC 1
 62
   179
420
  2234388
100
AcDbHatch
 10
0.0
 20
0.0
 30
0.0
210
0.0
220
0.0
230
1.0
  2
SOLID
 70
     1
 71
     0
 91
        1
 92
        1
 93
        1
 72
     4
 94
        3
 73
     0
 74
     1
 95
       26
 96
       22
 40
0.0
 40
0.0
 40
0.0
 40
0.0
 40
1.0
 40
1.0
 40
1.0
 40
2.0
 40
2.0
 40
2.0
 40
3.0
 40
3.0
 40
3.0
 40
4.0
 40
4.0
 40
4.0
 40
5.0
 40
5.0
 40
5.0
 40
6.0
 40
6.0
 40
6.0
 40
7.0
 40
7.0
 40
7.0
 40
7.0
 10
79.48662107387835
 20
-142.6775959929764
 10
79.48662107387835
 20
-142.6775959929764
 10
79.48662107387835
 20
-141.5734428899539
 10
79.48662107387835
 20
-141.5734428899539
 10
79.48662107387835
 20
-141.5734428899539
 10
79.15658092639141
 20
-141.5734428899539
 10
79.15658092639141
 20
-141.5734428899539
 10
79.15658092639141
 20
-141.5734428899539
 10
79.15658092639141
 20
-141.4253037840881
 10
79.15658092639141
 20
-141.4253037840881
 10
79.4886881311695
 20
-141.4104898735015
 10
79.53519692022037
 20
-141.2475368570492
 10
79.56482474139352
 20
-141.1331596869389
 10
79.56482474139352
 20
-141.1331596869389
 10
79.71089678996812
 20
-141.1331596869389
 10
79.71089678996812
 20
-141.1331596869389
 10
79.71089678996812
 20
-141.1331596869389
 10
79.71089678996812
 20
-142.6775959929764
 10
79.71089678996812
 20
-142.6775959929764
 10
79.71089678996812
 20
-142.6775959929764
 10
79.48662107387835
 20
-142.6775959929764
 10
79.48662107387835
 20
-142.6775959929764
 97
        0
 97
        0
 75
     2
 76
     1
 98
        0
  0
POLYLINE
  5
D8
330
D2
100
AcDbEntity
  8
_U+30EC_U+30A4_U+30E4_U+30FC 1
370
     0
100
AcDb2dPolyline
 66
     1
 10
0.0
 20
0.0
 30
0.0
  0
VERTEX
  5
D9
330
D8
100
AcDbEntity
  8
_U+30EC_U+30A4_U+30E4_U+30FC 1
370
     0
100
AcDbVertex
100
AcDb2dVertex
 10
80.27210284451532
 20
-142.6775959929764
 30
0.0
  0
VERTEX
  5
DA
330
D8
100
AcDbEntity
  8
_U+30EC_U+30A4_U+30E4_U+30FC 1
370
     0
100
AcDbVertex
100
AcDb2dVertex
 10
80.27210284451532
 20
-142.4257595130047
 30
0.0
  0
VERTEX
  5
DB
330
D8
100
AcDbEntity
  8
_U+30EC_U+30A4_U+30E4_U+30FC 1
370
     0
100
AcDbVertex
100
AcDb2dVertex
 10
80.52393932448707
 20
-142.4257595130047
 30
0.0
  0
VERTEX
  5
DC
330
D8
100
AcDbEntity
  8
_U+30EC_U+30A4_U+30E4_U+30FC 1
370
     0
100
AcDbVertex
100
AcDb2dVertex
 10
80.52393932448707
 20
-142.6775959929764
 30
0.0
  0
VERTEX
  5
DD
330
D8
100
AcDbEntity
  8
_U+30EC_U+30A4_U+30E4_U+30FC 1
370
     0
100
AcDbVertex
100
AcDb2dVertex
 10
80.27210284451532
 20
-142.6775959929764
 30
0.0
  0
SEQEND
  5
DE
330
D8
100
AcDbEntity
  8
_U+30EC_U+30A4_U+30E4_U+30FC 1
370
     0
  0
HATCH
  5
DF
330
D2
100
AcDbEntity
  8
_U+30EC_U+30A4_U+30E4_U+30FC 1
 62
   179
420
  2234388
100
AcDbHatch
 10
0.0
 20
0.0
 30
0.0
210
0.0
220
0.0
230
1.0
  2
SOLID
 70
     1
 71
     0
 91
        1
 92
        1
 93
        4
 72
     1
 10
80.27210284451532
 20
-142.6775959929764
 11
80.27210284451532
 21
-142.4257595130047
 72
     1
 10
80.27210284451532
 20
-142.4257595130047
 11
80.52393932448707
 21
-142.4257595130047
 72
     1
 10
80.52393932448707
 20
-142.4257595130047
 11
80.52393932448707
 21
-142.6775959929764
 72
     1
 10
80.52393932448707
 20
-142.6775959929764
 11
80.27210284451532
 21
-142.6775959929764
 97
        0
 75
     2
 76
     1
 98
        0
  0
SPLINE
  5
E0
330
D2
100
AcDbEntity
  8
_U+30EC_U+30A4_U+30E4_U+30FC 1
370
     0
100
AcDbSpline
210
0.0
220
0.0
230
1.0
 70
    11
 71
     3
 72
    53
 73
    49
 74
     0
 42
0.0000000001
 43
0.0000000001
 12
1.0
 22
0.0
 32
0.0
 13
1.0
 23
0.0
 33
0.0
 40
0.0
 40
0.0
 40
0.0
 40
0.0
 40
1.0
 40
1.0
 40
1.0
 40
2.0
 40
2.0
 40
2.0
 40
3.0
 40
3.0
 40
3.0
 40
4.0
 40
4.0
 40
4.0
 40
5.0
 40
5.0
 40
5.0
 40
6.0
 40
6.0
 40
6.0
 40
7.0
 40
7.0
 40
7.0
 40
8.0
 40
8.0
 40
8.0
 40
9.0
 40
9.0
 40
9.0
 40
10.0
 40
10.0
 40
10.0
 40
11.0
 40
11.0
 40
11.0
 40
12.0
 40
12.0
 40
12.0
 40
13.0
 40
13.0
 40
13.0
 40
14.0
 40
14.0
 40
14.0
 40
15.0
 40
15.0
 40
15.0
 40
16.0
 40
16.0
 40
16.0
 40
16.0
 10
81.24120820451608
 20
-142.7282388966096
 30
0.0
 10
81.16300453700092
 20
-142.7282388966096
 30
0.0
 10
81.06137422018605
 20
-142.7113579287319
 30
0.0
 10
80.95974390337118
 20
-142.6479681718033
 30
0.0
 10
80.78645560046311
 20
-142.5380696258238
 30
0.0
 10
80.76509600845456
 20
-142.4068114878358
 30
0.0
 10
80.7461479832857
 20
-142.2989799991475
 30
0.0
 10
80.7461479832857
 20
-142.2989799991475
 30
0.0
 10
80.9683566420843
 20
-142.2989799991475
 30
0.0
 10
80.9683566420843
 20
-142.2989799991475
 30
0.0
 10
81.02313366029978
 20
-142.4977620086464
 30
0.0
 10
81.15025768370549
 20
-142.5273898298196
 30
0.0
 10
81.24327526180724
 20
-142.5273898298196
 30
0.0
 10
81.38280162895985
 20
-142.5273898298196
 30
0.0
 10
81.5350748494079
 20
-142.4278265702958
 30
0.0
 10
81.5350748494079
 20
-142.1952826250415
 30
0.0
 10
81.5350748494079
 20
-141.9393120304874
 30
0.0
 10
81.35524086507786
 20
-141.8693765921368
 30
0.0
 10
81.23466252309412
 20
-141.8693765921368
 30
0.0
 10
81.20296764462982
 20
-141.8693765921368
 30
0.0
 10
81.06137422018605
 20
-141.8693765921368
 30
0.0
 10
80.9724907566666
 20
-141.9985676728337
 30
0.0
 10
80.9724907566666
 20
-141.9985676728337
 30
0.0
 10
80.79679088691886
 20
-141.9796196476648
 30
0.0
 10
80.79679088691886
 20
-141.9796196476648
 30
0.0
 10
80.79679088691886
 20
-141.9796196476648
 30
0.0
 10
80.9173692289026
 20
-141.1331596869389
 30
0.0
 10
80.9173692289026
 20
-141.1331596869389
 30
0.0
 10
80.9173692289026
 20
-141.1331596869389
 30
0.0
 10
81.69596080856907
 20
-141.1331596869389
 30
0.0
 10
81.69596080856907
 20
-141.1331596869389
 30
0.0
 10
81.69596080856907
 20
-141.1331596869389
 30
0.0
 10
81.69596080856907
 20
-141.3278075818556
 30
0.0
 10
81.69596080856907
 20
-141.3278075818556
 30
0.0
 10
81.69596080856907
 20
-141.3278075818556
 30
0.0
 10
81.08032224535492
 20
-141.3278075818556
 30
0.0
 10
81.08032224535492
 20
-141.3278075818556
 30
0.0
 10
81.08032224535492
 20
-141.3278075818556
 30
0.0
 10
81.01486543113518
 20
-141.7508653074442
 30
0.0
 10
81.01486543113518
 20
-141.7508653074442
 30
0.0
 10
81.07618813077262
 20
-141.7171033716888
 30
0.0
 10
81.15852591287009
 20
-141.6767957545114
 30
0.0
 10
81.27703719756269
 20
-141.6767957545114
 30
0.0
 10
81.5309407348256
 20
-141.6767957545114
 30
0.0
 10
81.7679633042108
 20
-141.8631754202634
 30
0.0
 10
81.7679633042108
 20
-142.1763345998726
 30
0.0
 10
81.7679633042108
 20
-142.4936278940641
 30
0.0
 10
81.54368758812103
 20
-142.7282388966096
 30
0.0
 10
81.24120820451608
 20
-142.7282388966096
 30
0.0
  0
HATCH
  5
E1
330
D2
100
AcDbEntity
  8
_U+30EC_U+30A4_U+30E4_U+30FC 1
 62
   179
420
  2234388
100
AcDbHatch
 10
0.0
 20
0.0
 30
0.0
210
0.0
220
0.0
230
1.0
  2
SOLID
 70
     1
 71
     0
 91
        1
 92
        1
 93
        1
 72
     4
 94
        3
 73
     0
 74
     1
 95
       53
 96
       49
 40
0.0
 40
0.0
 40
0.0
 40
0.0
 40
1.0
 40
1.0
 40
1.0
 40
2.0
 40
2.0
 40
2.0
 40
3.0
 40
3.0
 40
3.0
 40
4.0
 40
4.0
 40
4.0
 40
5.0
 40
5.0
 40
5.0
 40
6.0
 40
6.0
 40
6.0
 40
7.0
 40
7.0
 40
7.0
 40
8.0
 40
8.0
 40
8.0
 40
9.0
 40
9.0
 40
9.0
 40
10.0
 40
10.0
 40
10.0
 40
11.0
 40
11.0
 40
11.0
 40
12.0
 40
12.0
 40
12.0
 40
13.0
 40
13.0
 40
13.0
 40
14.0
 40
14.0
 40
14.0
 40
15.0
 40
15.0
 40
15.0
 40
16.0
 40
16.0
 40
16.0
 40
16.0
 10
81.24120820451608
 20
-142.7282388966096
 10
81.16300453700092
 20
-142.7282388966096
 10
81.06137422018605
 20
-142.7113579287319
 10
80.95974390337118
 20
-142.6479681718033
 10
80.78645560046311
 20
-142.5380696258238
 10
80.76509600845456
 20
-142.4068114878358
 10
80.7461479832857
 20
-142.2989799991475
 10
80.7461479832857
 20
-142.2989799991475
 10
80.9683566420843
 20
-142.2989799991475
 10
80.9683566420843
 20
-142.2989799991475
 10
81.02313366029978
 20
-142.4977620086464
 10
81.15025768370549
 20
-142.5273898298196
 10
81.24327526180724
 20
-142.5273898298196
 10
81.38280162895985
 20
-142.5273898298196
 10
81.5350748494079
 20
-142.4278265702958
 10
81.5350748494079
 20
-142.1952826250415
 10
81.5350748494079
 20
-141.9393120304874
 10
81.35524086507786
 20
-141.8693765921368
 10
81.23466252309412
 20
-141.8693765921368
 10
81.20296764462982
 20
-141.8693765921368
 10
81.06137422018605
 20
-141.8693765921368
 10
80.9724907566666
 20
-141.9985676728337
 10
80.9724907566666
 20
-141.9985676728337
 10
80.79679088691886
 20
-141.9796196476648
 10
80.79679088691886
 20
-141.9796196476648
 10
80.79679088691886
 20
-141.9796196476648
 10
80.9173692289026
 20
-141.1331596869389
 10
80.9173692289026
 20
-141.1331596869389
 10
80.9173692289026
 20
-141.1331596869389
 10
81.69596080856907
 20
-141.1331596869389
 10
81.69596080856907
 20
-141.1331596869389
 10
81.69596080856907
 20
-141.1331596869389
 10
81.69596080856907
 20
-141.3278075818556
 10
81.69596080856907
 20
-141.3278075818556
 10
81.69596080856907
 20
-141.3278075818556
 10
81.08032224535492
 20
-141.3278075818556
 10
81.08032224535492
 20
-141.3278075818556
 10
81.08032224535492
 20
-141.3278075818556
 10
81.01486543113518
 20
-141.7508653074442
 10
81.01486543113518
 20
-141.7508653074442
 10
81.07618813077262
 20
-141.7171033716888
 10
81.15852591287009
 20
-141.6767957545114
 10
81.27703719756269
 20
-141.6767957545114
 10
81.5309407348256
 20
-141.6767957545114
 10
81.7679633042108
 20
-141.8631754202634
 10
81.7679633042108
 20
-142.1763345998726
 10
81.7679633042108
 20
-142.4936278940641
 10
81.54368758812103
 20
-142.7282388966096
 10
81.24120820451608
 20
-142.7282388966096
 97
        0
 97
        0
 75
     2
 76
     1
 98
        0
  0
ENDBLK
  5
D5
330
D2
100
AcDbEntity
  8
0
100
AcDbBlockEnd
  0
BLOCK
  5
F3
330
F1
100
AcDbEntity
  8
0
100
AcDbBlockBegin
  2
block 5
 70
     0
 10
0.0
 20
0.0
 30
0.0
  3
block 5
  1

  0
SPLINE
  5
F5
330
F1
100
AcDbEntity
  8
_U+30EC_U+30A4_U+30E4_U+30FC 1
370
     0
100
AcDbSpline
210
0.0
220
0.0
230
1.0
 70
    11
 71
     3
 72
    26
 73
    22
 74
     0
 42
0.0000000001
 43
0.0000000001
 12
1.0
 22
0.0
 32
0.0
 13
1.0
 23
0.0
 33
0.0
 40
0.0
 40
0.0
 40
0.0
 40
0.0
 40
1.0
 40
1.0
 40
1.0
 40
2.0
 40
2.0
 40
2.0
 40
3.0
 40
3.0
 40
3.0
 40
4.0
 40
4.0
 40
4.0
 40
5.0
 40
5.0
 40
5.0
 40
6.0
 40
6.0
 40
6.0
 40
7.0
 40
7.0
 40
7.0
 40
7.0
 10
84.32146807787797
 20
-144.7935736400169
 30
0.0
 10
84.32146807787797
 20
-144.7935736400169
 30
0.0
 10
84.32146807787797
 20
-143.6894205369943
 30
0.0
 10
84.32146807787797
 20
-143.6894205369943
 30
0.0
 10
84.32146807787797
 20
-143.6894205369943
 30
0.0
 10
83.99142793039104
 20
-143.6894205369943
 30
0.0
 10
83.99142793039104
 20
-143.6894205369943
 30
0.0
 10
83.99142793039104
 20
-143.6894205369943
 30
0.0
 10
83.99142793039104
 20
-143.5412814311286
 30
0.0
 10
83.99142793039104
 20
-143.5412814311286
 30
0.0
 10
84.32353513516912
 20
-143.526467520542
 30
0.0
 10
84.37004392422
 20
-143.3635145040897
 30
0.0
 10
84.39967174539314
 20
-143.2491373339794
 30
0.0
 10
84.39967174539314
 20
-143.2491373339794
 30
0.0
 10
84.54574379396773
 20
-143.2491373339794
 30
0.0
 10
84.54574379396773
 20
-143.2491373339794
 30
0.0
 10
84.54574379396773
 20
-143.2491373339794
 30
0.0
 10
84.54574379396773
 20
-144.7935736400169
 30
0.0
 10
84.54574379396773
 20
-144.7935736400169
 30
0.0
 10
84.54574379396773
 20
-144.7935736400169
 30
0.0
 10
84.32146807787797
 20
-144.7935736400169
 30
0.0
 10
84.32146807787797
 20
-144.7935736400169
 30
0.0
  0
HATCH
  5
F6
330
F1
100
AcDbEntity
  8
_U+30EC_U+30A4_U+30E4_U+30FC 1
 62
   179
420
  2234388
100
AcDbHatch
 10
0.0
 20
0.0
 30
0.0
210
0.0
220
0.0
230
1.0
  2
SOLID
 70
     1
 71
     0
 91
        1
 92
        1
 93
        1
 72
     4
 94
        3
 73
     0
 74
     1
 95
       26
 96
       22
 40
0.0
 40
0.0
 40
0.0
 40
0.0
 40
1.0
 40
1.0
 40
1.0
 40
2.0
 40
2.0
 40
2.0
 40
3.0
 40
3.0
 40
3.0
 40
4.0
 40
4.0
 40
4.0
 40
5.0
 40
5.0
 40
5.0
 40
6.0
 40
6.0
 40
6.0
 40
7.0
 40
7.0
 40
7.0
 40
7.0
 10
84.32146807787797
 20
-144.7935736400169
 10
84.32146807787797
 20
-144.7935736400169
 10
84.32146807787797
 20
-143.6894205369943
 10
84.32146807787797
 20
-143.6894205369943
 10
84.32146807787797
 20
-143.6894205369943
 10
83.99142793039104
 20
-143.6894205369943
 10
83.99142793039104
 20
-143.6894205369943
 10
83.99142793039104
 20
-143.6894205369943
 10
83.99142793039104
 20
-143.5412814311286
 10
83.99142793039104
 20
-143.5412814311286
 10
84.32353513516912
 20
-143.526467520542
 10
84.37004392422
 20
-143.3635145040897
 10
84.39967174539314
 20
-143.2491373339794
 10
84.39967174539314
 20
-143.2491373339794
 10
84.54574379396773
 20
-143.2491373339794
 10
84.54574379396773
 20
-143.2491373339794
 10
84.54574379396773
 20
-143.2491373339794
 10
84.54574379396773
 20
-144.7935736400169
 10
84.54574379396773
 20
-144.7935736400169
 10
84.54574379396773
 20
-144.7935736400169
 10
84.32146807787797
 20
-144.7935736400169
 10
84.32146807787797
 20
-144.7935736400169
 97
        0
 97
        0
 75
     2
 76
     1
 98
        0
  0
POLYLINE
  5
F7
330
F1
100
AcDbEntity
  8
_U+30EC_U+30A4_U+30E4_U+30FC 1
370
     0
100
AcDb2dPolyline
 66
     1
 10
0.0
 20
0.0
 30
0.0
  0
VERTEX
  5
F8
330
F7
100
AcDbEntity
  8
_U+30EC_U+30A4_U+30E4_U+30FC 1
370
     0
100
AcDbVertex
100
AcDb2dVertex
 10
85.87899574675941
 20
-144.4466525246522
 30
0.0
  0
VERTEX
  5
F9
330
F7
100
AcDbEntity
  8
_U+30EC_U+30A4_U+30E4_U+30FC 1
370
     0
100
AcDbVertex
100
AcDb2dVertex
 10
85.87899574675941
 20
-144.7935736400169
 30
0.0
  0
VERTEX
  5
FA
330
F7
100
AcDbEntity
  8
_U+30EC_U+30A4_U+30E4_U+30FC 1
370
     0
100
AcDbVertex
100
AcDb2dVertex
 10
85.66126571209163
 20
-144.7935736400169
 30
0.0
  0
VERTEX
  5
FB
330
F7
100
AcDbEntity
  8
_U+30EC_U+30A4_U+30E4_U+30FC 1
370
     0
100
AcDbVertex
100
AcDb2dVertex
 10
85.66126571209163
 20
-144.4466525246522
 30
0.0
  0
VERTEX
  5
FC
330
F7
100
AcDbEntity
  8
_U+30EC_U+30A4_U+30E4_U+30FC 1
370
     0
100
AcDbVertex
100
AcDb2dVertex
 10
85.00531953170007
 20
-144.4466525246522
 30
0.0
  0
VERTEX
  5
FD
330
F7
100
AcDbEntity
  8
_U+30EC_U+30A4_U+30E4_U+30FC 1
370
     0
100
AcDbVertex
100
AcDb2dVertex
 10
85.00531953170007
 20
-144.2223768085625
 30
0.0
  0
VERTEX
  5
FE
330
F7
100
AcDbEntity
  8
_U+30EC_U+30A4_U+30E4_U+30FC 1
370
     0
100
AcDbVertex
100
AcDb2dVertex
 10
85.6843478518428
 20
-143.2491373339794
 30
0.0
  0
VERTEX
  5
FF
330
F7
100
AcDbEntity
  8
_U+30EC_U+30A4_U+30E4_U+30FC 1
370
     0
100
AcDbVertex
100
AcDb2dVertex
 10
85.87899574675941
 20
-143.2491373339794
 30
0.0
  0
VERTEX
  5
100
330
F7
100
AcDbEntity
  8
_U+30EC_U+30A4_U+30E4_U+30FC 1
370
     0
100
AcDbVertex
100
AcDb2dVertex
 10
85.87899574675941
 20
-144.2478705151533
 30
0.0
  0
VERTEX
  5
101
330
F7
100
AcDbEntity
  8
_U+30EC_U+30A4_U+30E4_U+30FC 1
370
     0
100
AcDbVertex
100
AcDb2dVertex
 10
86.08639049497147
 20
-144.2478705151533
 30
0.0
  0
VERTEX
  5
102
330
F7
100
AcDbEntity
  8
_U+30EC_U+30A4_U+30E4_U+30FC 1
370
     0
100
AcDbVertex
100
AcDb2dVertex
 10
86.08639049497147
 20
-144.4466525246522
 30
0.0
  0
VERTEX
  5
103
330
F7
100
AcDbEntity
  8
_U+30EC_U+30A4_U+30E4_U+30FC 1
370
     0
100
AcDbVertex
100
AcDb2dVertex
 10
85.87899574675941
 20
-144.4466525246522
 30
0.0
  0
SEQEND
  5
104
330
F7
100
AcDbEntity
  8
_U+30EC_U+30A4_U+30E4_U+30FC 1
370
     0
  0
POLYLINE
  5
105
330
F1
100
AcDbEntity
  8
_U+30EC_U+30A4_U+30E4_U+30FC 1
370
     0
100
AcDb2dPolyline
 66
     1
 10
0.0
 20
0.0
 30
0.0
  0
VERTEX
  5
106
330
105
100
AcDbEntity
  8
_U+30EC_U+30A4_U+30E4_U+30FC 1
370
     0
100
AcDbVertex
100
AcDb2dVertex
 10
85.66126571209163
 20
-143.5919243347618
 30
0.0
  0
VERTEX
  5
107
330
105
100
AcDbEntity
  8
_U+30EC_U+30A4_U+30E4_U+30FC 1
370
     0
100
AcDbVertex
100
AcDb2dVertex
 10
85.20410154119898
 20
-144.2478705151533
 30
0.0
  0
VERTEX
  5
108
330
105
100
AcDbEntity
  8
_U+30EC_U+30A4_U+30E4_U+30FC 1
370
     0
100
AcDbVertex
100
AcDb2dVertex
 10
85.66126571209163
 20
-144.2478705151533
 30
0.0
  0
VERTEX
  5
109
330
105
100
AcDbEntity
  8
_U+30EC_U+30A4_U+30E4_U+30FC 1
370
     0
100
AcDbVertex
100
AcDb2dVertex
 10
85.66126571209163
 20
-143.5919243347618
 30
0.0
  0
SEQEND
  5
10A
330
105
100
AcDbEntity
  8
_U+30EC_U+30A4_U+30E4_U+30FC 1
370
     0
  0
HATCH
  5
10B
330
F1
100
AcDbEntity
  8
_U+30EC_U+30A4_U+30E4_U+30FC 1
 62
   179
420
  2234388
100
AcDbHatch
 10
0.0
 20
0.0
 30
0.0
210
0.0
220
0.0
230
1.0
  2
SOLID
 70
     1
 71
     0
 91
        2
 92
        1
 93
       11
 72
     1
 10
85.87899574675941
 20
-144.4466525246522
 11
85.87899574675941
 21
-144.7935736400169
 72
     1
 10
85.87899574675941
 20
-144.7935736400169
 11
85.66126571209163
 21
-144.7935736400169
 72
     1
 10
85.66126571209163
 20
-144.7935736400169
 11
85.66126571209163
 21
-144.4466525246522
 72
     1
 10
85.66126571209163
 20
-144.4466525246522
 11
85.00531953170007
 21
-144.4466525246522
 72
     1
 10
85.00531953170007
 20
-144.4466525246522
 11
85.00531953170007
 21
-144.2223768085625
 72
     1
 10
85.00531953170007
 20
-144.2223768085625
 11
85.6843478518428
 21
-143.2491373339794
 72
     1
 10
85.6843478518428
 20
-143.2491373339794
 11
85.87899574675941
 21
-143.2491373339794
 72
     1
 10
85.87899574675941
 20
-143.2491373339794
 11
85.87899574675941
 21
-144.2478705151533
 72
     1
 10
85.87899574675941
 20
-144.2478705151533
 11
86.08639049497147
 21
-144.2478705151533
 72
     1
 10
86.08639049497147
 20
-144.2478705151533
 11
86.08639049497147
 21
-144.4466525246522
 72
     1
 10
86.08639049497147
 20
-144.4466525246522
 11
85.87899574675941
 21
-144.4466525246522
 97
        0
 92
        1
 93
        3
 72
     1
 10
85.66126571209163
 20
-143.5919243347618
 11
85.20410154119898
 21
-144.2478705151533
 72
     1
 10
85.20410154119898
 20
-144.2478705151533
 11
85.66126571209163
 21
-144.2478705151533
 72
     1
 10
85.66126571209163
 20
-144.2478705151533
 11
85.66126571209163
 21
-143.5919243347618
 97
        0
 75
     2
 76
     1
 98
        0
  0
POLYLINE
  5
10C
330
F1
100
AcDbEntity
  8
_U+30EC_U+30A4_U+30E4_U+30FC 1
370
     0
100
AcDb2dPolyline
 66
     1
 10
0.0
 20
0.0
 30
0.0
  0
VERTEX
  5
10D
330
10C
100
AcDbEntity
  8
_U+30EC_U+30A4_U+30E4_U+30FC 1
370
     0
100
AcDbVertex
100
AcDb2dVertex
 10
86.28379446627628
 20
-144.7935736400169
 30
0.0
  0
VERTEX
  5
10E
330
10C
100
AcDbEntity
  8
_U+30EC_U+30A4_U+30E4_U+30FC 1
370
     0
100
AcDbVertex
100
AcDb2dVertex
 10
86.28379446627628
 20
-144.5417371600451
 30
0.0
  0
VERTEX
  5
10F
330
10C
100
AcDbEntity
  8
_U+30EC_U+30A4_U+30E4_U+30FC 1
370
     0
100
AcDbVertex
100
AcDb2dVertex
 10
86.53563094624803
 20
-144.5417371600451
 30
0.0
  0
VERTEX
  5
110
330
10C
100
AcDbEntity
  8
_U+30EC_U+30A4_U+30E4_U+30FC 1
370
     0
100
AcDbVertex
100
AcDb2dVertex
 10
86.53563094624803
 20
-144.7935736400169
 30
0.0
  0
VERTEX
  5
111
330
10C
100
AcDbEntity
  8
_U+30EC_U+30A4_U+30E4_U+30FC 1
370
     0
100
AcDbVertex
100
AcDb2dVertex
 10
86.28379446627628
 20
-144.7935736400169
 30
0.0
  0
SEQEND
  5
112
330
10C
100
AcDbEntity
  8
_U+30EC_U+30A4_U+30E4_U+30FC 1
370
     0
  0
HATCH
  5
113
330
F1
100
AcDbEntity
  8
_U+30EC_U+30A4_U+30E4_U+30FC 1
 62
   179
420
  2234388
100
AcDbHatch
 10
0.0
 20
0.0
 30
0.0
210
0.0
220
0.0
230
1.0
  2
SOLID
 70
     1
 71
     0
 91
        1
 92
        1
 93
        4
 72
     1
 10
86.28379446627628
 20
-144.7935736400169
 11
86.28379446627628
 21
-144.5417371600451
 72
     1
 10
86.28379446627628
 20
-144.5417371600451
 11
86.53563094624803
 21
-144.5417371600451
 72
     1
 10
86.53563094624803
 20
-144.5417371600451
 11
86.53563094624803
 21
-144.7935736400169
 72
     1
 10
86.53563094624803
 20
-144.7935736400169
 11
86.28379446627628
 21
-144.7935736400169
 97
        0
 75
     2
 76
     1
 98
        0
  0
SPLINE
  5
114
330
F1
100
AcDbEntity
  8
_U+30EC_U+30A4_U+30E4_U+30FC 1
370
     0
100
AcDbSpline
210
0.0
220
0.0
230
1.0
 70
    11
 71
     3
 72
    53
 73
    49
 74
     0
 42
0.0000000001
 43
0.0000000001
 12
1.0
 22
0.0
 32
0.0
 13
1.0
 23
0.0
 33
0.0
 40
0.0
 40
0.0
 40
0.0
 40
0.0
 40
1.0
 40
1.0
 40
1.0
 40
2.0
 40
2.0
 40
2.0
 40
3.0
 40
3.0
 40
3.0
 40
4.0
 40
4.0
 40
4.0
 40
5.0
 40
5.0
 40
5.0
 40
6.0
 40
6.0
 40
6.0
 40
7.0
 40
7.0
 40
7.0
 40
8.0
 40
8.0
 40
8.0
 40
9.0
 40
9.0
 40
9.0
 40
10.0
 40
10.0
 40
10.0
 40
11.0
 40
11.0
 40
11.0
 40
12.0
 40
12.0
 40
12.0
 40
13.0
 40
13.0
 40
13.0
 40
14.0
 40
14.0
 40
14.0
 40
15.0
 40
15.0
 40
15.0
 40
16.0
 40
16.0
 40
16.0
 40
16.0
 10
87.25289982627706
 20
-144.8442165436501
 30
0.0
 10
87.17469615876189
 20
-144.8442165436501
 30
0.0
 10
87.07306584194701
 20
-144.8273355757723
 30
0.0
 10
86.97143552513215
 20
-144.7639458188438
 30
0.0
 10
86.79814722222407
 20
-144.6540472728643
 30
0.0
 10
86.77678763021552
 20
-144.5227891348763
 30
0.0
 10
86.75783960504666
 20
-144.4149576461879
 30
0.0
 10
86.75783960504666
 20
-144.4149576461879
 30
0.0
 10
86.98004826384528
 20
-144.4149576461879
 30
0.0
 10
86.98004826384528
 20
-144.4149576461879
 30
0.0
 10
87.03482528206074
 20
-144.6137396556869
 30
0.0
 10
87.16194930546646
 20
-144.64336747686
 30
0.0
 10
87.2549668835682
 20
-144.64336747686
 30
0.0
 10
87.39449325072083
 20
-144.64336747686
 30
0.0
 10
87.54676647116887
 20
-144.5438042173363
 30
0.0
 10
87.54676647116887
 20
-144.3112602720819
 30
0.0
 10
87.54676647116887
 20
-144.0552896775278
 30
0.0
 10
87.36693248683882
 20
-143.9853542391773
 30
0.0
 10
87.24635414485508
 20
-143.9853542391773
 30
0.0
 10
87.21465926639078
 20
-143.9853542391773
 30
0.0
 10
87.07306584194701
 20
-143.9853542391773
 30
0.0
 10
86.98418237842758
 20
-144.1145453198741
 30
0.0
 10
86.98418237842758
 20
-144.1145453198741
 30
0.0
 10
86.80848250867983
 20
-144.0955972947053
 30
0.0
 10
86.80848250867983
 20
-144.0955972947053
 30
0.0
 10
86.80848250867983
 20
-144.0955972947053
 30
0.0
 10
86.92906085066357
 20
-143.2491373339794
 30
0.0
 10
86.92906085066357
 20
-143.2491373339794
 30
0.0
 10
86.92906085066357
 20
-143.2491373339794
 30
0.0
 10
87.70765243033003
 20
-143.2491373339794
 30
0.0
 10
87.70765243033003
 20
-143.2491373339794
 30
0.0
 10
87.70765243033003
 20
-143.2491373339794
 30
0.0
 10
87.70765243033003
 20
-143.443785228896
 30
0.0
 10
87.70765243033003
 20
-143.443785228896
 30
0.0
 10
87.70765243033003
 20
-143.443785228896
 30
0.0
 10
87.0920138671159
 20
-143.443785228896
 30
0.0
 10
87.0920138671159
 20
-143.443785228896
 30
0.0
 10
87.0920138671159
 20
-143.443785228896
 30
0.0
 10
87.02655705289614
 20
-143.8668429544847
 30
0.0
 10
87.02655705289614
 20
-143.8668429544847
 30
0.0
 10
87.0878797525336
 20
-143.8330810187292
 30
0.0
 10
87.17021753463106
 20
-143.7927734015518
 30
0.0
 10
87.28872881932365
 20
-143.7927734015518
 30
0.0
 10
87.54263235658657
 20
-143.7927734015518
 30
0.0
 10
87.77965492597176
 20
-143.9791530673038
 30
0.0
 10
87.77965492597176
 20
-144.292312246913
 30
0.0
 10
87.77965492597176
 20
-144.6096055411045
 30
0.0
 10
87.55537920988199
 20
-144.8442165436501
 30
0.0
 10
87.25289982627706
 20
-144.8442165436501
 30
0.0
  0
HATCH
  5
115
330
F1
100
AcDbEntity
  8
_U+30EC_U+30A4_U+30E4_U+30FC 1
 62
   179
420
  2234388
100
AcDbHatch
 10
0.0
 20
0.0
 30
0.0
210
0.0
220
0.0
230
1.0
  2
SOLID
 70
     1
 71
     0
 91
        1
 92
        1
 93
        1
 72
     4
 94
        3
 73
     0
 74
     1
 95
       53
 96
       49
 40
0.0
 40
0.0
 40
0.0
 40
0.0
 40
1.0
 40
1.0
 40
1.0
 40
2.0
 40
2.0
 40
2.0
 40
3.0
 40
3.0
 40
3.0
 40
4.0
 40
4.0
 40
4.0
 40
5.0
 40
5.0
 40
5.0
 40
6.0
 40
6.0
 40
6.0
 40
7.0
 40
7.0
 40
7.0
 40
8.0
 40
8.0
 40
8.0
 40
9.0
 40
9.0
 40
9.0
 40
10.0
 40
10.0
 40
10.0
 40
11.0
 40
11.0
 40
11.0
 40
12.0
 40
12.0
 40
12.0
 40
13.0
 40
13.0
 40
13.0
 40
14.0
 40
14.0
 40
14.0
 40
15.0
 40
15.0
 40
15.0
 40
16.0
 40
16.0
 40
16.0
 40
16.0
 10
87.25289982627706
 20
-144.8442165436501
 10
87.17469615876189
 20
-144.8442165436501
 10
87.07306584194701
 20
-144.8273355757723
 10
86.97143552513215
 20
-144.7639458188438
 10
86.79814722222407
 20
-144.6540472728643
 10
86.77678763021552
 20
-144.5227891348763
 10
86.75783960504666
 20
-144.4149576461879
 10
86.75783960504666
 20
-144.4149576461879
 10
86.98004826384528
 20
-144.4149576461879
 10
86.98004826384528
 20
-144.4149576461879
 10
87.03482528206074
 20
-144.6137396556869
 10
87.16194930546646
 20
-144.64336747686
 10
87.2549668835682
 20
-144.64336747686
 10
87.39449325072083
 20
-144.64336747686
 10
87.54676647116887
 20
-144.5438042173363
 10
87.54676647116887
 20
-144.3112602720819
 10
87.54676647116887
 20
-144.0552896775278
 10
87.36693248683882
 20
-143.9853542391773
 10
87.24635414485508
 20
-143.9853542391773
 10
87.21465926639078
 20
-143.9853542391773
 10
87.07306584194701
 20
-143.9853542391773
 10
86.98418237842758
 20
-144.1145453198741
 10
86.98418237842758
 20
-144.1145453198741
 10
86.80848250867983
 20
-144.0955972947053
 10
86.80848250867983
 20
-144.0955972947053
 10
86.80848250867983
 20
-144.0955972947053
 10
86.92906085066357
 20
-143.2491373339794
 10
86.92906085066357
 20
-143.2491373339794
 10
86.92906085066357
 20
-143.2491373339794
 10
87.70765243033003
 20
-143.2491373339794
 10
87.70765243033003
 20
-143.2491373339794
 10
87.70765243033003
 20
-143.2491373339794
 10
87.70765243033003
 20
-143.443785228896
 10
87.70765243033003
 20
-143.443785228896
 10
87.70765243033003
 20
-143.443785228896
 10
87.0920138671159
 20
-143.443785228896
 10
87.0920138671159
 20
-143.443785228896
 10
87.0920138671159
 20
-143.443785228896
 10
87.02655705289614
 20
-143.8668429544847
 10
87.02655705289614
 20
-143.8668429544847
 10
87.0878797525336
 20
-143.8330810187292
 10
87.17021753463106
 20
-143.7927734015518
 10
87.28872881932365
 20
-143.7927734015518
 10
87.54263235658657
 20
-143.7927734015518
 10
87.77965492597176
 20
-143.9791530673038
 10
87.77965492597176
 20
-144.292312246913
 10
87.77965492597176
 20
-144.6096055411045
 10
87.55537920988199
 20
-144.8442165436501
 10
87.25289982627706
 20
-144.8442165436501
 97
        0
 97
        0
 75
     2
 76
     1
 98
        0
  0
ENDBLK
  5
F4
330
F1
100
AcDbEntity
  8
0
100
AcDbBlockEnd
  0
BLOCK
  5
123
330
121
100
AcDbEntity
  8
0
100
AcDbBlockBegin
  2
block 6
 70
     0
 10
0.0
 20
0.0
 30
0.0
  3
block 6
  1

  0
SPLINE
  5
125
330
121
100
AcDbEntity
  8
_U+30EC_U+30A4_U+30E4_U+30FC 1
370
     0
100
AcDbSpline
210
0.0
220
0.0
230
1.0
 70
    11
 71
     3
 72
    53
 73
    49
 74
     0
 42
0.0000000001
 43
0.0000000001
 12
1.0
 22
0.0
 32
0.0
 13
1.0
 23
0.0
 33
0.0
 40
0.0
 40
0.0
 40
0.0
 40
0.0
 40
1.0
 40
1.0
 40
1.0
 40
2.0
 40
2.0
 40
2.0
 40
3.0
 40
3.0
 40
3.0
 40
4.0
 40
4.0
 40
4.0
 40
5.0
 40
5.0
 40
5.0
 40
6.0
 40
6.0
 40
6.0
 40
7.0
 40
7.0
 40
7.0
 40
8.0
 40
8.0
 40
8.0
 40
9.0
 40
9.0
 40
9.0
 40
10.0
 40
10.0
 40
10.0
 40
11.0
 40
11.0
 40
11.0
 40
12.0
 40
12.0
 40
12.0
 40
13.0
 40
13.0
 40
13.0
 40
14.0
 40
14.0
 40
14.0
 40
15.0
 40
15.0
 40
15.0
 40
16.0
 40
16.0
 40
16.0
 40
16.0
 10
90.6773247386154
 20
-144.8056314742153
 30
0.0
 10
90.59912107110023
 20
-144.8056314742153
 30
0.0
 10
90.49749075428535
 20
-144.7887505063375
 30
0.0
 10
90.39586043747049
 20
-144.7253607494089
 30
0.0
 10
90.22257213456241
 20
-144.6154622034295
 30
0.0
 10
90.20121254255386
 20
-144.4842040654414
 30
0.0
 10
90.182264517385
 20
-144.3763725767531
 30
0.0
 10
90.182264517385
 20
-144.3763725767531
 30
0.0
 10
90.40447317618361
 20
-144.3763725767531
 30
0.0
 10
90.40447317618361
 20
-144.3763725767531
 30
0.0
 10
90.45925019439908
 20
-144.575154586252
 30
0.0
 10
90.5863742178048
 20
-144.6047824074252
 30
0.0
 10
90.67939179590654
 20
-144.6047824074252
 30
0.0
 10
90.81891816305917
 20
-144.6047824074252
 30
0.0
 10
90.9711913835072
 20
-144.5052191479015
 30
0.0
 10
90.9711913835072
 20
-144.2726752026471
 30
0.0
 10
90.9711913835072
 20
-144.0167046080931
 30
0.0
 10
90.79135739917716
 20
-143.9467691697425
 30
0.0
 10
90.67077905719341
 20
-143.9467691697425
 30
0.0
 10
90.63908417872912
 20
-143.9467691697425
 30
0.0
 10
90.49749075428535
 20
-143.9467691697425
 30
0.0
 10
90.40860729076591
 20
-144.0759602504394
 30
0.0
 10
90.40860729076591
 20
-144.0759602504394
 30
0.0
 10
90.23290742101817
 20
-144.0570122252705
 30
0.0
 10
90.23290742101817
 20
-144.0570122252705
 30
0.0
 10
90.23290742101817
 20
-144.0570122252705
 30
0.0
 10
90.35348576300191
 20
-143.2105522645446
 30
0.0
 10
90.35348576300191
 20
-143.2105522645446
 30
0.0
 10
90.35348576300191
 20
-143.2105522645446
 30
0.0
 10
91.13207734266837
 20
-143.2105522645446
 30
0.0
 10
91.13207734266837
 20
-143.2105522645446
 30
0.0
 10
91.13207734266837
 20
-143.2105522645446
 30
0.0
 10
91.13207734266837
 20
-143.4052001594612
 30
0.0
 10
91.13207734266837
 20
-143.4052001594612
 30
0.0
 10
91.13207734266837
 20
-143.4052001594612
 30
0.0
 10
90.51643877945423
 20
-143.4052001594612
 30
0.0
 10
90.51643877945423
 20
-143.4052001594612
 30
0.0
 10
90.51643877945423
 20
-143.4052001594612
 30
0.0
 10
90.45098196523448
 20
-143.8282578850499
 30
0.0
 10
90.45098196523448
 20
-143.8282578850499
 30
0.0
 10
90.51230466487193
 20
-143.7944959492944
 30
0.0
 10
90.5946424469694
 20
-143.754188332117
 30
0.0
 10
90.71315373166199
 20
-143.754188332117
 30
0.0
 10
90.9670572689249
 20
-143.754188332117
 30
0.0
 10
91.2040798383101
 20
-143.940567997869
 30
0.0
 10
91.2040798383101
 20
-144.2537271774783
 30
0.0
 10
91.2040798383101
 20
-144.5710204716698
 30
0.0
 10
90.97980412222033
 20
-144.8056314742153
 30
0.0
 10
90.6773247386154
 20
-144.8056314742153
 30
0.0
  0
HATCH
  5
126
330
121
100
AcDbEntity
  8
_U+30EC_U+30A4_U+30E4_U+30FC 1
 62
   179
420
  2234388
100
AcDbHatch
 10
0.0
 20
0.0
 30
0.0
210
0.0
220
0.0
230
1.0
  2
SOLID
 70
     1
 71
     0
 91
        1
 92
        1
 93
        1
 72
     4
 94
        3
 73
     0
 74
     1
 95
       53
 96
       49
 40
0.0
 40
0.0
 40
0.0
 40
0.0
 40
1.0
 40
1.0
 40
1.0
 40
2.0
 40
2.0
 40
2.0
 40
3.0
 40
3.0
 40
3.0
 40
4.0
 40
4.0
 40
4.0
 40
5.0
 40
5.0
 40
5.0
 40
6.0
 40
6.0
 40
6.0
 40
7.0
 40
7.0
 40
7.0
 40
8.0
 40
8.0
 40
8.0
 40
9.0
 40
9.0
 40
9.0
 40
10.0
 40
10.0
 40
10.0
 40
11.0
 40
11.0
 40
11.0
 40
12.0
 40
12.0
 40
12.0
 40
13.0
 40
13.0
 40
13.0
 40
14.0
 40
14.0
 40
14.0
 40
15.0
 40
15.0
 40
15.0
 40
16.0
 40
16.0
 40
16.0
 40
16.0
 10
90.6773247386154
 20
-144.8056314742153
 10
90.59912107110023
 20
-144.8056314742153
 10
90.49749075428535
 20
-144.7887505063375
 10
90.39586043747049
 20
-144.7253607494089
 10
90.22257213456241
 20
-144.6154622034295
 10
90.20121254255386
 20
-144.4842040654414
 10
90.182264517385
 20
-144.3763725767531
 10
90.182264517385
 20
-144.3763725767531
 10
90.40447317618361
 20
-144.3763725767531
 10
90.40447317618361
 20
-144.3763725767531
 10
90.45925019439908
 20
-144.575154586252
 10
90.5863742178048
 20
-144.6047824074252
 10
90.67939179590654
 20
-144.6047824074252
 10
90.81891816305917
 20
-144.6047824074252
 10
90.9711913835072
 20
-144.5052191479015
 10
90.9711913835072
 20
-144.2726752026471
 10
90.9711913835072
 20
-144.0167046080931
 10
90.79135739917716
 20
-143.9467691697425
 10
90.67077905719341
 20
-143.9467691697425
 10
90.63908417872912
 20
-143.9467691697425
 10
90.49749075428535
 20
-143.9467691697425
 10
90.40860729076591
 20
-144.0759602504394
 10
90.40860729076591
 20
-144.0759602504394
 10
90.23290742101817
 20
-144.0570122252705
 10
90.23290742101817
 20
-144.0570122252705
 10
90.23290742101817
 20
-144.0570122252705
 10
90.35348576300191
 20
-143.2105522645446
 10
90.35348576300191
 20
-143.2105522645446
 10
90.35348576300191
 20
-143.2105522645446
 10
91.13207734266837
 20
-143.2105522645446
 10
91.13207734266837
 20
-143.2105522645446
 10
91.13207734266837
 20
-143.2105522645446
 10
91.13207734266837
 20
-143.4052001594612
 10
91.13207734266837
 20
-143.4052001594612
 10
91.13207734266837
 20
-143.4052001594612
 10
90.51643877945423
 20
-143.4052001594612
 10
90.51643877945423
 20
-143.4052001594612
 10
90.51643877945423
 20
-143.4052001594612
 10
90.45098196523448
 20
-143.8282578850499
 10
90.45098196523448
 20
-143.8282578850499
 10
90.51230466487193
 20
-143.7944959492944
 10
90.5946424469694
 20
-143.754188332117
 10
90.71315373166199
 20
-143.754188332117
 10
90.9670572689249
 20
-143.754188332117
 10
91.2040798383101
 20
-143.940567997869
 10
91.2040798383101
 20
-144.2537271774783
 10
91.2040798383101
 20
-144.5710204716698
 10
90.97980412222033
 20
-144.8056314742153
 10
90.6773247386154
 20
-144.8056314742153
 97
        0
 97
        0
 75
     2
 76
     1
 98
        0
  0
ENDBLK
  5
124
330
121
100
AcDbEntity
  8
0
100
AcDbBlockEnd
  0
BLOCK
  5
134
330
132
100
AcDbEntity
  8
0
100
AcDbBlockBegin
  2
block 7
 70
     0
 10
0.0
 20
0.0
 30
0.0
  3
block 7
  1

  0
SPLINE
  5
136
330
132
100
AcDbEntity
  8
_U+30EC_U+30A4_U+30E4_U+30FC 1
370
     0
100
AcDbSpline
210
0.0
220
0.0
230
1.0
 70
    11
 71
     3
 72
    26
 73
    22
 74
     0
 42
0.0000000001
 43
0.0000000001
 12
1.0
 22
0.0
 32
0.0
 13
1.0
 23
0.0
 33
0.0
 40
0.0
 40
0.0
 40
0.0
 40
0.0
 40
1.0
 40
1.0
 40
1.0
 40
2.0
 40
2.0
 40
2.0
 40
3.0
 40
3.0
 40
3.0
 40
4.0
 40
4.0
 40
4.0
 40
5.0
 40
5.0
 40
5.0
 40
6.0
 40
6.0
 40
6.0
 40
7.0
 40
7.0
 40
7.0
 40
7.0
 10
95.05914168630467
 20
-144.7708360098142
 30
0.0
 10
95.05914168630467
 20
-144.7708360098142
 30
0.0
 10
95.05914168630467
 20
-143.6666829067917
 30
0.0
 10
95.05914168630467
 20
-143.6666829067917
 30
0.0
 10
95.05914168630467
 20
-143.6666829067917
 30
0.0
 10
94.72910153881773
 20
-143.6666829067917
 30
0.0
 10
94.72910153881773
 20
-143.6666829067917
 30
0.0
 10
94.72910153881773
 20
-143.6666829067917
 30
0.0
 10
94.72910153881773
 20
-143.5185438009259
 30
0.0
 10
94.72910153881773
 20
-143.5185438009259
 30
0.0
 10
95.06120874359581
 20
-143.5037298903393
 30
0.0
 10
95.10771753264669
 20
-143.340776873887
 30
0.0
 10
95.13734535381984
 20
-143.2263997037767
 30
0.0
 10
95.13734535381984
 20
-143.2263997037767
 30
0.0
 10
95.28341740239443
 20
-143.2263997037767
 30
0.0
 10
95.28341740239443
 20
-143.2263997037767
 30
0.0
 10
95.28341740239443
 20
-143.2263997037767
 30
0.0
 10
95.28341740239443
 20
-144.7708360098142
 30
0.0
 10
95.28341740239443
 20
-144.7708360098142
 30
0.0
 10
95.28341740239443
 20
-144.7708360098142
 30
0.0
 10
95.05914168630467
 20
-144.7708360098142
 30
0.0
 10
95.05914168630467
 20
-144.7708360098142
 30
0.0
  0
HATCH
  5
137
330
132
100
AcDbEntity
  8
_U+30EC_U+30A4_U+30E4_U+30FC 1
 62
   179
420
  2234388
100
AcDbHatch
 10
0.0
 20
0.0
 30
0.0
210
0.0
220
0.0
230
1.0
  2
SOLID
 70
     1
 71
     0
 91
        1
 92
        1
 93
        1
 72
     4
 94
        3
 73
     0
 74
     1
 95
       26
 96
       22
 40
0.0
 40
0.0
 40
0.0
 40
0.0
 40
1.0
 40
1.0
 40
1.0
 40
2.0
 40
2.0
 40
2.0
 40
3.0
 40
3.0
 40
3.0
 40
4.0
 40
4.0
 40
4.0
 40
5.0
 40
5.0
 40
5.0
 40
6.0
 40
6.0
 40
6.0
 40
7.0
 40
7.0
 40
7.0
 40
7.0
 10
95.05914168630467
 20
-144.7708360098142
 10
95.05914168630467
 20
-144.7708360098142
 10
95.05914168630467
 20
-143.6666829067917
 10
95.05914168630467
 20
-143.6666829067917
 10
95.05914168630467
 20
-143.6666829067917
 10
94.72910153881773
 20
-143.6666829067917
 10
94.72910153881773
 20
-143.6666829067917
 10
94.72910153881773
 20
-143.6666829067917
 10
94.72910153881773
 20
-143.5185438009259
 10
94.72910153881773
 20
-143.5185438009259
 10
95.06120874359581
 20
-143.5037298903393
 10
95.10771753264669
 20
-143.340776873887
 10
95.13734535381984
 20
-143.2263997037767
 10
95.13734535381984
 20
-143.2263997037767
 10
95.28341740239443
 20
-143.2263997037767
 10
95.28341740239443
 20
-143.2263997037767
 10
95.28341740239443
 20
-143.2263997037767
 10
95.28341740239443
 20
-144.7708360098142
 10
95.28341740239443
 20
-144.7708360098142
 10
95.28341740239443
 20
-144.7708360098142
 10
95.05914168630467
 20
-144.7708360098142
 10
95.05914168630467
 20
-144.7708360098142
 97
        0
 97
        0
 75
     2
 76
     1
 98
        0
  0
SPLINE
  5
138
330
132
100
AcDbEntity
  8
_U+30EC_U+30A4_U+30E4_U+30FC 1
370
     0
100
AcDbSpline
210
0.0
220
0.0
230
1.0
 70
    11
 71
     3
 72
    53
 73
    49
 74
     0
 42
0.0000000001
 43
0.0000000001
 12
1.0
 22
0.0
 32
0.0
 13
1.0
 23
0.0
 33
0.0
 40
0.0
 40
0.0
 40
0.0
 40
0.0
 40
1.0
 40
1.0
 40
1.0
 40
2.0
 40
2.0
 40
2.0
 40
3.0
 40
3.0
 40
3.0
 40
4.0
 40
4.0
 40
4.0
 40
5.0
 40
5.0
 40
5.0
 40
6.0
 40
6.0
 40
6.0
 40
7.0
 40
7.0
 40
7.0
 40
8.0
 40
8.0
 40
8.0
 40
9.0
 40
9.0
 40
9.0
 40
10.0
 40
10.0
 40
10.0
 40
11.0
 40
11.0
 40
11.0
 40
12.0
 40
12.0
 40
12.0
 40
13.0
 40
13.0
 40
13.0
 40
14.0
 40
14.0
 40
14.0
 40
15.0
 40
15.0
 40
15.0
 40
16.0
 40
16.0
 40
16.0
 40
16.0
 10
96.26561412523915
 20
-144.8214789134474
 30
0.0
 10
96.18741045772398
 20
-144.8214789134474
 30
0.0
 10
96.08578014090911
 20
-144.8045979455697
 30
0.0
 10
95.98414982409425
 20
-144.7412081886411
 30
0.0
 10
95.81086152118618
 20
-144.6313096426616
 30
0.0
 10
95.78950192917763
 20
-144.5000515046736
 30
0.0
 10
95.77055390400875
 20
-144.3922200159853
 30
0.0
 10
95.77055390400875
 20
-144.3922200159853
 30
0.0
 10
95.99276256280737
 20
-144.3922200159853
 30
0.0
 10
95.99276256280737
 20
-144.3922200159853
 30
0.0
 10
96.04753958102285
 20
-144.5910020254842
 30
0.0
 10
96.17466360442856
 20
-144.6206298466574
 30
0.0
 10
96.26768118253031
 20
-144.6206298466574
 30
0.0
 10
96.40720754968292
 20
-144.6206298466574
 30
0.0
 10
96.55948077013096
 20
-144.5210665871336
 30
0.0
 10
96.55948077013096
 20
-144.2885226418793
 30
0.0
 10
96.55948077013096
 20
-144.0325520473252
 30
0.0
 10
96.37964678580093
 20
-143.9626166089746
 30
0.0
 10
96.25906844381718
 20
-143.9626166089746
 30
0.0
 10
96.22737356535288
 20
-143.9626166089746
 30
0.0
 10
96.08578014090911
 20
-143.9626166089746
 30
0.0
 10
95.99689667738967
 20
-144.0918076896715
 30
0.0
 10
95.99689667738967
 20
-144.0918076896715
 30
0.0
 10
95.82119680764193
 20
-144.0728596645026
 30
0.0
 10
95.82119680764193
 20
-144.0728596645026
 30
0.0
 10
95.82119680764193
 20
-144.0728596645026
 30
0.0
 10
95.94177514962567
 20
-143.2263997037767
 30
0.0
 10
95.94177514962567
 20
-143.2263997037767
 30
0.0
 10
95.94177514962567
 20
-143.2263997037767
 30
0.0
 10
96.72036672929214
 20
-143.2263997037767
 30
0.0
 10
96.72036672929214
 20
-143.2263997037767
 30
0.0
 10
96.72036672929214
 20
-143.2263997037767
 30
0.0
 10
96.72036672929214
 20
-143.4210475986933
 30
0.0
 10
96.72036672929214
 20
-143.4210475986933
 30
0.0
 10
96.72036672929214
 20
-143.4210475986933
 30
0.0
 10
96.10472816607799
 20
-143.4210475986933
 30
0.0
 10
96.10472816607799
 20
-143.4210475986933
 30
0.0
 10
96.10472816607799
 20
-143.4210475986933
 30
0.0
 10
96.03927135185825
 20
-143.844105324282
 30
0.0
 10
96.03927135185825
 20
-143.844105324282
 30
0.0
 10
96.10059405149569
 20
-143.8103433885266
 30
0.0
 10
96.18293183359316
 20
-143.7700357713492
 30
0.0
 10
96.30144311828576
 20
-143.7700357713492
 30
0.0
 10
96.55534665554866
 20
-143.7700357713492
 30
0.0
 10
96.79236922493385
 20
-143.9564154371012
 30
0.0
 10
96.79236922493385
 20
-144.2695746167104
 30
0.0
 10
96.79236922493385
 20
-144.5868679109019
 30
0.0
 10
96.56809350884409
 20
-144.8214789134474
 30
0.0
 10
96.26561412523915
 20
-144.8214789134474
 30
0.0
  0
HATCH
  5
139
330
132
100
AcDbEntity
  8
_U+30EC_U+30A4_U+30E4_U+30FC 1
 62
   179
420
  2234388
100
AcDbHatch
 10
0.0
 20
0.0
 30
0.0
210
0.0
220
0.0
230
1.0
  2
SOLID
 70
     1
 71
     0
 91
        1
 92
        1
 93
        1
 72
     4
 94
        3
 73
     0
 74
     1
 95
       53
 96
       49
 40
0.0
 40
0.0
 40
0.0
 40
0.0
 40
1.0
 40
1.0
 40
1.0
 40
2.0
 40
2.0
 40
2.0
 40
3.0
 40
3.0
 40
3.0
 40
4.0
 40
4.0
 40
4.0
 40
5.0
 40
5.0
 40
5.0
 40
6.0
 40
6.0
 40
6.0
 40
7.0
 40
7.0
 40
7.0
 40
8.0
 40
8.0
 40
8.0
 40
9.0
 40
9.0
 40
9.0
 40
10.0
 40
10.0
 40
10.0
 40
11.0
 40
11.0
 40
11.0
 40
12.0
 40
12.0
 40
12.0
 40
13.0
 40
13.0
 40
13.0
 40
14.0
 40
14.0
 40
14.0
 40
15.0
 40
15.0
 40
15.0
 40
16.0
 40
16.0
 40
16.0
 40
16.0
 10
96.26561412523915
 20
-144.8214789134474
 10
96.18741045772398
 20
-144.8214789134474
 10
96.08578014090911
 20
-144.8045979455697
 10
95.98414982409425
 20
-144.7412081886411
 10
95.81086152118618
 20
-144.6313096426616
 10
95.78950192917763
 20
-144.5000515046736
 10
95.77055390400875
 20
-144.3922200159853
 10
95.77055390400875
 20
-144.3922200159853
 10
95.99276256280737
 20
-144.3922200159853
 10
95.99276256280737
 20
-144.3922200159853
 10
96.04753958102285
 20
-144.5910020254842
 10
96.17466360442856
 20
-144.6206298466574
 10
96.26768118253031
 20
-144.6206298466574
 10
96.40720754968292
 20
-144.6206298466574
 10
96.55948077013096
 20
-144.5210665871336
 10
96.55948077013096
 20
-144.2885226418793
 10
96.55948077013096
 20
-144.0325520473252
 10
96.37964678580093
 20
-143.9626166089746
 10
96.25906844381718
 20
-143.9626166089746
 10
96.22737356535288
 20
-143.9626166089746
 10
96.08578014090911
 20
-143.9626166089746
 10
95.99689667738967
 20
-144.0918076896715
 10
95.99689667738967
 20
-144.0918076896715
 10
95.82119680764193
 20
-144.0728596645026
 10
95.82119680764193
 20
-144.0728596645026
 10
95.82119680764193
 20
-144.0728596645026
 10
95.94177514962567
 20
-143.2263997037767
 10
95.94177514962567
 20
-143.2263997037767
 10
95.94177514962567
 20
-143.2263997037767
 10
96.72036672929214
 20
-143.2263997037767
 10
96.72036672929214
 20
-143.2263997037767
 10
96.72036672929214
 20
-143.2263997037767
 10
96.72036672929214
 20
-143.4210475986933
 10
96.72036672929214
 20
-143.4210475986933
 10
96.72036672929214
 20
-143.4210475986933
 10
96.10472816607799
 20
-143.4210475986933
 10
96.10472816607799
 20
-143.4210475986933
 10
96.10472816607799
 20
-143.4210475986933
 10
96.03927135185825
 20
-143.844105324282
 10
96.03927135185825
 20
-143.844105324282
 10
96.10059405149569
 20
-143.8103433885266
 10
96.18293183359316
 20
-143.7700357713492
 10
96.30144311828576
 20
-143.7700357713492
 10
96.55534665554866
 20
-143.7700357713492
 10
96.79236922493385
 20
-143.9564154371012
 10
96.79236922493385
 20
-144.2695746167104
 10
96.79236922493385
 20
-144.5868679109019
 10
96.56809350884409
 20
-144.8214789134474
 10
96.26561412523915
 20
-144.8214789134474
 97
        0
 97
        0
 75
     2
 76
     1
 98
        0
  0
ENDBLK
  5
135
330
132
100
AcDbEntity
  8
0
100
AcDbBlockEnd
  0
ENDSEC
  0
SECTION
  2
ENTITIES
  0
SPLINE
  5
41
330
1F
100
AcDbEntity
  8
_U+30EC_U+30A4_U+30E4_U+30FC 1
370
     0
100
AcDbSpline
210
0.0
220
0.0
230
1.0
 70
    11
 71
     3
 72
    26
 73
    22
 74
     0
 42
0.0000000001
 43
0.0000000001
 12
1.0
 22
0.0
 32
0.0
 13
1.0
 23
0.0
 33
0.0
 40
0.0
 40
0.0
 40
0.0
 40
0.0
 40
1.0
 40
1.0
 40
1.0
 40
2.0
 40
2.0
 40
2.0
 40
3.0
 40
3.0
 40
3.0
 40
4.0
 40
4.0
 40
4.0
 40
5.0
 40
5.0
 40
5.0
 40
6.0
 40
6.0
 40
6.0
 40
7.0
 40
7.0
 40
7.0
 40
7.0
 10
99.42889718557973
 20
-116.2423591376061
 30
0.0
 10
99.42889718557973
 20
-116.2423591376061
 30
0.0
 10
91.94683348757418
 20
-116.2423591376061
 30
0.0
 10
91.94683348757418
 20
-116.2423591376061
 30
0.0
 10
91.94683348757418
 20
-116.2423591376061
 30
0.0
 10
91.94683348757418
 20
-141.2248113535826
 30
0.0
 10
91.94683348757418
 20
-141.2248113535826
 30
0.0
 10
91.9564995984387
 20
-141.2248113535826
 30
0.0
 10
91.96404904269053
 20
-141.2323960758032
 30
0.0
 10
91.96404904269053
 20
-141.242026909134
 30
0.0
 10
91.96404904269053
 20
-141.242026909134
 30
0.0
 10
99.42889718557973
 20
-141.242026909134
 30
0.0
 10
99.42889718557973
 20
-141.242026909134
 30
0.0
 10
99.42889718557973
 20
-141.2323960758032
 30
0.0
 10
99.43715218536913
 20
-141.2248113535826
 30
0.0
 10
99.44681829623363
 20
-141.2248113535826
 30
0.0
 10
99.44681829623363
 20
-141.2248113535826
 30
0.0
 10
99.44681829623363
 20
-116.2595746931572
 30
0.0
 10
99.44681829623363
 20
-116.2595746931572
 30
0.0
 10
99.43715218536913
 20
-116.2595746931572
 30
0.0
 10
99.42889718557973
 20
-116.251989970937
 30
0.0
 10
99.42889718557973
 20
-116.2423591376061
 30
0.0
  0
SPLINE
  5
42
330
1F
100
AcDbEntity
  8
_U+30EC_U+30A4_U+30E4_U+30FC 1
370
     0
100
AcDbSpline
210
0.0
220
0.0
230
1.0
 70
    11
 71
     3
 72
    17
 73
    13
 74
     0
 42
0.0000000001
 43
0.0000000001
 12
1.0
 22
0.0
 32
0.0
 13
1.0
 23
0.0
 33
0.0
 40
0.0
 40
0.0
 40
0.0
 40
0.0
 40
1.0
 40
1.0
 40
1.0
 40
2.0
 40
2.0
 40
2.0
 40
3.0
 40
3.0
 40
3.0
 40
4.0
 40
4.0
 40
4.0
 40
4.0
 10
96.19671199026186
 20
-134.741814132981
 30
0.0
 10
95.50632589676397
 20
-134.741814132981
 30
0.0
 10
94.94682035548259
 20
-134.1823438553431
 30
0.0
 10
94.94682035548259
 20
-133.4919224666269
 30
0.0
 10
94.94682035548259
 20
-132.8015363556883
 30
0.0
 10
95.50632589676397
 20
-132.2420660780504
 30
0.0
 10
96.19671199026186
 20
-132.2420660780504
 30
0.0
 10
96.88709808375975
 20
-132.2420660780504
 30
0.0
 10
97.44660362504113
 20
-132.8015363556883
 30
0.0
 10
97.44660362504113
 20
-133.4919224666269
 30
0.0
 10
97.44660362504113
 20
-134.1823438553431
 30
0.0
 10
96.88709808375975
 20
-134.741814132981
 30
0.0
 10
96.19671199026186
 20
-134.741814132981
 30
0.0
  0
SPLINE
  5
43
330
1F
100
AcDbEntity
  8
_U+30EC_U+30A4_U+30E4_U+30FC 1
370
     0
100
AcDbSpline
210
0.0
220
0.0
230
1.0
 70
    11
 71
     3
 72
    17
 73
    13
 74
     0
 42
0.0000000001
 43
0.0000000001
 12
1.0
 22
0.0
 32
0.0
 13
1.0
 23
0.0
 33
0.0
 40
0.0
 40
0.0
 40
0.0
 40
0.0
 40
1.0
 40
1.0
 40
1.0
 40
2.0
 40
2.0
 40
2.0
 40
3.0
 40
3.0
 40
3.0
 40
4.0
 40
4.0
 40
4.0
 40
4.0
 10
96.19671199026186
 20
-120.7423219142589
 30
0.0
 10
95.50632589676397
 20
-120.7423219142589
 30
0.0
 10
94.94682035548259
 20
-120.1821460810658
 30
0.0
 10
94.94682035548259
 20
-119.4924655256823
 30
0.0
 10
94.94682035548259
 20
-118.8020441369662
 30
0.0
 10
95.50632589676397
 20
-118.241868303773
 30
0.0
 10
96.19671199026186
 20
-118.241868303773
 30
0.0
 10
96.88709808375975
 20
-118.241868303773
 30
0.0
 10
97.44660362504113
 20
-118.8020441369662
 30
0.0
 10
97.44660362504113
 20
-119.4924655256823
 30
0.0
 10
97.44660362504113
 20
-120.1821460810658
 30
0.0
 10
96.88709808375975
 20
-120.7423219142589
 30
0.0
 10
96.19671199026186
 20
-120.7423219142589
 30
0.0
  0
HATCH
  5
44
330
1F
100
AcDbEntity
  8
_U+30EC_U+30A4_U+30E4_U+30FC 1
 62
   253
420
 11711154
100
AcDbHatch
 10
0.0
 20
0.0
 30
0.0
210
0.0
220
0.0
230
1.0
  2
SOLID
 70
     1
 71
     0
 91
        3
 92
        1
 93
        1
 72
     4
 94
        3
 73
     0
 74
     1
 95
       26
 96
       22
 40
0.0
 40
0.0
 40
0.0
 40
0.0
 40
1.0
 40
1.0
 40
1.0
 40
2.0
 40
2.0
 40
2.0
 40
3.0
 40
3.0
 40
3.0
 40
4.0
 40
4.0
 40
4.0
 40
5.0
 40
5.0
 40
5.0
 40
6.0
 40
6.0
 40
6.0
 40
7.0
 40
7.0
 40
7.0
 40
7.0
 10
99.42889718557973
 20
-116.2423591376061
 10
99.42889718557973
 20
-116.2423591376061
 10
91.94683348757418
 20
-116.2423591376061
 10
91.94683348757418
 20
-116.2423591376061
 10
91.94683348757418
 20
-116.2423591376061
 10
91.94683348757418
 20
-141.2248113535826
 10
91.94683348757418
 20
-141.2248113535826
 10
91.9564995984387
 20
-141.2248113535826
 10
91.96404904269053
 20
-141.2323960758032
 10
91.96404904269053
 20
-141.242026909134
 10
91.96404904269053
 20
-141.242026909134
 10
99.42889718557973
 20
-141.242026909134
 10
99.42889718557973
 20
-141.242026909134
 10
99.42889718557973
 20
-141.2323960758032
 10
99.43715218536913
 20
-141.2248113535826
 10
99.44681829623363
 20
-141.2248113535826
 10
99.44681829623363
 20
-141.2248113535826
 10
99.44681829623363
 20
-116.2595746931572
 10
99.44681829623363
 20
-116.2595746931572
 10
99.43715218536913
 20
-116.2595746931572
 10
99.42889718557973
 20
-116.251989970937
 10
99.42889718557973
 20
-116.2423591376061
 97
        0
 97
        0
 92
        1
 93
        1
 72
     4
 94
        3
 73
     0
 74
     1
 95
       17
 96
       13
 40
0.0
 40
0.0
 40
0.0
 40
0.0
 40
1.0
 40
1.0
 40
1.0
 40
2.0
 40
2.0
 40
2.0
 40
3.0
 40
3.0
 40
3.0
 40
4.0
 40
4.0
 40
4.0
 40
4.0
 10
96.19671199026186
 20
-134.741814132981
 10
95.50632589676397
 20
-134.741814132981
 10
94.94682035548259
 20
-134.1823438553431
 10
94.94682035548259
 20
-133.4919224666269
 10
94.94682035548259
 20
-132.8015363556883
 10
95.50632589676397
 20
-132.2420660780504
 10
96.19671199026186
 20
-132.2420660780504
 10
96.88709808375975
 20
-132.2420660780504
 10
97.44660362504113
 20
-132.8015363556883
 10
97.44660362504113
 20
-133.4919224666269
 10
97.44660362504113
 20
-134.1823438553431
 10
96.88709808375975
 20
-134.741814132981
 10
96.19671199026186
 20
-134.741814132981
 97
        0
 97
        0
 92
        1
 93
        1
 72
     4
 94
        3
 73
     0
 74
     1
 95
       17
 96
       13
 40
0.0
 40
0.0
 40
0.0
 40
0.0
 40
1.0
 40
1.0
 40
1.0
 40
2.0
 40
2.0
 40
2.0
 40
3.0
 40
3.0
 40
3.0
 40
4.0
 40
4.0
 40
4.0
 40
4.0
 10
96.19671199026186
 20
-120.7423219142589
 10
95.50632589676397
 20
-120.7423219142589
 10
94.94682035548259
 20
-120.1821460810658
 10
94.94682035548259
 20
-119.4924655256823
 10
94.94682035548259
 20
-118.8020441369662
 10
95.50632589676397
 20
-118.241868303773
 10
96.19671199026186
 20
-118.241868303773
 10
96.88709808375975
 20
-118.241868303773
 10
97.44660362504113
 20
-118.8020441369662
 10
97.44660362504113
 20
-119.4924655256823
 10
97.44660362504113
 20
-120.1821460810658
 10
96.88709808375975
 20
-120.7423219142589
 10
96.19671199026186
 20
-120.7423219142589
 97
        0
 97
        0
 75
     2
 76
     1
 98
        0
  0
SPLINE
  5
45
330
1F
100
AcDbEntity
  8
_U+30EC_U+30A4_U+30E4_U+30FC 1
370
     0
100
AcDbSpline
210
0.0
220
0.0
230
1.0
 70
    11
 71
     3
 72
    29
 73
    25
 74
     0
 42
0.0000000001
 43
0.0000000001
 12
1.0
 22
0.0
 32
0.0
 13
1.0
 23
0.0
 33
0.0
 40
0.0
 40
0.0
 40
0.0
 40
0.0
 40
1.0
 40
1.0
 40
1.0
 40
2.0
 40
2.0
 40
2.0
 40
3.0
 40
3.0
 40
3.0
 40
4.0
 40
4.0
 40
4.0
 40
5.0
 40
5.0
 40
5.0
 40
6.0
 40
6.0
 40
6.0
 40
7.0
 40
7.0
 40
7.0
 40
8.0
 40
8.0
 40
8.0
 40
8.0
 10
91.94683348757418
 20
-116.2423591376061
 30
0.0
 10
91.94683348757418
 20
-116.2423591376061
 30
0.0
 10
91.94683348757418
 20
-111.2600433055184
 30
0.0
 10
91.94683348757418
 20
-111.2600433055184
 30
0.0
 10
91.93720265448655
 20
-111.2600433055184
 30
0.0
 10
91.92891237692028
 20
-111.2517883055205
 30
0.0
 10
91.92891237692028
 20
-111.2421221944118
 30
0.0
 10
91.92891237692028
 20
-111.2421221944118
 30
0.0
 10
89.44637994025496
 20
-111.2421221944118
 30
0.0
 10
89.44637994025496
 20
-111.2421221944118
 30
0.0
 10
89.44637994025496
 20
-111.2421221944118
 30
0.0
 10
89.44637994025496
 20
-141.2248113535826
 30
0.0
 10
89.44637994025496
 20
-141.2248113535826
 30
0.0
 10
89.45636355111137
 20
-141.2248113535826
 30
0.0
 10
89.46430105090886
 20
-141.2323960758032
 30
0.0
 10
89.46430105090886
 20
-141.242026909134
 30
0.0
 10
89.46430105090886
 20
-141.242026909134
 30
0.0
 10
91.92891237692028
 20
-141.242026909134
 30
0.0
 10
91.92891237692028
 20
-141.242026909134
 30
0.0
 10
91.92891237692028
 20
-141.2323960758032
 30
0.0
 10
91.93720265448655
 20
-141.2248113535826
 30
0.0
 10
91.94683348757418
 20
-141.2248113535826
 30
0.0
 10
91.94683348757418
 20
-141.2248113535826
 30
0.0
 10
91.94683348757418
 20
-116.2423591376061
 30
0.0
 10
91.94683348757418
 20
-116.2423591376061
 30
0.0
  0
HATCH
  5
46
330
1F
100
AcDbEntity
  8
_U+30EC_U+30A4_U+30E4_U+30FC 1
 62
   253
420
 11711154
100
AcDbHatch
 10
0.0
 20
0.0
 30
0.0
210
0.0
220
0.0
230
1.0
  2
SOLID
 70
     1
 71
     0
 91
        1
 92
        1
 93
        1
 72
     4
 94
        3
 73
     0
 74
     1
 95
       29
 96
       25
 40
0.0
 40
0.0
 40
0.0
 40
0.0
 40
1.0
 40
1.0
 40
1.0
 40
2.0
 40
2.0
 40
2.0
 40
3.0
 40
3.0
 40
3.0
 40
4.0
 40
4.0
 40
4.0
 40
5.0
 40
5.0
 40
5.0
 40
6.0
 40
6.0
 40
6.0
 40
7.0
 40
7.0
 40
7.0
 40
8.0
 40
8.0
 40
8.0
 40
8.0
 10
91.94683348757418
 20
-116.2423591376061
 10
91.94683348757418
 20
-116.2423591376061
 10
91.94683348757418
 20
-111.2600433055184
 10
91.94683348757418
 20
-111.2600433055184
 10
91.93720265448655
 20
-111.2600433055184
 10
91.92891237692028
 20
-111.2517883055205
 10
91.92891237692028
 20
-111.2421221944118
 10
91.92891237692028
 20
-111.2421221944118
 10
89.44637994025496
 20
-111.2421221944118
 10
89.44637994025496
 20
-111.2421221944118
 10
89.44637994025496
 20
-111.2421221944118
 10
89.44637994025496
 20
-141.2248113535826
 10
89.44637994025496
 20
-141.2248113535826
 10
89.45636355111137
 20
-141.2248113535826
 10
89.46430105090886
 20
-141.2323960758032
 10
89.46430105090886
 20
-141.242026909134
 10
89.46430105090886
 20
-141.242026909134
 10
91.92891237692028
 20
-141.242026909134
 10
91.92891237692028
 20
-141.242026909134
 10
91.92891237692028
 20
-141.2323960758032
 10
91.93720265448655
 20
-141.2248113535826
 10
91.94683348757418
 20
-141.2248113535826
 10
91.94683348757418
 20
-141.2248113535826
 10
91.94683348757418
 20
-116.2423591376061
 10
91.94683348757418
 20
-116.2423591376061
 97
        0
 97
        0
 75
     2
 76
     1
 98
        0
  0
SPLINE
  5
47
330
1F
100
AcDbEntity
  8
_U+30EC_U+30A4_U+30E4_U+30FC 1
370
     0
100
AcDbSpline
210
0.0
220
0.0
230
1.0
 70
    11
 71
     3
 72
    26
 73
    22
 74
     0
 42
0.0000000001
 43
0.0000000001
 12
1.0
 22
0.0
 32
0.0
 13
1.0
 23
0.0
 33
0.0
 40
0.0
 40
0.0
 40
0.0
 40
0.0
 40
1.0
 40
1.0
 40
1.0
 40
2.0
 40
2.0
 40
2.0
 40
3.0
 40
3.0
 40
3.0
 40
4.0
 40
4.0
 40
4.0
 40
5.0
 40
5.0
 40
5.0
 40
6.0
 40
6.0
 40
6.0
 40
7.0
 40
7.0
 40
7.0
 40
7.0
 10
89.44637994025496
 20
-111.2421221944118
 30
0.0
 10
89.44637994025496
 20
-111.2421221944118
 30
0.0
 10
82.1965166461174
 20
-111.2421221944118
 30
0.0
 10
82.1965166461174
 20
-111.2421221944118
 30
0.0
 10
82.1965166461174
 20
-111.2421221944118
 30
0.0
 10
82.1965166461174
 20
-116.2423591376061
 30
0.0
 10
82.1965166461174
 20
-116.2423591376061
 30
0.0
 10
82.1965166461174
 20
-116.2423591376061
 30
0.0
 10
82.94687497926328
 20
-116.2423591376061
 30
0.0
 10
82.94687497926328
 20
-116.2423591376061
 30
0.0
 10
82.94687497926328
 20
-116.2423591376061
 30
0.0
 10
82.94687497926328
 20
-141.242026909134
 30
0.0
 10
82.94687497926328
 20
-141.242026909134
 30
0.0
 10
82.94687497926328
 20
-141.242026909134
 30
0.0
 10
89.42916664430938
 20
-141.242026909134
 30
0.0
 10
89.42916664430938
 20
-141.242026909134
 30
0.0
 10
89.42916664430938
 20
-141.2323960758032
 30
0.0
 10
89.43674910716733
 20
-141.2248113535826
 30
0.0
 10
89.44637994025496
 20
-141.2248113535826
 30
0.0
 10
89.44637994025496
 20
-141.2248113535826
 30
0.0
 10
89.44637994025496
 20
-111.2421221944118
 30
0.0
 10
89.44637994025496
 20
-111.2421221944118
 30
0.0
  0
HATCH
  5
48
330
1F
100
AcDbEntity
  8
_U+30EC_U+30A4_U+30E4_U+30FC 1
 62
   253
420
 11711154
100
AcDbHatch
 10
0.0
 20
0.0
 30
0.0
210
0.0
220
0.0
230
1.0
  2
SOLID
 70
     1
 71
     0
 91
        1
 92
        1
 93
        1
 72
     4
 94
        3
 73
     0
 74
     1
 95
       26
 96
       22
 40
0.0
 40
0.0
 40
0.0
 40
0.0
 40
1.0
 40
1.0
 40
1.0
 40
2.0
 40
2.0
 40
2.0
 40
3.0
 40
3.0
 40
3.0
 40
4.0
 40
4.0
 40
4.0
 40
5.0
 40
5.0
 40
5.0
 40
6.0
 40
6.0
 40
6.0
 40
7.0
 40
7.0
 40
7.0
 40
7.0
 10
89.44637994025496
 20
-111.2421221944118
 10
89.44637994025496
 20
-111.2421221944118
 10
82.1965166461174
 20
-111.2421221944118
 10
82.1965166461174
 20
-111.2421221944118
 10
82.1965166461174
 20
-111.2421221944118
 10
82.1965166461174
 20
-116.2423591376061
 10
82.1965166461174
 20
-116.2423591376061
 10
82.1965166461174
 20
-116.2423591376061
 10
82.94687497926328
 20
-116.2423591376061
 10
82.94687497926328
 20
-116.2423591376061
 10
82.94687497926328
 20
-116.2423591376061
 10
82.94687497926328
 20
-141.242026909134
 10
82.94687497926328
 20
-141.242026909134
 10
82.94687497926328
 20
-141.242026909134
 10
89.42916664430938
 20
-141.242026909134
 10
89.42916664430938
 20
-141.242026909134
 10
89.42916664430938
 20
-141.2323960758032
 10
89.43674910716733
 20
-141.2248113535826
 10
89.44637994025496
 20
-141.2248113535826
 10
89.44637994025496
 20
-141.2248113535826
 10
89.44637994025496
 20
-111.2421221944118
 10
89.44637994025496
 20
-111.2421221944118
 97
        0
 97
        0
 75
     2
 76
     1
 98
        0
  0
POLYLINE
  5
49
330
1F
100
AcDbEntity
  8
_U+30EC_U+30A4_U+30E4_U+30FC 1
 62
   179
420
  2234388
370
    25
100
AcDb2dPolyline
 66
     1
 10
0.0
 20
0.0
 30
0.0
  0
VERTEX
  5
4A
330
49
100
AcDbEntity
  8
_U+30EC_U+30A4_U+30E4_U+30FC 1
 62
   179
420
  2234388
370
    25
100
AcDbVertex
100
AcDb2dVertex
 10
91.94683348757418
 20
-116.2423591376061
 30
0.0
  0
VERTEX
  5
4B
330
49
100
AcDbEntity
  8
_U+30EC_U+30A4_U+30E4_U+30FC 1
 62
   179
420
  2234388
370
    25
100
AcDbVertex
100
AcDb2dVertex
 10
99.44681829623363
 20
-116.2423591376061
 30
0.0
  0
SEQEND
  5
4C
330
49
100
AcDbEntity
  8
_U+30EC_U+30A4_U+30E4_U+30FC 1
 62
   179
420
  2234388
370
    25
  0
POLYLINE
  5
4D
330
1F
100
AcDbEntity
  8
_U+30EC_U+30A4_U+30E4_U+30FC 1
 62
   179
420
  2234388
370
    25
100
AcDb2dPolyline
 66
     1
 10
0.0
 20
0.0
 30
0.0
  0
VERTEX
  5
4E
330
4D
100
AcDbEntity
  8
_U+30EC_U+30A4_U+30E4_U+30FC 1
 62
   179
420
  2234388
370
    25
100
AcDbVertex
100
AcDb2dVertex
 10
99.44681829623363
 20
-116.2423591376061
 30
0.0
  0
VERTEX
  5
4F
330
4D
100
AcDbEntity
  8
_U+30EC_U+30A4_U+30E4_U+30FC 1
 62
   179
420
  2234388
370
    25
100
AcDbVertex
100
AcDb2dVertex
 10
99.44681829623363
 20
-141.242026909134
 30
0.0
  0
SEQEND
  5
50
330
4D
100
AcDbEntity
  8
_U+30EC_U+30A4_U+30E4_U+30FC 1
 62
   179
420
  2234388
370
    25
  0
POLYLINE
  5
51
330
1F
100
AcDbEntity
  8
_U+30EC_U+30A4_U+30E4_U+30FC 1
 62
   179
420
  2234388
370
    25
100
AcDb2dPolyline
 66
     1
 10
0.0
 20
0.0
 30
0.0
  0
VERTEX
  5
52
330
51
100
AcDbEntity
  8
_U+30EC_U+30A4_U+30E4_U+30FC 1
 62
   179
420
  2234388
370
    25
100
AcDbVertex
100
AcDb2dVertex
 10
82.1965166461174
 20
-141.242026909134
 30
0.0
  0
VERTEX
  5
53
330
51
100
AcDbEntity
  8
_U+30EC_U+30A4_U+30E4_U+30FC 1
 62
   179
420
  2234388
370
    25
100
AcDbVertex
100
AcDb2dVertex
 10
99.44681829623363
 20
-141.242026909134
 30
0.0
  0
SEQEND
  5
54
330
51
100
AcDbEntity
  8
_U+30EC_U+30A4_U+30E4_U+30FC 1
 62
   179
420
  2234388
370
    25
  0
POLYLINE
  5
55
330
1F
100
AcDbEntity
  8
_U+30EC_U+30A4_U+30E4_U+30FC 1
 62
   179
420
  2234388
370
    25
100
AcDb2dPolyline
 66
     1
 10
0.0
 20
0.0
 30
0.0
  0
VERTEX
  5
56
330
55
100
AcDbEntity
  8
_U+30EC_U+30A4_U+30E4_U+30FC 1
 62
   179
420
  2234388
370
    25
100
AcDbVertex
100
AcDb2dVertex
 10
91.94683348757418
 20
-111.2421221944118
 30
0.0
  0
VERTEX
  5
57
330
55
100
AcDbEntity
  8
_U+30EC_U+30A4_U+30E4_U+30FC 1
 62
   179
420
  2234388
370
    25
100
AcDbVertex
100
AcDb2dVertex
 10
91.94683348757418
 20
-141.242026909134
 30
0.0
  0
SEQEND
  5
58
330
55
100
AcDbEntity
  8
_U+30EC_U+30A4_U+30E4_U+30FC 1
 62
   179
420
  2234388
370
    25
  0
POLYLINE
  5
59
330
1F
100
AcDbEntity
  8
_U+30EC_U+30A4_U+30E4_U+30FC 1
 62
   179
420
  2234388
370
    25
100
AcDb2dPolyline
 66
     1
 10
0.0
 20
0.0
 30
0.0
  0
VERTEX
  5
5A
330
59
100
AcDbEntity
  8
_U+30EC_U+30A4_U+30E4_U+30FC 1
 62
   179
420
  2234388
370
    25
100
AcDbVertex
100
AcDb2dVertex
 10
89.44637994025496
 20
-111.2421221944118
 30
0.0
  0
VERTEX
  5
5B
330
59
100
AcDbEntity
  8
_U+30EC_U+30A4_U+30E4_U+30FC 1
 62
   179
420
  2234388
370
    25
100
AcDbVertex
100
AcDb2dVertex
 10
89.44637994025496
 20
-141.242026909134
 30
0.0
  0
SEQEND
  5
5C
330
59
100
AcDbEntity
  8
_U+30EC_U+30A4_U+30E4_U+30FC 1
 62
   179
420
  2234388
370
    25
  0
POLYLINE
  5
5D
330
1F
100
AcDbEntity
  8
_U+30EC_U+30A4_U+30E4_U+30FC 1
 62
   179
420
  2234388
370
    25
100
AcDb2dPolyline
 66
     1
 10
0.0
 20
0.0
 30
0.0
  0
VERTEX
  5
5E
330
5D
100
AcDbEntity
  8
_U+30EC_U+30A4_U+30E4_U+30FC 1
 62
   179
420
  2234388
370
    25
100
AcDbVertex
100
AcDb2dVertex
 10
82.1965166461174
 20
-111.2421221944118
 30
0.0
  0
VERTEX
  5
5F
330
5D
100
AcDbEntity
  8
_U+30EC_U+30A4_U+30E4_U+30FC 1
 62
   179
420
  2234388
370
    25
100
AcDbVertex
100
AcDb2dVertex
 10
91.94683348757418
 20
-111.2421221944118
 30
0.0
  0
SEQEND
  5
60
330
5D
100
AcDbEntity
  8
_U+30EC_U+30A4_U+30E4_U+30FC 1
 62
   179
420
  2234388
370
    25
  0
POLYLINE
  5
61
330
1F
100
AcDbEntity
  8
_U+30EC_U+30A4_U+30E4_U+30FC 1
 62
   179
420
  2234388
370
    25
100
AcDb2dPolyline
 66
     1
 10
0.0
 20
0.0
 30
0.0
  0
VERTEX
  5
62
330
61
100
AcDbEntity
  8
_U+30EC_U+30A4_U+30E4_U+30FC 1
 62
   179
420
  2234388
370
    25
100
AcDbVertex
100
AcDb2dVertex
 10
82.1965166461174
 20
-111.2421221944118
 30
0.0
  0
VERTEX
  5
63
330
61
100
AcDbEntity
  8
_U+30EC_U+30A4_U+30E4_U+30FC 1
 62
   179
420
  2234388
370
    25
100
AcDbVertex
100
AcDb2dVertex
 10
82.1965166461174
 20
-141.242026909134
 30
0.0
  0
SEQEND
  5
64
330
61
100
AcDbEntity
  8
_U+30EC_U+30A4_U+30E4_U+30FC 1
 62
   179
420
  2234388
370
    25
  0
POLYLINE
  5
65
330
1F
100
AcDbEntity
  8
_U+30EC_U+30A4_U+30E4_U+30FC 1
 62
   179
420
  2234388
370
    25
100
AcDb2dPolyline
 66
     1
 10
0.0
 20
0.0
 30
0.0
  0
VERTEX
  5
66
330
65
100
AcDbEntity
  8
_U+30EC_U+30A4_U+30E4_U+30FC 1
 62
   179
420
  2234388
370
    25
100
AcDbVertex
100
AcDb2dVertex
 10
82.94687497926328
 20
-116.2423591376061
 30
0.0
  0
VERTEX
  5
67
330
65
100
AcDbEntity
  8
_U+30EC_U+30A4_U+30E4_U+30FC 1
 62
   179
420
  2234388
370
    25
100
AcDbVertex
100
AcDb2dVertex
 10
82.94687497926328
 20
-141.242026909134
 30
0.0
  0
SEQEND
  5
68
330
65
100
AcDbEntity
  8
_U+30EC_U+30A4_U+30E4_U+30FC 1
 62
   179
420
  2234388
370
    25
  0
POLYLINE
  5
69
330
1F
100
AcDbEntity
  8
_U+30EC_U+30A4_U+30E4_U+30FC 1
  6
AI-Linetype-1
 62
   179
420
  2234388
370
     9
100
AcDb2dPolyline
 66
     1
 10
0.0
 20
0.0
 30
0.0
  0
VERTEX
  5
6A
330
69
100
AcDbEntity
  8
_U+30EC_U+30A4_U+30E4_U+30FC 1
  6
AI-Linetype-1
 62
   179
420
  2234388
370
     9
100
AcDbVertex
100
AcDb2dVertex
 10
80.69653877459311
 20
-119.4924655256823
 30
0.0
  0
VERTEX
  5
6B
330
69
100
AcDbEntity
  8
_U+30EC_U+30A4_U+30E4_U+30FC 1
  6
AI-Linetype-1
 62
   179
420
  2234388
370
     9
100
AcDbVertex
100
AcDb2dVertex
 10
84.44688608999954
 20
-119.4924655256823
 30
0.0
  0
SEQEND
  5
6D
330
69
100
AcDbEntity
  8
_U+30EC_U+30A4_U+30E4_U+30FC 1
  6
AI-Linetype-1
 62
   179
420
  2234388
370
     9
  0
POLYLINE
  5
6E
330
1F
100
AcDbEntity
  8
_U+30EC_U+30A4_U+30E4_U+30FC 1
  6
AI-Linetype-2
 62
   179
420
  2234388
370
     9
100
AcDb2dPolyline
 66
     1
 10
0.0
 20
0.0
 30
0.0
  0
VERTEX
  5
6F
330
6E
100
AcDbEntity
  8
_U+30EC_U+30A4_U+30E4_U+30FC 1
  6
AI-Linetype-2
 62
   179
420
  2234388
370
     9
100
AcDbVertex
100
AcDb2dVertex
 10
80.69653877459311
 20
-133.4919224666269
 30
0.0
  0
VERTEX
  5
70
330
6E
100
AcDbEntity
  8
_U+30EC_U+30A4_U+30E4_U+30FC 1
  6
AI-Linetype-2
 62
   179
420
  2234388
370
     9
100
AcDbVertex
100
AcDb2dVertex
 10
84.44688608999954
 20
-133.4919224666269
 30
0.0
  0
SEQEND
  5
72
330
6E
100
AcDbEntity
  8
_U+30EC_U+30A4_U+30E4_U+30FC 1
  6
AI-Linetype-2
 62
   179
420
  2234388
370
     9
  0
POLYLINE
  5
73
330
1F
100
AcDbEntity
  8
_U+30EC_U+30A4_U+30E4_U+30FC 1
 62
   179
420
  2234388
370
    25
100
AcDb2dPolyline
 66
     1
 10
0.0
 20
0.0
 30
0.0
  0
VERTEX
  5
74
330
73
100
AcDbEntity
  8
_U+30EC_U+30A4_U+30E4_U+30FC 1
 62
   179
420
  2234388
370
    25
100
AcDbVertex
100
AcDb2dVertex
 10
82.1965166461174
 20
-116.2423591376061
 30
0.0
  0
VERTEX
  5
75
330
73
100
AcDbEntity
  8
_U+30EC_U+30A4_U+30E4_U+30FC 1
 62
   179
420
  2234388
370
    25
100
AcDbVertex
100
AcDb2dVertex
 10
82.94687497926328
 20
-116.2423591376061
 30
0.0
  0
SEQEND
  5
76
330
73
100
AcDbEntity
  8
_U+30EC_U+30A4_U+30E4_U+30FC 1
 62
   179
420
  2234388
370
    25
  0
SPLINE
  5
77
330
1F
100
AcDbEntity
  8
_U+30EC_U+30A4_U+30E4_U+30FC 1
 62
   179
420
  2234388
370
     9
100
AcDbSpline
210
0.0
220
0.0
230
1.0
 70
    11
 71
     3
 72
    17
 73
    13
 74
     0
 42
0.0000000001
 43
0.0000000001
 12
1.0
 22
0.0
 32
0.0
 13
1.0
 23
0.0
 33
0.0
 40
0.0
 40
0.0
 40
0.0
 40
0.0
 40
1.0
 40
1.0
 40
1.0
 40
2.0
 40
2.0
 40
2.0
 40
3.0
 40
3.0
 40
3.0
 40
4.0
 40
4.0
 40
4.0
 40
4.0
 10
101.4966360857371
 20
-111.2421221944118
 30
0.0
 10
101.4966360857371
 20
-111.214570249974
 30
0.0
 10
101.4742674111758
 20
-111.1918513610911
 30
0.0
 10
101.4466801896573
 20
-111.1918513610911
 30
0.0
 10
101.418775468147
 20
-111.1918513610911
 30
0.0
 10
101.3967268575984
 20
-111.214570249974
 30
0.0
 10
101.3967268575984
 20
-111.2421221944118
 30
0.0
 10
101.3967268575984
 20
-111.2697094166271
 30
0.0
 10
101.418775468147
 20
-111.2924283055101
 30
0.0
 10
101.4466801896573
 20
-111.2924283055101
 30
0.0
 10
101.4742674111758
 20
-111.2924283055101
 30
0.0
 10
101.4966360857371
 20
-111.2697094166271
 30
0.0
 10
101.4966360857371
 20
-111.2421221944118
 30
0.0
  0
SPLINE
  5
78
330
1F
100
AcDbEntity
  8
_U+30EC_U+30A4_U+30E4_U+30FC 1
 62
   179
420
  2234388
370
     9
100
AcDbSpline
210
0.0
220
0.0
230
1.0
 70
    11
 71
     3
 72
    17
 73
    13
 74
     0
 42
0.0000000001
 43
0.0000000001
 12
1.0
 22
0.0
 32
0.0
 13
1.0
 23
0.0
 33
0.0
 40
0.0
 40
0.0
 40
0.0
 40
0.0
 40
1.0
 40
1.0
 40
1.0
 40
2.0
 40
2.0
 40
2.0
 40
3.0
 40
3.0
 40
3.0
 40
4.0
 40
4.0
 40
4.0
 40
4.0
 10
101.4966360857371
 20
-116.2423591376061
 30
0.0
 10
101.4966360857371
 20
-116.2147719153908
 30
0.0
 10
101.4742674111758
 20
-116.1920530265075
 30
0.0
 10
101.4466801896573
 20
-116.1920530265075
 30
0.0
 10
101.418775468147
 20
-116.1920530265075
 30
0.0
 10
101.3967268575984
 20
-116.2147719153908
 30
0.0
 10
101.3967268575984
 20
-116.2423591376061
 30
0.0
 10
101.3967268575984
 20
-116.2699110820436
 30
0.0
 10
101.418775468147
 20
-116.2919596931492
 30
0.0
 10
101.4466801896573
 20
-116.2919596931492
 30
0.0
 10
101.4742674111758
 20
-116.2919596931492
 30
0.0
 10
101.4966360857371
 20
-116.2699110820436
 30
0.0
 10
101.4966360857371
 20
-116.2423591376061
 30
0.0
  0
SPLINE
  5
79
330
1F
100
AcDbEntity
  8
_U+30EC_U+30A4_U+30E4_U+30FC 1
 62
   179
420
  2234388
370
     9
100
AcDbSpline
210
0.0
220
0.0
230
1.0
 70
    11
 71
     3
 72
    17
 73
    13
 74
     0
 42
0.0000000001
 43
0.0000000001
 12
1.0
 22
0.0
 32
0.0
 13
1.0
 23
0.0
 33
0.0
 40
0.0
 40
0.0
 40
0.0
 40
0.0
 40
1.0
 40
1.0
 40
1.0
 40
2.0
 40
2.0
 40
2.0
 40
3.0
 40
3.0
 40
3.0
 40
4.0
 40
4.0
 40
4.0
 40
4.0
 10
103.496886085237
 20
-111.2421221944118
 30
0.0
 10
103.496886085237
 20
-111.214570249974
 30
0.0
 10
103.4741293045995
 20
-111.1918513610911
 30
0.0
 10
103.4465773608579
 20
-111.1918513610911
 30
0.0
 10
103.4190254171164
 20
-111.1918513610911
 30
0.0
 10
103.396624028799
 20
-111.214570249974
 30
0.0
 10
103.396624028799
 20
-111.2421221944118
 30
0.0
 10
103.396624028799
 20
-111.2697094166271
 30
0.0
 10
103.4190254171164
 20
-111.2924283055101
 30
0.0
 10
103.4465773608579
 20
-111.2924283055101
 30
0.0
 10
103.4741293045995
 20
-111.2924283055101
 30
0.0
 10
103.496886085237
 20
-111.2697094166271
 30
0.0
 10
103.496886085237
 20
-111.2421221944118
 30
0.0
  0
SPLINE
  5
7A
330
1F
100
AcDbEntity
  8
_U+30EC_U+30A4_U+30E4_U+30FC 1
 62
   179
420
  2234388
370
     9
100
AcDbSpline
210
0.0
220
0.0
230
1.0
 70
    11
 71
     3
 72
    17
 73
    13
 74
     0
 42
0.0000000001
 43
0.0000000001
 12
1.0
 22
0.0
 32
0.0
 13
1.0
 23
0.0
 33
0.0
 40
0.0
 40
0.0
 40
0.0
 40
0.0
 40
1.0
 40
1.0
 40
1.0
 40
2.0
 40
2.0
 40
2.0
 40
3.0
 40
3.0
 40
3.0
 40
4.0
 40
4.0
 40
4.0
 40
4.0
 10
103.496886085237
 20
-141.242026909134
 30
0.0
 10
103.496886085237
 20
-141.2144749646963
 30
0.0
 10
103.4741293045995
 20
-141.1924263535907
 30
0.0
 10
103.4465773608579
 20
-141.1924263535907
 30
0.0
 10
103.4190254171164
 20
-141.1924263535907
 30
0.0
 10
103.396624028799
 20
-141.2144749646963
 30
0.0
 10
103.396624028799
 20
-141.242026909134
 30
0.0
 10
103.396624028799
 20
-141.2695788535712
 30
0.0
 10
103.4190254171164
 20
-141.2923330202323
 30
0.0
 10
103.4465773608579
 20
-141.2923330202323
 30
0.0
 10
103.4741293045995
 20
-141.2923330202323
 30
0.0
 10
103.496886085237
 20
-141.2695788535712
 30
0.0
 10
103.496886085237
 20
-141.242026909134
 30
0.0
  0
SPLINE
  5
7B
330
1F
100
AcDbEntity
  8
_U+30EC_U+30A4_U+30E4_U+30FC 1
 62
   179
420
  2234388
370
    25
100
AcDbSpline
210
0.0
220
0.0
230
1.0
 70
    11
 71
     3
 72
    17
 73
    13
 74
     0
 42
0.0000000001
 43
0.0000000001
 12
1.0
 22
0.0
 32
0.0
 13
1.0
 23
0.0
 33
0.0
 40
0.0
 40
0.0
 40
0.0
 40
0.0
 40
1.0
 40
1.0
 40
1.0
 40
2.0
 40
2.0
 40
2.0
 40
3.0
 40
3.0
 40
3.0
 40
4.0
 40
4.0
 40
4.0
 40
4.0
 10
97.44660362504113
 20
-119.4924655256823
 30
0.0
 10
97.44660362504113
 20
-118.8020441369662
 30
0.0
 10
96.88709808375975
 20
-118.241868303773
 30
0.0
 10
96.19671199026186
 20
-118.241868303773
 30
0.0
 10
95.50632589676397
 20
-118.241868303773
 30
0.0
 10
94.94682035548259
 20
-118.8020441369662
 30
0.0
 10
94.94682035548259
 20
-119.4924655256823
 30
0.0
 10
94.94682035548259
 20
-120.1821460810658
 30
0.0
 10
95.50632589676397
 20
-120.7423219142589
 30
0.0
 10
96.19671199026186
 20
-120.7423219142589
 30
0.0
 10
96.88709808375975
 20
-120.7423219142589
 30
0.0
 10
97.44660362504113
 20
-120.1821460810658
 30
0.0
 10
97.44660362504113
 20
-119.4924655256823
 30
0.0
  0
SPLINE
  5
7C
330
1F
100
AcDbEntity
  8
_U+30EC_U+30A4_U+30E4_U+30FC 1
 62
   179
420
  2234388
370
    25
100
AcDbSpline
210
0.0
220
0.0
230
1.0
 70
    11
 71
     3
 72
    17
 73
    13
 74
     0
 42
0.0000000001
 43
0.0000000001
 12
1.0
 22
0.0
 32
0.0
 13
1.0
 23
0.0
 33
0.0
 40
0.0
 40
0.0
 40
0.0
 40
0.0
 40
1.0
 40
1.0
 40
1.0
 40
2.0
 40
2.0
 40
2.0
 40
3.0
 40
3.0
 40
3.0
 40
4.0
 40
4.0
 40
4.0
 40
4.0
 10
97.44660362504113
 20
-133.4919224666269
 30
0.0
 10
97.44660362504113
 20
-132.8015363556883
 30
0.0
 10
96.88709808375975
 20
-132.2420660780504
 30
0.0
 10
96.19671199026186
 20
-132.2420660780504
 30
0.0
 10
95.50632589676397
 20
-132.2420660780504
 30
0.0
 10
94.94682035548259
 20
-132.8015363556883
 30
0.0
 10
94.94682035548259
 20
-133.4919224666269
 30
0.0
 10
94.94682035548259
 20
-134.1823438553431
 30
0.0
 10
95.50632589676397
 20
-134.741814132981
 30
0.0
 10
96.19671199026186
 20
-134.741814132981
 30
0.0
 10
96.88709808375975
 20
-134.741814132981
 30
0.0
 10
97.44660362504113
 20
-134.1823438553431
 30
0.0
 10
97.44660362504113
 20
-133.4919224666269
 30
0.0
  0
SPLINE
  5
7D
330
1F
100
AcDbEntity
  8
_U+30EC_U+30A4_U+30E4_U+30FC 1
 62
   179
420
  2234388
370
     9
100
AcDbSpline
210
0.0
220
0.0
230
1.0
 70
    11
 71
     3
 72
    17
 73
    13
 74
     0
 42
0.0000000001
 43
0.0000000001
 12
1.0
 22
0.0
 32
0.0
 13
1.0
 23
0.0
 33
0.0
 40
0.0
 40
0.0
 40
0.0
 40
0.0
 40
1.0
 40
1.0
 40
1.0
 40
2.0
 40
2.0
 40
2.0
 40
3.0
 40
3.0
 40
3.0
 40
4.0
 40
4.0
 40
4.0
 40
4.0
 10
82.99647343813912
 20
-143.2422416308559
 30
0.0
 10
82.99647343813912
 20
-143.2146896864187
 30
0.0
 10
82.97442482759051
 20
-143.1919355197576
 30
0.0
 10
82.94687497926328
 20
-143.1919355197576
 30
0.0
 10
82.91932094010744
 20
-143.1919355197576
 30
0.0
 10
82.89656677402128
 20
-143.2146896864187
 30
0.0
 10
82.89656677402128
 20
-143.2422416308559
 30
0.0
 10
82.89656677402128
 20
-143.2697935752936
 30
0.0
 10
82.91932094010744
 20
-143.2918421863992
 30
0.0
 10
82.94687497926328
 20
-143.2918421863992
 30
0.0
 10
82.97442482759051
 20
-143.2918421863992
 30
0.0
 10
82.99647343813912
 20
-143.2697935752936
 30
0.0
 10
82.99647343813912
 20
-143.2422416308559
 30
0.0
  0
SPLINE
  5
7E
330
1F
100
AcDbEntity
  8
_U+30EC_U+30A4_U+30E4_U+30FC 1
 62
   179
420
  2234388
370
     9
100
AcDbSpline
210
0.0
220
0.0
230
1.0
 70
    11
 71
     3
 72
    17
 73
    13
 74
     0
 42
0.0000000001
 43
0.0000000001
 12
1.0
 22
0.0
 32
0.0
 13
1.0
 23
0.0
 33
0.0
 40
0.0
 40
0.0
 40
0.0
 40
0.0
 40
1.0
 40
1.0
 40
1.0
 40
2.0
 40
2.0
 40
2.0
 40
3.0
 40
3.0
 40
3.0
 40
4.0
 40
4.0
 40
4.0
 40
4.0
 10
82.24682067948658
 20
-143.2422416308559
 30
0.0
 10
82.24682067948658
 20
-143.2146896864187
 30
0.0
 10
82.22410179117729
 20
-143.1919355197576
 30
0.0
 10
82.1965166461174
 20
-143.1919355197576
 30
0.0
 10
82.16896262591735
 20
-143.1919355197576
 30
0.0
 10
82.14691401536874
 20
-143.2146896864187
 30
0.0
 10
82.14691401536874
 20
-143.2422416308559
 30
0.0
 10
82.14691401536874
 20
-143.2697935752936
 30
0.0
 10
82.16896262591735
 20
-143.2918421863992
 30
0.0
 10
82.1965166461174
 20
-143.2918421863992
 30
0.0
 10
82.22410179117729
 20
-143.2918421863992
 30
0.0
 10
82.24682067948658
 20
-143.2697935752936
 30
0.0
 10
82.24682067948658
 20
-143.2422416308559
 30
0.0
  0
SPLINE
  5
7F
330
1F
100
AcDbEntity
  8
_U+30EC_U+30A4_U+30E4_U+30FC 1
 62
   179
420
  2234388
370
     9
100
AcDbSpline
210
0.0
220
0.0
230
1.0
 70
    11
 71
     3
 72
    17
 73
    13
 74
     0
 42
0.0000000001
 43
0.0000000001
 12
1.0
 22
0.0
 32
0.0
 13
1.0
 23
0.0
 33
0.0
 40
0.0
 40
0.0
 40
0.0
 40
0.0
 40
1.0
 40
1.0
 40
1.0
 40
2.0
 40
2.0
 40
2.0
 40
3.0
 40
3.0
 40
3.0
 40
4.0
 40
4.0
 40
4.0
 40
4.0
 10
82.24682067948658
 20
-145.2424563525783
 30
0.0
 10
82.24682067948658
 20
-145.2142341303632
 30
0.0
 10
82.22410179117729
 20
-145.1921855192575
 30
0.0
 10
82.1965166461174
 20
-145.1921855192575
 30
0.0
 10
82.16896262591735
 20
-145.1921855192575
 30
0.0
 10
82.14691401536874
 20
-145.2142341303632
 30
0.0
 10
82.14691401536874
 20
-145.2424563525783
 30
0.0
 10
82.14691401536874
 20
-145.2700435747936
 30
0.0
 10
82.16896262591735
 20
-145.2920921858992
 30
0.0
 10
82.1965166461174
 20
-145.2920921858992
 30
0.0
 10
82.22410179117729
 20
-145.2920921858992
 30
0.0
 10
82.24682067948658
 20
-145.2700435747936
 30
0.0
 10
82.24682067948658
 20
-145.2424563525783
 30
0.0
  0
SPLINE
  5
80
330
1F
100
AcDbEntity
  8
_U+30EC_U+30A4_U+30E4_U+30FC 1
 62
   179
420
  2234388
370
     9
100
AcDbSpline
210
0.0
220
0.0
230
1.0
 70
    11
 71
     3
 72
    17
 73
    13
 74
     0
 42
0.0000000001
 43
0.0000000001
 12
1.0
 22
0.0
 32
0.0
 13
1.0
 23
0.0
 33
0.0
 40
0.0
 40
0.0
 40
0.0
 40
0.0
 40
1.0
 40
1.0
 40
1.0
 40
2.0
 40
2.0
 40
2.0
 40
3.0
 40
3.0
 40
3.0
 40
4.0
 40
4.0
 40
4.0
 40
4.0
 10
89.49668605008266
 20
-145.2424563525783
 30
0.0
 10
89.49668605008266
 20
-145.2142341303632
 30
0.0
 10
89.47428466176527
 20
-145.1921855192575
 30
0.0
 10
89.44637994025496
 20
-145.1921855192575
 30
0.0
 10
89.41882799651343
 20
-145.1921855192575
 30
0.0
 10
89.39677938596482
 20
-145.2142341303632
 30
0.0
 10
89.39677938596482
 20
-145.2424563525783
 30
0.0
 10
89.39677938596482
 20
-145.2700435747936
 30
0.0
 10
89.41882799651343
 20
-145.2920921858992
 30
0.0
 10
89.44637994025496
 20
-145.2920921858992
 30
0.0
 10
89.47428466176527
 20
-145.2920921858992
 30
0.0
 10
89.49668605008266
 20
-145.2700435747936
 30
0.0
 10
89.49668605008266
 20
-145.2424563525783
 30
0.0
  0
SPLINE
  5
81
330
1F
100
AcDbEntity
  8
_U+30EC_U+30A4_U+30E4_U+30FC 1
 62
   179
420
  2234388
370
     9
100
AcDbSpline
210
0.0
220
0.0
230
1.0
 70
    11
 71
     3
 72
    17
 73
    13
 74
     0
 42
0.0000000001
 43
0.0000000001
 12
1.0
 22
0.0
 32
0.0
 13
1.0
 23
0.0
 33
0.0
 40
0.0
 40
0.0
 40
0.0
 40
0.0
 40
1.0
 40
1.0
 40
1.0
 40
2.0
 40
2.0
 40
2.0
 40
3.0
 40
3.0
 40
3.0
 40
4.0
 40
4.0
 40
4.0
 40
4.0
 10
91.99643404186432
 20
-145.2424563525783
 30
0.0
 10
91.99643404186432
 20
-145.2142341303632
 30
0.0
 10
91.97438543131572
 20
-145.1921855192575
 30
0.0
 10
91.94683348757418
 20
-145.1921855192575
 30
0.0
 10
91.91928154383265
 20
-145.1921855192575
 30
0.0
 10
91.8965273777465
 20
-145.2142341303632
 30
0.0
 10
91.8965273777465
 20
-145.2424563525783
 30
0.0
 10
91.8965273777465
 20
-145.2700435747936
 30
0.0
 10
91.91928154383265
 20
-145.2920921858992
 30
0.0
 10
91.94683348757418
 20
-145.2920921858992
 30
0.0
 10
91.97438543131572
 20
-145.2920921858992
 30
0.0
 10
91.99643404186432
 20
-145.2700435747936
 30
0.0
 10
91.99643404186432
 20
-145.2424563525783
 30
0.0
  0
SPLINE
  5
82
330
1F
100
AcDbEntity
  8
_U+30EC_U+30A4_U+30E4_U+30FC 1
 62
   179
420
  2234388
370
     9
100
AcDbSpline
210
0.0
220
0.0
230
1.0
 70
    11
 71
     3
 72
    17
 73
    13
 74
     0
 42
0.0000000001
 43
0.0000000001
 12
1.0
 22
0.0
 32
0.0
 13
1.0
 23
0.0
 33
0.0
 40
0.0
 40
0.0
 40
0.0
 40
0.0
 40
1.0
 40
1.0
 40
1.0
 40
2.0
 40
2.0
 40
2.0
 40
3.0
 40
3.0
 40
3.0
 40
4.0
 40
4.0
 40
4.0
 40
4.0
 10
99.49641885052377
 20
-145.2424563525783
 30
0.0
 10
99.49641885052377
 20
-145.2142341303632
 30
0.0
 10
99.47437023997517
 20
-145.1921855192575
 30
0.0
 10
99.44681829623363
 20
-145.1921855192575
 30
0.0
 10
99.4192663524921
 20
-145.1921855192575
 30
0.0
 10
99.39651218640593
 20
-145.2142341303632
 30
0.0
 10
99.39651218640593
 20
-145.2424563525783
 30
0.0
 10
99.39651218640593
 20
-145.2700435747936
 30
0.0
 10
99.4192663524921
 20
-145.2920921858992
 30
0.0
 10
99.44681829623363
 20
-145.2920921858992
 30
0.0
 10
99.47437023997517
 20
-145.2920921858992
 30
0.0
 10
99.49641885052377
 20
-145.2700435747936
 30
0.0
 10
99.49641885052377
 20
-145.2424563525783
 30
0.0
  0
POLYLINE
  5
83
330
1F
100
AcDbEntity
  8
_U+30EC_U+30A4_U+30E4_U+30FC 1
 62
   179
420
  2234388
370
     9
100
AcDb2dPolyline
 66
     1
 10
0.0
 20
0.0
 30
0.0
  0
VERTEX
  5
84
330
83
100
AcDbEntity
  8
_U+30EC_U+30A4_U+30E4_U+30FC 1
 62
   179
420
  2234388
370
     9
100
AcDbVertex
100
AcDb2dVertex
 10
101.4466801896573
 20
-111.2421221944118
 30
0.0
  0
VERTEX
  5
85
330
83
100
AcDbEntity
  8
_U+30EC_U+30A4_U+30E4_U+30FC 1
 62
   179
420
  2234388
370
     9
100
AcDbVertex
100
AcDb2dVertex
 10
101.4466801896573
 20
-116.2423591376061
 30
0.0
  0
SEQEND
  5
86
330
83
100
AcDbEntity
  8
_U+30EC_U+30A4_U+30E4_U+30FC 1
 62
   179
420
  2234388
370
     9
  0
POLYLINE
  5
87
330
1F
100
AcDbEntity
  8
_U+30EC_U+30A4_U+30E4_U+30FC 1
 62
   179
420
  2234388
370
     9
100
AcDb2dPolyline
 66
     1
 10
0.0
 20
0.0
 30
0.0
  0
VERTEX
  5
88
330
87
100
AcDbEntity
  8
_U+30EC_U+30A4_U+30E4_U+30FC 1
 62
   179
420
  2234388
370
     9
100
AcDbVertex
100
AcDb2dVertex
 10
100.7166771527257
 20
-111.2421221944118
 30
0.0
  0
VERTEX
  5
89
330
87
100
AcDbEntity
  8
_U+30EC_U+30A4_U+30E4_U+30FC 1
 62
   179
420
  2234388
370
     9
100
AcDbVertex
100
AcDb2dVertex
 10
101.9465662880153
 20
-111.2421221944118
 30
0.0
  0
SEQEND
  5
8A
330
87
100
AcDbEntity
  8
_U+30EC_U+30A4_U+30E4_U+30FC 1
 62
   179
420
  2234388
370
     9
  0
POLYLINE
  5
8B
330
1F
100
AcDbEntity
  8
_U+30EC_U+30A4_U+30E4_U+30FC 1
 62
   179
420
  2234388
370
     9
100
AcDb2dPolyline
 66
     1
 10
0.0
 20
0.0
 30
0.0
  0
VERTEX
  5
8C
330
8B
100
AcDbEntity
  8
_U+30EC_U+30A4_U+30E4_U+30FC 1
 62
   179
420
  2234388
370
     9
100
AcDbVertex
100
AcDb2dVertex
 10
100.7166771527257
 20
-116.2423591376061
 30
0.0
  0
VERTEX
  5
8D
330
8B
100
AcDbEntity
  8
_U+30EC_U+30A4_U+30E4_U+30FC 1
 62
   179
420
  2234388
370
     9
100
AcDbVertex
100
AcDb2dVertex
 10
101.9465662880153
 20
-116.2423591376061
 30
0.0
  0
SEQEND
  5
8E
330
8B
100
AcDbEntity
  8
_U+30EC_U+30A4_U+30E4_U+30FC 1
 62
   179
420
  2234388
370
     9
  0
INSERT
  5
90
330
1F
100
AcDbEntity
  8
_U+30EC_U+30A4_U+30E4_U+30FC 1
100
AcDbBlockReference
  2
block 2
 10
0.0
 20
0.0
 30
0.0
  0
SPLINE
  5
98
330
1F
100
AcDbEntity
  8
_U+30EC_U+30A4_U+30E4_U+30FC 1
 62
   179
420
  2234388
370
    25
100
AcDbSpline
210
0.0
220
0.0
230
1.0
 70
    11
 71
     3
 72
    17
 73
    13
 74
     0
 42
0.0000000001
 43
0.0000000001
 12
1.0
 22
0.0
 32
0.0
 13
1.0
 23
0.0
 33
0.0
 40
0.0
 40
0.0
 40
0.0
 40
0.0
 40
1.0
 40
1.0
 40
1.0
 40
2.0
 40
2.0
 40
2.0
 40
3.0
 40
3.0
 40
3.0
 40
4.0
 40
4.0
 40
4.0
 40
4.0
 10
99.46403385134998
 20
-111.2421221944118
 30
0.0
 10
99.46403385134998
 20
-111.2517883055205
 30
0.0
 10
99.45644912932126
 20
-111.2600433055184
 30
0.0
 10
99.44681829623363
 20
-111.2600433055184
 30
0.0
 10
99.43715218536913
 20
-111.2600433055184
 30
0.0
 10
99.42889718557973
 20
-111.2517883055205
 30
0.0
 10
99.42889718557973
 20
-111.2421221944118
 30
0.0
 10
99.42889718557973
 20
-111.2324913610807
 30
0.0
 10
99.43715218536913
 20
-111.2242363610827
 30
0.0
 10
99.44681829623363
 20
-111.2242363610827
 30
0.0
 10
99.45644912932126
 20
-111.2242363610827
 30
0.0
 10
99.46403385134998
 20
-111.2324913610807
 30
0.0
 10
99.46403385134998
 20
-111.2421221944118
 30
0.0
  0
SPLINE
  5
99
330
1F
100
AcDbEntity
  8
_U+30EC_U+30A4_U+30E4_U+30FC 1
 62
   179
420
  2234388
370
    25
100
AcDbSpline
210
0.0
220
0.0
230
1.0
 70
    11
 71
     3
 72
    17
 73
    13
 74
     0
 42
0.0000000001
 43
0.0000000001
 12
1.0
 22
0.0
 32
0.0
 13
1.0
 23
0.0
 33
0.0
 40
0.0
 40
0.0
 40
0.0
 40
0.0
 40
1.0
 40
1.0
 40
1.0
 40
2.0
 40
2.0
 40
2.0
 40
3.0
 40
3.0
 40
3.0
 40
4.0
 40
4.0
 40
4.0
 40
4.0
 10
99.46403385134998
 20
-116.2423591376061
 30
0.0
 10
99.46403385134998
 20
-116.251989970937
 30
0.0
 10
99.45644912932126
 20
-116.2595746931572
 30
0.0
 10
99.44681829623363
 20
-116.2595746931572
 30
0.0
 10
99.43715218536913
 20
-116.2595746931572
 30
0.0
 10
99.42889718557973
 20
-116.251989970937
 30
0.0
 10
99.42889718557973
 20
-116.2423591376061
 30
0.0
 10
99.42889718557973
 20
-116.2326930264974
 30
0.0
 10
99.43715218536913
 20
-116.2244380264995
 30
0.0
 10
99.44681829623363
 20
-116.2244380264995
 30
0.0
 10
99.45644912932126
 20
-116.2244380264995
 30
0.0
 10
99.46403385134998
 20
-116.2326930264974
 30
0.0
 10
99.46403385134998
 20
-116.2423591376061
 30
0.0
  0
SPLINE
  5
9A
330
1F
100
AcDbEntity
  8
_U+30EC_U+30A4_U+30E4_U+30FC 1
 62
   179
420
  2234388
370
     9
100
AcDbSpline
210
0.0
220
0.0
230
1.0
 70
    11
 71
     3
 72
    17
 73
    13
 74
     0
 42
0.0000000001
 43
0.0000000001
 12
1.0
 22
0.0
 32
0.0
 13
1.0
 23
0.0
 33
0.0
 40
0.0
 40
0.0
 40
0.0
 40
0.0
 40
1.0
 40
1.0
 40
1.0
 40
2.0
 40
2.0
 40
2.0
 40
3.0
 40
3.0
 40
3.0
 40
4.0
 40
4.0
 40
4.0
 40
4.0
 10
101.4642485225425
 20
-116.2423591376061
 30
0.0
 10
101.4642485225425
 20
-116.251989970937
 30
0.0
 10
101.4566990782906
 20
-116.2595746931572
 30
0.0
 10
101.4466801896573
 20
-116.2595746931572
 30
0.0
 10
101.4366965788009
 20
-116.2595746931572
 30
0.0
 10
101.4291118567722
 20
-116.251989970937
 30
0.0
 10
101.4291118567722
 20
-116.2423591376061
 30
0.0
 10
101.4291118567722
 20
-116.2326930264974
 30
0.0
 10
101.4366965788009
 20
-116.2244380264995
 30
0.0
 10
101.4466801896573
 20
-116.2244380264995
 30
0.0
 10
101.4566990782906
 20
-116.2244380264995
 30
0.0
 10
101.4642485225425
 20
-116.2326930264974
 30
0.0
 10
101.4642485225425
 20
-116.2423591376061
 30
0.0
  0
POLYLINE
  5
9B
330
1F
100
AcDbEntity
  8
_U+30EC_U+30A4_U+30E4_U+30FC 1
 62
   179
420
  2234388
370
     9
100
AcDb2dPolyline
 66
     1
 10
0.0
 20
0.0
 30
0.0
  0
VERTEX
  5
9C
330
9B
100
AcDbEntity
  8
_U+30EC_U+30A4_U+30E4_U+30FC 1
 62
   179
420
  2234388
370
     9
100
AcDbVertex
100
AcDb2dVertex
 10
103.4465773608579
 20
-111.2421221944118
 30
0.0
  0
VERTEX
  5
9D
330
9B
100
AcDbEntity
  8
_U+30EC_U+30A4_U+30E4_U+30FC 1
 62
   179
420
  2234388
370
     9
100
AcDbVertex
100
AcDb2dVertex
 10
103.4465773608579
 20
-141.242026909134
 30
0.0
  0
SEQEND
  5
9E
330
9B
100
AcDbEntity
  8
_U+30EC_U+30A4_U+30E4_U+30FC 1
 62
   179
420
  2234388
370
     9
  0
POLYLINE
  5
9F
330
1F
100
AcDbEntity
  8
_U+30EC_U+30A4_U+30E4_U+30FC 1
 62
   179
420
  2234388
370
     9
100
AcDb2dPolyline
 66
     1
 10
0.0
 20
0.0
 30
0.0
  0
VERTEX
  5
A0
330
9F
100
AcDbEntity
  8
_U+30EC_U+30A4_U+30E4_U+30FC 1
 62
   179
420
  2234388
370
     9
100
AcDbVertex
100
AcDb2dVertex
 10
93.21669234406627
 20
-111.2421221944118
 30
0.0
  0
VERTEX
  5
A1
330
9F
100
AcDbEntity
  8
_U+30EC_U+30A4_U+30E4_U+30FC 1
 62
   179
420
  2234388
370
     9
100
AcDbVertex
100
AcDb2dVertex
 10
103.9467809592078
 20
-111.2421221944118
 30
0.0
  0
SEQEND
  5
A2
330
9F
100
AcDbEntity
  8
_U+30EC_U+30A4_U+30E4_U+30FC 1
 62
   179
420
  2234388
370
     9
  0
POLYLINE
  5
A3
330
1F
100
AcDbEntity
  8
_U+30EC_U+30A4_U+30E4_U+30FC 1
 62
   179
420
  2234388
370
     9
100
AcDb2dPolyline
 66
     1
 10
0.0
 20
0.0
 30
0.0
  0
VERTEX
  5
A4
330
A3
100
AcDbEntity
  8
_U+30EC_U+30A4_U+30E4_U+30FC 1
 62
   179
420
  2234388
370
     9
100
AcDbVertex
100
AcDb2dVertex
 10
100.7166771527257
 20
-141.242026909134
 30
0.0
  0
VERTEX
  5
A5
330
A3
100
AcDbEntity
  8
_U+30EC_U+30A4_U+30E4_U+30FC 1
 62
   179
420
  2234388
370
     9
100
AcDbVertex
100
AcDb2dVertex
 10
103.9467809592078
 20
-141.242026909134
 30
0.0
  0
SEQEND
  5
A6
330
A3
100
AcDbEntity
  8
_U+30EC_U+30A4_U+30E4_U+30FC 1
 62
   179
420
  2234388
370
     9
  0
INSERT
  5
A8
330
1F
100
AcDbEntity
  8
_U+30EC_U+30A4_U+30E4_U+30FC 1
100
AcDbBlockReference
  2
block 3
 10
0.0
 20
0.0
 30
0.0
  0
SPLINE
  5
BF
330
1F
100
AcDbEntity
  8
_U+30EC_U+30A4_U+30E4_U+30FC 1
 62
   179
420
  2234388
370
    25
100
AcDbSpline
210
0.0
220
0.0
230
1.0
 70
    11
 71
     3
 72
    17
 73
    13
 74
     0
 42
0.0000000001
 43
0.0000000001
 12
1.0
 22
0.0
 32
0.0
 13
1.0
 23
0.0
 33
0.0
 40
0.0
 40
0.0
 40
0.0
 40
0.0
 40
1.0
 40
1.0
 40
1.0
 40
2.0
 40
2.0
 40
2.0
 40
3.0
 40
3.0
 40
3.0
 40
4.0
 40
4.0
 40
4.0
 40
4.0
 10
91.96404904269053
 20
-111.2421221944118
 30
0.0
 10
91.96404904269053
 20
-111.2517883055205
 30
0.0
 10
91.9564995984387
 20
-111.2600433055184
 30
0.0
 10
91.94683348757418
 20
-111.2600433055184
 30
0.0
 10
91.93720265448655
 20
-111.2600433055184
 30
0.0
 10
91.92891237692028
 20
-111.2517883055205
 30
0.0
 10
91.92891237692028
 20
-111.2421221944118
 30
0.0
 10
91.92891237692028
 20
-111.2324913610807
 30
0.0
 10
91.93720265448655
 20
-111.2242363610827
 30
0.0
 10
91.94683348757418
 20
-111.2242363610827
 30
0.0
 10
91.9564995984387
 20
-111.2242363610827
 30
0.0
 10
91.96404904269053
 20
-111.2324913610807
 30
0.0
 10
91.96404904269053
 20
-111.2421221944118
 30
0.0
  0
SPLINE
  5
C0
330
1F
100
AcDbEntity
  8
_U+30EC_U+30A4_U+30E4_U+30FC 1
 62
   179
420
  2234388
370
    25
100
AcDbSpline
210
0.0
220
0.0
230
1.0
 70
    11
 71
     3
 72
    17
 73
    13
 74
     0
 42
0.0000000001
 43
0.0000000001
 12
1.0
 22
0.0
 32
0.0
 13
1.0
 23
0.0
 33
0.0
 40
0.0
 40
0.0
 40
0.0
 40
0.0
 40
1.0
 40
1.0
 40
1.0
 40
2.0
 40
2.0
 40
2.0
 40
3.0
 40
3.0
 40
3.0
 40
4.0
 40
4.0
 40
4.0
 40
4.0
 10
99.46403385134998
 20
-141.242026909134
 30
0.0
 10
99.46403385134998
 20
-141.2516577424649
 30
0.0
 10
99.45644912932126
 20
-141.2599480202404
 30
0.0
 10
99.44681829623363
 20
-141.2599480202404
 30
0.0
 10
99.43715218536913
 20
-141.2599480202404
 30
0.0
 10
99.42889718557973
 20
-141.2516577424649
 30
0.0
 10
99.42889718557973
 20
-141.242026909134
 30
0.0
 10
99.42889718557973
 20
-141.2323960758032
 30
0.0
 10
99.43715218536913
 20
-141.2248113535826
 30
0.0
 10
99.44681829623363
 20
-141.2248113535826
 30
0.0
 10
99.45644912932126
 20
-141.2248113535826
 30
0.0
 10
99.46403385134998
 20
-141.2323960758032
 30
0.0
 10
99.46403385134998
 20
-141.242026909134
 30
0.0
  0
SPLINE
  5
C1
330
1F
100
AcDbEntity
  8
_U+30EC_U+30A4_U+30E4_U+30FC 1
 62
   179
420
  2234388
370
     9
100
AcDbSpline
210
0.0
220
0.0
230
1.0
 70
    11
 71
     3
 72
    17
 73
    13
 74
     0
 42
0.0000000001
 43
0.0000000001
 12
1.0
 22
0.0
 32
0.0
 13
1.0
 23
0.0
 33
0.0
 40
0.0
 40
0.0
 40
0.0
 40
0.0
 40
1.0
 40
1.0
 40
1.0
 40
2.0
 40
2.0
 40
2.0
 40
3.0
 40
3.0
 40
3.0
 40
4.0
 40
4.0
 40
4.0
 40
4.0
 10
103.4644984715118
 20
-141.242026909134
 30
0.0
 10
103.4644984715118
 20
-141.2516577424649
 30
0.0
 10
103.4562081939456
 20
-141.2599480202404
 30
0.0
 10
103.4465773608579
 20
-141.2599480202404
 30
0.0
 10
103.4369138630298
 20
-141.2599480202404
 30
0.0
 10
103.4290090279728
 20
-141.2516577424649
 30
0.0
 10
103.4290090279728
 20
-141.242026909134
 30
0.0
 10
103.4290090279728
 20
-141.2323960758032
 30
0.0
 10
103.4369138630298
 20
-141.2248113535826
 30
0.0
 10
103.4465773608579
 20
-141.2248113535826
 30
0.0
 10
103.4562081939456
 20
-141.2248113535826
 30
0.0
 10
103.4644984715118
 20
-141.2323960758032
 30
0.0
 10
103.4644984715118
 20
-141.242026909134
 30
0.0
  0
POLYLINE
  5
C2
330
1F
100
AcDbEntity
  8
_U+30EC_U+30A4_U+30E4_U+30FC 1
 62
   179
420
  2234388
370
     9
100
AcDb2dPolyline
 66
     1
 10
0.0
 20
0.0
 30
0.0
  0
VERTEX
  5
C3
330
C2
100
AcDbEntity
  8
_U+30EC_U+30A4_U+30E4_U+30FC 1
 62
   179
420
  2234388
370
     9
100
AcDbVertex
100
AcDb2dVertex
 10
82.1965166461174
 20
-143.2422416308559
 30
0.0
  0
VERTEX
  5
C4
330
C2
100
AcDbEntity
  8
_U+30EC_U+30A4_U+30E4_U+30FC 1
 62
   179
420
  2234388
370
     9
100
AcDbVertex
100
AcDb2dVertex
 10
79.5679321367196
 20
-143.2422416308559
 30
0.0
  0
SEQEND
  5
C5
330
C2
100
AcDbEntity
  8
_U+30EC_U+30A4_U+30E4_U+30FC 1
 62
   179
420
  2234388
370
     9
  0
POLYLINE
  5
C6
330
1F
100
AcDbEntity
  8
_U+30EC_U+30A4_U+30E4_U+30FC 1
 62
   179
420
  2234388
370
     9
100
AcDb2dPolyline
 66
     1
 10
0.0
 20
0.0
 30
0.0
  0
VERTEX
  5
C7
330
C6
100
AcDbEntity
  8
_U+30EC_U+30A4_U+30E4_U+30FC 1
 62
   179
420
  2234388
370
     9
100
AcDbVertex
100
AcDb2dVertex
 10
83.44640831247179
 20
-143.2422416308559
 30
0.0
  0
VERTEX
  5
C8
330
C6
100
AcDbEntity
  8
_U+30EC_U+30A4_U+30E4_U+30FC 1
 62
   179
420
  2234388
370
     9
100
AcDbVertex
100
AcDb2dVertex
 10
82.1965166461174
 20
-143.2422416308559
 30
0.0
  0
SEQEND
  5
C9
330
C6
100
AcDbEntity
  8
_U+30EC_U+30A4_U+30E4_U+30FC 1
 62
   179
420
  2234388
370
     9
  0
POLYLINE
  5
CA
330
1F
100
AcDbEntity
  8
_U+30EC_U+30A4_U+30E4_U+30FC 1
 62
   179
420
  2234388
370
     9
100
AcDb2dPolyline
 66
     1
 10
0.0
 20
0.0
 30
0.0
  0
VERTEX
  5
CB
330
CA
100
AcDbEntity
  8
_U+30EC_U+30A4_U+30E4_U+30FC 1
 62
   179
420
  2234388
370
     9
100
AcDbVertex
100
AcDb2dVertex
 10
82.94687497926328
 20
-142.5118857977053
 30
0.0
  0
VERTEX
  5
CC
330
CA
100
AcDbEntity
  8
_U+30EC_U+30A4_U+30E4_U+30FC 1
 62
   179
420
  2234388
370
     9
100
AcDbVertex
100
AcDb2dVertex
 10
82.94687497926328
 20
-143.7424805196202
 30
0.0
  0
SEQEND
  5
CD
330
CA
100
AcDbEntity
  8
_U+30EC_U+30A4_U+30E4_U+30FC 1
 62
   179
420
  2234388
370
     9
  0
POLYLINE
  5
CE
330
1F
100
AcDbEntity
  8
_U+30EC_U+30A4_U+30E4_U+30FC 1
 62
   179
420
  2234388
370
     9
100
AcDb2dPolyline
 66
     1
 10
0.0
 20
0.0
 30
0.0
  0
VERTEX
  5
CF
330
CE
100
AcDbEntity
  8
_U+30EC_U+30A4_U+30E4_U+30FC 1
 62
   179
420
  2234388
370
     9
100
AcDbVertex
100
AcDb2dVertex
 10
82.1965166461174
 20
-142.5118857977053
 30
0.0
  0
VERTEX
  5
D0
330
CE
100
AcDbEntity
  8
_U+30EC_U+30A4_U+30E4_U+30FC 1
 62
   179
420
  2234388
370
     9
100
AcDbVertex
100
AcDb2dVertex
 10
82.1965166461174
 20
-143.7424805196202
 30
0.0
  0
SEQEND
  5
D1
330
CE
100
AcDbEntity
  8
_U+30EC_U+30A4_U+30E4_U+30FC 1
 62
   179
420
  2234388
370
     9
  0
INSERT
  5
D3
330
1F
100
AcDbEntity
  8
_U+30EC_U+30A4_U+30E4_U+30FC 1
100
AcDbBlockReference
  2
block 4
 10
0.0
 20
0.0
 30
0.0
  0
SPLINE
  5
E2
330
1F
100
AcDbEntity
  8
_U+30EC_U+30A4_U+30E4_U+30FC 1
 62
   179
420
  2234388
370
    25
100
AcDbSpline
210
0.0
220
0.0
230
1.0
 70
    11
 71
     3
 72
    17
 73
    13
 74
     0
 42
0.0000000001
 43
0.0000000001
 12
1.0
 22
0.0
 32
0.0
 13
1.0
 23
0.0
 33
0.0
 40
0.0
 40
0.0
 40
0.0
 40
0.0
 40
1.0
 40
1.0
 40
1.0
 40
2.0
 40
2.0
 40
2.0
 40
3.0
 40
3.0
 40
3.0
 40
4.0
 40
4.0
 40
4.0
 40
4.0
 10
82.96408843896532
 20
-141.242026909134
 30
0.0
 10
82.96408843896532
 20
-141.2516577424649
 30
0.0
 10
82.95650371693661
 20
-141.2599480202404
 30
0.0
 10
82.94687497926328
 20
-141.2599480202404
 30
0.0
 10
82.93688927299257
 20
-141.2599480202404
 30
0.0
 10
82.92895177319507
 20
-141.2516577424649
 30
0.0
 10
82.92895177319507
 20
-141.242026909134
 30
0.0
 10
82.92895177319507
 20
-141.2323960758032
 30
0.0
 10
82.93688927299257
 20
-141.2248113535826
 30
0.0
 10
82.94687497926328
 20
-141.2248113535826
 30
0.0
 10
82.95650371693661
 20
-141.2248113535826
 30
0.0
 10
82.96408843896532
 20
-141.2323960758032
 30
0.0
 10
82.96408843896532
 20
-141.242026909134
 30
0.0
  0
SPLINE
  5
E3
330
1F
100
AcDbEntity
  8
_U+30EC_U+30A4_U+30E4_U+30FC 1
 62
   179
420
  2234388
370
    25
100
AcDbSpline
210
0.0
220
0.0
230
1.0
 70
    11
 71
     3
 72
    17
 73
    13
 74
     0
 42
0.0000000001
 43
0.0000000001
 12
1.0
 22
0.0
 32
0.0
 13
1.0
 23
0.0
 33
0.0
 40
0.0
 40
0.0
 40
0.0
 40
0.0
 40
1.0
 40
1.0
 40
1.0
 40
2.0
 40
2.0
 40
2.0
 40
3.0
 40
3.0
 40
3.0
 40
4.0
 40
4.0
 40
4.0
 40
4.0
 10
82.21443568031279
 20
-141.242026909134
 30
0.0
 10
82.21443568031279
 20
-141.2516577424649
 30
0.0
 10
82.20618068052339
 20
-141.2599480202404
 30
0.0
 10
82.1965166461174
 20
-141.2599480202404
 30
0.0
 10
82.18688373657125
 20
-141.2599480202404
 30
0.0
 10
82.17929901454252
 20
-141.2516577424649
 30
0.0
 10
82.17929901454252
 20
-141.242026909134
 30
0.0
 10
82.17929901454252
 20
-141.2323960758032
 30
0.0
 10
82.18688373657125
 20
-141.2248113535826
 30
0.0
 10
82.1965166461174
 20
-141.2248113535826
 30
0.0
 10
82.20618068052339
 20
-141.2248113535826
 30
0.0
 10
82.21443568031279
 20
-141.2323960758032
 30
0.0
 10
82.21443568031279
 20
-141.242026909134
 30
0.0
  0
SPLINE
  5
E4
330
1F
100
AcDbEntity
  8
_U+30EC_U+30A4_U+30E4_U+30FC 1
 62
   179
420
  2234388
370
     9
100
AcDbSpline
210
0.0
220
0.0
230
1.0
 70
    11
 71
     3
 72
    17
 73
    13
 74
     0
 42
0.0000000001
 43
0.0000000001
 12
1.0
 22
0.0
 32
0.0
 13
1.0
 23
0.0
 33
0.0
 40
0.0
 40
0.0
 40
0.0
 40
0.0
 40
1.0
 40
1.0
 40
1.0
 40
2.0
 40
2.0
 40
2.0
 40
3.0
 40
3.0
 40
3.0
 40
4.0
 40
4.0
 40
4.0
 40
4.0
 10
82.21443568031279
 20
-143.2422416308559
 30
0.0
 10
82.21443568031279
 20
-143.2519077419649
 30
0.0
 10
82.20618068052339
 20
-143.2594571864073
 30
0.0
 10
82.1965166461174
 20
-143.2594571864073
 30
0.0
 10
82.18688373657125
 20
-143.2594571864073
 30
0.0
 10
82.17929901454252
 20
-143.2519077419649
 30
0.0
 10
82.17929901454252
 20
-143.2422416308559
 30
0.0
 10
82.17929901454252
 20
-143.232610797525
 30
0.0
 10
82.18688373657125
 20
-143.2243205197495
 30
0.0
 10
82.1965166461174
 20
-143.2243205197495
 30
0.0
 10
82.20618068052339
 20
-143.2243205197495
 30
0.0
 10
82.21443568031279
 20
-143.232610797525
 30
0.0
 10
82.21443568031279
 20
-143.2422416308559
 30
0.0
  0
POLYLINE
  5
E5
330
1F
100
AcDbEntity
  8
_U+30EC_U+30A4_U+30E4_U+30FC 1
 62
   179
420
  2234388
370
     9
100
AcDb2dPolyline
 66
     1
 10
0.0
 20
0.0
 30
0.0
  0
VERTEX
  5
E6
330
E5
100
AcDbEntity
  8
_U+30EC_U+30A4_U+30E4_U+30FC 1
 62
   179
420
  2234388
370
     9
100
AcDbVertex
100
AcDb2dVertex
 10
82.1965166461174
 20
-145.2424563525783
 30
0.0
  0
VERTEX
  5
E7
330
E5
100
AcDbEntity
  8
_U+30EC_U+30A4_U+30E4_U+30FC 1
 62
   179
420
  2234388
370
     9
100
AcDbVertex
100
AcDb2dVertex
 10
89.44637994025496
 20
-145.2424563525783
 30
0.0
  0
SEQEND
  5
E8
330
E5
100
AcDbEntity
  8
_U+30EC_U+30A4_U+30E4_U+30FC 1
 62
   179
420
  2234388
370
     9
  0
POLYLINE
  5
E9
330
1F
100
AcDbEntity
  8
_U+30EC_U+30A4_U+30E4_U+30FC 1
 62
   179
420
  2234388
370
     9
100
AcDb2dPolyline
 66
     1
 10
0.0
 20
0.0
 30
0.0
  0
VERTEX
  5
EA
330
E9
100
AcDbEntity
  8
_U+30EC_U+30A4_U+30E4_U+30FC 1
 62
   179
420
  2234388
370
     9
100
AcDbVertex
100
AcDb2dVertex
 10
82.1965166461174
 20
-142.5118857977053
 30
0.0
  0
VERTEX
  5
EB
330
E9
100
AcDbEntity
  8
_U+30EC_U+30A4_U+30E4_U+30FC 1
 62
   179
420
  2234388
370
     9
100
AcDbVertex
100
AcDb2dVertex
 10
82.1965166461174
 20
-145.7420249635646
 30
0.0
  0
SEQEND
  5
EC
330
E9
100
AcDbEntity
  8
_U+30EC_U+30A4_U+30E4_U+30FC 1
 62
   179
420
  2234388
370
     9
  0
POLYLINE
  5
ED
330
1F
100
AcDbEntity
  8
_U+30EC_U+30A4_U+30E4_U+30FC 1
 62
   179
420
  2234388
370
     9
100
AcDb2dPolyline
 66
     1
 10
0.0
 20
0.0
 30
0.0
  0
VERTEX
  5
EE
330
ED
100
AcDbEntity
  8
_U+30EC_U+30A4_U+30E4_U+30FC 1
 62
   179
420
  2234388
370
     9
100
AcDbVertex
100
AcDb2dVertex
 10
89.44637994025496
 20
-142.5118857977053
 30
0.0
  0
VERTEX
  5
EF
330
ED
100
AcDbEntity
  8
_U+30EC_U+30A4_U+30E4_U+30FC 1
 62
   179
420
  2234388
370
     9
100
AcDbVertex
100
AcDb2dVertex
 10
89.44637994025496
 20
-145.7420249635646
 30
0.0
  0
SEQEND
  5
F0
330
ED
100
AcDbEntity
  8
_U+30EC_U+30A4_U+30E4_U+30FC 1
 62
   179
420
  2234388
370
     9
  0
INSERT
  5
F2
330
1F
100
AcDbEntity
  8
_U+30EC_U+30A4_U+30E4_U+30FC 1
100
AcDbBlockReference
  2
block 5
 10
0.0
 20
0.0
 30
0.0
  0
SPLINE
  5
116
330
1F
100
AcDbEntity
  8
_U+30EC_U+30A4_U+30E4_U+30FC 1
 62
   179
420
  2234388
370
    25
100
AcDbSpline
210
0.0
220
0.0
230
1.0
 70
    11
 71
     3
 72
    17
 73
    13
 74
     0
 42
0.0000000001
 43
0.0000000001
 12
1.0
 22
0.0
 32
0.0
 13
1.0
 23
0.0
 33
0.0
 40
0.0
 40
0.0
 40
0.0
 40
0.0
 40
1.0
 40
1.0
 40
1.0
 40
2.0
 40
2.0
 40
2.0
 40
3.0
 40
3.0
 40
3.0
 40
4.0
 40
4.0
 40
4.0
 40
4.0
 10
82.21443568031279
 20
-141.242026909134
 30
0.0
 10
82.21443568031279
 20
-141.2516577424649
 30
0.0
 10
82.20618068052339
 20
-141.2599480202404
 30
0.0
 10
82.1965166461174
 20
-141.2599480202404
 30
0.0
 10
82.18688373657125
 20
-141.2599480202404
 30
0.0
 10
82.17929901454252
 20
-141.2516577424649
 30
0.0
 10
82.17929901454252
 20
-141.242026909134
 30
0.0
 10
82.17929901454252
 20
-141.2323960758032
 30
0.0
 10
82.18688373657125
 20
-141.2248113535826
 30
0.0
 10
82.1965166461174
 20
-141.2248113535826
 30
0.0
 10
82.20618068052339
 20
-141.2248113535826
 30
0.0
 10
82.21443568031279
 20
-141.2323960758032
 30
0.0
 10
82.21443568031279
 20
-141.242026909134
 30
0.0
  0
SPLINE
  5
117
330
1F
100
AcDbEntity
  8
_U+30EC_U+30A4_U+30E4_U+30FC 1
 62
   179
420
  2234388
370
    25
100
AcDbSpline
210
0.0
220
0.0
230
1.0
 70
    11
 71
     3
 72
    17
 73
    13
 74
     0
 42
0.0000000001
 43
0.0000000001
 12
1.0
 22
0.0
 32
0.0
 13
1.0
 23
0.0
 33
0.0
 40
0.0
 40
0.0
 40
0.0
 40
0.0
 40
1.0
 40
1.0
 40
1.0
 40
2.0
 40
2.0
 40
2.0
 40
3.0
 40
3.0
 40
3.0
 40
4.0
 40
4.0
 40
4.0
 40
4.0
 10
89.46430105090886
 20
-141.242026909134
 30
0.0
 10
89.46430105090886
 20
-141.2516577424649
 30
0.0
 10
89.45636355111137
 20
-141.2599480202404
 30
0.0
 10
89.44637994025496
 20
-141.2599480202404
 30
0.0
 10
89.43674910716733
 20
-141.2599480202404
 30
0.0
 10
89.42916664430938
 20
-141.2516577424649
 30
0.0
 10
89.42916664430938
 20
-141.242026909134
 30
0.0
 10
89.42916664430938
 20
-141.2323960758032
 30
0.0
 10
89.43674910716733
 20
-141.2248113535826
 30
0.0
 10
89.44637994025496
 20
-141.2248113535826
 30
0.0
 10
89.45636355111137
 20
-141.2248113535826
 30
0.0
 10
89.46430105090886
 20
-141.2323960758032
 30
0.0
 10
89.46430105090886
 20
-141.242026909134
 30
0.0
  0
SPLINE
  5
118
330
1F
100
AcDbEntity
  8
_U+30EC_U+30A4_U+30E4_U+30FC 1
 62
   179
420
  2234388
370
     9
100
AcDbSpline
210
0.0
220
0.0
230
1.0
 70
    11
 71
     3
 72
    17
 73
    13
 74
     0
 42
0.0000000001
 43
0.0000000001
 12
1.0
 22
0.0
 32
0.0
 13
1.0
 23
0.0
 33
0.0
 40
0.0
 40
0.0
 40
0.0
 40
0.0
 40
1.0
 40
1.0
 40
1.0
 40
2.0
 40
2.0
 40
2.0
 40
3.0
 40
3.0
 40
3.0
 40
4.0
 40
4.0
 40
4.0
 40
4.0
 10
89.46430105090886
 20
-145.2424563525783
 30
0.0
 10
89.46430105090886
 20
-145.2521224636873
 30
0.0
 10
89.45636355111137
 20
-145.2597071859072
 30
0.0
 10
89.44637994025496
 20
-145.2597071859072
 30
0.0
 10
89.43674910716733
 20
-145.2597071859072
 30
0.0
 10
89.42916664430938
 20
-145.2521224636873
 30
0.0
 10
89.42916664430938
 20
-145.2424563525783
 30
0.0
 10
89.42916664430938
 20
-145.2321199636919
 30
0.0
 10
89.43674910716733
 20
-145.2245705192495
 30
0.0
 10
89.44637994025496
 20
-145.2245705192495
 30
0.0
 10
89.45636355111137
 20
-145.2245705192495
 30
0.0
 10
89.46430105090886
 20
-145.2321199636919
 30
0.0
 10
89.46430105090886
 20
-145.2424563525783
 30
0.0
  0
POLYLINE
  5
119
330
1F
100
AcDbEntity
  8
_U+30EC_U+30A4_U+30E4_U+30FC 1
 62
   179
420
  2234388
370
     9
100
AcDb2dPolyline
 66
     1
 10
0.0
 20
0.0
 30
0.0
  0
VERTEX
  5
11A
330
119
100
AcDbEntity
  8
_U+30EC_U+30A4_U+30E4_U+30FC 1
 62
   179
420
  2234388
370
     9
100
AcDbVertex
100
AcDb2dVertex
 10
89.44637994025496
 20
-145.2424563525783
 30
0.0
  0
VERTEX
  5
11B
330
119
100
AcDbEntity
  8
_U+30EC_U+30A4_U+30E4_U+30FC 1
 62
   179
420
  2234388
370
     9
100
AcDbVertex
100
AcDb2dVertex
 10
91.94683348757418
 20
-145.2424563525783
 30
0.0
  0
SEQEND
  5
11C
330
119
100
AcDbEntity
  8
_U+30EC_U+30A4_U+30E4_U+30FC 1
 62
   179
420
  2234388
370
     9
  0
POLYLINE
  5
11D
330
1F
100
AcDbEntity
  8
_U+30EC_U+30A4_U+30E4_U+30FC 1
 62
   179
420
  2234388
370
     9
100
AcDb2dPolyline
 66
     1
 10
0.0
 20
0.0
 30
0.0
  0
VERTEX
  5
11E
330
11D
100
AcDbEntity
  8
_U+30EC_U+30A4_U+30E4_U+30FC 1
 62
   179
420
  2234388
370
     9
100
AcDbVertex
100
AcDb2dVertex
 10
91.94683348757418
 20
-142.5118857977053
 30
0.0
  0
VERTEX
  5
11F
330
11D
100
AcDbEntity
  8
_U+30EC_U+30A4_U+30E4_U+30FC 1
 62
   179
420
  2234388
370
     9
100
AcDbVertex
100
AcDb2dVertex
 10
91.94683348757418
 20
-145.7420249635646
 30
0.0
  0
SEQEND
  5
120
330
11D
100
AcDbEntity
  8
_U+30EC_U+30A4_U+30E4_U+30FC 1
 62
   179
420
  2234388
370
     9
  0
INSERT
  5
122
330
1F
100
AcDbEntity
  8
_U+30EC_U+30A4_U+30E4_U+30FC 1
100
AcDbBlockReference
  2
block 6
 10
0.0
 20
0.0
 30
0.0
  0
SPLINE
  5
127
330
1F
100
AcDbEntity
  8
_U+30EC_U+30A4_U+30E4_U+30FC 1
 62
   179
420
  2234388
370
    25
100
AcDbSpline
210
0.0
220
0.0
230
1.0
 70
    11
 71
     3
 72
    17
 73
    13
 74
     0
 42
0.0000000001
 43
0.0000000001
 12
1.0
 22
0.0
 32
0.0
 13
1.0
 23
0.0
 33
0.0
 40
0.0
 40
0.0
 40
0.0
 40
0.0
 40
1.0
 40
1.0
 40
1.0
 40
2.0
 40
2.0
 40
2.0
 40
3.0
 40
3.0
 40
3.0
 40
4.0
 40
4.0
 40
4.0
 40
4.0
 10
89.46430105090886
 20
-141.242026909134
 30
0.0
 10
89.46430105090886
 20
-141.2516577424649
 30
0.0
 10
89.45636355111137
 20
-141.2599480202404
 30
0.0
 10
89.44637994025496
 20
-141.2599480202404
 30
0.0
 10
89.43674910716733
 20
-141.2599480202404
 30
0.0
 10
89.42916664430938
 20
-141.2516577424649
 30
0.0
 10
89.42916664430938
 20
-141.242026909134
 30
0.0
 10
89.42916664430938
 20
-141.2323960758032
 30
0.0
 10
89.43674910716733
 20
-141.2248113535826
 30
0.0
 10
89.44637994025496
 20
-141.2248113535826
 30
0.0
 10
89.45636355111137
 20
-141.2248113535826
 30
0.0
 10
89.46430105090886
 20
-141.2323960758032
 30
0.0
 10
89.46430105090886
 20
-141.242026909134
 30
0.0
  0
SPLINE
  5
128
330
1F
100
AcDbEntity
  8
_U+30EC_U+30A4_U+30E4_U+30FC 1
 62
   179
420
  2234388
370
    25
100
AcDbSpline
210
0.0
220
0.0
230
1.0
 70
    11
 71
     3
 72
    17
 73
    13
 74
     0
 42
0.0000000001
 43
0.0000000001
 12
1.0
 22
0.0
 32
0.0
 13
1.0
 23
0.0
 33
0.0
 40
0.0
 40
0.0
 40
0.0
 40
0.0
 40
1.0
 40
1.0
 40
1.0
 40
2.0
 40
2.0
 40
2.0
 40
3.0
 40
3.0
 40
3.0
 40
4.0
 40
4.0
 40
4.0
 40
4.0
 10
91.96404904269053
 20
-141.242026909134
 30
0.0
 10
91.96404904269053
 20
-141.2516577424649
 30
0.0
 10
91.9564995984387
 20
-141.2599480202404
 30
0.0
 10
91.94683348757418
 20
-141.2599480202404
 30
0.0
 10
91.93720265448655
 20
-141.2599480202404
 30
0.0
 10
91.92891237692028
 20
-141.2516577424649
 30
0.0
 10
91.92891237692028
 20
-141.242026909134
 30
0.0
 10
91.92891237692028
 20
-141.2323960758032
 30
0.0
 10
91.93720265448655
 20
-141.2248113535826
 30
0.0
 10
91.94683348757418
 20
-141.2248113535826
 30
0.0
 10
91.9564995984387
 20
-141.2248113535826
 30
0.0
 10
91.96404904269053
 20
-141.2323960758032
 30
0.0
 10
91.96404904269053
 20
-141.242026909134
 30
0.0
  0
SPLINE
  5
129
330
1F
100
AcDbEntity
  8
_U+30EC_U+30A4_U+30E4_U+30FC 1
 62
   179
420
  2234388
370
     9
100
AcDbSpline
210
0.0
220
0.0
230
1.0
 70
    11
 71
     3
 72
    17
 73
    13
 74
     0
 42
0.0000000001
 43
0.0000000001
 12
1.0
 22
0.0
 32
0.0
 13
1.0
 23
0.0
 33
0.0
 40
0.0
 40
0.0
 40
0.0
 40
0.0
 40
1.0
 40
1.0
 40
1.0
 40
2.0
 40
2.0
 40
2.0
 40
3.0
 40
3.0
 40
3.0
 40
4.0
 40
4.0
 40
4.0
 40
4.0
 10
91.96404904269053
 20
-145.2424563525783
 30
0.0
 10
91.96404904269053
 20
-145.2521224636873
 30
0.0
 10
91.9564995984387
 20
-145.2597071859072
 30
0.0
 10
91.94683348757418
 20
-145.2597071859072
 30
0.0
 10
91.93720265448655
 20
-145.2597071859072
 30
0.0
 10
91.92891237692028
 20
-145.2521224636873
 30
0.0
 10
91.92891237692028
 20
-145.2424563525783
 30
0.0
 10
91.92891237692028
 20
-145.2321199636919
 30
0.0
 10
91.93720265448655
 20
-145.2245705192495
 30
0.0
 10
91.94683348757418
 20
-145.2245705192495
 30
0.0
 10
91.9564995984387
 20
-145.2245705192495
 30
0.0
 10
91.96404904269053
 20
-145.2321199636919
 30
0.0
 10
91.96404904269053
 20
-145.2424563525783
 30
0.0
  0
POLYLINE
  5
12A
330
1F
100
AcDbEntity
  8
_U+30EC_U+30A4_U+30E4_U+30FC 1
 62
   179
420
  2234388
370
     9
100
AcDb2dPolyline
 66
     1
 10
0.0
 20
0.0
 30
0.0
  0
VERTEX
  5
12B
330
12A
100
AcDbEntity
  8
_U+30EC_U+30A4_U+30E4_U+30FC 1
 62
   179
420
  2234388
370
     9
100
AcDbVertex
100
AcDb2dVertex
 10
91.94683348757418
 20
-145.2424563525783
 30
0.0
  0
VERTEX
  5
12C
330
12A
100
AcDbEntity
  8
_U+30EC_U+30A4_U+30E4_U+30FC 1
 62
   179
420
  2234388
370
     9
100
AcDbVertex
100
AcDb2dVertex
 10
99.44681829623363
 20
-145.2424563525783
 30
0.0
  0
SEQEND
  5
12D
330
12A
100
AcDbEntity
  8
_U+30EC_U+30A4_U+30E4_U+30FC 1
 62
   179
420
  2234388
370
     9
  0
POLYLINE
  5
12E
330
1F
100
AcDbEntity
  8
_U+30EC_U+30A4_U+30E4_U+30FC 1
 62
   179
420
  2234388
370
     9
100
AcDb2dPolyline
 66
     1
 10
0.0
 20
0.0
 30
0.0
  0
VERTEX
  5
12F
330
12E
100
AcDbEntity
  8
_U+30EC_U+30A4_U+30E4_U+30FC 1
 62
   179
420
  2234388
370
     9
100
AcDbVertex
100
AcDb2dVertex
 10
99.44681829623363
 20
-142.5118857977053
 30
0.0
  0
VERTEX
  5
130
330
12E
100
AcDbEntity
  8
_U+30EC_U+30A4_U+30E4_U+30FC 1
 62
   179
420
  2234388
370
     9
100
AcDbVertex
100
AcDb2dVertex
 10
99.44681829623363
 20
-145.7420249635646
 30
0.0
  0
SEQEND
  5
131
330
12E
100
AcDbEntity
  8
_U+30EC_U+30A4_U+30E4_U+30FC 1
 62
   179
420
  2234388
370
     9
  0
INSERT
  5
133
330
1F
100
AcDbEntity
  8
_U+30EC_U+30A4_U+30E4_U+30FC 1
100
AcDbBlockReference
  2
block 7
 10
0.0
 20
0.0
 30
0.0
  0
SPLINE
  5
13A
330
1F
100
AcDbEntity
  8
_U+30EC_U+30A4_U+30E4_U+30FC 1
 62
   179
420
  2234388
370
    25
100
AcDbSpline
210
0.0
220
0.0
230
1.0
 70
    11
 71
     3
 72
    17
 73
    13
 74
     0
 42
0.0000000001
 43
0.0000000001
 12
1.0
 22
0.0
 32
0.0
 13
1.0
 23
0.0
 33
0.0
 40
0.0
 40
0.0
 40
0.0
 40
0.0
 40
1.0
 40
1.0
 40
1.0
 40
2.0
 40
2.0
 40
2.0
 40
3.0
 40
3.0
 40
3.0
 40
4.0
 40
4.0
 40
4.0
 40
4.0
 10
91.96404904269053
 20
-141.242026909134
 30
0.0
 10
91.96404904269053
 20
-141.2516577424649
 30
0.0
 10
91.9564995984387
 20
-141.2599480202404
 30
0.0
 10
91.94683348757418
 20
-141.2599480202404
 30
0.0
 10
91.93720265448655
 20
-141.2599480202404
 30
0.0
 10
91.92891237692028
 20
-141.2516577424649
 30
0.0
 10
91.92891237692028
 20
-141.242026909134
 30
0.0
 10
91.92891237692028
 20
-141.2323960758032
 30
0.0
 10
91.93720265448655
 20
-141.2248113535826
 30
0.0
 10
91.94683348757418
 20
-141.2248113535826
 30
0.0
 10
91.9564995984387
 20
-141.2248113535826
 30
0.0
 10
91.96404904269053
 20
-141.2323960758032
 30
0.0
 10
91.96404904269053
 20
-141.242026909134
 30
0.0
  0
SPLINE
  5
13B
330
1F
100
AcDbEntity
  8
_U+30EC_U+30A4_U+30E4_U+30FC 1
 62
   179
420
  2234388
370
    25
100
AcDbSpline
210
0.0
220
0.0
230
1.0
 70
    11
 71
     3
 72
    17
 73
    13
 74
     0
 42
0.0000000001
 43
0.0000000001
 12
1.0
 22
0.0
 32
0.0
 13
1.0
 23
0.0
 33
0.0
 40
0.0
 40
0.0
 40
0.0
 40
0.0
 40
1.0
 40
1.0
 40
1.0
 40
2.0
 40
2.0
 40
2.0
 40
3.0
 40
3.0
 40
3.0
 40
4.0
 40
4.0
 40
4.0
 40
4.0
 10
99.46403385134998
 20
-141.242026909134
 30
0.0
 10
99.46403385134998
 20
-141.2516577424649
 30
0.0
 10
99.45644912932126
 20
-141.2599480202404
 30
0.0
 10
99.44681829623363
 20
-141.2599480202404
 30
0.0
 10
99.43715218536913
 20
-141.2599480202404
 30
0.0
 10
99.42889718557973
 20
-141.2516577424649
 30
0.0
 10
99.42889718557973
 20
-141.242026909134
 30
0.0
 10
99.42889718557973
 20
-141.2323960758032
 30
0.0
 10
99.43715218536913
 20
-141.2248113535826
 30
0.0
 10
99.44681829623363
 20
-141.2248113535826
 30
0.0
 10
99.45644912932126
 20
-141.2248113535826
 30
0.0
 10
99.46403385134998
 20
-141.2323960758032
 30
0.0
 10
99.46403385134998
 20
-141.242026909134
 30
0.0
  0
SPLINE
  5
13C
330
1F
100
AcDbEntity
  8
_U+30EC_U+30A4_U+30E4_U+30FC 1
 62
   179
420
  2234388
370
     9
100
AcDbSpline
210
0.0
220
0.0
230
1.0
 70
    11
 71
     3
 72
    17
 73
    13
 74
     0
 42
0.0000000001
 43
0.0000000001
 12
1.0
 22
0.0
 32
0.0
 13
1.0
 23
0.0
 33
0.0
 40
0.0
 40
0.0
 40
0.0
 40
0.0
 40
1.0
 40
1.0
 40
1.0
 40
2.0
 40
2.0
 40
2.0
 40
3.0
 40
3.0
 40
3.0
 40
4.0
 40
4.0
 40
4.0
 40
4.0
 10
99.46403385134998
 20
-145.2424563525783
 30
0.0
 10
99.46403385134998
 20
-145.2521224636873
 30
0.0
 10
99.45644912932126
 20
-145.2597071859072
 30
0.0
 10
99.44681829623363
 20
-145.2597071859072
 30
0.0
 10
99.43715218536913
 20
-145.2597071859072
 30
0.0
 10
99.42889718557973
 20
-145.2521224636873
 30
0.0
 10
99.42889718557973
 20
-145.2424563525783
 30
0.0
 10
99.42889718557973
 20
-145.2321199636919
 30
0.0
 10
99.43715218536913
 20
-145.2245705192495
 30
0.0
 10
99.44681829623363
 20
-145.2245705192495
 30
0.0
 10
99.45644912932126
 20
-145.2245705192495
 30
0.0
 10
99.46403385134998
 20
-145.2321199636919
 30
0.0
 10
99.46403385134998
 20
-145.2424563525783
 30
0.0
  0
ENDSEC
  0
SECTION
  2
OBJECTS
  0
DICTIONARY
  5
C
330
0
100
AcDbDictionary
281
     1
  3
ACAD_GROUP
350
D
  3
ACAD_LAYOUT
350
1A
  3
ACAD_MATERIAL
350
3B
  3
ACAD_MLEADERSTYLE
350
13E
  3
ACAD_MLINESTYLE
350
17
  3
ACAD_PLOTSETTINGS
350
19
  3
ACAD_PLOTSTYLENAME
350
E
  3
ACAD_TABLESTYLE
350
13D
  3
ACAD_VISUALSTYLE
350
2A
  0
SUN
  5
3F
330
29
100
AcDbSun
 90
        1
290
     0
 63
     7
421
 16777215
 40
1.0
291
     1
 91
  2455826
 92
 54000000
292
     0
 70
     2
 71
   256
280
     1
  0
DICTIONARY
  5
D
102
{ACAD_REACTORS
330
C
102
}
330
C
100
AcDbDictionary
281
     1
  0
DICTIONARY
  5
1A
102
{ACAD_REACTORS
330
C
102
}
330
C
100
AcDbDictionary
281
     1
  3
Layout1
350
1E
  3
Layout2
350
26
  3
Model
350
22
  0
DICTIONARY
  5
3B
102
{ACAD_REACTORS
330
C
102
}
330
C
100
AcDbDictionary
281
     1
  3
ByBlock
350
3D
  3
ByLayer
350
3C
  3
Global
350
3E
  0
DICTIONARY
  5
13E
102
{ACAD_REACTORS
330
C
102
}
330
C
100
AcDbDictionary
281
     1
  0
DICTIONARY
  5
17
102
{ACAD_REACTORS
330
C
102
}
330
C
100
AcDbDictionary
281
     1
  3
Standard
350
18
  0
DICTIONARY
  5
19
102
{ACAD_REACTORS
330
C
102
}
330
C
100
AcDbDictionary
281
     1
  0
ACDBDICTIONARYWDFLT
  5
E
102
{ACAD_REACTORS
330
C
102
}
330
C
100
AcDbDictionary
281
     1
  3
Normal
350
F
100
AcDbDictionaryWithDefault
340
F
  0
DICTIONARY
  5
13D
102
{ACAD_REACTORS
330
C
102
}
330
C
100
AcDbDictionary
281
     1
  0
DICTIONARY
  5
2A
102
{ACAD_REACTORS
330
C
102
}
330
C
100
AcDbDictionary
281
     1
  3
2dWireframe
350
2F
  3
3D Hidden
350
31
  3
3dWireframe
350
30
  3
Basic
350
32
  3
Brighten
350
36
  3
ColorChange
350
3A
  3
Conceptual
350
34
  3
Dim
350
35
  3
Facepattern
350
39
  3
Flat
350
2B
  3
FlatWithEdges
350
2C
  3
Gouraud
350
2D
  3
GouraudWithEdges
350
2E
  3
Linepattern
350
38
  3
Realistic
350
33
  3
Thicken
350
37
  0
LAYOUT
  5
1E
102
{ACAD_REACTORS
330
1A
102
}
330
1A
100
AcDbPlotSettings
  1

  2
none_device
  4

  6

 40
0.0
 41
0.0
 42
0.0
 43
0.0
 44
0.0
 45
0.0
 46
0.0
 47
0.0
 48
0.0
 49
0.0
140
0.0
141
0.0
142
1.0
143
1.0
 70
   688
 72
     0
 73
     0
 74
     5
  7

 75
    16
 76
     0
 77
     2
 78
   300
147
1.0
148
0.0
149
0.0
100
AcDbLayout
  1
Layout1
 70
     1
 71
     1
 10
0.0
 20
0.0
 11
12.0
 21
9.0
 12
0.0
 22
0.0
 32
0.0
 14
1.000000000000000E+20
 24
1.000000000000000E+20
 34
1.000000000000000E+20
 15
-1.000000000000000E+20
 25
-1.000000000000000E+20
 35
-1.000000000000000E+20
146
0.0
 13
0.0
 23
0.0
 33
0.0
 16
1.0
 26
0.0
 36
0.0
 17
0.0
 27
1.0
 37
0.0
 76
     0
330
1B
  0
LAYOUT
  5
26
102
{ACAD_REACTORS
330
1A
102
}
330
1A
100
AcDbPlotSettings
  1

  2
none_device
  4

  6

 40
0.0
 41
0.0
 42
0.0
 43
0.0
 44
0.0
 45
0.0
 46
0.0
 47
0.0
 48
0.0
 49
0.0
140
0.0
141
0.0
142
1.0
143
1.0
 70
   688
 72
     0
 73
     0
 74
     5
  7

 75
    16
 76
     0
 77
     2
 78
   300
147
1.0
148
0.0
149
0.0
100
AcDbLayout
  1
Layout2
 70
     1
 71
     2
 10
0.0
 20
0.0
 11
0.0
 21
0.0
 12
0.0
 22
0.0
 32
0.0
 14
0.0
 24
0.0
 34
0.0
 15
0.0
 25
0.0
 35
0.0
146
0.0
 13
0.0
 23
0.0
 33
0.0
 16
1.0
 26
0.0
 36
0.0
 17
0.0
 27
1.0
 37
0.0
 76
     0
330
23
  0
LAYOUT
  5
22
102
{ACAD_REACTORS
330
1A
102
}
330
1A
100
AcDbPlotSettings
  1

  2
none_device
  4

  6

 40
0.0
 41
0.0
 42
0.0
 43
0.0
 44
0.0
 45
0.0
 46
0.0
 47
0.0
 48
0.0
 49
0.0
140
0.0
141
0.0
142
1.0
143
1.0
 70
  1712
 72
     0
 73
     0
 74
     0
  7

 75
     0
 76
     0
 77
     2
 78
   300
147
1.0
148
0.0
149
0.0
100
AcDbLayout
  1
Model
 70
     1
 71
     0
 10
0.0
 20
0.0
 11
12.0
 21
9.0
 12
0.0
 22
0.0
 32
0.0
 14
1.000000000000000E+20
 24
1.000000000000000E+20
 34
1.000000000000000E+20
 15
-1.000000000000000E+20
 25
-1.000000000000000E+20
 35
-1.000000000000000E+20
146
0.0
 13
0.0
 23
0.0
 33
0.0
 16
1.0
 26
0.0
 36
0.0
 17
0.0
 27
1.0
 37
0.0
 76
     0
330
1F
331
29
  0
MATERIAL
  5
3D
102
{ACAD_REACTORS
330
3B
102
}
330
3B
100
AcDbMaterial
  1
ByBlock
 72
     1
 94
      127
  0
MATERIAL
  5
3C
102
{ACAD_REACTORS
330
3B
102
}
330
3B
100
AcDbMaterial
  1
ByLayer
 72
     1
 94
      127
  0
MATERIAL
  5
3E
102
{ACAD_REACTORS
330
3B
102
}
330
3B
100
AcDbMaterial
  1
Global
 72
     1
 94
      127
  0
MLINESTYLE
  5
18
102
{ACAD_REACTORS
330
17
102
}
330
17
100
AcDbMlineStyle
  2
Standard
 70
     0
  3

 62
   256
 51
90.0
 52
90.0
 71
     2
 49
0.5
 62
   256
  6
BYLAYER
 49
-0.5
 62
   256
  6
BYLAYER
  0
ACDBPLACEHOLDER
  5
F
102
{ACAD_REACTORS
330
E
102
}
330
E
  0
VISUALSTYLE
  5
2F
102
{ACAD_REACTORS
330
2A
102
}
330
2A
100
AcDbVisualStyle
  2
2dWireframe
 70
     4
177
     2
291
     0
 71
     0
176
     1
 72
     2
176
     1
 73
     0
176
     1
 90
        0
176
     1
 40
-0.6
176
     1
 41
-30.0
176
     1
 62
     5
 63
     7
421
 16777215
176
     1
 74
     1
176
     1
 91
        4
176
     1
 64
     7
176
     1
 65
   257
176
     1
 75
     1
176
     1
175
     1
176
     1
 42
1.0
176
     1
 92
        0
176
     1
 66
   257
176
     1
 43
1.0
176
     1
 76
     1
176
     1
 77
     6
176
     1
 78
     2
176
     1
 67
     7
176
     1
 79
     5
176
     1
170
     0
176
     1
171
     0
176
     1
290
     0
176
     1
 93
        1
176
     1
 44
0.0
176
     1
173
     0
176
     1
  0
VISUALSTYLE
  5
31
102
{ACAD_REACTORS
330
2A
102
}
330
2A
100
AcDbVisualStyle
  2
3D Hidden
 70
     6
177
     2
291
     0
 71
     1
176
     1
 72
     2
176
     1
 73
     2
176
     1
 90
        0
176
     1
 40
-0.6
176
     1
 41
-30.0
176
     1
 62
     5
 63
     7
421
 16777215
176
     1
 74
     2
176
     1
 91
        2
176
     1
 64
     7
176
     1
 65
   257
176
     1
 75
     2
176
     1
175
     1
176
     1
 42
40.0
176
     1
 92
        0
176
     1
 66
   257
176
     1
 43
1.0
176
     1
 76
     1
176
     1
 77
     6
176
     1
 78
     2
176
     1
 67
     7
176
     1
 79
     3
176
     1
170
     0
176
     1
171
     0
176
     1
290
     0
176
     1
 93
        1
176
     1
 44
0.0
176
     1
173
     0
176
     1
  0
VISUALSTYLE
  5
30
102
{ACAD_REACTORS
330
2A
102
}
330
2A
100
AcDbVisualStyle
  2
3dWireframe
 70
     5
177
     2
291
     0
 71
     0
176
     1
 72
     2
176
     1
 73
     0
176
     1
 90
        0
176
     1
 40
-0.6
176
     1
 41
-30.0
176
     1
 62
     5
 63
     7
421
 16777215
176
     1
 74
     1
176
     1
 91
        4
176
     1
 64
     7
176
     1
 65
   257
176
     1
 75
     1
176
     1
175
     1
176
     1
 42
1.0
176
     1
 92
        0
176
     1
 66
   257
176
     1
 43
1.0
176
     1
 76
     1
176
     1
 77
     6
176
     1
 78
     2
176
     1
 67
     7
176
     1
 79
     5
176
     1
170
     0
176
     1
171
     0
176
     1
290
     0
176
     1
 93
        1
176
     1
 44
0.0
176
     1
173
     0
176
     1
  0
VISUALSTYLE
  5
32
102
{ACAD_REACTORS
330
2A
102
}
330
2A
100
AcDbVisualStyle
  2
Basic
 70
     7
177
     2
291
     1
 71
     1
176
     1
 72
     0
176
     1
 73
     1
176
     1
 90
        0
176
     1
 40
-0.6
176
     1
 41
-30.0
176
     1
 62
     5
 63
     7
421
 16777215
176
     1
 74
     0
176
     1
 91
        4
176
     1
 64
     7
176
     1
 65
   257
176
     1
 75
     1
176
     1
175
     1
176
     1
 42
1.0
176
     1
 92
        8
176
     1
 66
     7
176
     1
 43
1.0
176
     1
 76
     1
176
     1
 77
     6
176
     1
 78
     2
176
     1
 67
     7
176
     1
 79
     5
176
     1
170
     0
176
     1
171
     0
176
     1
290
     0
176
     1
 93
        1
176
     1
 44
0.0
176
     1
173
     0
176
     1
  0
VISUALSTYLE
  5
36
102
{ACAD_REACTORS
330
2A
102
}
330
2A
100
AcDbVisualStyle
  2
Brighten
 70
    12
177
     2
291
     1
 71
     2
176
     1
 72
     2
176
     1
 73
     0
176
     1
 90
        0
176
     1
 40
-0.6
176
     1
 41
-30.0
176
     1
 62
     5
 63
     7
421
 16777215
176
     1
 74
     1
176
     1
 91
        4
176
     1
 64
     7
176
     1
 65
   257
176
     1
 75
     1
176
     1
175
     1
176
     1
 42
1.0
176
     1
 92
        8
176
     1
 66
     7
176
     1
 43
1.0
176
     1
 76
     1
176
     1
 77
     6
176
     1
 78
     2
176
     1
 67
     7
176
     1
 79
     5
176
     1
170
     0
176
     1
171
     0
176
     1
290
     0
176
     1
 93
        1
176
     1
 44
50.0
176
     1
173
     0
176
     1
  0
VISUALSTYLE
  5
3A
102
{ACAD_REACTORS
330
2A
102
}
330
2A
100
AcDbVisualStyle
  2
ColorChange
 70
    16
177
     2
291
     1
 71
     2
176
     1
 72
     2
176
     1
 73
     3
176
     1
 90
        0
176
     1
 40
-0.6
176
     1
 41
-30.0
176
     1
 62
     5
 63
     8
421
  8421504
176
     1
 74
     1
176
     1
 91
        4
176
     1
 64
     7
176
     1
 65
   257
176
     1
 75
     1
176
     1
175
     1
176
     1
 42
1.0
176
     1
 92
        8
176
     1
 66
     8
424
  8421504
176
     1
 43
1.0
176
     1
 76
     1
176
     1
 77
     6
176
     1
 78
     2
176
     1
 67
     7
176
     1
 79
     5
176
     1
170
     0
176
     1
171
     0
176
     1
290
     0
176
     1
 93
        1
176
     1
 44
0.0
176
     1
173
     0
176
     1
  0
VISUALSTYLE
  5
34
102
{ACAD_REACTORS
330
2A
102
}
330
2A
100
AcDbVisualStyle
  2
Conceptual
 70
     9
177
     2
291
     0
 71
     3
176
     1
 72
     2
176
     1
 73
     0
176
     1
 90
        0
176
     1
 40
-0.6
176
     1
 41
-30.0
176
     1
 62
     5
 63
     7
421
 16777215
176
     1
 74
     2
176
     1
 91
        2
176
     1
 64
     7
176
     1
 65
   257
176
     1
 75
     1
176
     1
175
     1
176
     1
 42
40.0
176
     1
 92
        8
176
     1
 66
     7
176
     1
 43
1.0
176
     1
 76
     1
176
     1
 77
     6
176
     1
 78
     2
176
     1
 67
     7
176
     1
 79
     3
176
     1
170
     0
176
     1
171
     0
176
     1
290
     0
176
     1
 93
        1
176
     1
 44
0.0
176
     1
173
     0
176
     1
  0
VISUALSTYLE
  5
35
102
{ACAD_REACTORS
330
2A
102
}
330
2A
100
AcDbVisualStyle
  2
Dim
 70
    11
177
     2
291
     1
 71
     2
176
     1
 72
     2
176
     1
 73
     0
176
     1
 90
        0
176
     1
 40
-0.6
176
     1
 41
-30.0
176
     1
 62
     5
 63
     7
421
 16777215
176
     1
 74
     1
176
     1
 91
        4
176
     1
 64
     7
176
     1
 65
   257
176
     1
 75
     1
176
     1
175
     1
176
     1
 42
1.0
176
     1
 92
        8
176
     1
 66
     7
176
     1
 43
1.0
176
     1
 76
     1
176
     1
 77
     6
176
     1
 78
     2
176
     1
 67
     7
176
     1
 79
     5
176
     1
170
     0
176
     1
171
     0
176
     1
290
     0
176
     1
 93
        1
176
     1
 44
-50.0
176
     1
173
     0
176
     1
  0
VISUALSTYLE
  5
39
102
{ACAD_REACTORS
330
2A
102
}
330
2A
100
AcDbVisualStyle
  2
Facepattern
 70
    15
177
     2
291
     1
 71
     2
176
     1
 72
     2
176
     1
 73
     0
176
     1
 90
        0
176
     1
 40
-0.6
176
     1
 41
-30.0
176
     1
 62
     5
 63
     7
421
 16777215
176
     1
 74
     1
176
     1
 91
        4
176
     1
 64
     7
176
     1
 65
   257
176
     1
 75
     1
176
     1
175
     1
176
     1
 42
1.0
176
     1
 92
        8
176
     1
 66
     7
176
     1
 43
1.0
176
     1
 76
     1
176
     1
 77
     6
176
     1
 78
     2
176
     1
 67
     7
176
     1
 79
     5
176
     1
170
     0
176
     1
171
     0
176
     1
290
     0
176
     1
 93
        1
176
     1
 44
0.0
176
     1
173
     0
176
     1
  0
VISUALSTYLE
  5
2B
102
{ACAD_REACTORS
330
2A
102
}
330
2A
100
AcDbVisualStyle
  2
Flat
 70
     0
177
     2
291
     1
 71
     2
176
     1
 72
     1
176
     1
 73
     1
176
     1
 90
        2
176
     1
 40
-0.6
176
     1
 41
30.0
176
     1
 62
     5
 63
     7
421
 16777215
176
     1
 74
     0
176
     1
 91
        4
176
     1
 64
     7
176
     1
 65
   257
176
     1
 75
     1
176
     1
175
     1
176
     1
 42
1.0
176
     1
 92
        8
176
     1
 66
     7
176
     1
 43
1.0
176
     1
 76
     1
176
     1
 77
     6
176
     1
 78
     2
176
     1
 67
     7
176
     1
 79
     5
176
     1
170
     0
176
     1
171
     0
176
     1
290
     0
176
     1
 93
       13
176
     1
 44
0.0
176
     1
173
     0
176
     1
  0
VISUALSTYLE
  5
2C
102
{ACAD_REACTORS
330
2A
102
}
330
2A
100
AcDbVisualStyle
  2
FlatWithEdges
 70
     1
177
     2
291
     1
 71
     2
176
     1
 72
     1
176
     1
 73
     1
176
     1
 90
        2
176
     1
 40
-0.6
176
     1
 41
30.0
176
     1
 62
     5
 63
     7
421
 16777215
176
     1
 74
     1
176
     1
 91
        4
176
     1
 64
     7
176
     1
 65
   257
176
     1
 75
     1
176
     1
175
     1
176
     1
 42
1.0
176
     1
 92
        0
176
     1
 66
   257
176
     1
 43
1.0
176
     1
 76
     1
176
     1
 77
     6
176
     1
 78
     2
176
     1
 67
     7
176
     1
 79
     5
176
     1
170
     0
176
     1
171
     0
176
     1
290
     0
176
     1
 93
       13
176
     1
 44
0.0
176
     1
173
     0
176
     1
  0
VISUALSTYLE
  5
2D
102
{ACAD_REACTORS
330
2A
102
}
330
2A
100
AcDbVisualStyle
  2
Gouraud
 70
     2
177
     2
291
     1
 71
     2
176
     1
 72
     2
176
     1
 73
     1
176
     1
 90
        2
176
     1
 40
-0.6
176
     1
 41
30.0
176
     1
 62
     5
 63
     7
421
 16777215
176
     1
 74
     0
176
     1
 91
        4
176
     1
 64
     7
176
     1
 65
   257
176
     1
 75
     1
176
     1
175
     1
176
     1
 42
1.0
176
     1
 92
        0
176
     1
 66
     7
176
     1
 43
1.0
176
     1
 76
     1
176
     1
 77
     6
176
     1
 78
     2
176
     1
 67
     7
176
     1
 79
     5
176
     1
170
     0
176
     1
171
     0
176
     1
290
     0
176
     1
 93
       13
176
     1
 44
0.0
176
     1
173
     0
176
     1
  0
VISUALSTYLE
  5
2E
102
{ACAD_REACTORS
330
2A
102
}
330
2A
100
AcDbVisualStyle
  2
GouraudWithEdges
 70
     3
177
     2
291
     1
 71
     2
176
     1
 72
     2
176
     1
 73
     1
176
     1
 90
        2
176
     1
 40
-0.6
176
     1
 41
30.0
176
     1
 62
     5
 63
     7
421
 16777215
176
     1
 74
     1
176
     1
 91
        4
176
     1
 64
     7
176
     1
 65
   257
176
     1
 75
     1
176
     1
175
     1
176
     1
 42
1.0
176
     1
 92
        0
176
     1
 66
   257
176
     1
 43
1.0
176
     1
 76
     1
176
     1
 77
     6
176
     1
 78
     2
176
     1
 67
     7
176
     1
 79
     5
176
     1
170
     0
176
     1
171
     0
176
     1
290
     0
176
     1
 93
       13
176
     1
 44
0.0
176
     1
173
     0
176
     1
  0
VISUALSTYLE
  5
38
102
{ACAD_REACTORS
330
2A
102
}
330
2A
100
AcDbVisualStyle
  2
Linepattern
 70
    14
177
     2
291
     1
 71
     2
176
     1
 72
     2
176
     1
 73
     0
176
     1
 90
        0
176
     1
 40
-0.6
176
     1
 41
-30.0
176
     1
 62
     5
 63
     7
421
 16777215
176
     1
 74
     1
176
     1
 91
        4
176
     1
 64
     7
176
     1
 65
   257
176
     1
 75
     7
176
     1
175
     7
176
     1
 42
1.0
176
     1
 92
        8
176
     1
 66
     7
176
     1
 43
1.0
176
     1
 76
     1
176
     1
 77
     6
176
     1
 78
     2
176
     1
 67
     7
176
     1
 79
     5
176
     1
170
     0
176
     1
171
     0
176
     1
290
     0
176
     1
 93
        1
176
     1
 44
0.0
176
     1
173
     0
176
     1
  0
VISUALSTYLE
  5
33
102
{ACAD_REACTORS
330
2A
102
}
330
2A
100
AcDbVisualStyle
  2
Realistic
 70
     8
177
     2
291
     0
 71
     2
176
     1
 72
     2
176
     1
 73
     0
176
     1
 90
        0
176
     1
 40
-0.6
176
     1
 41
-30.0
176
     1
 62
     5
 63
     7
421
 16777215
176
     1
 74
     1
176
     1
 91
        0
176
     1
 64
     7
176
     1
 65
   257
176
     1
 75
     1
176
     1
175
     1
176
     1
 42
1.0
176
     1
 92
        8
176
     1
 66
     8
424
  7895160
176
     1
 43
1.0
176
     1
 76
     1
176
     1
 77
     6
176
     1
 78
     2
176
     1
 67
     7
176
     1
 79
     5
176
     1
170
     0
176
     1
171
     0
176
     1
290
     0
176
     1
 93
       13
176
     1
 44
0.0
176
     1
173
     0
176
     1
  0
VISUALSTYLE
  5
37
102
{ACAD_REACTORS
330
2A
102
}
330
2A
100
AcDbVisualStyle
  2
Thicken
 70
    13
177
     2
291
     1
 71
     2
176
     1
 72
     2
176
     1
 73
     0
176
     1
 90
        0
176
     1
 40
-0.6
176
     1
 41
-30.0
176
     1
 62
     5
 63
     7
421
 16777215
176
     1
 74
     1
176
     1
 91
        4
176
     1
 64
     7
176
     1
 65
   257
176
     1
 75
     1
176
     1
175
     1
176
     1
 42
1.0
176
     1
 92
       12
176
     1
 66
     7
176
     1
 43
1.0
176
     1
 76
     1
176
     1
 77
     6
176
     1
 78
     2
176
     1
 67
     7
176
     1
 79
     5
176
     1
170
     0
176
     1
171
     0
176
     1
290
     0
176
     1
 93
        1
176
     1
 44
0.0
176
     1
173
     0
176
     1
  0
ENDSEC
  0
EOF
