  0
SECTION
  2
HEADER
  9
$ACADVER
  1
AC1024
  9
$ACADMAINTVER
 70
     6
  9
$DWGCODEPAGE
  3
UNDEFINED
  9
$INSBASE
 10
0.0
 20
0.0
 30
0.0
  9
$EXTMIN
 10
1.000000000000000E+20
 20
1.000000000000000E+20
 30
1.000000000000000E+20
  9
$EXTMAX
 10
-1.000000000000000E+20
 20
-1.000000000000000E+20
 30
-1.000000000000000E+20
  9
$LIMMIN
 10
0.0
 20
0.0
  9
$LIMMAX
 10
12.0
 20
9.0
  9
$ORTHOMODE
 70
     0
  9
$REGENMODE
 70
     1
  9
$FILLMODE
 70
     1
  9
$QTEXTMODE
 70
     0
  9
$MIRRTEXT
 70
     1
  9
$LTSCALE
 40
1.0
  9
$ATTMODE
 70
     1
  9
$TEXTSIZE
 40
0.2
  9
$TRACEWID
 40
0.05
  9
$TEXTSTYLE
  7
Standard
  9
$CLAYER
  8
0
  9
$CELTYPE
  6
ByLayer
  9
$CECOLOR
 62
   256
  9
$CELTSCALE
 40
1.0
  9
$DISPSILH
 70
     0
  9
$DIMSCALE
 40
1.0
  9
$DIMASZ
 40
0.18
  9
$DIMEXO
 40
0.0625
  9
$DIMDLI
 40
0.38
  9
$DIMRND
 40
0.0
  9
$DIMDLE
 40
0.0
  9
$DIMEXE
 40
0.18
  9
$DIMTP
 40
0.0
  9
$DIMTM
 40
0.0
  9
$DIMTXT
 40
0.18
  9
$DIMCEN
 40
0.09
  9
$DIMTSZ
 40
0.0
  9
$DIMTOL
 70
     0
  9
$DIMLIM
 70
     0
  9
$DIMTIH
 70
     1
  9
$DIMTOH
 70
     1
  9
$DIMSE1
 70
     0
  9
$DIMSE2
 70
     0
  9
$DIMTAD
 70
     0
  9
$DIMZIN
 70
     0
  9
$DIMBLK
  1

  9
$DIMASO
 70
     1
  9
$DIMSHO
 70
     1
  9
$DIMPOST
  1

  9
$DIMAPOST
  1

  9
$DIMALT
 70
     0
  9
$DIMALTD
 70
     2
  9
$DIMALTF
 40
25.4
  9
$DIMLFAC
 40
1.0
  9
$DIMTOFL
 70
     0
  9
$DIMTVP
 40
0.0
  9
$DIMTIX
 70
     0
  9
$DIMSOXD
 70
     0
  9
$DIMSAH
 70
     0
  9
$DIMBLK1
  1

  9
$DIMBLK2
  1

  9
$DIMSTYLE
  2
Standard
  9
$DIMCLRD
 70
     0
  9
$DIMCLRE
 70
     0
  9
$DIMCLRT
 70
     0
  9
$DIMTFAC
 40
1.0
  9
$DIMGAP
 40
0.09
  9
$DIMJUST
 70
     0
  9
$DIMSD1
 70
     0
  9
$DIMSD2
 70
     0
  9
$DIMTOLJ
 70
     1
  9
$DIMTZIN
 70
     0
  9
$DIMALTZ
 70
     0
  9
$DIMALTTZ
 70
     0
  9
$DIMUPT
 70
     0
  9
$DIMDEC
 70
     4
  9
$DIMTDEC
 70
     4
  9
$DIMALTU
 70
     2
  9
$DIMALTTD
 70
     2
  9
$DIMTXSTY
  7
Standard
  9
$DIMAUNIT
 70
     0
  9
$DIMADEC
 70
     0
  9
$DIMALTRND
 40
0.0
  9
$DIMAZIN
 70
     0
  9
$DIMDSEP
 70
    46
  9
$DIMATFIT
 70
     3
  9
$DIMFRAC
 70
     0
  9
$DIMLDRBLK
  1

  9
$DIMLUNIT
 70
     2
  9
$DIMLWD
 70
    -2
  9
$DIMLWE
 70
    -2
  9
$DIMTMOVE
 70
     0
  9
$DIMFXL
 40
1.0
  9
$DIMFXLON
 70
     0
  9
$DIMJOGANG
 40
0.7853981633974483
  9
$DIMTFILL
 70
     0
  9
$DIMTFILLCLR
 70
     0
  9
$DIMARCSYM
 70
     0
  9
$DIMLTYPE
  6

  9
$DIMLTEX1
  6

  9
$DIMLTEX2
  6

  9
$DIMTXTDIRECTION
 70
     0
  9
$LUNITS
 70
     2
  9
$LUPREC
 70
     4
  9
$SKETCHINC
 40
0.1
  9
$FILLETRAD
 40
0.5
  9
$AUNITS
 70
     0
  9
$AUPREC
 70
     0
  9
$MENU
  1
.
  9
$ELEVATION
 40
0.0
  9
$PELEVATION
 40
0.0
  9
$THICKNESS
 40
0.0
  9
$LIMCHECK
 70
     0
  9
$CHAMFERA
 40
0.5
  9
$CHAMFERB
 40
0.5
  9
$CHAMFERC
 40
1.0
  9
$CHAMFERD
 40
0.0
  9
$SKPOLY
 70
     0
  9
$TDCREATE
 40
2457917.628055556
  9
$TDUCREATE
 40
2457917.253055556
  9
$TDUPDATE
 40
2457917.628055556
  9
$TDUUPDATE
 40
2457917.253055556
  9
$TDINDWG
 40
0.0000000116
  9
$TDUSRTIMER
 40
0.0000000116
  9
$USRTIMER
 70
     1
  9
$ANGBASE
 50
0.0
  9
$ANGDIR
 70
     0
  9
$PDMODE
 70
     0
  9
$PDSIZE
 40
0.0
  9
$PLINEWID
 40
0.0
  9
$SPLFRAME
 70
     0
  9
$SPLINETYPE
 70
     6
  9
$SPLINESEGS
 70
     8
  9
$HANDSEED
  5
10F
  9
$SURFTAB1
 70
     6
  9
$SURFTAB2
 70
     6
  9
$SURFTYPE
 70
     6
  9
$SURFU
 70
     6
  9
$SURFV
 70
     6
  9
$UCSBASE
  2

  9
$UCSNAME
  2

  9
$UCSORG
 10
0.0
 20
0.0
 30
0.0
  9
$UCSXDIR
 10
1.0
 20
0.0
 30
0.0
  9
$UCSYDIR
 10
0.0
 20
1.0
 30
0.0
  9
$UCSORTHOREF
  2

  9
$UCSORTHOVIEW
 70
     0
  9
$UCSORGTOP
 10
0.0
 20
0.0
 30
0.0
  9
$UCSORGBOTTOM
 10
0.0
 20
0.0
 30
0.0
  9
$UCSORGLEFT
 10
0.0
 20
0.0
 30
0.0
  9
$UCSORGRIGHT
 10
0.0
 20
0.0
 30
0.0
  9
$UCSORGFRONT
 10
0.0
 20
0.0
 30
0.0
  9
$UCSORGBACK
 10
0.0
 20
0.0
 30
0.0
  9
$PUCSBASE
  2

  9
$PUCSNAME
  2

  9
$PUCSORG
 10
0.0
 20
0.0
 30
0.0
  9
$PUCSXDIR
 10
1.0
 20
0.0
 30
0.0
  9
$PUCSYDIR
 10
0.0
 20
1.0
 30
0.0
  9
$PUCSORTHOREF
  2

  9
$PUCSORTHOVIEW
 70
     0
  9
$PUCSORGTOP
 10
0.0
 20
0.0
 30
0.0
  9
$PUCSORGBOTTOM
 10
0.0
 20
0.0
 30
0.0
  9
$PUCSORGLEFT
 10
0.0
 20
0.0
 30
0.0
  9
$PUCSORGRIGHT
 10
0.0
 20
0.0
 30
0.0
  9
$PUCSORGFRONT
 10
0.0
 20
0.0
 30
0.0
  9
$PUCSORGBACK
 10
0.0
 20
0.0
 30
0.0
  9
$USERI1
 70
     0
  9
$USERI2
 70
     0
  9
$USERI3
 70
     0
  9
$USERI4
 70
     0
  9
$USERI5
 70
     0
  9
$USERR1
 40
0.0
  9
$USERR2
 40
0.0
  9
$USERR3
 40
0.0
  9
$USERR4
 40
0.0
  9
$USERR5
 40
0.0
  9
$WORLDVIEW
 70
     1
  9
$SHADEDGE
 70
     3
  9
$SHADEDIF
 70
    70
  9
$TILEMODE
 70
     1
  9
$MAXACTVP
 70
    64
  9
$PINSBASE
 10
0.0
 20
0.0
 30
0.0
  9
$PLIMCHECK
 70
     0
  9
$PEXTMIN
 10
1.000000000000000E+20
 20
1.000000000000000E+20
 30
1.000000000000000E+20
  9
$PEXTMAX
 10
-1.000000000000000E+20
 20
-1.000000000000000E+20
 30
-1.000000000000000E+20
  9
$PLIMMIN
 10
0.0
 20
0.0
  9
$PLIMMAX
 10
12.0
 20
9.0
  9
$UNITMODE
 70
     0
  9
$VISRETAIN
 70
     1
  9
$PLINEGEN
 70
     0
  9
$PSLTSCALE
 70
     1
  9
$TREEDEPTH
 70
  3020
  9
$CMLSTYLE
  2
Standard
  9
$CMLJUST
 70
     0
  9
$CMLSCALE
 40
1.0
  9
$PROXYGRAPHICS
 70
     1
  9
$MEASUREMENT
 70
     0
  9
$CELWEIGHT
370
    -1
  9
$ENDCAPS
280
     0
  9
$JOINSTYLE
280
     0
  9
$LWDISPLAY
290
     1
  9
$INSUNITS
 70
     1
  9
$HYPERLINKBASE
  1

  9
$STYLESHEET
  1

  9
$XEDIT
290
     1
  9
$CEPSNTYPE
380
     0
  9
$PSTYLEMODE
290
     1
  9
$FINGERPRINTGUID
  2
{86A1573D-9454-0700-1595-64D9E3EEEDC7}
  9
$VERSIONGUID
  2
{FAEB1C32-E019-11D5-929B-00C0DF256EC4}
  9
$EXTNAMES
290
     1
  9
$PSVPSCALE
 40
0.0
  9
$OLESTARTUP
290
     0
  9
$SORTENTS
280
   127
  9
$INDEXCTL
280
     0
  9
$HIDETEXT
280
     1
  9
$XCLIPFRAME
280
     2
  9
$HALOGAP
280
     0
  9
$OBSCOLOR
 70
   257
  9
$OBSLTYPE
280
     0
  9
$INTERSECTIONDISPLAY
280
     0
  9
$INTERSECTIONCOLOR
 70
   257
  9
$DIMASSOC
280
     2
  9
$PROJECTNAME
  1

  9
$CAMERADISPLAY
290
     0
  9
$LENSLENGTH
 40
50.0
  9
$CAMERAHEIGHT
 40
0.0
  9
$STEPSPERSEC
 40
2.0
  9
$STEPSIZE
 40
6.0
  9
$3DDWFPREC
 40
2.0
  9
$PSOLWIDTH
 40
0.25
  9
$PSOLHEIGHT
 40
4.0
  9
$LOFTANG1
 40
1.570796326794897
  9
$LOFTANG2
 40
1.570796326794897
  9
$LOFTMAG1
 40
0.0
  9
$LOFTMAG2
 40
0.0
  9
$LOFTPARAM
 70
     7
  9
$LOFTNORMALS
280
     1
  9
$LATITUDE
 40
37.795
  9
$LONGITUDE
 40
-122.394
  9
$NORTHDIRECTION
 40
0.0
  9
$TIMEZONE
 70
 -8000
  9
$LIGHTGLYPHDISPLAY
280
     1
  9
$TILEMODELIGHTSYNCH
280
     1
  9
$CMATERIAL
347
3C
  9
$SOLIDHIST
280
     1
  9
$SHOWHIST
280
     1
  9
$DWFFRAME
280
     2
  9
$DGNFRAME
280
     2
  9
$REALWORLDSCALE
290
     1
  9
$INTERFERECOLOR
 62
   256
  9
$CSHADOW
280
     0
  9
$SHADOWPLANELOCATION
 40
0.0
  0
ENDSEC
  0
SECTION
  2
CLASSES
  0
CLASS
  1
ACDBDICTIONARYWDFLT
  2
AcDbDictionaryWithDefault
  3
ObjectDBX Classes
 90
        0
 91
        4
280
     0
281
     0
  0
CLASS
  1
VISUALSTYLE
  2
AcDbVisualStyle
  3
ObjectDBX Classes
 90
     4095
 91
        4
280
     0
281
     0
  0
CLASS
  1
MATERIAL
  2
AcDbMaterial
  3
ObjectDBX Classes
 90
     1153
 91
        4
280
     0
281
     0
  0
CLASS
  1
SUN
  2
AcDbSun
  3
SCENEOE
 90
     1024
 91
        4
280
     0
281
     0
  0
ENDSEC
  0
SECTION
  2
TABLES
  0
TABLE
  2
VPORT
  5
8
330
0
100
AcDbSymbolTable
 70
     1
  0
VPORT
  5
29
330
8
100
AcDbSymbolTableRecord
100
AcDbViewportTableRecord
  2
*Active
 70
     0
 10
0.0
 20
0.0
 11
1.0
 21
1.0
 12
0.0
 22
0.0
 13
0.0
 23
0.0
 14
0.5
 24
0.5
 15
0.5
 25
0.5
 16
0.0
 26
0.0
 36
1.0
 17
91.00082462281999
 27
-128.4993055234307
 37
0.0
 40
256.9986110468615
 41
0.7081814508812795
 42
50.0
 43
0.0
 44
0.0
 50
0.0
 51
0.0
 71
     0
 72
   100
 73
     1
 74
     3
 75
     0
 76
     0
 77
     0
 78
     0
281
     0
 65
     1
110
0.0
120
0.0
130
0.0
111
1.0
121
0.0
131
0.0
112
0.0
122
1.0
132
0.0
 79
     0
146
0.0
 60
     3
 61
     5
292
     1
282
     1
141
0.0
142
0.0
 63
   250
361
3F
  0
ENDTAB
  0
TABLE
  2
LTYPE
  5
5
330
0
100
AcDbSymbolTable
 70
     1
  0
LTYPE
  5
14
330
5
100
AcDbSymbolTableRecord
100
AcDbLinetypeTableRecord
  2
ByBlock
 70
     0
  3

 72
    65
 73
     0
 40
0.0
  0
LTYPE
  5
15
330
5
100
AcDbSymbolTableRecord
100
AcDbLinetypeTableRecord
  2
ByLayer
 70
     0
  3

 72
    65
 73
     0
 40
0.0
  0
LTYPE
  5
16
330
5
100
AcDbSymbolTableRecord
100
AcDbLinetypeTableRecord
  2
Continuous
 70
     0
  3
Solid line
 72
    65
 73
     0
 40
0.0
  0
ENDTAB
  0
TABLE
  2
LAYER
  5
2
330
0
100
AcDbSymbolTable
 70
     2
  0
LAYER
  5
10
330
2
100
AcDbSymbolTableRecord
100
AcDbLayerTableRecord
  2
0
 70
     0
 62
     7
  6
Continuous
370
    -3
390
F
347
3E
  0
LAYER
  5
40
330
2
100
AcDbSymbolTableRecord
100
AcDbLayerTableRecord
  2
_U+30EC_U+30A4_U+30E4_U+30FC 1
 70
     0
 62
     7
  6
Continuous
370
    -3
390
F
347
3E
  0
ENDTAB
  0
TABLE
  2
STYLE
  5
3
330
0
100
AcDbSymbolTable
 70
     1
  0
STYLE
  5
11
330
3
100
AcDbSymbolTableRecord
100
AcDbTextStyleTableRecord
  2
Standard
 70
     0
 40
0.0
 41
1.0
 50
0.0
 71
     0
 42
0.2
  3
txt
  4

  0
ENDTAB
  0
TABLE
  2
VIEW
  5
6
330
0
100
AcDbSymbolTable
 70
     0
  0
ENDTAB
  0
TABLE
  2
UCS
  5
7
330
0
100
AcDbSymbolTable
 70
     0
  0
ENDTAB
  0
TABLE
  2
APPID
  5
9
330
0
100
AcDbSymbolTable
 70
     1
  0
APPID
  5
12
330
9
100
AcDbSymbolTableRecord
100
AcDbRegAppTableRecord
  2
ACAD
 70
     0
  0
ENDTAB
  0
TABLE
  2
DIMSTYLE
  5
A
330
0
100
AcDbSymbolTable
 70
     1
100
AcDbDimStyleTable
  0
DIMSTYLE
105
27
330
A
100
AcDbSymbolTableRecord
100
AcDbDimStyleTableRecord
  2
Standard
 70
     0
178
     0
340
11
  0
ENDTAB
  0
TABLE
  2
BLOCK_RECORD
  5
1
330
0
100
AcDbSymbolTable
 70
     5
  0
BLOCK_RECORD
  5
1F
330
1
100
AcDbSymbolTableRecord
100
AcDbBlockTableRecord
  2
*Model_Space
340
22
 70
     0
280
     1
281
     0
  0
BLOCK_RECORD
  5
1B
330
1
100
AcDbSymbolTableRecord
100
AcDbBlockTableRecord
  2
*Paper_Space
340
1E
 70
     0
280
     1
281
     0
  0
BLOCK_RECORD
  5
23
330
1
100
AcDbSymbolTableRecord
100
AcDbBlockTableRecord
  2
*Paper_Space0
340
26
 70
     0
280
     1
281
     0
  0
BLOCK_RECORD
  5
9C
330
1
100
AcDbSymbolTableRecord
100
AcDbBlockTableRecord
  2
block 2
340
0
102
{BLKREFS
331
9D
102
}
 70
     0
280
     1
281
     0
  0
BLOCK_RECORD
  5
B3
330
1
100
AcDbSymbolTableRecord
100
AcDbBlockTableRecord
  2
block 3
340
0
102
{BLKREFS
331
B4
102
}
 70
     0
280
     1
281
     0
  0
BLOCK_RECORD
  5
CA
330
1
100
AcDbSymbolTableRecord
100
AcDbBlockTableRecord
  2
block 4
340
0
102
{BLKREFS
331
CB
102
}
 70
     0
280
     1
281
     0
  0
BLOCK_RECORD
  5
100
330
1
100
AcDbSymbolTableRecord
100
AcDbBlockTableRecord
  2
block 5
340
0
102
{BLKREFS
331
101
102
}
 70
     0
280
     1
281
     0
  0
ENDTAB
  0
ENDSEC
  0
SECTION
  2
BLOCKS
  0
BLOCK
  5
20
330
1F
100
AcDbEntity
  8
0
100
AcDbBlockBegin
  2
*Model_Space
 70
     0
 10
0.0
 20
0.0
 30
0.0
  3
*Model_Space
  1

  0
ENDBLK
  5
21
330
1F
100
AcDbEntity
  8
0
100
AcDbBlockEnd
  0
BLOCK
  5
1C
330
1B
100
AcDbEntity
 67
     1
  8
0
100
AcDbBlockBegin
  2
*Paper_Space
 70
     0
 10
0.0
 20
0.0
 30
0.0
  3
*Paper_Space
  1

  0
ENDBLK
  5
1D
330
1B
100
AcDbEntity
 67
     1
  8
0
100
AcDbBlockEnd
  0
BLOCK
  5
24
330
23
100
AcDbEntity
  8
0
100
AcDbBlockBegin
  2
*Paper_Space0
 70
     0
 10
0.0
 20
0.0
 30
0.0
  3
*Paper_Space0
  1

  0
ENDBLK
  5
25
330
23
100
AcDbEntity
  8
0
100
AcDbBlockEnd
  0
BLOCK
  5
9E
330
9C
100
AcDbEntity
  8
0
100
AcDbBlockBegin
  2
block 2
 70
     0
 10
0.0
 20
0.0
 30
0.0
  3
block 2
  1

  0
SPLINE
  5
A0
330
9C
100
AcDbEntity
  8
_U+30EC_U+30A4_U+30E4_U+30FC 1
370
     0
100
AcDbSpline
210
0.0
220
0.0
230
1.0
 70
    11
 71
     3
 72
    29
 73
    25
 74
     0
 42
0.0000000001
 43
0.0000000001
 12
1.0
 22
0.0
 32
0.0
 13
1.0
 23
0.0
 33
0.0
 40
0.0
 40
0.0
 40
0.0
 40
0.0
 40
1.0
 40
1.0
 40
1.0
 40
2.0
 40
2.0
 40
2.0
 40
3.0
 40
3.0
 40
3.0
 40
4.0
 40
4.0
 40
4.0
 40
5.0
 40
5.0
 40
5.0
 40
6.0
 40
6.0
 40
6.0
 40
7.0
 40
7.0
 40
7.0
 40
8.0
 40
8.0
 40
8.0
 40
8.0
 10
101.3543646665017
 20
-91.41836477749264
 30
0.0
 10
101.3543646665017
 20
-91.68501516805097
 30
0.0
 10
101.2169053566402
 20
-91.93891870531388
 30
0.0
 10
100.8679171839844
 20
-91.93891870531388
 30
0.0
 10
100.6119465894303
 20
-91.93891870531388
 30
0.0
 10
100.5165174444889
 20
-91.79715302609586
 30
0.0
 10
100.4551947448515
 20
-91.69138859469868
 30
0.0
 10
100.3959391025052
 20
-91.81610105126472
 30
0.0
 10
100.2819064419434
 20
-91.89223766148875
 30
0.0
 10
100.1210204827823
 20
-91.89223766148875
 30
0.0
 10
99.84610186305932
 20
-91.89223766148875
 30
0.0
 10
99.71070961048899
 20
-91.69345565198984
 30
0.0
 10
99.71070961048899
 20
-91.41836477749264
 30
0.0
 10
99.71070961048899
 20
-91.13500567383083
 30
0.0
 10
99.85437009222392
 20
-90.94449189349652
 30
0.0
 10
100.1210204827823
 20
-90.94449189349652
 30
0.0
 10
100.2819064419434
 20
-90.94449189349652
 30
0.0
 10
100.3959391025052
 20
-91.02286781578596
 30
0.0
 10
100.4551947448515
 20
-91.147580272352
 30
0.0
 10
100.5061821580332
 20
-91.05886906360682
 30
0.0
 10
100.6012667934261
 20
-90.90022241651106
 30
0.0
 10
100.8634385598536
 20
-90.90022241651106
 30
0.0
 10
101.2379204391003
 20
-90.90022241651106
 30
0.0
 10
101.3543646665017
 20
-91.17944740559057
 30
0.0
 10
101.3543646665017
 20
-91.41836477749264
 30
0.0
  0
SPLINE
  5
A1
330
9C
100
AcDbEntity
  8
_U+30EC_U+30A4_U+30E4_U+30FC 1
370
     0
100
AcDbSpline
210
0.0
220
0.0
230
1.0
 70
    11
 71
     3
 72
    17
 73
    13
 74
     0
 42
0.0000000001
 43
0.0000000001
 12
1.0
 22
0.0
 32
0.0
 13
1.0
 23
0.0
 33
0.0
 40
0.0
 40
0.0
 40
0.0
 40
0.0
 40
1.0
 40
1.0
 40
1.0
 40
2.0
 40
2.0
 40
2.0
 40
3.0
 40
3.0
 40
3.0
 40
4.0
 40
4.0
 40
4.0
 40
4.0
 10
99.90294593856594
 20
-91.41836477749264
 30
0.0
 10
99.90294593856594
 20
-91.5833848512361
 30
0.0
 10
99.99837508350736
 20
-91.66813420017324
 30
0.0
 10
100.1337673360777
 20
-91.66813420017324
 30
0.0
 10
100.2564127353526
 20
-91.66813420017324
 30
0.0
 10
100.3749240200452
 20
-91.59613170453153
 30
0.0
 10
100.3749240200452
 20
-91.41836477749264
 30
0.0
 10
100.3749240200452
 20
-91.24077010522801
 30
0.0
 10
100.2564127353526
 20
-91.16876760958628
 30
0.0
 10
100.1337673360777
 20
-91.16876760958628
 30
0.0
 10
99.99837508350736
 20
-91.16876760958628
 30
0.0
 10
99.90294593856594
 20
-91.25558401581458
 30
0.0
 10
99.90294593856594
 20
-91.41836477749264
 30
0.0
  0
SPLINE
  5
A2
330
9C
100
AcDbEntity
  8
_U+30EC_U+30A4_U+30E4_U+30FC 1
370
     0
100
AcDbSpline
210
0.0
220
0.0
230
1.0
 70
    11
 71
     3
 72
    17
 73
    13
 74
     0
 42
0.0000000001
 43
0.0000000001
 12
1.0
 22
0.0
 32
0.0
 13
1.0
 23
0.0
 33
0.0
 40
0.0
 40
0.0
 40
0.0
 40
0.0
 40
1.0
 40
1.0
 40
1.0
 40
2.0
 40
2.0
 40
2.0
 40
3.0
 40
3.0
 40
3.0
 40
4.0
 40
4.0
 40
4.0
 40
4.0
 10
100.5630262335398
 20
-91.41836477749264
 30
0.0
 10
100.5630262335398
 20
-91.56236976877608
 30
0.0
 10
100.6498426397681
 20
-91.71464298922412
 30
0.0
 10
100.8531032733978
 20
-91.71464298922412
 30
0.0
 10
101.0580864547702
 20
-91.71464298922412
 30
0.0
 10
101.1597167715851
 20
-91.58769122059266
 30
0.0
 10
101.1597167715851
 20
-91.41836477749264
 30
0.0
 10
101.1597167715851
 20
-91.23232962128914
 30
0.0
 10
101.0370713723102
 20
-91.12225882053541
 30
0.0
 10
100.8593044452713
 20
-91.12225882053541
 30
0.0
 10
100.6370957864727
 20
-91.12225882053541
 30
0.0
 10
100.5630262335398
 20
-91.28521183698773
 30
0.0
 10
100.5630262335398
 20
-91.41836477749264
 30
0.0
  0
HATCH
  5
A3
330
9C
100
AcDbEntity
  8
_U+30EC_U+30A4_U+30E4_U+30FC 1
 62
   179
420
  2234388
100
AcDbHatch
 10
0.0
 20
0.0
 30
0.0
210
0.0
220
0.0
230
1.0
  2
SOLID
 70
     1
 71
     0
 91
        3
 92
        1
 93
        1
 72
     4
 94
        3
 73
     0
 74
     1
 95
       29
 96
       25
 40
0.0
 40
0.0
 40
0.0
 40
0.0
 40
1.0
 40
1.0
 40
1.0
 40
2.0
 40
2.0
 40
2.0
 40
3.0
 40
3.0
 40
3.0
 40
4.0
 40
4.0
 40
4.0
 40
5.0
 40
5.0
 40
5.0
 40
6.0
 40
6.0
 40
6.0
 40
7.0
 40
7.0
 40
7.0
 40
8.0
 40
8.0
 40
8.0
 40
8.0
 10
101.3543646665017
 20
-91.41836477749264
 10
101.3543646665017
 20
-91.68501516805097
 10
101.2169053566402
 20
-91.93891870531388
 10
100.8679171839844
 20
-91.93891870531388
 10
100.6119465894303
 20
-91.93891870531388
 10
100.5165174444889
 20
-91.79715302609586
 10
100.4551947448515
 20
-91.69138859469868
 10
100.3959391025052
 20
-91.81610105126472
 10
100.2819064419434
 20
-91.89223766148875
 10
100.1210204827823
 20
-91.89223766148875
 10
99.84610186305932
 20
-91.89223766148875
 10
99.71070961048899
 20
-91.69345565198984
 10
99.71070961048899
 20
-91.41836477749264
 10
99.71070961048899
 20
-91.13500567383083
 10
99.85437009222392
 20
-90.94449189349652
 10
100.1210204827823
 20
-90.94449189349652
 10
100.2819064419434
 20
-90.94449189349652
 10
100.3959391025052
 20
-91.02286781578596
 10
100.4551947448515
 20
-91.147580272352
 10
100.5061821580332
 20
-91.05886906360682
 10
100.6012667934261
 20
-90.90022241651106
 10
100.8634385598536
 20
-90.90022241651106
 10
101.2379204391003
 20
-90.90022241651106
 10
101.3543646665017
 20
-91.17944740559057
 10
101.3543646665017
 20
-91.41836477749264
 97
        0
 97
        0
 92
        1
 93
        1
 72
     4
 94
        3
 73
     0
 74
     1
 95
       17
 96
       13
 40
0.0
 40
0.0
 40
0.0
 40
0.0
 40
1.0
 40
1.0
 40
1.0
 40
2.0
 40
2.0
 40
2.0
 40
3.0
 40
3.0
 40
3.0
 40
4.0
 40
4.0
 40
4.0
 40
4.0
 10
99.90294593856594
 20
-91.41836477749264
 10
99.90294593856594
 20
-91.5833848512361
 10
99.99837508350736
 20
-91.66813420017324
 10
100.1337673360777
 20
-91.66813420017324
 10
100.2564127353526
 20
-91.66813420017324
 10
100.3749240200452
 20
-91.59613170453153
 10
100.3749240200452
 20
-91.41836477749264
 10
100.3749240200452
 20
-91.24077010522801
 10
100.2564127353526
 20
-91.16876760958628
 10
100.1337673360777
 20
-91.16876760958628
 10
99.99837508350736
 20
-91.16876760958628
 10
99.90294593856594
 20
-91.25558401581458
 10
99.90294593856594
 20
-91.41836477749264
 97
        0
 97
        0
 92
        1
 93
        1
 72
     4
 94
        3
 73
     0
 74
     1
 95
       17
 96
       13
 40
0.0
 40
0.0
 40
0.0
 40
0.0
 40
1.0
 40
1.0
 40
1.0
 40
2.0
 40
2.0
 40
2.0
 40
3.0
 40
3.0
 40
3.0
 40
4.0
 40
4.0
 40
4.0
 40
4.0
 10
100.5630262335398
 20
-91.41836477749264
 10
100.5630262335398
 20
-91.56236976877608
 10
100.6498426397681
 20
-91.71464298922412
 10
100.8531032733978
 20
-91.71464298922412
 10
101.0580864547702
 20
-91.71464298922412
 10
101.1597167715851
 20
-91.58769122059266
 10
101.1597167715851
 20
-91.41836477749264
 10
101.1597167715851
 20
-91.23232962128914
 10
101.0370713723102
 20
-91.12225882053541
 10
100.8593044452713
 20
-91.12225882053541
 10
100.6370957864727
 20
-91.12225882053541
 10
100.5630262335398
 20
-91.28521183698773
 10
100.5630262335398
 20
-91.41836477749264
 97
        0
 97
        0
 75
     2
 76
     1
 98
        0
  0
ENDBLK
  5
9F
330
9C
100
AcDbEntity
  8
0
100
AcDbBlockEnd
  0
BLOCK
  5
B5
330
B3
100
AcDbEntity
  8
0
100
AcDbBlockBegin
  2
block 3
 70
     0
 10
0.0
 20
0.0
 30
0.0
  3
block 3
  1

  0
SPLINE
  5
B7
330
B3
100
AcDbEntity
  8
_U+30EC_U+30A4_U+30E4_U+30FC 1
370
     0
100
AcDbSpline
210
0.0
220
0.0
230
1.0
 70
    11
 71
     3
 72
    26
 73
    22
 74
     0
 42
0.0000000001
 43
0.0000000001
 12
1.0
 22
0.0
 32
0.0
 13
1.0
 23
0.0
 33
0.0
 40
0.0
 40
0.0
 40
0.0
 40
0.0
 40
1.0
 40
1.0
 40
1.0
 40
2.0
 40
2.0
 40
2.0
 40
3.0
 40
3.0
 40
3.0
 40
4.0
 40
4.0
 40
4.0
 40
5.0
 40
5.0
 40
5.0
 40
6.0
 40
6.0
 40
6.0
 40
7.0
 40
7.0
 40
7.0
 40
7.0
 10
91.53894311947639
 20
-83.04523245536717
 30
0.0
 10
91.53894311947639
 20
-83.04523245536717
 30
0.0
 10
91.53894311947639
 20
-81.94090709757033
 30
0.0
 10
91.53894311947639
 20
-81.94090709757033
 30
0.0
 10
91.53894311947639
 20
-81.94090709757033
 30
0.0
 10
91.20890297198945
 20
-81.94090709757033
 30
0.0
 10
91.20890297198945
 20
-81.94090709757033
 30
0.0
 10
91.20890297198945
 20
-81.94090709757033
 30
0.0
 10
91.20890297198945
 20
-81.79294024647885
 30
0.0
 10
91.20890297198945
 20
-81.79294024647885
 30
0.0
 10
91.54101017676753
 20
-81.77812633589228
 30
0.0
 10
91.5875189658184
 20
-81.61517331943996
 30
0.0
 10
91.61714678699155
 20
-81.50096840410393
 30
0.0
 10
91.61714678699155
 20
-81.50096840410393
 30
0.0
 10
91.76321883556615
 20
-81.50096840410393
 30
0.0
 10
91.76321883556615
 20
-81.50096840410393
 30
0.0
 10
91.76321883556615
 20
-81.50096840410393
 30
0.0
 10
91.76321883556615
 20
-83.04523245536717
 30
0.0
 10
91.76321883556615
 20
-83.04523245536717
 30
0.0
 10
91.76321883556615
 20
-83.04523245536717
 30
0.0
 10
91.53894311947639
 20
-83.04523245536717
 30
0.0
 10
91.53894311947639
 20
-83.04523245536717
 30
0.0
  0
HATCH
  5
B8
330
B3
100
AcDbEntity
  8
_U+30EC_U+30A4_U+30E4_U+30FC 1
 62
   179
420
  2234388
100
AcDbHatch
 10
0.0
 20
0.0
 30
0.0
210
0.0
220
0.0
230
1.0
  2
SOLID
 70
     1
 71
     0
 91
        1
 92
        1
 93
        1
 72
     4
 94
        3
 73
     0
 74
     1
 95
       26
 96
       22
 40
0.0
 40
0.0
 40
0.0
 40
0.0
 40
1.0
 40
1.0
 40
1.0
 40
2.0
 40
2.0
 40
2.0
 40
3.0
 40
3.0
 40
3.0
 40
4.0
 40
4.0
 40
4.0
 40
5.0
 40
5.0
 40
5.0
 40
6.0
 40
6.0
 40
6.0
 40
7.0
 40
7.0
 40
7.0
 40
7.0
 10
91.53894311947639
 20
-83.04523245536717
 10
91.53894311947639
 20
-83.04523245536717
 10
91.53894311947639
 20
-81.94090709757033
 10
91.53894311947639
 20
-81.94090709757033
 10
91.53894311947639
 20
-81.94090709757033
 10
91.20890297198945
 20
-81.94090709757033
 10
91.20890297198945
 20
-81.94090709757033
 10
91.20890297198945
 20
-81.94090709757033
 10
91.20890297198945
 20
-81.79294024647885
 10
91.20890297198945
 20
-81.79294024647885
 10
91.54101017676753
 20
-81.77812633589228
 10
91.5875189658184
 20
-81.61517331943996
 10
91.61714678699155
 20
-81.50096840410393
 10
91.61714678699155
 20
-81.50096840410393
 10
91.76321883556615
 20
-81.50096840410393
 10
91.76321883556615
 20
-81.50096840410393
 10
91.76321883556615
 20
-81.50096840410393
 10
91.76321883556615
 20
-83.04523245536717
 10
91.76321883556615
 20
-83.04523245536717
 10
91.76321883556615
 20
-83.04523245536717
 10
91.53894311947639
 20
-83.04523245536717
 10
91.53894311947639
 20
-83.04523245536717
 97
        0
 97
        0
 75
     2
 76
     1
 98
        0
  0
SPLINE
  5
B9
330
B3
100
AcDbEntity
  8
_U+30EC_U+30A4_U+30E4_U+30FC 1
370
     0
100
AcDbSpline
210
0.0
220
0.0
230
1.0
 70
    11
 71
     3
 72
    26
 73
    22
 74
     0
 42
0.0000000001
 43
0.0000000001
 12
1.0
 22
0.0
 32
0.0
 13
1.0
 23
0.0
 33
0.0
 40
0.0
 40
0.0
 40
0.0
 40
0.0
 40
1.0
 40
1.0
 40
1.0
 40
2.0
 40
2.0
 40
2.0
 40
3.0
 40
3.0
 40
3.0
 40
4.0
 40
4.0
 40
4.0
 40
5.0
 40
5.0
 40
5.0
 40
6.0
 40
6.0
 40
6.0
 40
7.0
 40
7.0
 40
7.0
 40
7.0
 10
92.71578773723772
 20
-83.04523245536717
 30
0.0
 10
92.71578773723772
 20
-83.04523245536717
 30
0.0
 10
92.71578773723772
 20
-81.94090709757033
 30
0.0
 10
92.71578773723772
 20
-81.94090709757033
 30
0.0
 10
92.71578773723772
 20
-81.94090709757033
 30
0.0
 10
92.38574758975079
 20
-81.94090709757033
 30
0.0
 10
92.38574758975079
 20
-81.94090709757033
 30
0.0
 10
92.38574758975079
 20
-81.94090709757033
 30
0.0
 10
92.38574758975079
 20
-81.79294024647885
 30
0.0
 10
92.38574758975079
 20
-81.79294024647885
 30
0.0
 10
92.71785479452888
 20
-81.77812633589228
 30
0.0
 10
92.76436358357975
 20
-81.61517331943996
 30
0.0
 10
92.7939914047529
 20
-81.50096840410393
 30
0.0
 10
92.7939914047529
 20
-81.50096840410393
 30
0.0
 10
92.94006345332748
 20
-81.50096840410393
 30
0.0
 10
92.94006345332748
 20
-81.50096840410393
 30
0.0
 10
92.94006345332748
 20
-81.50096840410393
 30
0.0
 10
92.94006345332748
 20
-83.04523245536717
 30
0.0
 10
92.94006345332748
 20
-83.04523245536717
 30
0.0
 10
92.94006345332748
 20
-83.04523245536717
 30
0.0
 10
92.71578773723772
 20
-83.04523245536717
 30
0.0
 10
92.71578773723772
 20
-83.04523245536717
 30
0.0
  0
HATCH
  5
BA
330
B3
100
AcDbEntity
  8
_U+30EC_U+30A4_U+30E4_U+30FC 1
 62
   179
420
  2234388
100
AcDbHatch
 10
0.0
 20
0.0
 30
0.0
210
0.0
220
0.0
230
1.0
  2
SOLID
 70
     1
 71
     0
 91
        1
 92
        1
 93
        1
 72
     4
 94
        3
 73
     0
 74
     1
 95
       26
 96
       22
 40
0.0
 40
0.0
 40
0.0
 40
0.0
 40
1.0
 40
1.0
 40
1.0
 40
2.0
 40
2.0
 40
2.0
 40
3.0
 40
3.0
 40
3.0
 40
4.0
 40
4.0
 40
4.0
 40
5.0
 40
5.0
 40
5.0
 40
6.0
 40
6.0
 40
6.0
 40
7.0
 40
7.0
 40
7.0
 40
7.0
 10
92.71578773723772
 20
-83.04523245536717
 10
92.71578773723772
 20
-83.04523245536717
 10
92.71578773723772
 20
-81.94090709757033
 10
92.71578773723772
 20
-81.94090709757033
 10
92.71578773723772
 20
-81.94090709757033
 10
92.38574758975079
 20
-81.94090709757033
 10
92.38574758975079
 20
-81.94090709757033
 10
92.38574758975079
 20
-81.94090709757033
 10
92.38574758975079
 20
-81.79294024647885
 10
92.38574758975079
 20
-81.79294024647885
 10
92.71785479452888
 20
-81.77812633589228
 10
92.76436358357975
 20
-81.61517331943996
 10
92.7939914047529
 20
-81.50096840410393
 10
92.7939914047529
 20
-81.50096840410393
 10
92.94006345332748
 20
-81.50096840410393
 10
92.94006345332748
 20
-81.50096840410393
 10
92.94006345332748
 20
-81.50096840410393
 10
92.94006345332748
 20
-83.04523245536717
 10
92.94006345332748
 20
-83.04523245536717
 10
92.94006345332748
 20
-83.04523245536717
 10
92.71578773723772
 20
-83.04523245536717
 10
92.71578773723772
 20
-83.04523245536717
 97
        0
 97
        0
 75
     2
 76
     1
 98
        0
  0
ENDBLK
  5
B6
330
B3
100
AcDbEntity
  8
0
100
AcDbBlockEnd
  0
BLOCK
  5
CC
330
CA
100
AcDbEntity
  8
0
100
AcDbBlockBegin
  2
block 4
 70
     0
 10
0.0
 20
0.0
 30
0.0
  3
block 4
  1

  0
POLYLINE
  5
CE
330
CA
100
AcDbEntity
  8
_U+30EC_U+30A4_U+30E4_U+30FC 1
370
     0
100
AcDb2dPolyline
 66
     1
 10
0.0
 20
0.0
 30
0.0
  0
VERTEX
  5
CF
330
CE
100
AcDbEntity
  8
_U+30EC_U+30A4_U+30E4_U+30FC 1
370
     0
100
AcDbVertex
100
AcDb2dVertex
 10
99.45680607322608
 20
-153.537225981581
 30
0.0
  0
VERTEX
  5
D0
330
CE
100
AcDbEntity
  8
_U+30EC_U+30A4_U+30E4_U+30FC 1
370
     0
100
AcDbVertex
100
AcDb2dVertex
 10
99.80372718859074
 20
-153.537225981581
 30
0.0
  0
VERTEX
  5
D1
330
CE
100
AcDbEntity
  8
_U+30EC_U+30A4_U+30E4_U+30FC 1
370
     0
100
AcDbVertex
100
AcDb2dVertex
 10
99.80372718859074
 20
-153.7553005257973
 30
0.0
  0
VERTEX
  5
D2
330
CE
100
AcDbEntity
  8
_U+30EC_U+30A4_U+30E4_U+30FC 1
370
     0
100
AcDbVertex
100
AcDb2dVertex
 10
99.45680607322608
 20
-153.7553005257973
 30
0.0
  0
VERTEX
  5
D3
330
CE
100
AcDbEntity
  8
_U+30EC_U+30A4_U+30E4_U+30FC 1
370
     0
100
AcDbVertex
100
AcDb2dVertex
 10
99.45680607322608
 20
-154.4109021966403
 30
0.0
  0
VERTEX
  5
D4
330
CE
100
AcDbEntity
  8
_U+30EC_U+30A4_U+30E4_U+30FC 1
370
     0
100
AcDbVertex
100
AcDb2dVertex
 10
99.23253035713631
 20
-154.4109021966403
 30
0.0
  0
VERTEX
  5
D5
330
CE
100
AcDbEntity
  8
_U+30EC_U+30A4_U+30E4_U+30FC 1
370
     0
100
AcDbVertex
100
AcDb2dVertex
 10
98.25929088255323
 20
-153.7318738764976
 30
0.0
  0
VERTEX
  5
D6
330
CE
100
AcDbEntity
  8
_U+30EC_U+30A4_U+30E4_U+30FC 1
370
     0
100
AcDbVertex
100
AcDb2dVertex
 10
98.25929088255323
 20
-153.537225981581
 30
0.0
  0
VERTEX
  5
D7
330
CE
100
AcDbEntity
  8
_U+30EC_U+30A4_U+30E4_U+30FC 1
370
     0
100
AcDbVertex
100
AcDb2dVertex
 10
99.25767955417864
 20
-153.537225981581
 30
0.0
  0
VERTEX
  5
D8
330
CE
100
AcDbEntity
  8
_U+30EC_U+30A4_U+30E4_U+30FC 1
370
     0
100
AcDbVertex
100
AcDb2dVertex
 10
99.25767955417864
 20
-153.3298312333689
 30
0.0
  0
VERTEX
  5
D9
330
CE
100
AcDbEntity
  8
_U+30EC_U+30A4_U+30E4_U+30FC 1
370
     0
100
AcDbVertex
100
AcDb2dVertex
 10
99.45680607322608
 20
-153.3298312333689
 30
0.0
  0
VERTEX
  5
DA
330
CE
100
AcDbEntity
  8
_U+30EC_U+30A4_U+30E4_U+30FC 1
370
     0
100
AcDbVertex
100
AcDb2dVertex
 10
99.45680607322608
 20
-153.537225981581
 30
0.0
  0
SEQEND
  5
DB
330
CE
100
AcDbEntity
  8
_U+30EC_U+30A4_U+30E4_U+30FC 1
370
     0
  0
POLYLINE
  5
DC
330
CA
100
AcDbEntity
  8
_U+30EC_U+30A4_U+30E4_U+30FC 1
370
     0
100
AcDb2dPolyline
 66
     1
 10
0.0
 20
0.0
 30
0.0
  0
VERTEX
  5
DD
330
DC
100
AcDbEntity
  8
_U+30EC_U+30A4_U+30E4_U+30FC 1
370
     0
100
AcDbVertex
100
AcDb2dVertex
 10
98.6020778833356
 20
-153.7553005257973
 30
0.0
  0
VERTEX
  5
DE
330
DC
100
AcDbEntity
  8
_U+30EC_U+30A4_U+30E4_U+30FC 1
370
     0
100
AcDbVertex
100
AcDb2dVertex
 10
99.25767955417864
 20
-154.2121201871414
 30
0.0
  0
VERTEX
  5
DF
330
DC
100
AcDbEntity
  8
_U+30EC_U+30A4_U+30E4_U+30FC 1
370
     0
100
AcDbVertex
100
AcDb2dVertex
 10
99.25767955417864
 20
-153.7553005257973
 30
0.0
  0
VERTEX
  5
E0
330
DC
100
AcDbEntity
  8
_U+30EC_U+30A4_U+30E4_U+30FC 1
370
     0
100
AcDbVertex
100
AcDb2dVertex
 10
98.6020778833356
 20
-153.7553005257973
 30
0.0
  0
SEQEND
  5
E1
330
DC
100
AcDbEntity
  8
_U+30EC_U+30A4_U+30E4_U+30FC 1
370
     0
  0
HATCH
  5
E2
330
CA
100
AcDbEntity
  8
_U+30EC_U+30A4_U+30E4_U+30FC 1
 62
   179
420
  2234388
100
AcDbHatch
 10
0.0
 20
0.0
 30
0.0
210
0.0
220
0.0
230
1.0
  2
SOLID
 70
     1
 71
     0
 91
        2
 92
        1
 93
       11
 72
     1
 10
99.45680607322608
 20
-153.537225981581
 11
99.80372718859074
 21
-153.537225981581
 72
     1
 10
99.80372718859074
 20
-153.537225981581
 11
99.80372718859074
 21
-153.7553005257973
 72
     1
 10
99.80372718859074
 20
-153.7553005257973
 11
99.45680607322608
 21
-153.7553005257973
 72
     1
 10
99.45680607322608
 20
-153.7553005257973
 11
99.45680607322608
 21
-154.4109021966403
 72
     1
 10
99.45680607322608
 20
-154.4109021966403
 11
99.23253035713631
 21
-154.4109021966403
 72
     1
 10
99.23253035713631
 20
-154.4109021966403
 11
98.25929088255323
 21
-153.7318738764976
 72
     1
 10
98.25929088255323
 20
-153.7318738764976
 11
98.25929088255323
 21
-153.537225981581
 72
     1
 10
98.25929088255323
 20
-153.537225981581
 11
99.25767955417864
 21
-153.537225981581
 72
     1
 10
99.25767955417864
 20
-153.537225981581
 11
99.25767955417864
 21
-153.3298312333689
 72
     1
 10
99.25767955417864
 20
-153.3298312333689
 11
99.45680607322608
 21
-153.3298312333689
 72
     1
 10
99.45680607322608
 20
-153.3298312333689
 11
99.45680607322608
 21
-153.537225981581
 97
        0
 92
        1
 93
        3
 72
     1
 10
98.6020778833356
 20
-153.7553005257973
 11
99.25767955417864
 21
-154.2121201871414
 72
     1
 10
99.25767955417864
 20
-154.2121201871414
 11
99.25767955417864
 21
-153.7553005257973
 72
     1
 10
99.25767955417864
 20
-153.7553005257973
 11
98.6020778833356
 21
-153.7553005257973
 97
        0
 75
     2
 76
     1
 98
        0
  0
SPLINE
  5
E3
330
CA
100
AcDbEntity
  8
_U+30EC_U+30A4_U+30E4_U+30FC 1
370
     0
100
AcDbSpline
210
0.0
220
0.0
230
1.0
 70
    11
 71
     3
 72
    29
 73
    25
 74
     0
 42
0.0000000001
 43
0.0000000001
 12
1.0
 22
0.0
 32
0.0
 13
1.0
 23
0.0
 33
0.0
 40
0.0
 40
0.0
 40
0.0
 40
0.0
 40
1.0
 40
1.0
 40
1.0
 40
2.0
 40
2.0
 40
2.0
 40
3.0
 40
3.0
 40
3.0
 40
4.0
 40
4.0
 40
4.0
 40
5.0
 40
5.0
 40
5.0
 40
6.0
 40
6.0
 40
6.0
 40
7.0
 40
7.0
 40
7.0
 40
8.0
 40
8.0
 40
8.0
 40
8.0
 10
99.85437009222392
 20
-152.6924885685977
 30
0.0
 10
99.85437009222392
 20
-152.9591389591561
 30
0.0
 10
99.71691078236245
 20
-153.213042496419
 30
0.0
 10
99.36792260970664
 20
-153.213042496419
 30
0.0
 10
99.11195201515257
 20
-153.213042496419
 30
0.0
 10
99.01652287021115
 20
-153.0711045624267
 30
0.0
 10
98.9552001705737
 20
-152.9653401310295
 30
0.0
 10
98.8959445282274
 20
-153.0900525875956
 30
0.0
 10
98.78191186766564
 20
-153.1665337073681
 30
0.0
 10
98.62102590850446
 20
-153.1665337073681
 30
0.0
 10
98.34610728878154
 20
-153.1665337073681
 30
0.0
 10
98.21071503621121
 20
-152.9674071883207
 30
0.0
 10
98.21071503621121
 20
-152.6924885685977
 30
0.0
 10
98.21071503621121
 20
-152.4089572101616
 30
0.0
 10
98.35437551794614
 20
-152.2187879393759
 30
0.0
 10
98.62102590850446
 20
-152.2187879393759
 30
0.0
 10
98.78191186766564
 20
-152.2187879393759
 30
0.0
 10
98.8959445282274
 20
-152.296991606891
 30
0.0
 10
98.9552001705737
 20
-152.4217040634571
 30
0.0
 10
99.0061875837554
 20
-152.3328205999376
 30
0.0
 10
99.1012722191483
 20
-152.1743462076161
 30
0.0
 10
99.36344398557581
 20
-152.1743462076161
 30
0.0
 10
99.73792586482247
 20
-152.1743462076161
 30
0.0
 10
99.85437009222392
 20
-152.4533989419214
 30
0.0
 10
99.85437009222392
 20
-152.6924885685977
 30
0.0
  0
SPLINE
  5
E4
330
CA
100
AcDbEntity
  8
_U+30EC_U+30A4_U+30E4_U+30FC 1
370
     0
100
AcDbSpline
210
0.0
220
0.0
230
1.0
 70
    11
 71
     3
 72
    17
 73
    13
 74
     0
 42
0.0000000001
 43
0.0000000001
 12
1.0
 22
0.0
 32
0.0
 13
1.0
 23
0.0
 33
0.0
 40
0.0
 40
0.0
 40
0.0
 40
0.0
 40
1.0
 40
1.0
 40
1.0
 40
2.0
 40
2.0
 40
2.0
 40
3.0
 40
3.0
 40
3.0
 40
4.0
 40
4.0
 40
4.0
 40
4.0
 10
98.40295136428816
 20
-152.6924885685977
 30
0.0
 10
98.40295136428816
 20
-152.8575086423412
 30
0.0
 10
98.49838050922958
 20
-152.9422579912783
 30
0.0
 10
98.63377276179989
 20
-152.9422579912783
 30
0.0
 10
98.75641816107479
 20
-152.9422579912783
 30
0.0
 10
98.87492944576738
 20
-152.8702554956366
 30
0.0
 10
98.87492944576738
 20
-152.6924885685977
 30
0.0
 10
98.87492944576738
 20
-152.5147216415588
 30
0.0
 10
98.75641816107479
 20
-152.4427191459171
 30
0.0
 10
98.63377276179989
 20
-152.4427191459171
 30
0.0
 10
98.49838050922958
 20
-152.4427191459171
 30
0.0
 10
98.40295136428816
 20
-152.5295355521454
 30
0.0
 10
98.40295136428816
 20
-152.6924885685977
 30
0.0
  0
SPLINE
  5
E5
330
CA
100
AcDbEntity
  8
_U+30EC_U+30A4_U+30E4_U+30FC 1
370
     0
100
AcDbSpline
210
0.0
220
0.0
230
1.0
 70
    11
 71
     3
 72
    17
 73
    13
 74
     0
 42
0.0000000001
 43
0.0000000001
 12
1.0
 22
0.0
 32
0.0
 13
1.0
 23
0.0
 33
0.0
 40
0.0
 40
0.0
 40
0.0
 40
0.0
 40
1.0
 40
1.0
 40
1.0
 40
2.0
 40
2.0
 40
2.0
 40
3.0
 40
3.0
 40
3.0
 40
4.0
 40
4.0
 40
4.0
 40
4.0
 10
99.06303165926202
 20
-152.6924885685977
 30
0.0
 10
99.06303165926202
 20
-152.8364935598811
 30
0.0
 10
99.14984806549032
 20
-152.9887667803292
 30
0.0
 10
99.35310869912006
 20
-152.9887667803292
 30
0.0
 10
99.55809188049243
 20
-152.9887667803292
 30
0.0
 10
99.6597221973073
 20
-152.8616427569235
 30
0.0
 10
99.6597221973073
 20
-152.6924885685977
 30
0.0
 10
99.6597221973073
 20
-152.5064534123942
 30
0.0
 10
99.5370767980324
 20
-152.3962103568662
 30
0.0
 10
99.35930987099351
 20
-152.3962103568662
 30
0.0
 10
99.13710121219489
 20
-152.3962103568662
 30
0.0
 10
99.06303165926202
 20
-152.5591633733185
 30
0.0
 10
99.06303165926202
 20
-152.6924885685977
 30
0.0
  0
HATCH
  5
E6
330
CA
100
AcDbEntity
  8
_U+30EC_U+30A4_U+30E4_U+30FC 1
 62
   179
420
  2234388
100
AcDbHatch
 10
0.0
 20
0.0
 30
0.0
210
0.0
220
0.0
230
1.0
  2
SOLID
 70
     1
 71
     0
 91
        3
 92
        1
 93
        1
 72
     4
 94
        3
 73
     0
 74
     1
 95
       29
 96
       25
 40
0.0
 40
0.0
 40
0.0
 40
0.0
 40
1.0
 40
1.0
 40
1.0
 40
2.0
 40
2.0
 40
2.0
 40
3.0
 40
3.0
 40
3.0
 40
4.0
 40
4.0
 40
4.0
 40
5.0
 40
5.0
 40
5.0
 40
6.0
 40
6.0
 40
6.0
 40
7.0
 40
7.0
 40
7.0
 40
8.0
 40
8.0
 40
8.0
 40
8.0
 10
99.85437009222392
 20
-152.6924885685977
 10
99.85437009222392
 20
-152.9591389591561
 10
99.71691078236245
 20
-153.213042496419
 10
99.36792260970664
 20
-153.213042496419
 10
99.11195201515257
 20
-153.213042496419
 10
99.01652287021115
 20
-153.0711045624267
 10
98.9552001705737
 20
-152.9653401310295
 10
98.8959445282274
 20
-153.0900525875956
 10
98.78191186766564
 20
-153.1665337073681
 10
98.62102590850446
 20
-153.1665337073681
 10
98.34610728878154
 20
-153.1665337073681
 10
98.21071503621121
 20
-152.9674071883207
 10
98.21071503621121
 20
-152.6924885685977
 10
98.21071503621121
 20
-152.4089572101616
 10
98.35437551794614
 20
-152.2187879393759
 10
98.62102590850446
 20
-152.2187879393759
 10
98.78191186766564
 20
-152.2187879393759
 10
98.8959445282274
 20
-152.296991606891
 10
98.9552001705737
 20
-152.4217040634571
 10
99.0061875837554
 20
-152.3328205999376
 10
99.1012722191483
 20
-152.1743462076161
 10
99.36344398557581
 20
-152.1743462076161
 10
99.73792586482247
 20
-152.1743462076161
 10
99.85437009222392
 20
-152.4533989419214
 10
99.85437009222392
 20
-152.6924885685977
 97
        0
 97
        0
 92
        1
 93
        1
 72
     4
 94
        3
 73
     0
 74
     1
 95
       17
 96
       13
 40
0.0
 40
0.0
 40
0.0
 40
0.0
 40
1.0
 40
1.0
 40
1.0
 40
2.0
 40
2.0
 40
2.0
 40
3.0
 40
3.0
 40
3.0
 40
4.0
 40
4.0
 40
4.0
 40
4.0
 10
98.40295136428816
 20
-152.6924885685977
 10
98.40295136428816
 20
-152.8575086423412
 10
98.49838050922958
 20
-152.9422579912783
 10
98.63377276179989
 20
-152.9422579912783
 10
98.75641816107479
 20
-152.9422579912783
 10
98.87492944576738
 20
-152.8702554956366
 10
98.87492944576738
 20
-152.6924885685977
 10
98.87492944576738
 20
-152.5147216415588
 10
98.75641816107479
 20
-152.4427191459171
 10
98.63377276179989
 20
-152.4427191459171
 10
98.49838050922958
 20
-152.4427191459171
 10
98.40295136428816
 20
-152.5295355521454
 10
98.40295136428816
 20
-152.6924885685977
 97
        0
 97
        0
 92
        1
 93
        1
 72
     4
 94
        3
 73
     0
 74
     1
 95
       17
 96
       13
 40
0.0
 40
0.0
 40
0.0
 40
0.0
 40
1.0
 40
1.0
 40
1.0
 40
2.0
 40
2.0
 40
2.0
 40
3.0
 40
3.0
 40
3.0
 40
4.0
 40
4.0
 40
4.0
 40
4.0
 10
99.06303165926202
 20
-152.6924885685977
 10
99.06303165926202
 20
-152.8364935598811
 10
99.14984806549032
 20
-152.9887667803292
 10
99.35310869912006
 20
-152.9887667803292
 10
99.55809188049243
 20
-152.9887667803292
 10
99.6597221973073
 20
-152.8616427569235
 10
99.6597221973073
 20
-152.6924885685977
 10
99.6597221973073
 20
-152.5064534123942
 10
99.5370767980324
 20
-152.3962103568662
 10
99.35930987099351
 20
-152.3962103568662
 10
99.13710121219489
 20
-152.3962103568662
 10
99.06303165926202
 20
-152.5591633733185
 10
99.06303165926202
 20
-152.6924885685977
 97
        0
 97
        0
 75
     2
 76
     1
 98
        0
  0
POLYLINE
  5
E7
330
CA
100
AcDbEntity
  8
_U+30EC_U+30A4_U+30E4_U+30FC 1
370
     0
100
AcDb2dPolyline
 66
     1
 10
0.0
 20
0.0
 30
0.0
  0
VERTEX
  5
E8
330
E7
100
AcDbEntity
  8
_U+30EC_U+30A4_U+30E4_U+30FC 1
370
     0
100
AcDbVertex
100
AcDb2dVertex
 10
99.80372718859074
 20
-151.9555826443028
 30
0.0
  0
VERTEX
  5
E9
330
E7
100
AcDbEntity
  8
_U+30EC_U+30A4_U+30E4_U+30FC 1
370
     0
100
AcDbVertex
100
AcDb2dVertex
 10
99.55189070861897
 20
-151.9555826443028
 30
0.0
  0
VERTEX
  5
EA
330
E7
100
AcDbEntity
  8
_U+30EC_U+30A4_U+30E4_U+30FC 1
370
     0
100
AcDbVertex
100
AcDb2dVertex
 10
99.55189070861897
 20
-151.7040906738795
 30
0.0
  0
VERTEX
  5
EB
330
E7
100
AcDbEntity
  8
_U+30EC_U+30A4_U+30E4_U+30FC 1
370
     0
100
AcDbVertex
100
AcDb2dVertex
 10
99.80372718859074
 20
-151.7040906738795
 30
0.0
  0
VERTEX
  5
EC
330
E7
100
AcDbEntity
  8
_U+30EC_U+30A4_U+30E4_U+30FC 1
370
     0
100
AcDbVertex
100
AcDb2dVertex
 10
99.80372718859074
 20
-151.9555826443028
 30
0.0
  0
SEQEND
  5
ED
330
E7
100
AcDbEntity
  8
_U+30EC_U+30A4_U+30E4_U+30FC 1
370
     0
  0
HATCH
  5
EE
330
CA
100
AcDbEntity
  8
_U+30EC_U+30A4_U+30E4_U+30FC 1
 62
   179
420
  2234388
100
AcDbHatch
 10
0.0
 20
0.0
 30
0.0
210
0.0
220
0.0
230
1.0
  2
SOLID
 70
     1
 71
     0
 91
        1
 92
        1
 93
        4
 72
     1
 10
99.80372718859074
 20
-151.9555826443028
 11
99.55189070861897
 21
-151.9555826443028
 72
     1
 10
99.55189070861897
 20
-151.9555826443028
 11
99.55189070861897
 21
-151.7040906738795
 72
     1
 10
99.55189070861897
 20
-151.7040906738795
 11
99.80372718859074
 21
-151.7040906738795
 72
     1
 10
99.80372718859074
 20
-151.7040906738795
 11
99.80372718859074
 21
-151.9555826443028
 97
        0
 75
     2
 76
     1
 98
        0
  0
SPLINE
  5
EF
330
CA
100
AcDbEntity
  8
_U+30EC_U+30A4_U+30E4_U+30FC 1
370
     0
100
AcDbSpline
210
0.0
220
0.0
230
1.0
 70
    11
 71
     3
 72
    53
 73
    49
 74
     0
 42
0.0000000001
 43
0.0000000001
 12
1.0
 22
0.0
 32
0.0
 13
1.0
 23
0.0
 33
0.0
 40
0.0
 40
0.0
 40
0.0
 40
0.0
 40
1.0
 40
1.0
 40
1.0
 40
2.0
 40
2.0
 40
2.0
 40
3.0
 40
3.0
 40
3.0
 40
4.0
 40
4.0
 40
4.0
 40
5.0
 40
5.0
 40
5.0
 40
6.0
 40
6.0
 40
6.0
 40
7.0
 40
7.0
 40
7.0
 40
8.0
 40
8.0
 40
8.0
 40
9.0
 40
9.0
 40
9.0
 40
10.0
 40
10.0
 40
10.0
 40
11.0
 40
11.0
 40
11.0
 40
12.0
 40
12.0
 40
12.0
 40
13.0
 40
13.0
 40
13.0
 40
14.0
 40
14.0
 40
14.0
 40
15.0
 40
15.0
 40
15.0
 40
16.0
 40
16.0
 40
16.0
 40
16.0
 10
99.85437009222392
 20
-150.986477284302
 30
0.0
 10
99.85437009222392
 20
-151.0646809518172
 30
0.0
 10
99.83748912434619
 20
-151.166311268632
 30
0.0
 10
99.77409936741759
 20
-151.2679415854469
 30
0.0
 10
99.6638563118896
 20
-151.441229888355
 30
0.0
 10
99.5329426834501
 20
-151.4625894803635
 30
0.0
 10
99.42476668521326
 20
-151.4815375055324
 30
0.0
 10
99.42476668521326
 20
-151.4815375055324
 30
0.0
 10
99.42476668521326
 20
-151.2593288467338
 30
0.0
 10
99.42476668521326
 20
-151.2593288467338
 30
0.0
 10
99.6238932042607
 20
-151.2045518285183
 30
0.0
 10
99.65352102543385
 20
-151.0774278051126
 30
0.0
 10
99.65352102543385
 20
-150.9844102270108
 30
0.0
 10
99.65352102543385
 20
-150.8448838598582
 30
0.0
 10
99.55395776591013
 20
-150.6922661298617
 30
0.0
 10
99.32141382065576
 20
-150.6922661298617
 30
0.0
 10
99.06544322610169
 20
-150.6922661298617
 30
0.0
 10
98.99550778775112
 20
-150.8721001141917
 30
0.0
 10
98.99550778775112
 20
-150.9926784561754
 30
0.0
 10
98.99550778775112
 20
-151.0247178441883
 30
0.0
 10
98.99550778775112
 20
-151.166311268632
 30
0.0
 10
99.12435435889947
 20
-151.2551947321515
 30
0.0
 10
99.12435435889947
 20
-151.2551947321515
 30
0.0
 10
99.1054063337306
 20
-151.4308946018992
 30
0.0
 10
99.1054063337306
 20
-151.4308946018992
 30
0.0
 10
99.1054063337306
 20
-151.4308946018992
 30
0.0
 10
98.25929088255323
 20
-151.3103162599155
 30
0.0
 10
98.25929088255323
 20
-151.3103162599155
 30
0.0
 10
98.25929088255323
 20
-151.3103162599155
 30
0.0
 10
98.25929088255323
 20
-150.531724680249
 30
0.0
 10
98.25929088255323
 20
-150.531724680249
 30
0.0
 10
98.25929088255323
 20
-150.531724680249
 30
0.0
 10
98.45393877746986
 20
-150.531724680249
 30
0.0
 10
98.45393877746986
 20
-150.531724680249
 30
0.0
 10
98.45393877746986
 20
-150.531724680249
 30
0.0
 10
98.45393877746986
 20
-151.1473632434632
 30
0.0
 10
98.45393877746986
 20
-151.1473632434632
 30
0.0
 10
98.45393877746986
 20
-151.1473632434632
 30
0.0
 10
98.87699650305854
 20
-151.2128200576829
 30
0.0
 10
98.87699650305854
 20
-151.2128200576829
 30
0.0
 10
98.84323456730309
 20
-151.1514973580455
 30
0.0
 10
98.80292695012567
 20
-151.069159575948
 30
0.0
 10
98.80292695012567
 20
-150.9506482912554
 30
0.0
 10
98.80292695012567
 20
-150.6967447539925
 30
0.0
 10
98.98896210632915
 20
-150.4597221846073
 30
0.0
 10
99.30212128593837
 20
-150.4597221846073
 30
0.0
 10
99.61941458012987
 20
-150.4597221846073
 30
0.0
 10
99.85437009222392
 20
-150.6839979006971
 30
0.0
 10
99.85437009222392
 20
-150.986477284302
 30
0.0
  0
HATCH
  5
F0
330
CA
100
AcDbEntity
  8
_U+30EC_U+30A4_U+30E4_U+30FC 1
 62
   179
420
  2234388
100
AcDbHatch
 10
0.0
 20
0.0
 30
0.0
210
0.0
220
0.0
230
1.0
  2
SOLID
 70
     1
 71
     0
 91
        1
 92
        1
 93
        1
 72
     4
 94
        3
 73
     0
 74
     1
 95
       53
 96
       49
 40
0.0
 40
0.0
 40
0.0
 40
0.0
 40
1.0
 40
1.0
 40
1.0
 40
2.0
 40
2.0
 40
2.0
 40
3.0
 40
3.0
 40
3.0
 40
4.0
 40
4.0
 40
4.0
 40
5.0
 40
5.0
 40
5.0
 40
6.0
 40
6.0
 40
6.0
 40
7.0
 40
7.0
 40
7.0
 40
8.0
 40
8.0
 40
8.0
 40
9.0
 40
9.0
 40
9.0
 40
10.0
 40
10.0
 40
10.0
 40
11.0
 40
11.0
 40
11.0
 40
12.0
 40
12.0
 40
12.0
 40
13.0
 40
13.0
 40
13.0
 40
14.0
 40
14.0
 40
14.0
 40
15.0
 40
15.0
 40
15.0
 40
16.0
 40
16.0
 40
16.0
 40
16.0
 10
99.85437009222392
 20
-150.986477284302
 10
99.85437009222392
 20
-151.0646809518172
 10
99.83748912434619
 20
-151.166311268632
 10
99.77409936741759
 20
-151.2679415854469
 10
99.6638563118896
 20
-151.441229888355
 10
99.5329426834501
 20
-151.4625894803635
 10
99.42476668521326
 20
-151.4815375055324
 10
99.42476668521326
 20
-151.4815375055324
 10
99.42476668521326
 20
-151.2593288467338
 10
99.42476668521326
 20
-151.2593288467338
 10
99.6238932042607
 20
-151.2045518285183
 10
99.65352102543385
 20
-151.0774278051126
 10
99.65352102543385
 20
-150.9844102270108
 10
99.65352102543385
 20
-150.8448838598582
 10
99.55395776591013
 20
-150.6922661298617
 10
99.32141382065576
 20
-150.6922661298617
 10
99.06544322610169
 20
-150.6922661298617
 10
98.99550778775112
 20
-150.8721001141917
 10
98.99550778775112
 20
-150.9926784561754
 10
98.99550778775112
 20
-151.0247178441883
 10
98.99550778775112
 20
-151.166311268632
 10
99.12435435889947
 20
-151.2551947321515
 10
99.12435435889947
 20
-151.2551947321515
 10
99.1054063337306
 20
-151.4308946018992
 10
99.1054063337306
 20
-151.4308946018992
 10
99.1054063337306
 20
-151.4308946018992
 10
98.25929088255323
 20
-151.3103162599155
 10
98.25929088255323
 20
-151.3103162599155
 10
98.25929088255323
 20
-151.3103162599155
 10
98.25929088255323
 20
-150.531724680249
 10
98.25929088255323
 20
-150.531724680249
 10
98.25929088255323
 20
-150.531724680249
 10
98.45393877746986
 20
-150.531724680249
 10
98.45393877746986
 20
-150.531724680249
 10
98.45393877746986
 20
-150.531724680249
 10
98.45393877746986
 20
-151.1473632434632
 10
98.45393877746986
 20
-151.1473632434632
 10
98.45393877746986
 20
-151.1473632434632
 10
98.87699650305854
 20
-151.2128200576829
 10
98.87699650305854
 20
-151.2128200576829
 10
98.84323456730309
 20
-151.1514973580455
 10
98.80292695012567
 20
-151.069159575948
 10
98.80292695012567
 20
-150.9506482912554
 10
98.80292695012567
 20
-150.6967447539925
 10
98.98896210632915
 20
-150.4597221846073
 10
99.30212128593837
 20
-150.4597221846073
 10
99.61941458012987
 20
-150.4597221846073
 10
99.85437009222392
 20
-150.6839979006971
 10
99.85437009222392
 20
-150.986477284302
 97
        0
 97
        0
 75
     2
 76
     1
 98
        0
  0
ENDBLK
  5
CD
330
CA
100
AcDbEntity
  8
0
100
AcDbBlockEnd
  0
BLOCK
  5
102
330
100
100
AcDbEntity
  8
0
100
AcDbBlockBegin
  2
block 5
 70
     0
 10
0.0
 20
0.0
 30
0.0
  3
block 5
  1

  0
SPLINE
  5
104
330
100
100
AcDbEntity
  8
_U+30EC_U+30A4_U+30E4_U+30FC 1
370
     0
100
AcDbSpline
210
0.0
220
0.0
230
1.0
 70
    11
 71
     3
 72
    32
 73
    28
 74
     0
 42
0.0000000001
 43
0.0000000001
 12
1.0
 22
0.0
 32
0.0
 13
1.0
 23
0.0
 33
0.0
 40
0.0
 40
0.0
 40
0.0
 40
0.0
 40
1.0
 40
1.0
 40
1.0
 40
2.0
 40
2.0
 40
2.0
 40
3.0
 40
3.0
 40
3.0
 40
4.0
 40
4.0
 40
4.0
 40
5.0
 40
5.0
 40
5.0
 40
6.0
 40
6.0
 40
6.0
 40
7.0
 40
7.0
 40
7.0
 40
8.0
 40
8.0
 40
8.0
 40
9.0
 40
9.0
 40
9.0
 40
9.0
 10
82.35414630102605
 20
-133.0492431308002
 30
0.0
 10
82.35414630102605
 20
-133.2225314337083
 30
0.0
 10
82.28438311744974
 20
-133.4681667418066
 30
0.0
 10
81.95227591267165
 20
-133.5060627921443
 30
0.0
 10
81.95227591267165
 20
-133.5060627921443
 30
0.0
 10
81.95227591267165
 20
-133.2924668720588
 30
0.0
 10
81.95227591267165
 20
-133.2924668720588
 30
0.0
 10
82.0113593002437
 20
-133.2817870760546
 30
0.0
 10
82.15949840610944
 20
-133.2500921975902
 30
0.0
 10
82.15949840610944
 20
-133.047176073509
 30
0.0
 10
82.15949840610944
 20
-132.7550319763598
 30
0.0
 10
81.8294582586225
 20
-132.7171359260221
 30
0.0
 10
81.62430282247587
 20
-132.7043890727267
 30
0.0
 10
81.70474580205645
 20
-132.7953395935373
 30
0.0
 10
81.76176213233734
 20
-132.8628634650482
 30
0.0
 10
81.76176213233734
 20
-133.0447645066694
 30
0.0
 10
81.76176213233734
 20
-133.2245984909994
 30
0.0
 10
81.65599770094018
 20
-133.5274223841529
 30
0.0
 10
81.24982094322921
 20
-133.5274223841529
 30
0.0
 10
80.93046059174655
 20
-133.5274223841529
 30
0.0
 10
80.71031899023909
 20
-133.3282958651054
 30
0.0
 10
80.71031899023909
 20
-133.0110025709139
 30
0.0
 10
80.71031899023909
 20
-132.4969943245146
 30
0.0
 10
81.26463485381579
 20
-132.4863145285104
 30
0.0
 10
81.47823077390127
 20
-132.4863145285104
 30
0.0
 10
81.70887991663875
 20
-132.4863145285104
 30
0.0
 10
82.35414630102605
 20
-132.5056070632278
 30
0.0
 10
82.35414630102605
 20
-133.0492431308002
 30
0.0
  0
SPLINE
  5
105
330
100
100
AcDbEntity
  8
_U+30EC_U+30A4_U+30E4_U+30FC 1
370
     0
100
AcDbSpline
210
0.0
220
0.0
230
1.0
 70
    11
 71
     3
 72
    17
 73
    13
 74
     0
 42
0.0000000001
 43
0.0000000001
 12
1.0
 22
0.0
 32
0.0
 13
1.0
 23
0.0
 33
0.0
 40
0.0
 40
0.0
 40
0.0
 40
0.0
 40
1.0
 40
1.0
 40
1.0
 40
2.0
 40
2.0
 40
2.0
 40
3.0
 40
3.0
 40
3.0
 40
4.0
 40
4.0
 40
4.0
 40
4.0
 10
80.90289982786456
 20
-133.0089355136228
 30
0.0
 10
80.90289982786456
 20
-133.1274467983154
 30
0.0
 10
80.9600884129197
 20
-133.3031466680631
 30
0.0
 10
81.24568682864691
 20
-133.3031466680631
 30
0.0
 10
81.47202960202783
 20
-133.3031466680631
 30
0.0
 10
81.56711423742072
 20
-133.163275791362
 30
0.0
 10
81.56711423742072
 20
-133.0278835387917
 30
0.0
 10
81.56711423742072
 20
-132.7657117723641
 30
0.0
 10
81.35765243191753
 20
-132.7274712124779
 30
0.0
 10
81.24138045929035
 20
-132.7274712124779
 30
0.0
 10
81.06585284431688
 20
-132.7274712124779
 30
0.0
 10
80.90289982786456
 20
-132.8229003574193
 30
0.0
 10
80.90289982786456
 20
-133.0089355136228
 30
0.0
  0
HATCH
  5
106
330
100
100
AcDbEntity
  8
_U+30EC_U+30A4_U+30E4_U+30FC 1
 62
   179
420
  2234388
100
AcDbHatch
 10
0.0
 20
0.0
 30
0.0
210
0.0
220
0.0
230
1.0
  2
SOLID
 70
     1
 71
     0
 91
        2
 92
        1
 93
        1
 72
     4
 94
        3
 73
     0
 74
     1
 95
       32
 96
       28
 40
0.0
 40
0.0
 40
0.0
 40
0.0
 40
1.0
 40
1.0
 40
1.0
 40
2.0
 40
2.0
 40
2.0
 40
3.0
 40
3.0
 40
3.0
 40
4.0
 40
4.0
 40
4.0
 40
5.0
 40
5.0
 40
5.0
 40
6.0
 40
6.0
 40
6.0
 40
7.0
 40
7.0
 40
7.0
 40
8.0
 40
8.0
 40
8.0
 40
9.0
 40
9.0
 40
9.0
 40
9.0
 10
82.35414630102605
 20
-133.0492431308002
 10
82.35414630102605
 20
-133.2225314337083
 10
82.28438311744974
 20
-133.4681667418066
 10
81.95227591267165
 20
-133.5060627921443
 10
81.95227591267165
 20
-133.5060627921443
 10
81.95227591267165
 20
-133.2924668720588
 10
81.95227591267165
 20
-133.2924668720588
 10
82.0113593002437
 20
-133.2817870760546
 10
82.15949840610944
 20
-133.2500921975902
 10
82.15949840610944
 20
-133.047176073509
 10
82.15949840610944
 20
-132.7550319763598
 10
81.8294582586225
 20
-132.7171359260221
 10
81.62430282247587
 20
-132.7043890727267
 10
81.70474580205645
 20
-132.7953395935373
 10
81.76176213233734
 20
-132.8628634650482
 10
81.76176213233734
 20
-133.0447645066694
 10
81.76176213233734
 20
-133.2245984909994
 10
81.65599770094018
 20
-133.5274223841529
 10
81.24982094322921
 20
-133.5274223841529
 10
80.93046059174655
 20
-133.5274223841529
 10
80.71031899023909
 20
-133.3282958651054
 10
80.71031899023909
 20
-133.0110025709139
 10
80.71031899023909
 20
-132.4969943245146
 10
81.26463485381579
 20
-132.4863145285104
 10
81.47823077390127
 20
-132.4863145285104
 10
81.70887991663875
 20
-132.4863145285104
 10
82.35414630102605
 20
-132.5056070632278
 10
82.35414630102605
 20
-133.0492431308002
 97
        0
 97
        0
 92
        1
 93
        1
 72
     4
 94
        3
 73
     0
 74
     1
 95
       17
 96
       13
 40
0.0
 40
0.0
 40
0.0
 40
0.0
 40
1.0
 40
1.0
 40
1.0
 40
2.0
 40
2.0
 40
2.0
 40
3.0
 40
3.0
 40
3.0
 40
4.0
 40
4.0
 40
4.0
 40
4.0
 10
80.90289982786456
 20
-133.0089355136228
 10
80.90289982786456
 20
-133.1274467983154
 10
80.9600884129197
 20
-133.3031466680631
 10
81.24568682864691
 20
-133.3031466680631
 10
81.47202960202783
 20
-133.3031466680631
 10
81.56711423742072
 20
-133.163275791362
 10
81.56711423742072
 20
-133.0278835387917
 10
81.56711423742072
 20
-132.7657117723641
 10
81.35765243191753
 20
-132.7274712124779
 10
81.24138045929035
 20
-132.7274712124779
 10
81.06585284431688
 20
-132.7274712124779
 10
80.90289982786456
 20
-132.8229003574193
 10
80.90289982786456
 20
-133.0089355136228
 97
        0
 97
        0
 75
     2
 76
     1
 98
        0
  0
SPLINE
  5
107
330
100
100
AcDbEntity
  8
_U+30EC_U+30A4_U+30E4_U+30FC 1
370
     0
100
AcDbSpline
210
0.0
220
0.0
230
1.0
 70
    11
 71
     3
 72
    29
 73
    25
 74
     0
 42
0.0000000001
 43
0.0000000001
 12
1.0
 22
0.0
 32
0.0
 13
1.0
 23
0.0
 33
0.0
 40
0.0
 40
0.0
 40
0.0
 40
0.0
 40
1.0
 40
1.0
 40
1.0
 40
2.0
 40
2.0
 40
2.0
 40
3.0
 40
3.0
 40
3.0
 40
4.0
 40
4.0
 40
4.0
 40
5.0
 40
5.0
 40
5.0
 40
6.0
 40
6.0
 40
6.0
 40
7.0
 40
7.0
 40
7.0
 40
8.0
 40
8.0
 40
8.0
 40
8.0
 10
82.12573647035398
 20
-131.4321153100239
 30
0.0
 10
82.33502602108291
 20
-131.5402913082608
 30
0.0
 10
82.35414630102605
 20
-131.7135796111688
 30
0.0
 10
82.35414630102605
 20
-131.8300238385703
 30
0.0
 10
82.35414630102605
 20
-131.9909097977314
 30
0.0
 10
82.30763751197517
 20
-132.1325032221752
 30
0.0
 10
82.12573647035398
 20
-132.2275878575681
 30
0.0
 10
81.93108857543737
 20
-132.3312852316741
 30
0.0
 10
81.69406600605218
 20
-132.350233256843
 30
0.0
 10
81.53128524437413
 20
-132.350233256843
 30
0.0
 10
81.38728025309068
 20
-132.350233256843
 30
0.0
 10
81.13561602789318
 20
-132.3333522889653
 30
0.0
 10
80.93666176362001
 20
-132.2275878575681
 30
0.0
 10
80.7337456395388
 20
-132.1197563688798
 30
0.0
 10
80.71031899023909
 20
-131.9588704097186
 30
0.0
 10
80.71031899023909
 20
-131.8300238385703
 30
0.0
 10
80.71031899023909
 20
-131.6712049367003
 30
0.0
 10
80.7547607219988
 20
-131.5275444549654
 30
0.0
 10
80.93666176362001
 20
-131.4321153100239
 30
0.0
 10
81.12924260124547
 20
-131.3328965600487
 30
0.0
 10
81.35765243191753
 20
-131.309469910749
 30
0.0
 10
81.53128524437413
 20
-131.309469910749
 30
0.0
 10
81.70250648999104
 20
-131.309469910749
 30
0.0
 10
81.93315563272851
 20
-131.3308295027576
 30
0.0
 10
82.12573647035398
 20
-131.4321153100239
 30
0.0
  0
SPLINE
  5
108
330
100
100
AcDbEntity
  8
_U+30EC_U+30A4_U+30E4_U+30FC 1
370
     0
100
AcDbSpline
210
0.0
220
0.0
230
1.0
 70
    11
 71
     3
 72
    17
 73
    13
 74
     0
 42
0.0000000001
 43
0.0000000001
 12
1.0
 22
0.0
 32
0.0
 13
1.0
 23
0.0
 33
0.0
 40
0.0
 40
0.0
 40
0.0
 40
0.0
 40
1.0
 40
1.0
 40
1.0
 40
2.0
 40
2.0
 40
2.0
 40
3.0
 40
3.0
 40
3.0
 40
4.0
 40
4.0
 40
4.0
 40
4.0
 10
80.90289982786456
 20
-131.8300238385703
 30
0.0
 10
80.90289982786456
 20
-132.0794487517024
 30
0.0
 10
81.18643118630062
 20
-132.1263020503018
 30
0.0
 10
81.53128524437413
 20
-132.1263020503018
 30
0.0
 10
81.85064559585679
 20
-132.1263020503018
 30
0.0
 10
82.15949840610944
 20
-132.0901285477066
 30
0.0
 10
82.15949840610944
 20
-131.8300238385703
 30
0.0
 10
82.15949840610944
 20
-131.5823214731808
 30
0.0
 10
81.87820635973878
 20
-131.5337456268388
 30
0.0
 10
81.53128524437413
 20
-131.5337456268388
 30
0.0
 10
81.2117526381172
 20
-131.5337456268388
 30
0.0
 10
80.90289982786456
 20
-131.5719861867251
 30
0.0
 10
80.90289982786456
 20
-131.8300238385703
 30
0.0
  0
HATCH
  5
109
330
100
100
AcDbEntity
  8
_U+30EC_U+30A4_U+30E4_U+30FC 1
 62
   179
420
  2234388
100
AcDbHatch
 10
0.0
 20
0.0
 30
0.0
210
0.0
220
0.0
230
1.0
  2
SOLID
 70
     1
 71
     0
 91
        2
 92
        1
 93
        1
 72
     4
 94
        3
 73
     0
 74
     1
 95
       29
 96
       25
 40
0.0
 40
0.0
 40
0.0
 40
0.0
 40
1.0
 40
1.0
 40
1.0
 40
2.0
 40
2.0
 40
2.0
 40
3.0
 40
3.0
 40
3.0
 40
4.0
 40
4.0
 40
4.0
 40
5.0
 40
5.0
 40
5.0
 40
6.0
 40
6.0
 40
6.0
 40
7.0
 40
7.0
 40
7.0
 40
8.0
 40
8.0
 40
8.0
 40
8.0
 10
82.12573647035398
 20
-131.4321153100239
 10
82.33502602108291
 20
-131.5402913082608
 10
82.35414630102605
 20
-131.7135796111688
 10
82.35414630102605
 20
-131.8300238385703
 10
82.35414630102605
 20
-131.9909097977314
 10
82.30763751197517
 20
-132.1325032221752
 10
82.12573647035398
 20
-132.2275878575681
 10
81.93108857543737
 20
-132.3312852316741
 10
81.69406600605218
 20
-132.350233256843
 10
81.53128524437413
 20
-132.350233256843
 10
81.38728025309068
 20
-132.350233256843
 10
81.13561602789318
 20
-132.3333522889653
 10
80.93666176362001
 20
-132.2275878575681
 10
80.7337456395388
 20
-132.1197563688798
 10
80.71031899023909
 20
-131.9588704097186
 10
80.71031899023909
 20
-131.8300238385703
 10
80.71031899023909
 20
-131.6712049367003
 10
80.7547607219988
 20
-131.5275444549654
 10
80.93666176362001
 20
-131.4321153100239
 10
81.12924260124547
 20
-131.3328965600487
 10
81.35765243191753
 20
-131.309469910749
 10
81.53128524437413
 20
-131.309469910749
 10
81.70250648999104
 20
-131.309469910749
 10
81.93315563272851
 20
-131.3308295027576
 10
82.12573647035398
 20
-131.4321153100239
 97
        0
 97
        0
 92
        1
 93
        1
 72
     4
 94
        3
 73
     0
 74
     1
 95
       17
 96
       13
 40
0.0
 40
0.0
 40
0.0
 40
0.0
 40
1.0
 40
1.0
 40
1.0
 40
2.0
 40
2.0
 40
2.0
 40
3.0
 40
3.0
 40
3.0
 40
4.0
 40
4.0
 40
4.0
 40
4.0
 10
80.90289982786456
 20
-131.8300238385703
 10
80.90289982786456
 20
-132.0794487517024
 10
81.18643118630062
 20
-132.1263020503018
 10
81.53128524437413
 20
-132.1263020503018
 10
81.85064559585679
 20
-132.1263020503018
 10
82.15949840610944
 20
-132.0901285477066
 10
82.15949840610944
 20
-131.8300238385703
 10
82.15949840610944
 20
-131.5823214731808
 10
81.87820635973878
 20
-131.5337456268388
 10
81.53128524437413
 20
-131.5337456268388
 10
81.2117526381172
 20
-131.5337456268388
 10
80.90289982786456
 20
-131.5719861867251
 10
80.90289982786456
 20
-131.8300238385703
 97
        0
 97
        0
 75
     2
 76
     1
 98
        0
  0
ENDBLK
  5
103
330
100
100
AcDbEntity
  8
0
100
AcDbBlockEnd
  0
ENDSEC
  0
SECTION
  2
ENTITIES
  0
SPLINE
  5
41
330
1F
100
AcDbEntity
  8
_U+30EC_U+30A4_U+30E4_U+30FC 1
370
     0
100
AcDbSpline
210
0.0
220
0.0
230
1.0
 70
    11
 71
     3
 72
   110
 73
   106
 74
     0
 42
0.0000000001
 43
0.0000000001
 12
1.0
 22
0.0
 32
0.0
 13
1.0
 23
0.0
 33
0.0
 40
0.0
 40
0.0
 40
0.0
 40
0.0
 40
1.0
 40
1.0
 40
1.0
 40
2.0
 40
2.0
 40
2.0
 40
3.0
 40
3.0
 40
3.0
 40
4.0
 40
4.0
 40
4.0
 40
5.0
 40
5.0
 40
5.0
 40
6.0
 40
6.0
 40
6.0
 40
7.0
 40
7.0
 40
7.0
 40
8.0
 40
8.0
 40
8.0
 40
9.0
 40
9.0
 40
9.0
 40
10.0
 40
10.0
 40
10.0
 40
11.0
 40
11.0
 40
11.0
 40
12.0
 40
12.0
 40
12.0
 40
13.0
 40
13.0
 40
13.0
 40
14.0
 40
14.0
 40
14.0
 40
15.0
 40
15.0
 40
15.0
 40
16.0
 40
16.0
 40
16.0
 40
17.0
 40
17.0
 40
17.0
 40
18.0
 40
18.0
 40
18.0
 40
19.0
 40
19.0
 40
19.0
 40
20.0
 40
20.0
 40
20.0
 40
21.0
 40
21.0
 40
21.0
 40
22.0
 40
22.0
 40
22.0
 40
23.0
 40
23.0
 40
23.0
 40
24.0
 40
24.0
 40
24.0
 40
25.0
 40
25.0
 40
25.0
 40
26.0
 40
26.0
 40
26.0
 40
27.0
 40
27.0
 40
27.0
 40
28.0
 40
28.0
 40
28.0
 40
29.0
 40
29.0
 40
29.0
 40
30.0
 40
30.0
 40
30.0
 40
31.0
 40
31.0
 40
31.0
 40
32.0
 40
32.0
 40
32.0
 40
33.0
 40
33.0
 40
33.0
 40
34.0
 40
34.0
 40
34.0
 40
35.0
 40
35.0
 40
35.0
 40
35.0
 10
86.67979084416986
 20
-87.88403525580681
 30
0.0
 10
86.69771195482376
 20
-87.8861166446952
 30
0.0
 10
86.71185834335175
 20
-87.89987497802503
 30
0.0
 10
86.71185834335175
 20
-87.91779608913164
 30
0.0
 10
86.71185834335175
 20
-87.93744581134892
 30
0.0
 10
86.69598334375675
 20
-87.95328553356714
 30
0.0
 10
86.67636889981272
 20
-87.95328553356714
 30
0.0
 10
86.67636889981272
 20
-87.95328553356714
 30
0.0
 10
86.67636889981272
 20
-176.9180555113261
 30
0.0
 10
86.67636889981272
 20
-176.9180555113261
 30
0.0
 10
86.67636889981272
 20
-177.1826388445932
 30
0.0
 10
86.88270861677077
 20
-177.3969160667622
 30
0.0
 10
87.14249416569865
 20
-177.4144844000907
 30
0.0
 10
87.14454027675755
 20
-177.3969160667622
 30
0.0
 10
87.15833608932157
 20
-177.3828049556543
 30
0.0
 10
87.17625499817066
 20
-177.3828049556543
 30
0.0
 10
87.19586944211471
 20
-177.3828049556543
 30
0.0
 10
87.2117444417097
 20
-177.398291900095
 30
0.0
 10
87.2117444417097
 20
-177.417941622312
 30
0.0
 10
87.2117444417097
 20
-177.417941622312
 30
0.0
 10
88.14120802910823
 20
-177.417941622312
 30
0.0
 10
88.14120802910823
 20
-177.417941622312
 30
0.0
 10
88.14120802910823
 20
-177.398291900095
 30
0.0
 10
88.15673025093444
 20
-177.3828049556543
 30
0.0
 10
88.17634469487848
 20
-177.3828049556543
 30
0.0
 10
88.19461858330116
 20
-177.3828049556543
 30
0.0
 10
88.20841219406037
 20
-177.3969160667622
 30
0.0
 10
88.21045830511927
 20
-177.4144844000907
 30
0.0
 10
88.47020857627028
 20
-177.3965632889844
 30
0.0
 10
88.67623079323643
 20
-177.1822860668155
 30
0.0
 10
88.67623079323643
 20
-176.9180555113261
 30
0.0
 10
88.67623079323643
 20
-176.9180555113261
 30
0.0
 10
88.67623079323643
 20
-128.2178241346124
 30
0.0
 10
88.67623079323643
 20
-128.2178241346124
 30
0.0
 10
88.67623079323643
 20
-128.2178241346124
 30
0.0
 10
95.37608034453125
 20
-128.2178241346124
 30
0.0
 10
95.37608034453125
 20
-128.2178241346124
 30
0.0
 10
95.37608034453125
 20
-128.2178241346124
 30
0.0
 10
95.37608034453125
 20
-135.4180891328124
 30
0.0
 10
95.37608034453125
 20
-135.4180891328124
 30
0.0
 10
95.37608034453125
 20
-135.4180891328124
 30
0.0
 10
96.17604164262266
 20
-135.4180891328124
 30
0.0
 10
96.17604164262266
 20
-135.4180891328124
 30
0.0
 10
96.17604164262266
 20
-135.4180891328124
 30
0.0
 10
96.17604164262266
 20
-127.9181041346871
 30
0.0
 10
96.17604164262266
 20
-127.9181041346871
 30
0.0
 10
96.17604164262266
 20
-127.65320330142
 30
0.0
 10
95.97001942045168
 20
-127.4388908014736
 30
0.0
 10
95.71026672489434
 20
-127.4213224681447
 30
0.0
 10
95.70818533605855
 20
-127.4388908014736
 30
0.0
 10
95.69442700307621
 20
-127.4533899681367
 30
0.0
 10
95.67650830941447
 20
-127.4533899681367
 30
0.0
 10
95.65650339293262
 20
-127.4533899681367
 30
0.0
 10
95.64136922665206
 20
-127.4375149681407
 30
0.0
 10
95.64136922665206
 20
-127.4179005237009
 30
0.0
 10
95.64136922665206
 20
-127.4179005237009
 30
0.0
 10
88.37651080088293
 20
-127.4179005237009
 30
0.0
 10
88.37651080088293
 20
-127.4179005237009
 30
0.0
 10
88.10021525237626
 20
-127.4179005237009
 30
0.0
 10
87.8762719247562
 20
-127.6418085792007
 30
0.0
 10
87.8762719247562
 20
-127.9181041346871
 30
0.0
 10
87.8762719247562
 20
-127.9181041346871
 30
0.0
 10
87.8762719247562
 20
-176.6179827336234
 30
0.0
 10
87.8762719247562
 20
-176.6179827336234
 30
0.0
 10
87.8762719247562
 20
-176.6179827336234
 30
0.0
 10
87.47664526828486
 20
-176.6179827336234
 30
0.0
 10
87.47664526828486
 20
-176.6179827336234
 30
0.0
 10
87.47664526828486
 20
-176.6179827336234
 30
0.0
 10
87.47664526828486
 20
-88.21786886683432
 30
0.0
 10
87.47664526828486
 20
-88.21786886683432
 30
0.0
 10
87.47664526828486
 20
-88.21786886683432
 30
0.0
 10
96.8760914173739
 20
-88.21786886683432
 30
0.0
 10
96.8760914173739
 20
-88.21786886683432
 30
0.0
 10
96.8760914173739
 20
-88.21786886683432
 30
0.0
 10
96.8760914173739
 20
-95.41813386503435
 30
0.0
 10
96.8760914173739
 20
-95.41813386503435
 30
0.0
 10
96.8760914173739
 20
-95.41813386503435
 30
0.0
 10
97.64087834230699
 20
-95.41813386503435
 30
0.0
 10
97.64087834230699
 20
-95.41813386503435
 30
0.0
 10
97.64087834230699
 20
-95.39848414281708
 30
0.0
 10
97.65675334190199
 20
-95.38264442059887
 30
0.0
 10
97.67605275335892
 20
-95.38264442059887
 30
0.0
 10
97.67605275335892
 20
-95.38264442059887
 30
0.0
 10
97.67605275335892
 20
-87.95328553356714
 30
0.0
 10
97.67605275335892
 20
-87.95328553356714
 30
0.0
 10
97.65675334190199
 20
-87.95328553356714
 30
0.0
 10
97.64087834230699
 20
-87.93744581134892
 30
0.0
 10
97.64087834230699
 20
-87.91779608913164
 30
0.0
 10
97.64087834230699
 20
-87.89987497802503
 30
0.0
 10
97.65537750860376
 20
-87.8861166446952
 30
0.0
 10
97.67259306372011
 20
-87.88403525580681
 30
0.0
 10
97.65950500849846
 20
-87.68714997807818
 30
0.0
 10
97.53409251169799
 20
-87.52180303367527
 30
0.0
 10
97.35770362730916
 20
-87.45304664480342
 30
0.0
 10
97.35770362730916
 20
-87.45304664480342
 30
0.0
 10
97.17648168748808
 20
-87.45304664480342
 30
0.0
 10
97.17648168748808
 20
-87.45304664480342
 30
0.0
 10
97.17648168748808
 20
-87.45304664480342
 30
0.0
 10
87.17625499817066
 20
-87.45304664480342
 30
0.0
 10
87.17625499817066
 20
-87.45304664480342
 30
0.0
 10
87.17625499817066
 20
-87.45304664480342
 30
0.0
 10
86.99503305834958
 20
-87.45304664480342
 30
0.0
 10
86.99503305834958
 20
-87.45304664480342
 30
0.0
 10
86.81899695172953
 20
-87.52180303367527
 30
0.0
 10
86.69323167716028
 20
-87.68714997807818
 30
0.0
 10
86.67979084416986
 20
-87.88403525580681
 30
0.0
  0
POLYLINE
  5
42
330
1F
100
AcDbEntity
  8
_U+30EC_U+30A4_U+30E4_U+30FC 1
 62
   179
420
  2234388
370
    25
100
AcDb2dPolyline
 66
     1
 10
0.0
 20
0.0
 30
0.0
  0
VERTEX
  5
43
330
42
100
AcDbEntity
  8
_U+30EC_U+30A4_U+30E4_U+30FC 1
 62
   179
420
  2234388
370
    25
100
AcDbVertex
100
AcDb2dVertex
 10
86.67636889981272
 20
-87.91779608913164
 30
0.0
  0
VERTEX
  5
44
330
42
100
AcDbEntity
  8
_U+30EC_U+30A4_U+30E4_U+30FC 1
 62
   179
420
  2234388
370
    25
100
AcDbVertex
100
AcDb2dVertex
 10
86.67636889981272
 20
-176.9180555113261
 30
0.0
  0
SEQEND
  5
45
330
42
100
AcDbEntity
  8
_U+30EC_U+30A4_U+30E4_U+30FC 1
 62
   179
420
  2234388
370
    25
  0
POLYLINE
  5
46
330
1F
100
AcDbEntity
  8
_U+30EC_U+30A4_U+30E4_U+30FC 1
 62
   179
420
  2234388
370
    25
100
AcDb2dPolyline
 66
     1
 10
0.0
 20
0.0
 30
0.0
  0
VERTEX
  5
47
330
46
100
AcDbEntity
  8
_U+30EC_U+30A4_U+30E4_U+30FC 1
 62
   179
420
  2234388
370
    25
100
AcDbVertex
100
AcDb2dVertex
 10
97.67605275335892
 20
-87.91779608913164
 30
0.0
  0
VERTEX
  5
48
330
46
100
AcDbEntity
  8
_U+30EC_U+30A4_U+30E4_U+30FC 1
 62
   179
420
  2234388
370
    25
100
AcDbVertex
100
AcDb2dVertex
 10
97.67605275335892
 20
-95.41813386503435
 30
0.0
  0
SEQEND
  5
49
330
46
100
AcDbEntity
  8
_U+30EC_U+30A4_U+30E4_U+30FC 1
 62
   179
420
  2234388
370
    25
  0
POLYLINE
  5
4A
330
1F
100
AcDbEntity
  8
_U+30EC_U+30A4_U+30E4_U+30FC 1
 62
   179
420
  2234388
370
    25
100
AcDb2dPolyline
 66
     1
 10
0.0
 20
0.0
 30
0.0
  0
VERTEX
  5
4B
330
4A
100
AcDbEntity
  8
_U+30EC_U+30A4_U+30E4_U+30FC 1
 62
   179
420
  2234388
370
    25
100
AcDbVertex
100
AcDb2dVertex
 10
87.17625499817066
 20
-87.41790997814537
 30
0.0
  0
VERTEX
  5
4C
330
4A
100
AcDbEntity
  8
_U+30EC_U+30A4_U+30E4_U+30FC 1
 62
   179
420
  2234388
370
    25
100
AcDbVertex
100
AcDb2dVertex
 10
97.17648168748808
 20
-87.41790997814537
 30
0.0
  0
SEQEND
  5
4D
330
4A
100
AcDbEntity
  8
_U+30EC_U+30A4_U+30E4_U+30FC 1
 62
   179
420
  2234388
370
    25
  0
POLYLINE
  5
4E
330
1F
100
AcDbEntity
  8
_U+30EC_U+30A4_U+30E4_U+30FC 1
 62
   179
420
  2234388
370
    25
100
AcDb2dPolyline
 66
     1
 10
0.0
 20
0.0
 30
0.0
  0
VERTEX
  5
4F
330
4E
100
AcDbEntity
  8
_U+30EC_U+30A4_U+30E4_U+30FC 1
 62
   179
420
  2234388
370
    25
100
AcDbVertex
100
AcDb2dVertex
 10
87.17625499817066
 20
-177.417941622312
 30
0.0
  0
VERTEX
  5
50
330
4E
100
AcDbEntity
  8
_U+30EC_U+30A4_U+30E4_U+30FC 1
 62
   179
420
  2234388
370
    25
100
AcDbVertex
100
AcDb2dVertex
 10
88.17634469487848
 20
-177.417941622312
 30
0.0
  0
SEQEND
  5
51
330
4E
100
AcDbEntity
  8
_U+30EC_U+30A4_U+30E4_U+30FC 1
 62
   179
420
  2234388
370
    25
  0
POLYLINE
  5
52
330
1F
100
AcDbEntity
  8
_U+30EC_U+30A4_U+30E4_U+30FC 1
 62
   179
420
  2234388
370
    25
100
AcDb2dPolyline
 66
     1
 10
0.0
 20
0.0
 30
0.0
  0
VERTEX
  5
53
330
52
100
AcDbEntity
  8
_U+30EC_U+30A4_U+30E4_U+30FC 1
 62
   179
420
  2234388
370
    25
100
AcDbVertex
100
AcDb2dVertex
 10
96.8760914173739
 20
-95.41813386503435
 30
0.0
  0
VERTEX
  5
54
330
52
100
AcDbEntity
  8
_U+30EC_U+30A4_U+30E4_U+30FC 1
 62
   179
420
  2234388
370
    25
100
AcDbVertex
100
AcDb2dVertex
 10
97.67605275335892
 20
-95.41813386503435
 30
0.0
  0
SEQEND
  5
55
330
52
100
AcDbEntity
  8
_U+30EC_U+30A4_U+30E4_U+30FC 1
 62
   179
420
  2234388
370
    25
  0
POLYLINE
  5
56
330
1F
100
AcDbEntity
  8
_U+30EC_U+30A4_U+30E4_U+30FC 1
 62
   179
420
  2234388
370
    25
100
AcDb2dPolyline
 66
     1
 10
0.0
 20
0.0
 30
0.0
  0
VERTEX
  5
57
330
56
100
AcDbEntity
  8
_U+30EC_U+30A4_U+30E4_U+30FC 1
 62
   179
420
  2234388
370
    25
100
AcDbVertex
100
AcDb2dVertex
 10
88.37651080088293
 20
-127.4179005237009
 30
0.0
  0
VERTEX
  5
58
330
56
100
AcDbEntity
  8
_U+30EC_U+30A4_U+30E4_U+30FC 1
 62
   179
420
  2234388
370
    25
100
AcDbVertex
100
AcDb2dVertex
 10
95.67650830941447
 20
-127.4179005237009
 30
0.0
  0
SEQEND
  5
59
330
56
100
AcDbEntity
  8
_U+30EC_U+30A4_U+30E4_U+30FC 1
 62
   179
420
  2234388
370
    25
  0
POLYLINE
  5
5A
330
1F
100
AcDbEntity
  8
_U+30EC_U+30A4_U+30E4_U+30FC 1
 62
   179
420
  2234388
370
    25
100
AcDb2dPolyline
 66
     1
 10
0.0
 20
0.0
 30
0.0
  0
VERTEX
  5
5B
330
5A
100
AcDbEntity
  8
_U+30EC_U+30A4_U+30E4_U+30FC 1
 62
   179
420
  2234388
370
    25
100
AcDbVertex
100
AcDb2dVertex
 10
96.8760914173739
 20
-88.21786886683432
 30
0.0
  0
VERTEX
  5
5C
330
5A
100
AcDbEntity
  8
_U+30EC_U+30A4_U+30E4_U+30FC 1
 62
   179
420
  2234388
370
    25
100
AcDbVertex
100
AcDb2dVertex
 10
96.8760914173739
 20
-95.41813386503435
 30
0.0
  0
SEQEND
  5
5D
330
5A
100
AcDbEntity
  8
_U+30EC_U+30A4_U+30E4_U+30FC 1
 62
   179
420
  2234388
370
    25
  0
POLYLINE
  5
5E
330
1F
100
AcDbEntity
  8
_U+30EC_U+30A4_U+30E4_U+30FC 1
 62
   179
420
  2234388
370
    25
100
AcDb2dPolyline
 66
     1
 10
0.0
 20
0.0
 30
0.0
  0
VERTEX
  5
5F
330
5E
100
AcDbEntity
  8
_U+30EC_U+30A4_U+30E4_U+30FC 1
 62
   179
420
  2234388
370
    25
100
AcDbVertex
100
AcDb2dVertex
 10
87.47664526828486
 20
-88.21786886683432
 30
0.0
  0
VERTEX
  5
60
330
5E
100
AcDbEntity
  8
_U+30EC_U+30A4_U+30E4_U+30FC 1
 62
   179
420
  2234388
370
    25
100
AcDbVertex
100
AcDb2dVertex
 10
96.8760914173739
 20
-88.21786886683432
 30
0.0
  0
SEQEND
  5
61
330
5E
100
AcDbEntity
  8
_U+30EC_U+30A4_U+30E4_U+30FC 1
 62
   179
420
  2234388
370
    25
  0
POLYLINE
  5
62
330
1F
100
AcDbEntity
  8
_U+30EC_U+30A4_U+30E4_U+30FC 1
 62
   179
420
  2234388
370
    25
100
AcDb2dPolyline
 66
     1
 10
0.0
 20
0.0
 30
0.0
  0
VERTEX
  5
63
330
62
100
AcDbEntity
  8
_U+30EC_U+30A4_U+30E4_U+30FC 1
 62
   179
420
  2234388
370
    25
100
AcDbVertex
100
AcDb2dVertex
 10
87.47664526828486
 20
-88.21786886683432
 30
0.0
  0
VERTEX
  5
64
330
62
100
AcDbEntity
  8
_U+30EC_U+30A4_U+30E4_U+30FC 1
 62
   179
420
  2234388
370
    25
100
AcDbVertex
100
AcDb2dVertex
 10
87.47664526828486
 20
-176.6179827336234
 30
0.0
  0
SEQEND
  5
65
330
62
100
AcDbEntity
  8
_U+30EC_U+30A4_U+30E4_U+30FC 1
 62
   179
420
  2234388
370
    25
  0
POLYLINE
  5
66
330
1F
100
AcDbEntity
  8
_U+30EC_U+30A4_U+30E4_U+30FC 1
 62
   179
420
  2234388
370
    25
100
AcDb2dPolyline
 66
     1
 10
0.0
 20
0.0
 30
0.0
  0
VERTEX
  5
67
330
66
100
AcDbEntity
  8
_U+30EC_U+30A4_U+30E4_U+30FC 1
 62
   179
420
  2234388
370
    25
100
AcDbVertex
100
AcDb2dVertex
 10
87.47664526828486
 20
-176.6179827336234
 30
0.0
  0
VERTEX
  5
68
330
66
100
AcDbEntity
  8
_U+30EC_U+30A4_U+30E4_U+30FC 1
 62
   179
420
  2234388
370
    25
100
AcDbVertex
100
AcDb2dVertex
 10
87.8762719247562
 20
-176.6179827336234
 30
0.0
  0
SEQEND
  5
69
330
66
100
AcDbEntity
  8
_U+30EC_U+30A4_U+30E4_U+30FC 1
 62
   179
420
  2234388
370
    25
  0
POLYLINE
  5
6A
330
1F
100
AcDbEntity
  8
_U+30EC_U+30A4_U+30E4_U+30FC 1
 62
   179
420
  2234388
370
    25
100
AcDb2dPolyline
 66
     1
 10
0.0
 20
0.0
 30
0.0
  0
VERTEX
  5
6B
330
6A
100
AcDbEntity
  8
_U+30EC_U+30A4_U+30E4_U+30FC 1
 62
   179
420
  2234388
370
    25
100
AcDbVertex
100
AcDb2dVertex
 10
88.67623079323643
 20
-128.2178241346124
 30
0.0
  0
VERTEX
  5
6C
330
6A
100
AcDbEntity
  8
_U+30EC_U+30A4_U+30E4_U+30FC 1
 62
   179
420
  2234388
370
    25
100
AcDbVertex
100
AcDb2dVertex
 10
88.67623079323643
 20
-176.9180555113261
 30
0.0
  0
SEQEND
  5
6D
330
6A
100
AcDbEntity
  8
_U+30EC_U+30A4_U+30E4_U+30FC 1
 62
   179
420
  2234388
370
    25
  0
POLYLINE
  5
6E
330
1F
100
AcDbEntity
  8
_U+30EC_U+30A4_U+30E4_U+30FC 1
 62
   179
420
  2234388
370
    25
100
AcDb2dPolyline
 66
     1
 10
0.0
 20
0.0
 30
0.0
  0
VERTEX
  5
6F
330
6E
100
AcDbEntity
  8
_U+30EC_U+30A4_U+30E4_U+30FC 1
 62
   179
420
  2234388
370
    25
100
AcDbVertex
100
AcDb2dVertex
 10
87.8762719247562
 20
-127.9181041346871
 30
0.0
  0
VERTEX
  5
70
330
6E
100
AcDbEntity
  8
_U+30EC_U+30A4_U+30E4_U+30FC 1
 62
   179
420
  2234388
370
    25
100
AcDbVertex
100
AcDb2dVertex
 10
87.8762719247562
 20
-176.6179827336234
 30
0.0
  0
SEQEND
  5
71
330
6E
100
AcDbEntity
  8
_U+30EC_U+30A4_U+30E4_U+30FC 1
 62
   179
420
  2234388
370
    25
  0
POLYLINE
  5
72
330
1F
100
AcDbEntity
  8
_U+30EC_U+30A4_U+30E4_U+30FC 1
 62
   179
420
  2234388
370
    25
100
AcDb2dPolyline
 66
     1
 10
0.0
 20
0.0
 30
0.0
  0
VERTEX
  5
73
330
72
100
AcDbEntity
  8
_U+30EC_U+30A4_U+30E4_U+30FC 1
 62
   179
420
  2234388
370
    25
100
AcDbVertex
100
AcDb2dVertex
 10
88.67623079323643
 20
-128.2178241346124
 30
0.0
  0
VERTEX
  5
74
330
72
100
AcDbEntity
  8
_U+30EC_U+30A4_U+30E4_U+30FC 1
 62
   179
420
  2234388
370
    25
100
AcDbVertex
100
AcDb2dVertex
 10
95.37608034453125
 20
-128.2178241346124
 30
0.0
  0
SEQEND
  5
75
330
72
100
AcDbEntity
  8
_U+30EC_U+30A4_U+30E4_U+30FC 1
 62
   179
420
  2234388
370
    25
  0
POLYLINE
  5
76
330
1F
100
AcDbEntity
  8
_U+30EC_U+30A4_U+30E4_U+30FC 1
 62
   179
420
  2234388
370
    25
100
AcDb2dPolyline
 66
     1
 10
0.0
 20
0.0
 30
0.0
  0
VERTEX
  5
77
330
76
100
AcDbEntity
  8
_U+30EC_U+30A4_U+30E4_U+30FC 1
 62
   179
420
  2234388
370
    25
100
AcDbVertex
100
AcDb2dVertex
 10
96.17604164262266
 20
-127.9181041346871
 30
0.0
  0
VERTEX
  5
78
330
76
100
AcDbEntity
  8
_U+30EC_U+30A4_U+30E4_U+30FC 1
 62
   179
420
  2234388
370
    25
100
AcDbVertex
100
AcDb2dVertex
 10
96.17604164262266
 20
-135.4180891328124
 30
0.0
  0
SEQEND
  5
79
330
76
100
AcDbEntity
  8
_U+30EC_U+30A4_U+30E4_U+30FC 1
 62
   179
420
  2234388
370
    25
  0
POLYLINE
  5
7A
330
1F
100
AcDbEntity
  8
_U+30EC_U+30A4_U+30E4_U+30FC 1
 62
   179
420
  2234388
370
    25
100
AcDb2dPolyline
 66
     1
 10
0.0
 20
0.0
 30
0.0
  0
VERTEX
  5
7B
330
7A
100
AcDbEntity
  8
_U+30EC_U+30A4_U+30E4_U+30FC 1
 62
   179
420
  2234388
370
    25
100
AcDbVertex
100
AcDb2dVertex
 10
95.37608034453125
 20
-128.2178241346124
 30
0.0
  0
VERTEX
  5
7C
330
7A
100
AcDbEntity
  8
_U+30EC_U+30A4_U+30E4_U+30FC 1
 62
   179
420
  2234388
370
    25
100
AcDbVertex
100
AcDb2dVertex
 10
95.37608034453125
 20
-135.4180891328124
 30
0.0
  0
SEQEND
  5
7D
330
7A
100
AcDbEntity
  8
_U+30EC_U+30A4_U+30E4_U+30FC 1
 62
   179
420
  2234388
370
    25
  0
POLYLINE
  5
7E
330
1F
100
AcDbEntity
  8
_U+30EC_U+30A4_U+30E4_U+30FC 1
 62
   179
420
  2234388
370
    25
100
AcDb2dPolyline
 66
     1
 10
0.0
 20
0.0
 30
0.0
  0
VERTEX
  5
7F
330
7E
100
AcDbEntity
  8
_U+30EC_U+30A4_U+30E4_U+30FC 1
 62
   179
420
  2234388
370
    25
100
AcDbVertex
100
AcDb2dVertex
 10
95.37608034453125
 20
-135.4180891328124
 30
0.0
  0
VERTEX
  5
80
330
7E
100
AcDbEntity
  8
_U+30EC_U+30A4_U+30E4_U+30FC 1
 62
   179
420
  2234388
370
    25
100
AcDbVertex
100
AcDb2dVertex
 10
96.17604164262266
 20
-135.4180891328124
 30
0.0
  0
SEQEND
  5
81
330
7E
100
AcDbEntity
  8
_U+30EC_U+30A4_U+30E4_U+30FC 1
 62
   179
420
  2234388
370
    25
  0
SPLINE
  5
82
330
1F
100
AcDbEntity
  8
_U+30EC_U+30A4_U+30E4_U+30FC 1
 62
   179
420
  2234388
370
    25
100
AcDbSpline
210
0.0
220
0.0
230
1.0
 70
     8
 71
     3
 72
     8
 73
     4
 74
     0
 42
0.0000000001
 43
0.0000000001
 12
1.0
 22
0.0
 32
0.0
 13
1.0
 23
0.0
 33
0.0
 40
0.0
 40
0.0
 40
0.0
 40
0.0
 40
1.0
 40
1.0
 40
1.0
 40
1.0
 10
87.17625499817066
 20
-87.41790997814537
 30
0.0
 10
86.9002769496559
 20
-87.41790997814537
 30
0.0
 10
86.67636889981272
 20
-87.64185331142298
 30
0.0
 10
86.67636889981272
 20
-87.91779608913164
 30
0.0
  0
SPLINE
  5
83
330
1F
100
AcDbEntity
  8
_U+30EC_U+30A4_U+30E4_U+30FC 1
 62
   179
420
  2234388
370
    25
100
AcDbSpline
210
0.0
220
0.0
230
1.0
 70
     8
 71
     3
 72
     8
 73
     4
 74
     0
 42
0.0000000001
 43
0.0000000001
 12
1.0
 22
0.0
 32
0.0
 13
1.0
 23
0.0
 33
0.0
 40
0.0
 40
0.0
 40
0.0
 40
0.0
 40
1.0
 40
1.0
 40
1.0
 40
1.0
 10
97.67605275335892
 20
-87.91779608913164
 30
0.0
 10
97.67605275335892
 20
-87.64185331142298
 30
0.0
 10
97.45277723599474
 20
-87.41790997814537
 30
0.0
 10
97.17648168748808
 20
-87.41790997814537
 30
0.0
  0
SPLINE
  5
84
330
1F
100
AcDbEntity
  8
_U+30EC_U+30A4_U+30E4_U+30FC 1
 62
   179
420
  2234388
370
    25
100
AcDbSpline
210
0.0
220
0.0
230
1.0
 70
     8
 71
     3
 72
     8
 73
     4
 74
     0
 42
0.0000000001
 43
0.0000000001
 12
1.0
 22
0.0
 32
0.0
 13
1.0
 23
0.0
 33
0.0
 40
0.0
 40
0.0
 40
0.0
 40
0.0
 40
1.0
 40
1.0
 40
1.0
 40
1.0
 10
86.67636889981272
 20
-176.9180555113261
 30
0.0
 10
86.67636889981272
 20
-177.1939982890347
 30
0.0
 10
86.9002769496559
 20
-177.417941622312
 30
0.0
 10
87.17625499817066
 20
-177.417941622312
 30
0.0
  0
SPLINE
  5
85
330
1F
100
AcDbEntity
  8
_U+30EC_U+30A4_U+30E4_U+30FC 1
 62
   179
420
  2234388
370
    25
100
AcDbSpline
210
0.0
220
0.0
230
1.0
 70
     8
 71
     3
 72
     8
 73
     4
 74
     0
 42
0.0000000001
 43
0.0000000001
 12
1.0
 22
0.0
 32
0.0
 13
1.0
 23
0.0
 33
0.0
 40
0.0
 40
0.0
 40
0.0
 40
0.0
 40
1.0
 40
1.0
 40
1.0
 40
1.0
 10
88.17634469487848
 20
-177.417941622312
 30
0.0
 10
88.45232497788685
 20
-177.417941622312
 30
0.0
 10
88.67623079323643
 20
-177.1939982890347
 30
0.0
 10
88.67623079323643
 20
-176.9180555113261
 30
0.0
  0
SPLINE
  5
86
330
1F
100
AcDbEntity
  8
_U+30EC_U+30A4_U+30E4_U+30FC 1
 62
   179
420
  2234388
370
    25
100
AcDbSpline
210
0.0
220
0.0
230
1.0
 70
     8
 71
     3
 72
     8
 73
     4
 74
     0
 42
0.0000000001
 43
0.0000000001
 12
1.0
 22
0.0
 32
0.0
 13
1.0
 23
0.0
 33
0.0
 40
0.0
 40
0.0
 40
0.0
 40
0.0
 40
1.0
 40
1.0
 40
1.0
 40
1.0
 10
88.37651080088293
 20
-127.4179005237009
 30
0.0
 10
88.10021525237626
 20
-127.4179005237009
 30
0.0
 10
87.8762719247562
 20
-127.6418085792007
 30
0.0
 10
87.8762719247562
 20
-127.9181041346871
 30
0.0
  0
SPLINE
  5
87
330
1F
100
AcDbEntity
  8
_U+30EC_U+30A4_U+30E4_U+30FC 1
 62
   179
420
  2234388
370
    25
100
AcDbSpline
210
0.0
220
0.0
230
1.0
 70
     8
 71
     3
 72
     8
 73
     4
 74
     0
 42
0.0000000001
 43
0.0000000001
 12
1.0
 22
0.0
 32
0.0
 13
1.0
 23
0.0
 33
0.0
 40
0.0
 40
0.0
 40
0.0
 40
0.0
 40
1.0
 40
1.0
 40
1.0
 40
1.0
 10
96.17604164262266
 20
-127.9181041346871
 30
0.0
 10
96.17604164262266
 20
-127.6418085792007
 30
0.0
 10
95.95280144092898
 20
-127.4179005237009
 30
0.0
 10
95.67650830941447
 20
-127.4179005237009
 30
0.0
  0
SPLINE
  5
88
330
1F
100
AcDbEntity
  8
_U+30EC_U+30A4_U+30E4_U+30FC 1
 62
   179
420
  2234388
370
     9
100
AcDbSpline
210
0.0
220
0.0
230
1.0
 70
    11
 71
     3
 72
    17
 73
    13
 74
     0
 42
0.0000000001
 43
0.0000000001
 12
1.0
 22
0.0
 32
0.0
 13
1.0
 23
0.0
 33
0.0
 40
0.0
 40
0.0
 40
0.0
 40
0.0
 40
1.0
 40
1.0
 40
1.0
 40
2.0
 40
2.0
 40
2.0
 40
3.0
 40
3.0
 40
3.0
 40
4.0
 40
4.0
 40
4.0
 40
4.0
 10
100.2763777527085
 20
-177.417941622312
 30
0.0
 10
100.2763777527085
 20
-177.3628024556596
 30
0.0
 10
100.2316077206564
 20
-177.3180349556704
 30
0.0
 10
100.1764685553965
 20
-177.3180349556704
 30
0.0
 10
100.1213646679134
 20
-177.3180349556704
 30
0.0
 10
100.0765618912786
 20
-177.3628024556596
 30
0.0
 10
100.0765618912786
 20
-177.417941622312
 30
0.0
 10
100.0765618912786
 20
-177.4730455111876
 30
0.0
 10
100.1213646679134
 20
-177.5178482889536
 30
0.0
 10
100.1764685553965
 20
-177.5178482889536
 30
0.0
 10
100.2316077206564
 20
-177.5178482889536
 30
0.0
 10
100.2763777527085
 20
-177.4730455111876
 30
0.0
 10
100.2763777527085
 20
-177.417941622312
 30
0.0
  0
SPLINE
  5
89
330
1F
100
AcDbEntity
  8
_U+30EC_U+30A4_U+30E4_U+30FC 1
 62
   179
420
  2234388
370
     9
100
AcDbSpline
210
0.0
220
0.0
230
1.0
 70
    11
 71
     3
 72
    17
 73
    13
 74
     0
 42
0.0000000001
 43
0.0000000001
 12
1.0
 22
0.0
 32
0.0
 13
1.0
 23
0.0
 33
0.0
 40
0.0
 40
0.0
 40
0.0
 40
0.0
 40
1.0
 40
1.0
 40
1.0
 40
2.0
 40
2.0
 40
2.0
 40
3.0
 40
3.0
 40
3.0
 40
4.0
 40
4.0
 40
4.0
 40
4.0
 10
100.2763777527085
 20
-127.4179005237009
 30
0.0
 10
100.2763777527085
 20
-127.3627613570482
 30
0.0
 10
100.2316077206564
 20
-127.3179938570593
 30
0.0
 10
100.1764685553965
 20
-127.3179938570593
 30
0.0
 10
100.1213646679134
 20
-127.3179938570593
 30
0.0
 10
100.0765618912786
 20
-127.3627613570482
 30
0.0
 10
100.0765618912786
 20
-127.4179005237009
 30
0.0
 10
100.0765618912786
 20
-127.4730044125762
 30
0.0
 10
100.1213646679134
 20
-127.5178071903429
 30
0.0
 10
100.1764685553965
 20
-127.5178071903429
 30
0.0
 10
100.2316077206564
 20
-127.5178071903429
 30
0.0
 10
100.2763777527085
 20
-127.4730044125762
 30
0.0
 10
100.2763777527085
 20
-127.4179005237009
 30
0.0
  0
SPLINE
  5
8A
330
1F
100
AcDbEntity
  8
_U+30EC_U+30A4_U+30E4_U+30FC 1
 62
   179
420
  2234388
370
     9
100
AcDbSpline
210
0.0
220
0.0
230
1.0
 70
    11
 71
     3
 72
    17
 73
    13
 74
     0
 42
0.0000000001
 43
0.0000000001
 12
1.0
 22
0.0
 32
0.0
 13
1.0
 23
0.0
 33
0.0
 40
0.0
 40
0.0
 40
0.0
 40
0.0
 40
1.0
 40
1.0
 40
1.0
 40
2.0
 40
2.0
 40
2.0
 40
3.0
 40
3.0
 40
3.0
 40
4.0
 40
4.0
 40
4.0
 40
4.0
 10
101.7763888634448
 20
-95.41813386503435
 30
0.0
 10
101.7763888634448
 20
-95.36264192060383
 30
0.0
 10
101.7315860856781
 20
-95.31787442061494
 30
0.0
 10
101.6764796282391
 20
-95.31787442061494
 30
0.0
 10
101.6213404629792
 20
-95.31787442061494
 30
0.0
 10
101.5765729641213
 20
-95.36264192060383
 30
0.0
 10
101.5765729641213
 20
-95.41813386503435
 30
0.0
 10
101.5765729641213
 20
-95.47323775390959
 30
0.0
 10
101.6213404629792
 20
-95.51804053167598
 30
0.0
 10
101.6764796282391
 20
-95.51804053167598
 30
0.0
 10
101.7315860856781
 20
-95.51804053167598
 30
0.0
 10
101.7763888634448
 20
-95.47323775390959
 30
0.0
 10
101.7763888634448
 20
-95.41813386503435
 30
0.0
  0
SPLINE
  5
8B
330
1F
100
AcDbEntity
  8
_U+30EC_U+30A4_U+30E4_U+30FC 1
 62
   179
420
  2234388
370
     9
100
AcDbSpline
210
0.0
220
0.0
230
1.0
 70
    11
 71
     3
 72
    17
 73
    13
 74
     0
 42
0.0000000001
 43
0.0000000001
 12
1.0
 22
0.0
 32
0.0
 13
1.0
 23
0.0
 33
0.0
 40
0.0
 40
0.0
 40
0.0
 40
0.0
 40
1.0
 40
1.0
 40
1.0
 40
2.0
 40
2.0
 40
2.0
 40
3.0
 40
3.0
 40
3.0
 40
4.0
 40
4.0
 40
4.0
 40
4.0
 10
101.7763888634448
 20
-87.41790997814537
 30
0.0
 10
101.7763888634448
 20
-87.36280608927046
 30
0.0
 10
101.7315860856781
 20
-87.31800331150374
 30
0.0
 10
101.6764796282391
 20
-87.31800331150374
 30
0.0
 10
101.6213404629792
 20
-87.31800331150374
 30
0.0
 10
101.5765729641213
 20
-87.36280608927046
 30
0.0
 10
101.5765729641213
 20
-87.41790997814537
 30
0.0
 10
101.5765729641213
 20
-87.47304914479845
 30
0.0
 10
101.6213404629792
 20
-87.51781664478733
 30
0.0
 10
101.6764796282391
 20
-87.51781664478733
 30
0.0
 10
101.7315860856781
 20
-87.51781664478733
 30
0.0
 10
101.7763888634448
 20
-87.47304914479845
 30
0.0
 10
101.7763888634448
 20
-87.41790997814537
 30
0.0
  0
SPLINE
  5
8C
330
1F
100
AcDbEntity
  8
_U+30EC_U+30A4_U+30E4_U+30FC 1
 62
   179
420
  2234388
370
     9
100
AcDbSpline
210
0.0
220
0.0
230
1.0
 70
    11
 71
     3
 72
    17
 73
    13
 74
     0
 42
0.0000000001
 43
0.0000000001
 12
1.0
 22
0.0
 32
0.0
 13
1.0
 23
0.0
 33
0.0
 40
0.0
 40
0.0
 40
0.0
 40
0.0
 40
1.0
 40
1.0
 40
1.0
 40
2.0
 40
2.0
 40
2.0
 40
3.0
 40
3.0
 40
3.0
 40
4.0
 40
4.0
 40
4.0
 40
4.0
 10
97.77662722773265
 20
-83.41783331247889
 30
0.0
 10
97.77662722773265
 20
-83.36269414582614
 30
0.0
 10
97.73185972887475
 20
-83.31792664583726
 30
0.0
 10
97.67605275335892
 20
-83.31792664583726
 30
0.0
 10
97.62091112059419
 20
-83.31792664583726
 30
0.0
 10
97.57614362173629
 20
-83.36269414582614
 30
0.0
 10
97.57614362173629
 20
-83.41783331247889
 30
0.0
 10
97.57614362173629
 20
-83.47328997913156
 30
0.0
 10
97.62091112059419
 20
-83.51805747912044
 30
0.0
 10
97.67605275335892
 20
-83.51805747912044
 30
0.0
 10
97.73185972887475
 20
-83.51805747912044
 30
0.0
 10
97.77662722773265
 20
-83.47328997913156
 30
0.0
 10
97.77662722773265
 20
-83.41783331247889
 30
0.0
  0
SPLINE
  5
8D
330
1F
100
AcDbEntity
  8
_U+30EC_U+30A4_U+30E4_U+30FC 1
 62
   179
420
  2234388
370
     9
100
AcDbSpline
210
0.0
220
0.0
230
1.0
 70
    11
 71
     3
 72
    17
 73
    13
 74
     0
 42
0.0000000001
 43
0.0000000001
 12
1.0
 22
0.0
 32
0.0
 13
1.0
 23
0.0
 33
0.0
 40
0.0
 40
0.0
 40
0.0
 40
0.0
 40
1.0
 40
1.0
 40
1.0
 40
2.0
 40
2.0
 40
2.0
 40
3.0
 40
3.0
 40
3.0
 40
4.0
 40
4.0
 40
4.0
 40
4.0
 10
86.77663053386132
 20
-83.41783331247889
 30
0.0
 10
86.77663053386132
 20
-83.36269414582614
 30
0.0
 10
86.73182775609492
 20
-83.31792664583726
 30
0.0
 10
86.67636889981272
 20
-83.31792664583726
 30
0.0
 10
86.62122973455277
 20
-83.31792664583726
 30
0.0
 10
86.57646223569488
 20
-83.36269414582614
 30
0.0
 10
86.57646223569488
 20
-83.41783331247889
 30
0.0
 10
86.57646223569488
 20
-83.47328997913156
 30
0.0
 10
86.62122973455277
 20
-83.51805747912044
 30
0.0
 10
86.67636889981272
 20
-83.51805747912044
 30
0.0
 10
86.73182775609492
 20
-83.51805747912044
 30
0.0
 10
86.77663053386132
 20
-83.47328997913156
 30
0.0
 10
86.77663053386132
 20
-83.41783331247889
 30
0.0
  0
SPLINE
  5
8E
330
1F
100
AcDbEntity
  8
_U+30EC_U+30A4_U+30E4_U+30FC 1
 62
   179
420
  2234388
370
     9
100
AcDbSpline
210
0.0
220
0.0
230
1.0
 70
    11
 71
     3
 72
    17
 73
    13
 74
     0
 42
0.0000000001
 43
0.0000000001
 12
1.0
 22
0.0
 32
0.0
 13
1.0
 23
0.0
 33
0.0
 40
0.0
 40
0.0
 40
0.0
 40
0.0
 40
1.0
 40
1.0
 40
1.0
 40
2.0
 40
2.0
 40
2.0
 40
3.0
 40
3.0
 40
3.0
 40
4.0
 40
4.0
 40
4.0
 40
4.0
 10
82.77616372153746
 20
-87.41790997814537
 30
0.0
 10
82.77616372153746
 20
-87.36280608927046
 30
0.0
 10
82.73171372267147
 20
-87.31800331150374
 30
0.0
 10
82.67625705741963
 20
-87.31800331150374
 30
0.0
 10
82.62115316993655
 20
-87.31800331150374
 30
0.0
 10
82.5763503933018
 20
-87.36280608927046
 30
0.0
 10
82.5763503933018
 20
-87.41790997814537
 30
0.0
 10
82.5763503933018
 20
-87.47304914479845
 30
0.0
 10
82.62115316993655
 20
-87.51781664478733
 30
0.0
 10
82.67625705741963
 20
-87.51781664478733
 30
0.0
 10
82.73171372267147
 20
-87.51781664478733
 30
0.0
 10
82.77616372153746
 20
-87.47304914479845
 30
0.0
 10
82.77616372153746
 20
-87.41790997814537
 30
0.0
  0
SPLINE
  5
8F
330
1F
100
AcDbEntity
  8
_U+30EC_U+30A4_U+30E4_U+30FC 1
 62
   179
420
  2234388
370
     9
100
AcDbSpline
210
0.0
220
0.0
230
1.0
 70
    11
 71
     3
 72
    17
 73
    13
 74
     0
 42
0.0000000001
 43
0.0000000001
 12
1.0
 22
0.0
 32
0.0
 13
1.0
 23
0.0
 33
0.0
 40
0.0
 40
0.0
 40
0.0
 40
0.0
 40
1.0
 40
1.0
 40
1.0
 40
2.0
 40
2.0
 40
2.0
 40
3.0
 40
3.0
 40
3.0
 40
4.0
 40
4.0
 40
4.0
 40
4.0
 10
82.77616372153746
 20
-177.417941622312
 30
0.0
 10
82.77616372153746
 20
-177.3628024556596
 30
0.0
 10
82.73171372267147
 20
-177.3180349556704
 30
0.0
 10
82.67625705741963
 20
-177.3180349556704
 30
0.0
 10
82.62115316993655
 20
-177.3180349556704
 30
0.0
 10
82.5763503933018
 20
-177.3628024556596
 30
0.0
 10
82.5763503933018
 20
-177.417941622312
 30
0.0
 10
82.5763503933018
 20
-177.4730455111876
 30
0.0
 10
82.62115316993655
 20
-177.5178482889536
 30
0.0
 10
82.67625705741963
 20
-177.5178482889536
 30
0.0
 10
82.73171372267147
 20
-177.5178482889536
 30
0.0
 10
82.77616372153746
 20
-177.4730455111876
 30
0.0
 10
82.77616372153746
 20
-177.417941622312
 30
0.0
  0
POLYLINE
  5
90
330
1F
100
AcDbEntity
  8
_U+30EC_U+30A4_U+30E4_U+30FC 1
 62
   179
420
  2234388
370
     9
100
AcDb2dPolyline
 66
     1
 10
0.0
 20
0.0
 30
0.0
  0
VERTEX
  5
91
330
90
100
AcDbEntity
  8
_U+30EC_U+30A4_U+30E4_U+30FC 1
 62
   179
420
  2234388
370
     9
100
AcDbVertex
100
AcDb2dVertex
 10
101.6764796282391
 20
-87.41790997814537
 30
0.0
  0
VERTEX
  5
92
330
90
100
AcDbEntity
  8
_U+30EC_U+30A4_U+30E4_U+30FC 1
 62
   179
420
  2234388
370
     9
100
AcDbVertex
100
AcDb2dVertex
 10
101.6764796282391
 20
-95.41813386503435
 30
0.0
  0
SEQEND
  5
93
330
90
100
AcDbEntity
  8
_U+30EC_U+30A4_U+30E4_U+30FC 1
 62
   179
420
  2234388
370
     9
  0
POLYLINE
  5
94
330
1F
100
AcDbEntity
  8
_U+30EC_U+30A4_U+30E4_U+30FC 1
 62
   179
420
  2234388
370
     9
100
AcDb2dPolyline
 66
     1
 10
0.0
 20
0.0
 30
0.0
  0
VERTEX
  5
95
330
94
100
AcDbEntity
  8
_U+30EC_U+30A4_U+30E4_U+30FC 1
 62
   179
420
  2234388
370
     9
100
AcDbVertex
100
AcDb2dVertex
 10
99.71623467824914
 20
-87.41790997814537
 30
0.0
  0
VERTEX
  5
96
330
94
100
AcDbEntity
  8
_U+30EC_U+30A4_U+30E4_U+30FC 1
 62
   179
420
  2234388
370
     9
100
AcDbVertex
100
AcDb2dVertex
 10
102.676251824955
 20
-87.41790997814537
 30
0.0
  0
SEQEND
  5
97
330
94
100
AcDbEntity
  8
_U+30EC_U+30A4_U+30E4_U+30FC 1
 62
   179
420
  2234388
370
     9
  0
POLYLINE
  5
98
330
1F
100
AcDbEntity
  8
_U+30EC_U+30A4_U+30E4_U+30FC 1
 62
   179
420
  2234388
370
     9
100
AcDb2dPolyline
 66
     1
 10
0.0
 20
0.0
 30
0.0
  0
VERTEX
  5
99
330
98
100
AcDbEntity
  8
_U+30EC_U+30A4_U+30E4_U+30FC 1
 62
   179
420
  2234388
370
     9
100
AcDbVertex
100
AcDb2dVertex
 10
100.216438276599
 20
-95.41813386503435
 30
0.0
  0
VERTEX
  5
9A
330
98
100
AcDbEntity
  8
_U+30EC_U+30A4_U+30E4_U+30FC 1
 62
   179
420
  2234388
370
     9
100
AcDbVertex
100
AcDb2dVertex
 10
102.676251824955
 20
-95.41813386503435
 30
0.0
  0
SEQEND
  5
9B
330
98
100
AcDbEntity
  8
_U+30EC_U+30A4_U+30E4_U+30FC 1
 62
   179
420
  2234388
370
     9
  0
INSERT
  5
9D
330
1F
100
AcDbEntity
  8
_U+30EC_U+30A4_U+30E4_U+30FC 1
100
AcDbBlockReference
  2
block 2
 10
0.0
 20
0.0
 30
0.0
  0
SPLINE
  5
A4
330
1F
100
AcDbEntity
  8
_U+30EC_U+30A4_U+30E4_U+30FC 1
 62
   179
420
  2234388
370
    25
100
AcDbSpline
210
0.0
220
0.0
230
1.0
 70
    11
 71
     3
 72
    17
 73
    13
 74
     0
 42
0.0000000001
 43
0.0000000001
 12
1.0
 22
0.0
 32
0.0
 13
1.0
 23
0.0
 33
0.0
 40
0.0
 40
0.0
 40
0.0
 40
0.0
 40
1.0
 40
1.0
 40
1.0
 40
2.0
 40
2.0
 40
2.0
 40
3.0
 40
3.0
 40
3.0
 40
4.0
 40
4.0
 40
4.0
 40
4.0
 10
97.21161835325833
 20
-87.41790997814537
 30
0.0
 10
97.21161835325833
 20
-87.43755970036297
 30
0.0
 10
97.19577863144022
 20
-87.45304664480342
 30
0.0
 10
97.17648168748808
 20
-87.45304664480342
 30
0.0
 10
97.15651446577526
 20
-87.45304664480342
 30
0.0
 10
97.14134502171783
 20
-87.43755970036297
 30
0.0
 10
97.14134502171783
 20
-87.41790997814537
 30
0.0
 10
97.14134502171783
 20
-87.39861303370587
 30
0.0
 10
97.15651446577526
 20
-87.38277331148765
 30
0.0
 10
97.17648168748808
 20
-87.38277331148765
 30
0.0
 10
97.19577863144022
 20
-87.38277331148765
 30
0.0
 10
97.21161835325833
 20
-87.39861303370587
 30
0.0
 10
97.21161835325833
 20
-87.41790997814537
 30
0.0
  0
SPLINE
  5
A5
330
1F
100
AcDbEntity
  8
_U+30EC_U+30A4_U+30E4_U+30FC 1
 62
   179
420
  2234388
370
    25
100
AcDbSpline
210
0.0
220
0.0
230
1.0
 70
    11
 71
     3
 72
    17
 73
    13
 74
     0
 42
0.0000000001
 43
0.0000000001
 12
1.0
 22
0.0
 32
0.0
 13
1.0
 23
0.0
 33
0.0
 40
0.0
 40
0.0
 40
0.0
 40
0.0
 40
1.0
 40
1.0
 40
1.0
 40
2.0
 40
2.0
 40
2.0
 40
3.0
 40
3.0
 40
3.0
 40
4.0
 40
4.0
 40
4.0
 40
4.0
 10
97.71185722938506
 20
-95.41813386503435
 30
0.0
 10
97.71185722938506
 20
-95.43743080947385
 30
0.0
 10
97.69601750756695
 20
-95.4532705316924
 30
0.0
 10
97.67605275335892
 20
-95.4532705316924
 30
0.0
 10
97.65675334190199
 20
-95.4532705316924
 30
0.0
 10
97.64087834230699
 20
-95.43743080947385
 30
0.0
 10
97.64087834230699
 20
-95.41813386503435
 30
0.0
 10
97.64087834230699
 20
-95.39848414281708
 30
0.0
 10
97.65675334190199
 20
-95.38264442059887
 30
0.0
 10
97.67605275335892
 20
-95.38264442059887
 30
0.0
 10
97.69601750756695
 20
-95.38264442059887
 30
0.0
 10
97.71185722938506
 20
-95.39848414281708
 30
0.0
 10
97.71185722938506
 20
-95.41813386503435
 30
0.0
  0
SPLINE
  5
A6
330
1F
100
AcDbEntity
  8
_U+30EC_U+30A4_U+30E4_U+30FC 1
 62
   179
420
  2234388
370
     9
100
AcDbSpline
210
0.0
220
0.0
230
1.0
 70
    11
 71
     3
 72
    17
 73
    13
 74
     0
 42
0.0000000001
 43
0.0000000001
 12
1.0
 22
0.0
 32
0.0
 13
1.0
 23
0.0
 33
0.0
 40
0.0
 40
0.0
 40
0.0
 40
0.0
 40
1.0
 40
1.0
 40
1.0
 40
2.0
 40
2.0
 40
2.0
 40
3.0
 40
3.0
 40
3.0
 40
4.0
 40
4.0
 40
4.0
 40
4.0
 10
101.7116162940094
 20
-95.41813386503435
 30
0.0
 10
101.7116162940094
 20
-95.43743080947385
 30
0.0
 10
101.6957765721913
 20
-95.4532705316924
 30
0.0
 10
101.6764796282391
 20
-95.4532705316924
 30
0.0
 10
101.657182684287
 20
-95.4532705316924
 30
0.0
 10
101.6413429624689
 20
-95.43743080947385
 30
0.0
 10
101.6413429624689
 20
-95.41813386503435
 30
0.0
 10
101.6413429624689
 20
-95.39848414281708
 30
0.0
 10
101.657182684287
 20
-95.38264442059887
 30
0.0
 10
101.6764796282391
 20
-95.38264442059887
 30
0.0
 10
101.6957765721913
 20
-95.38264442059887
 30
0.0
 10
101.7116162940094
 20
-95.39848414281708
 30
0.0
 10
101.7116162940094
 20
-95.41813386503435
 30
0.0
  0
POLYLINE
  5
A7
330
1F
100
AcDbEntity
  8
_U+30EC_U+30A4_U+30E4_U+30FC 1
 62
   179
420
  2234388
370
     9
100
AcDb2dPolyline
 66
     1
 10
0.0
 20
0.0
 30
0.0
  0
VERTEX
  5
A8
330
A7
100
AcDbEntity
  8
_U+30EC_U+30A4_U+30E4_U+30FC 1
 62
   179
420
  2234388
370
     9
100
AcDbVertex
100
AcDb2dVertex
 10
86.67636889981272
 20
-83.41783331247889
 30
0.0
  0
VERTEX
  5
A9
330
A7
100
AcDbEntity
  8
_U+30EC_U+30A4_U+30E4_U+30FC 1
 62
   179
420
  2234388
370
     9
100
AcDbVertex
100
AcDb2dVertex
 10
97.67605275335892
 20
-83.41783331247889
 30
0.0
  0
SEQEND
  5
AA
330
A7
100
AcDbEntity
  8
_U+30EC_U+30A4_U+30E4_U+30FC 1
 62
   179
420
  2234388
370
     9
  0
POLYLINE
  5
AB
330
1F
100
AcDbEntity
  8
_U+30EC_U+30A4_U+30E4_U+30FC 1
 62
   179
420
  2234388
370
     9
100
AcDb2dPolyline
 66
     1
 10
0.0
 20
0.0
 30
0.0
  0
VERTEX
  5
AC
330
AB
100
AcDbEntity
  8
_U+30EC_U+30A4_U+30E4_U+30FC 1
 62
   179
420
  2234388
370
     9
100
AcDbVertex
100
AcDb2dVertex
 10
86.67636889981272
 20
-85.37807831198879
 30
0.0
  0
VERTEX
  5
AD
330
AB
100
AcDbEntity
  8
_U+30EC_U+30A4_U+30E4_U+30FC 1
 62
   179
420
  2234388
370
     9
100
AcDbVertex
100
AcDb2dVertex
 10
86.67636889981272
 20
-82.41806109050667
 30
0.0
  0
SEQEND
  5
AE
330
AB
100
AcDbEntity
  8
_U+30EC_U+30A4_U+30E4_U+30FC 1
 62
   179
420
  2234388
370
     9
  0
POLYLINE
  5
AF
330
1F
100
AcDbEntity
  8
_U+30EC_U+30A4_U+30E4_U+30FC 1
 62
   179
420
  2234388
370
     9
100
AcDb2dPolyline
 66
     1
 10
0.0
 20
0.0
 30
0.0
  0
VERTEX
  5
B0
330
AF
100
AcDbEntity
  8
_U+30EC_U+30A4_U+30E4_U+30FC 1
 62
   179
420
  2234388
370
     9
100
AcDbVertex
100
AcDb2dVertex
 10
97.67605275335892
 20
-85.37807831198879
 30
0.0
  0
VERTEX
  5
B1
330
AF
100
AcDbEntity
  8
_U+30EC_U+30A4_U+30E4_U+30FC 1
 62
   179
420
  2234388
370
     9
100
AcDbVertex
100
AcDb2dVertex
 10
97.67605275335892
 20
-82.41806109050667
 30
0.0
  0
SEQEND
  5
B2
330
AF
100
AcDbEntity
  8
_U+30EC_U+30A4_U+30E4_U+30FC 1
 62
   179
420
  2234388
370
     9
  0
INSERT
  5
B4
330
1F
100
AcDbEntity
  8
_U+30EC_U+30A4_U+30E4_U+30FC 1
100
AcDbBlockReference
  2
block 3
 10
0.0
 20
0.0
 30
0.0
  0
SPLINE
  5
BB
330
1F
100
AcDbEntity
  8
_U+30EC_U+30A4_U+30E4_U+30FC 1
 62
   179
420
  2234388
370
    25
100
AcDbSpline
210
0.0
220
0.0
230
1.0
 70
    11
 71
     3
 72
    17
 73
    13
 74
     0
 42
0.0000000001
 43
0.0000000001
 12
1.0
 22
0.0
 32
0.0
 13
1.0
 23
0.0
 33
0.0
 40
0.0
 40
0.0
 40
0.0
 40
0.0
 40
1.0
 40
1.0
 40
1.0
 40
2.0
 40
2.0
 40
2.0
 40
3.0
 40
3.0
 40
3.0
 40
4.0
 40
4.0
 40
4.0
 40
4.0
 10
86.71185834335175
 20
-87.91779608913164
 30
0.0
 10
86.71185834335175
 20
-87.93744581134892
 30
0.0
 10
86.69598334375675
 20
-87.95328553356714
 30
0.0
 10
86.67636889981272
 20
-87.95328553356714
 30
0.0
 10
86.6567191780918
 20
-87.95328553356714
 30
0.0
 10
86.64123223404246
 20
-87.93744581134892
 30
0.0
 10
86.64123223404246
 20
-87.91779608913164
 30
0.0
 10
86.64123223404246
 20
-87.89849914469214
 30
0.0
 10
86.6567191780918
 20
-87.88265942247392
 30
0.0
 10
86.67636889981272
 20
-87.88265942247392
 30
0.0
 10
86.69598334375675
 20
-87.88265942247392
 30
0.0
 10
86.71185834335175
 20
-87.89849914469214
 30
0.0
 10
86.71185834335175
 20
-87.91779608913164
 30
0.0
  0
SPLINE
  5
BC
330
1F
100
AcDbEntity
  8
_U+30EC_U+30A4_U+30E4_U+30FC 1
 62
   179
420
  2234388
370
    25
100
AcDbSpline
210
0.0
220
0.0
230
1.0
 70
    11
 71
     3
 72
    17
 73
    13
 74
     0
 42
0.0000000001
 43
0.0000000001
 12
1.0
 22
0.0
 32
0.0
 13
1.0
 23
0.0
 33
0.0
 40
0.0
 40
0.0
 40
0.0
 40
0.0
 40
1.0
 40
1.0
 40
1.0
 40
2.0
 40
2.0
 40
2.0
 40
3.0
 40
3.0
 40
3.0
 40
4.0
 40
4.0
 40
4.0
 40
4.0
 10
97.71185722938506
 20
-87.91779608913164
 30
0.0
 10
97.71185722938506
 20
-87.93744581134892
 30
0.0
 10
97.69601750756695
 20
-87.95328553356714
 30
0.0
 10
97.67605275335892
 20
-87.95328553356714
 30
0.0
 10
97.65675334190199
 20
-87.95328553356714
 30
0.0
 10
97.64087834230699
 20
-87.93744581134892
 30
0.0
 10
97.64087834230699
 20
-87.91779608913164
 30
0.0
 10
97.64087834230699
 20
-87.89849914469214
 30
0.0
 10
97.65675334190199
 20
-87.88265942247392
 30
0.0
 10
97.67605275335892
 20
-87.88265942247392
 30
0.0
 10
97.69601750756695
 20
-87.88265942247392
 30
0.0
 10
97.71185722938506
 20
-87.89849914469214
 30
0.0
 10
97.71185722938506
 20
-87.91779608913164
 30
0.0
  0
SPLINE
  5
BD
330
1F
100
AcDbEntity
  8
_U+30EC_U+30A4_U+30E4_U+30FC 1
 62
   179
420
  2234388
370
     9
100
AcDbSpline
210
0.0
220
0.0
230
1.0
 70
    11
 71
     3
 72
    17
 73
    13
 74
     0
 42
0.0000000001
 43
0.0000000001
 12
1.0
 22
0.0
 32
0.0
 13
1.0
 23
0.0
 33
0.0
 40
0.0
 40
0.0
 40
0.0
 40
0.0
 40
1.0
 40
1.0
 40
1.0
 40
2.0
 40
2.0
 40
2.0
 40
3.0
 40
3.0
 40
3.0
 40
4.0
 40
4.0
 40
4.0
 40
4.0
 10
97.71185722938506
 20
-83.41783331247889
 30
0.0
 10
97.71185722938506
 20
-83.43744775691832
 30
0.0
 10
97.69601750756695
 20
-83.45328747913653
 30
0.0
 10
97.67605275335892
 20
-83.45328747913653
 30
0.0
 10
97.65675334190199
 20
-83.45328747913653
 30
0.0
 10
97.64087834230699
 20
-83.43744775691832
 30
0.0
 10
97.64087834230699
 20
-83.41783331247889
 30
0.0
 10
97.64087834230699
 20
-83.39853636803939
 30
0.0
 10
97.65675334190199
 20
-83.38269664582084
 30
0.0
 10
97.67605275335892
 20
-83.38269664582084
 30
0.0
 10
97.69601750756695
 20
-83.38269664582084
 30
0.0
 10
97.71185722938506
 20
-83.39853636803939
 30
0.0
 10
97.71185722938506
 20
-83.41783331247889
 30
0.0
  0
POLYLINE
  5
BE
330
1F
100
AcDbEntity
  8
_U+30EC_U+30A4_U+30E4_U+30FC 1
 62
   179
420
  2234388
370
     9
100
AcDb2dPolyline
 66
     1
 10
0.0
 20
0.0
 30
0.0
  0
VERTEX
  5
BF
330
BE
100
AcDbEntity
  8
_U+30EC_U+30A4_U+30E4_U+30FC 1
 62
   179
420
  2234388
370
     9
100
AcDbVertex
100
AcDb2dVertex
 10
100.1764685553965
 20
-127.4179005237009
 30
0.0
  0
VERTEX
  5
C0
330
BE
100
AcDbEntity
  8
_U+30EC_U+30A4_U+30E4_U+30FC 1
 62
   179
420
  2234388
370
     9
100
AcDbVertex
100
AcDb2dVertex
 10
100.1764685553965
 20
-177.417941622312
 30
0.0
  0
SEQEND
  5
C1
330
BE
100
AcDbEntity
  8
_U+30EC_U+30A4_U+30E4_U+30FC 1
 62
   179
420
  2234388
370
     9
  0
POLYLINE
  5
C2
330
1F
100
AcDbEntity
  8
_U+30EC_U+30A4_U+30E4_U+30FC 1
 62
   179
420
  2234388
370
     9
100
AcDb2dPolyline
 66
     1
 10
0.0
 20
0.0
 30
0.0
  0
VERTEX
  5
C3
330
C2
100
AcDbEntity
  8
_U+30EC_U+30A4_U+30E4_U+30FC 1
 62
   179
420
  2234388
370
     9
100
AcDbVertex
100
AcDb2dVertex
 10
98.2162236054065
 20
-127.4179005237009
 30
0.0
  0
VERTEX
  5
C4
330
C2
100
AcDbEntity
  8
_U+30EC_U+30A4_U+30E4_U+30FC 1
 62
   179
420
  2234388
370
     9
100
AcDbVertex
100
AcDb2dVertex
 10
101.1762407521124
 20
-127.4179005237009
 30
0.0
  0
SEQEND
  5
C5
330
C2
100
AcDbEntity
  8
_U+30EC_U+30A4_U+30E4_U+30FC 1
 62
   179
420
  2234388
370
     9
  0
POLYLINE
  5
C6
330
1F
100
AcDbEntity
  8
_U+30EC_U+30A4_U+30E4_U+30FC 1
 62
   179
420
  2234388
370
     9
100
AcDb2dPolyline
 66
     1
 10
0.0
 20
0.0
 30
0.0
  0
VERTEX
  5
C7
330
C6
100
AcDbEntity
  8
_U+30EC_U+30A4_U+30E4_U+30FC 1
 62
   179
420
  2234388
370
     9
100
AcDbVertex
100
AcDb2dVertex
 10
90.71641518563143
 20
-177.417941622312
 30
0.0
  0
VERTEX
  5
C8
330
C6
100
AcDbEntity
  8
_U+30EC_U+30A4_U+30E4_U+30FC 1
 62
   179
420
  2234388
370
     9
100
AcDbVertex
100
AcDb2dVertex
 10
101.1762407521124
 20
-177.417941622312
 30
0.0
  0
SEQEND
  5
C9
330
C6
100
AcDbEntity
  8
_U+30EC_U+30A4_U+30E4_U+30FC 1
 62
   179
420
  2234388
370
     9
  0
INSERT
  5
CB
330
1F
100
AcDbEntity
  8
_U+30EC_U+30A4_U+30E4_U+30FC 1
100
AcDbBlockReference
  2
block 4
 10
0.0
 20
0.0
 30
0.0
  0
SPLINE
  5
F1
330
1F
100
AcDbEntity
  8
_U+30EC_U+30A4_U+30E4_U+30FC 1
 62
   179
420
  2234388
370
    25
100
AcDbSpline
210
0.0
220
0.0
230
1.0
 70
    11
 71
     3
 72
    17
 73
    13
 74
     0
 42
0.0000000001
 43
0.0000000001
 12
1.0
 22
0.0
 32
0.0
 13
1.0
 23
0.0
 33
0.0
 40
0.0
 40
0.0
 40
0.0
 40
0.0
 40
1.0
 40
1.0
 40
1.0
 40
2.0
 40
2.0
 40
2.0
 40
3.0
 40
3.0
 40
3.0
 40
4.0
 40
4.0
 40
4.0
 40
4.0
 10
95.71164255819257
 20
-127.4179005237009
 30
0.0
 10
95.71164255819257
 20
-127.4375149681407
 30
0.0
 10
95.69580283637445
 20
-127.4533899681367
 30
0.0
 10
95.67650830941447
 20
-127.4533899681367
 30
0.0
 10
95.65650339293262
 20
-127.4533899681367
 30
0.0
 10
95.64136922665206
 20
-127.4375149681407
 30
0.0
 10
95.64136922665206
 20
-127.4179005237009
 30
0.0
 10
95.64136922665206
 20
-127.3986035792614
 30
0.0
 10
95.65650339293262
 20
-127.3827638570432
 30
0.0
 10
95.67650830941447
 20
-127.3827638570432
 30
0.0
 10
95.69580283637445
 20
-127.3827638570432
 30
0.0
 10
95.71164255819257
 20
-127.3986035792614
 30
0.0
 10
95.71164255819257
 20
-127.4179005237009
 30
0.0
  0
SPLINE
  5
F2
330
1F
100
AcDbEntity
  8
_U+30EC_U+30A4_U+30E4_U+30FC 1
 62
   179
420
  2234388
370
    25
100
AcDbSpline
210
0.0
220
0.0
230
1.0
 70
    11
 71
     3
 72
    17
 73
    13
 74
     0
 42
0.0000000001
 43
0.0000000001
 12
1.0
 22
0.0
 32
0.0
 13
1.0
 23
0.0
 33
0.0
 40
0.0
 40
0.0
 40
0.0
 40
0.0
 40
1.0
 40
1.0
 40
1.0
 40
2.0
 40
2.0
 40
2.0
 40
3.0
 40
3.0
 40
3.0
 40
4.0
 40
4.0
 40
4.0
 40
4.0
 10
88.21183413841752
 20
-177.417941622312
 30
0.0
 10
88.21183413841752
 20
-177.4375913445296
 30
0.0
 10
88.19599441659939
 20
-177.4530782889704
 30
0.0
 10
88.17634469487848
 20
-177.4530782889704
 30
0.0
 10
88.15673025093444
 20
-177.4530782889704
 30
0.0
 10
88.14120802910823
 20
-177.4375913445296
 30
0.0
 10
88.14120802910823
 20
-177.417941622312
 30
0.0
 10
88.14120802910823
 20
-177.398291900095
 30
0.0
 10
88.15673025093444
 20
-177.3828049556543
 30
0.0
 10
88.17634469487848
 20
-177.3828049556543
 30
0.0
 10
88.19599441659939
 20
-177.3828049556543
 30
0.0
 10
88.21183413841752
 20
-177.398291900095
 30
0.0
 10
88.21183413841752
 20
-177.417941622312
 30
0.0
  0
SPLINE
  5
F3
330
1F
100
AcDbEntity
  8
_U+30EC_U+30A4_U+30E4_U+30FC 1
 62
   179
420
  2234388
370
     9
100
AcDbSpline
210
0.0
220
0.0
230
1.0
 70
    11
 71
     3
 72
    17
 73
    13
 74
     0
 42
0.0000000001
 43
0.0000000001
 12
1.0
 22
0.0
 32
0.0
 13
1.0
 23
0.0
 33
0.0
 40
0.0
 40
0.0
 40
0.0
 40
0.0
 40
1.0
 40
1.0
 40
1.0
 40
2.0
 40
2.0
 40
2.0
 40
3.0
 40
3.0
 40
3.0
 40
4.0
 40
4.0
 40
4.0
 40
4.0
 10
100.2116404989436
 20
-177.417941622312
 30
0.0
 10
100.2116404989436
 20
-177.4375913445296
 30
0.0
 10
100.1957654993486
 20
-177.4530782889704
 30
0.0
 10
100.1764685553965
 20
-177.4530782889704
 30
0.0
 10
100.1572068892212
 20
-177.4530782889704
 30
0.0
 10
100.1413318896262
 20
-177.4375913445296
 30
0.0
 10
100.1413318896262
 20
-177.417941622312
 30
0.0
 10
100.1413318896262
 20
-177.398291900095
 30
0.0
 10
100.1572068892212
 20
-177.3828049556543
 30
0.0
 10
100.1764685553965
 20
-177.3828049556543
 30
0.0
 10
100.1957654993486
 20
-177.3828049556543
 30
0.0
 10
100.2116404989436
 20
-177.398291900095
 30
0.0
 10
100.2116404989436
 20
-177.417941622312
 30
0.0
  0
POLYLINE
  5
F4
330
1F
100
AcDbEntity
  8
_U+30EC_U+30A4_U+30E4_U+30FC 1
 62
   179
420
  2234388
370
     9
100
AcDb2dPolyline
 66
     1
 10
0.0
 20
0.0
 30
0.0
  0
VERTEX
  5
F5
330
F4
100
AcDbEntity
  8
_U+30EC_U+30A4_U+30E4_U+30FC 1
 62
   179
420
  2234388
370
     9
100
AcDbVertex
100
AcDb2dVertex
 10
82.67625705741963
 20
-87.41790997814537
 30
0.0
  0
VERTEX
  5
F6
330
F4
100
AcDbEntity
  8
_U+30EC_U+30A4_U+30E4_U+30FC 1
 62
   179
420
  2234388
370
     9
100
AcDbVertex
100
AcDb2dVertex
 10
82.67625705741963
 20
-177.417941622312
 30
0.0
  0
SEQEND
  5
F7
330
F4
100
AcDbEntity
  8
_U+30EC_U+30A4_U+30E4_U+30FC 1
 62
   179
420
  2234388
370
     9
  0
POLYLINE
  5
F8
330
1F
100
AcDbEntity
  8
_U+30EC_U+30A4_U+30E4_U+30FC 1
 62
   179
420
  2234388
370
     9
100
AcDb2dPolyline
 66
     1
 10
0.0
 20
0.0
 30
0.0
  0
VERTEX
  5
F9
330
F8
100
AcDbEntity
  8
_U+30EC_U+30A4_U+30E4_U+30FC 1
 62
   179
420
  2234388
370
     9
100
AcDbVertex
100
AcDb2dVertex
 10
84.63653728518649
 20
-87.41790997814537
 30
0.0
  0
VERTEX
  5
FA
330
F8
100
AcDbEntity
  8
_U+30EC_U+30A4_U+30E4_U+30FC 1
 62
   179
420
  2234388
370
     9
100
AcDbVertex
100
AcDb2dVertex
 10
81.67648486070372
 20
-87.41790997814537
 30
0.0
  0
SEQEND
  5
FB
330
F8
100
AcDbEntity
  8
_U+30EC_U+30A4_U+30E4_U+30FC 1
 62
   179
420
  2234388
370
     9
  0
POLYLINE
  5
FC
330
1F
100
AcDbEntity
  8
_U+30EC_U+30A4_U+30E4_U+30FC 1
 62
   179
420
  2234388
370
     9
100
AcDb2dPolyline
 66
     1
 10
0.0
 20
0.0
 30
0.0
  0
VERTEX
  5
FD
330
FC
100
AcDbEntity
  8
_U+30EC_U+30A4_U+30E4_U+30FC 1
 62
   179
420
  2234388
370
     9
100
AcDbVertex
100
AcDb2dVertex
 10
84.63653728518649
 20
-177.417941622312
 30
0.0
  0
VERTEX
  5
FE
330
FC
100
AcDbEntity
  8
_U+30EC_U+30A4_U+30E4_U+30FC 1
 62
   179
420
  2234388
370
     9
100
AcDbVertex
100
AcDb2dVertex
 10
81.67648486070372
 20
-177.417941622312
 30
0.0
  0
SEQEND
  5
FF
330
FC
100
AcDbEntity
  8
_U+30EC_U+30A4_U+30E4_U+30FC 1
 62
   179
420
  2234388
370
     9
  0
INSERT
  5
101
330
1F
100
AcDbEntity
  8
_U+30EC_U+30A4_U+30E4_U+30FC 1
100
AcDbBlockReference
  2
block 5
 10
0.0
 20
0.0
 30
0.0
  0
SPLINE
  5
10A
330
1F
100
AcDbEntity
  8
_U+30EC_U+30A4_U+30E4_U+30FC 1
 62
   179
420
  2234388
370
    25
100
AcDbSpline
210
0.0
220
0.0
230
1.0
 70
    11
 71
     3
 72
    17
 73
    13
 74
     0
 42
0.0000000001
 43
0.0000000001
 12
1.0
 22
0.0
 32
0.0
 13
1.0
 23
0.0
 33
0.0
 40
0.0
 40
0.0
 40
0.0
 40
0.0
 40
1.0
 40
1.0
 40
1.0
 40
2.0
 40
2.0
 40
2.0
 40
3.0
 40
3.0
 40
3.0
 40
4.0
 40
4.0
 40
4.0
 40
4.0
 10
87.2117444417097
 20
-87.41790997814537
 30
0.0
 10
87.2117444417097
 20
-87.43755970036297
 30
0.0
 10
87.19586944211471
 20
-87.45304664480342
 30
0.0
 10
87.17625499817066
 20
-87.45304664480342
 30
0.0
 10
87.15695805421853
 20
-87.45304664480342
 30
0.0
 10
87.14111833240041
 20
-87.43755970036297
 30
0.0
 10
87.14111833240041
 20
-87.41790997814537
 30
0.0
 10
87.14111833240041
 20
-87.39861303370587
 30
0.0
 10
87.15695805421853
 20
-87.38277331148765
 30
0.0
 10
87.17625499817066
 20
-87.38277331148765
 30
0.0
 10
87.19586944211471
 20
-87.38277331148765
 30
0.0
 10
87.2117444417097
 20
-87.39861303370587
 30
0.0
 10
87.2117444417097
 20
-87.41790997814537
 30
0.0
  0
SPLINE
  5
10B
330
1F
100
AcDbEntity
  8
_U+30EC_U+30A4_U+30E4_U+30FC 1
 62
   179
420
  2234388
370
    25
100
AcDbSpline
210
0.0
220
0.0
230
1.0
 70
    11
 71
     3
 72
    17
 73
    13
 74
     0
 42
0.0000000001
 43
0.0000000001
 12
1.0
 22
0.0
 32
0.0
 13
1.0
 23
0.0
 33
0.0
 40
0.0
 40
0.0
 40
0.0
 40
0.0
 40
1.0
 40
1.0
 40
1.0
 40
2.0
 40
2.0
 40
2.0
 40
3.0
 40
3.0
 40
3.0
 40
4.0
 40
4.0
 40
4.0
 40
4.0
 10
87.2117444417097
 20
-177.417941622312
 30
0.0
 10
87.2117444417097
 20
-177.4375913445296
 30
0.0
 10
87.19586944211471
 20
-177.4530782889704
 30
0.0
 10
87.17625499817066
 20
-177.4530782889704
 30
0.0
 10
87.15695805421853
 20
-177.4530782889704
 30
0.0
 10
87.14111833240041
 20
-177.4375913445296
 30
0.0
 10
87.14111833240041
 20
-177.417941622312
 30
0.0
 10
87.14111833240041
 20
-177.398291900095
 30
0.0
 10
87.15695805421853
 20
-177.3828049556543
 30
0.0
 10
87.17625499817066
 20
-177.3828049556543
 30
0.0
 10
87.19586944211471
 20
-177.3828049556543
 30
0.0
 10
87.2117444417097
 20
-177.398291900095
 30
0.0
 10
87.2117444417097
 20
-177.417941622312
 30
0.0
  0
SPLINE
  5
10C
330
1F
100
AcDbEntity
  8
_U+30EC_U+30A4_U+30E4_U+30FC 1
 62
   179
420
  2234388
370
     9
100
AcDbSpline
210
0.0
220
0.0
230
1.0
 70
    11
 71
     3
 72
    17
 73
    13
 74
     0
 42
0.0000000001
 43
0.0000000001
 12
1.0
 22
0.0
 32
0.0
 13
1.0
 23
0.0
 33
0.0
 40
0.0
 40
0.0
 40
0.0
 40
0.0
 40
1.0
 40
1.0
 40
1.0
 40
2.0
 40
2.0
 40
2.0
 40
3.0
 40
3.0
 40
3.0
 40
4.0
 40
4.0
 40
4.0
 40
4.0
 10
82.71174650095865
 20
-177.417941622312
 30
0.0
 10
82.71174650095865
 20
-177.4375913445296
 30
0.0
 10
82.69590677914054
 20
-177.4530782889704
 30
0.0
 10
82.67625705741963
 20
-177.4530782889704
 30
0.0
 10
82.65696011346749
 20
-177.4530782889704
 30
0.0
 10
82.64112039164937
 20
-177.4375913445296
 30
0.0
 10
82.64112039164937
 20
-177.417941622312
 30
0.0
 10
82.64112039164937
 20
-177.398291900095
 30
0.0
 10
82.65696011346749
 20
-177.3828049556543
 30
0.0
 10
82.67625705741963
 20
-177.3828049556543
 30
0.0
 10
82.69590677914054
 20
-177.3828049556543
 30
0.0
 10
82.71174650095865
 20
-177.398291900095
 30
0.0
 10
82.71174650095865
 20
-177.417941622312
 30
0.0
  0
ENDSEC
  0
SECTION
  2
OBJECTS
  0
DICTIONARY
  5
C
330
0
100
AcDbDictionary
281
     1
  3
ACAD_GROUP
350
D
  3
ACAD_LAYOUT
350
1A
  3
ACAD_MATERIAL
350
3B
  3
ACAD_MLEADERSTYLE
350
10E
  3
ACAD_MLINESTYLE
350
17
  3
ACAD_PLOTSETTINGS
350
19
  3
ACAD_PLOTSTYLENAME
350
E
  3
ACAD_TABLESTYLE
350
10D
  3
ACAD_VISUALSTYLE
350
2A
  0
SUN
  5
3F
330
29
100
AcDbSun
 90
        1
290
     0
 63
     7
421
 16777215
 40
1.0
291
     1
 91
  2455826
 92
 54000000
292
     0
 70
     2
 71
   256
280
     1
  0
DICTIONARY
  5
D
102
{ACAD_REACTORS
330
C
102
}
330
C
100
AcDbDictionary
281
     1
  0
DICTIONARY
  5
1A
102
{ACAD_REACTORS
330
C
102
}
330
C
100
AcDbDictionary
281
     1
  3
Layout1
350
1E
  3
Layout2
350
26
  3
Model
350
22
  0
DICTIONARY
  5
3B
102
{ACAD_REACTORS
330
C
102
}
330
C
100
AcDbDictionary
281
     1
  3
ByBlock
350
3D
  3
ByLayer
350
3C
  3
Global
350
3E
  0
DICTIONARY
  5
10E
102
{ACAD_REACTORS
330
C
102
}
330
C
100
AcDbDictionary
281
     1
  0
DICTIONARY
  5
17
102
{ACAD_REACTORS
330
C
102
}
330
C
100
AcDbDictionary
281
     1
  3
Standard
350
18
  0
DICTIONARY
  5
19
102
{ACAD_REACTORS
330
C
102
}
330
C
100
AcDbDictionary
281
     1
  0
ACDBDICTIONARYWDFLT
  5
E
102
{ACAD_REACTORS
330
C
102
}
330
C
100
AcDbDictionary
281
     1
  3
Normal
350
F
100
AcDbDictionaryWithDefault
340
F
  0
DICTIONARY
  5
10D
102
{ACAD_REACTORS
330
C
102
}
330
C
100
AcDbDictionary
281
     1
  0
DICTIONARY
  5
2A
102
{ACAD_REACTORS
330
C
102
}
330
C
100
AcDbDictionary
281
     1
  3
2dWireframe
350
2F
  3
3D Hidden
350
31
  3
3dWireframe
350
30
  3
Basic
350
32
  3
Brighten
350
36
  3
ColorChange
350
3A
  3
Conceptual
350
34
  3
Dim
350
35
  3
Facepattern
350
39
  3
Flat
350
2B
  3
FlatWithEdges
350
2C
  3
Gouraud
350
2D
  3
GouraudWithEdges
350
2E
  3
Linepattern
350
38
  3
Realistic
350
33
  3
Thicken
350
37
  0
LAYOUT
  5
1E
102
{ACAD_REACTORS
330
1A
102
}
330
1A
100
AcDbPlotSettings
  1

  2
none_device
  4

  6

 40
0.0
 41
0.0
 42
0.0
 43
0.0
 44
0.0
 45
0.0
 46
0.0
 47
0.0
 48
0.0
 49
0.0
140
0.0
141
0.0
142
1.0
143
1.0
 70
   688
 72
     0
 73
     0
 74
     5
  7

 75
    16
 76
     0
 77
     2
 78
   300
147
1.0
148
0.0
149
0.0
100
AcDbLayout
  1
Layout1
 70
     1
 71
     1
 10
0.0
 20
0.0
 11
12.0
 21
9.0
 12
0.0
 22
0.0
 32
0.0
 14
1.000000000000000E+20
 24
1.000000000000000E+20
 34
1.000000000000000E+20
 15
-1.000000000000000E+20
 25
-1.000000000000000E+20
 35
-1.000000000000000E+20
146
0.0
 13
0.0
 23
0.0
 33
0.0
 16
1.0
 26
0.0
 36
0.0
 17
0.0
 27
1.0
 37
0.0
 76
     0
330
1B
  0
LAYOUT
  5
26
102
{ACAD_REACTORS
330
1A
102
}
330
1A
100
AcDbPlotSettings
  1

  2
none_device
  4

  6

 40
0.0
 41
0.0
 42
0.0
 43
0.0
 44
0.0
 45
0.0
 46
0.0
 47
0.0
 48
0.0
 49
0.0
140
0.0
141
0.0
142
1.0
143
1.0
 70
   688
 72
     0
 73
     0
 74
     5
  7

 75
    16
 76
     0
 77
     2
 78
   300
147
1.0
148
0.0
149
0.0
100
AcDbLayout
  1
Layout2
 70
     1
 71
     2
 10
0.0
 20
0.0
 11
0.0
 21
0.0
 12
0.0
 22
0.0
 32
0.0
 14
0.0
 24
0.0
 34
0.0
 15
0.0
 25
0.0
 35
0.0
146
0.0
 13
0.0
 23
0.0
 33
0.0
 16
1.0
 26
0.0
 36
0.0
 17
0.0
 27
1.0
 37
0.0
 76
     0
330
23
  0
LAYOUT
  5
22
102
{ACAD_REACTORS
330
1A
102
}
330
1A
100
AcDbPlotSettings
  1

  2
none_device
  4

  6

 40
0.0
 41
0.0
 42
0.0
 43
0.0
 44
0.0
 45
0.0
 46
0.0
 47
0.0
 48
0.0
 49
0.0
140
0.0
141
0.0
142
1.0
143
1.0
 70
  1712
 72
     0
 73
     0
 74
     0
  7

 75
     0
 76
     0
 77
     2
 78
   300
147
1.0
148
0.0
149
0.0
100
AcDbLayout
  1
Model
 70
     1
 71
     0
 10
0.0
 20
0.0
 11
12.0
 21
9.0
 12
0.0
 22
0.0
 32
0.0
 14
1.000000000000000E+20
 24
1.000000000000000E+20
 34
1.000000000000000E+20
 15
-1.000000000000000E+20
 25
-1.000000000000000E+20
 35
-1.000000000000000E+20
146
0.0
 13
0.0
 23
0.0
 33
0.0
 16
1.0
 26
0.0
 36
0.0
 17
0.0
 27
1.0
 37
0.0
 76
     0
330
1F
331
29
  0
MATERIAL
  5
3D
102
{ACAD_REACTORS
330
3B
102
}
330
3B
100
AcDbMaterial
  1
ByBlock
 72
     1
 94
      127
  0
MATERIAL
  5
3C
102
{ACAD_REACTORS
330
3B
102
}
330
3B
100
AcDbMaterial
  1
ByLayer
 72
     1
 94
      127
  0
MATERIAL
  5
3E
102
{ACAD_REACTORS
330
3B
102
}
330
3B
100
AcDbMaterial
  1
Global
 72
     1
 94
      127
  0
MLINESTYLE
  5
18
102
{ACAD_REACTORS
330
17
102
}
330
17
100
AcDbMlineStyle
  2
Standard
 70
     0
  3

 62
   256
 51
90.0
 52
90.0
 71
     2
 49
0.5
 62
   256
  6
BYLAYER
 49
-0.5
 62
   256
  6
BYLAYER
  0
ACDBPLACEHOLDER
  5
F
102
{ACAD_REACTORS
330
E
102
}
330
E
  0
VISUALSTYLE
  5
2F
102
{ACAD_REACTORS
330
2A
102
}
330
2A
100
AcDbVisualStyle
  2
2dWireframe
 70
     4
177
     2
291
     0
 71
     0
176
     1
 72
     2
176
     1
 73
     0
176
     1
 90
        0
176
     1
 40
-0.6
176
     1
 41
-30.0
176
     1
 62
     5
 63
     7
421
 16777215
176
     1
 74
     1
176
     1
 91
        4
176
     1
 64
     7
176
     1
 65
   257
176
     1
 75
     1
176
     1
175
     1
176
     1
 42
1.0
176
     1
 92
        0
176
     1
 66
   257
176
     1
 43
1.0
176
     1
 76
     1
176
     1
 77
     6
176
     1
 78
     2
176
     1
 67
     7
176
     1
 79
     5
176
     1
170
     0
176
     1
171
     0
176
     1
290
     0
176
     1
 93
        1
176
     1
 44
0.0
176
     1
173
     0
176
     1
  0
VISUALSTYLE
  5
31
102
{ACAD_REACTORS
330
2A
102
}
330
2A
100
AcDbVisualStyle
  2
3D Hidden
 70
     6
177
     2
291
     0
 71
     1
176
     1
 72
     2
176
     1
 73
     2
176
     1
 90
        0
176
     1
 40
-0.6
176
     1
 41
-30.0
176
     1
 62
     5
 63
     7
421
 16777215
176
     1
 74
     2
176
     1
 91
        2
176
     1
 64
     7
176
     1
 65
   257
176
     1
 75
     2
176
     1
175
     1
176
     1
 42
40.0
176
     1
 92
        0
176
     1
 66
   257
176
     1
 43
1.0
176
     1
 76
     1
176
     1
 77
     6
176
     1
 78
     2
176
     1
 67
     7
176
     1
 79
     3
176
     1
170
     0
176
     1
171
     0
176
     1
290
     0
176
     1
 93
        1
176
     1
 44
0.0
176
     1
173
     0
176
     1
  0
VISUALSTYLE
  5
30
102
{ACAD_REACTORS
330
2A
102
}
330
2A
100
AcDbVisualStyle
  2
3dWireframe
 70
     5
177
     2
291
     0
 71
     0
176
     1
 72
     2
176
     1
 73
     0
176
     1
 90
        0
176
     1
 40
-0.6
176
     1
 41
-30.0
176
     1
 62
     5
 63
     7
421
 16777215
176
     1
 74
     1
176
     1
 91
        4
176
     1
 64
     7
176
     1
 65
   257
176
     1
 75
     1
176
     1
175
     1
176
     1
 42
1.0
176
     1
 92
        0
176
     1
 66
   257
176
     1
 43
1.0
176
     1
 76
     1
176
     1
 77
     6
176
     1
 78
     2
176
     1
 67
     7
176
     1
 79
     5
176
     1
170
     0
176
     1
171
     0
176
     1
290
     0
176
     1
 93
        1
176
     1
 44
0.0
176
     1
173
     0
176
     1
  0
VISUALSTYLE
  5
32
102
{ACAD_REACTORS
330
2A
102
}
330
2A
100
AcDbVisualStyle
  2
Basic
 70
     7
177
     2
291
     1
 71
     1
176
     1
 72
     0
176
     1
 73
     1
176
     1
 90
        0
176
     1
 40
-0.6
176
     1
 41
-30.0
176
     1
 62
     5
 63
     7
421
 16777215
176
     1
 74
     0
176
     1
 91
        4
176
     1
 64
     7
176
     1
 65
   257
176
     1
 75
     1
176
     1
175
     1
176
     1
 42
1.0
176
     1
 92
        8
176
     1
 66
     7
176
     1
 43
1.0
176
     1
 76
     1
176
     1
 77
     6
176
     1
 78
     2
176
     1
 67
     7
176
     1
 79
     5
176
     1
170
     0
176
     1
171
     0
176
     1
290
     0
176
     1
 93
        1
176
     1
 44
0.0
176
     1
173
     0
176
     1
  0
VISUALSTYLE
  5
36
102
{ACAD_REACTORS
330
2A
102
}
330
2A
100
AcDbVisualStyle
  2
Brighten
 70
    12
177
     2
291
     1
 71
     2
176
     1
 72
     2
176
     1
 73
     0
176
     1
 90
        0
176
     1
 40
-0.6
176
     1
 41
-30.0
176
     1
 62
     5
 63
     7
421
 16777215
176
     1
 74
     1
176
     1
 91
        4
176
     1
 64
     7
176
     1
 65
   257
176
     1
 75
     1
176
     1
175
     1
176
     1
 42
1.0
176
     1
 92
        8
176
     1
 66
     7
176
     1
 43
1.0
176
     1
 76
     1
176
     1
 77
     6
176
     1
 78
     2
176
     1
 67
     7
176
     1
 79
     5
176
     1
170
     0
176
     1
171
     0
176
     1
290
     0
176
     1
 93
        1
176
     1
 44
50.0
176
     1
173
     0
176
     1
  0
VISUALSTYLE
  5
3A
102
{ACAD_REACTORS
330
2A
102
}
330
2A
100
AcDbVisualStyle
  2
ColorChange
 70
    16
177
     2
291
     1
 71
     2
176
     1
 72
     2
176
     1
 73
     3
176
     1
 90
        0
176
     1
 40
-0.6
176
     1
 41
-30.0
176
     1
 62
     5
 63
     8
421
  8421504
176
     1
 74
     1
176
     1
 91
        4
176
     1
 64
     7
176
     1
 65
   257
176
     1
 75
     1
176
     1
175
     1
176
     1
 42
1.0
176
     1
 92
        8
176
     1
 66
     8
424
  8421504
176
     1
 43
1.0
176
     1
 76
     1
176
     1
 77
     6
176
     1
 78
     2
176
     1
 67
     7
176
     1
 79
     5
176
     1
170
     0
176
     1
171
     0
176
     1
290
     0
176
     1
 93
        1
176
     1
 44
0.0
176
     1
173
     0
176
     1
  0
VISUALSTYLE
  5
34
102
{ACAD_REACTORS
330
2A
102
}
330
2A
100
AcDbVisualStyle
  2
Conceptual
 70
     9
177
     2
291
     0
 71
     3
176
     1
 72
     2
176
     1
 73
     0
176
     1
 90
        0
176
     1
 40
-0.6
176
     1
 41
-30.0
176
     1
 62
     5
 63
     7
421
 16777215
176
     1
 74
     2
176
     1
 91
        2
176
     1
 64
     7
176
     1
 65
   257
176
     1
 75
     1
176
     1
175
     1
176
     1
 42
40.0
176
     1
 92
        8
176
     1
 66
     7
176
     1
 43
1.0
176
     1
 76
     1
176
     1
 77
     6
176
     1
 78
     2
176
     1
 67
     7
176
     1
 79
     3
176
     1
170
     0
176
     1
171
     0
176
     1
290
     0
176
     1
 93
        1
176
     1
 44
0.0
176
     1
173
     0
176
     1
  0
VISUALSTYLE
  5
35
102
{ACAD_REACTORS
330
2A
102
}
330
2A
100
AcDbVisualStyle
  2
Dim
 70
    11
177
     2
291
     1
 71
     2
176
     1
 72
     2
176
     1
 73
     0
176
     1
 90
        0
176
     1
 40
-0.6
176
     1
 41
-30.0
176
     1
 62
     5
 63
     7
421
 16777215
176
     1
 74
     1
176
     1
 91
        4
176
     1
 64
     7
176
     1
 65
   257
176
     1
 75
     1
176
     1
175
     1
176
     1
 42
1.0
176
     1
 92
        8
176
     1
 66
     7
176
     1
 43
1.0
176
     1
 76
     1
176
     1
 77
     6
176
     1
 78
     2
176
     1
 67
     7
176
     1
 79
     5
176
     1
170
     0
176
     1
171
     0
176
     1
290
     0
176
     1
 93
        1
176
     1
 44
-50.0
176
     1
173
     0
176
     1
  0
VISUALSTYLE
  5
39
102
{ACAD_REACTORS
330
2A
102
}
330
2A
100
AcDbVisualStyle
  2
Facepattern
 70
    15
177
     2
291
     1
 71
     2
176
     1
 72
     2
176
     1
 73
     0
176
     1
 90
        0
176
     1
 40
-0.6
176
     1
 41
-30.0
176
     1
 62
     5
 63
     7
421
 16777215
176
     1
 74
     1
176
     1
 91
        4
176
     1
 64
     7
176
     1
 65
   257
176
     1
 75
     1
176
     1
175
     1
176
     1
 42
1.0
176
     1
 92
        8
176
     1
 66
     7
176
     1
 43
1.0
176
     1
 76
     1
176
     1
 77
     6
176
     1
 78
     2
176
     1
 67
     7
176
     1
 79
     5
176
     1
170
     0
176
     1
171
     0
176
     1
290
     0
176
     1
 93
        1
176
     1
 44
0.0
176
     1
173
     0
176
     1
  0
VISUALSTYLE
  5
2B
102
{ACAD_REACTORS
330
2A
102
}
330
2A
100
AcDbVisualStyle
  2
Flat
 70
     0
177
     2
291
     1
 71
     2
176
     1
 72
     1
176
     1
 73
     1
176
     1
 90
        2
176
     1
 40
-0.6
176
     1
 41
30.0
176
     1
 62
     5
 63
     7
421
 16777215
176
     1
 74
     0
176
     1
 91
        4
176
     1
 64
     7
176
     1
 65
   257
176
     1
 75
     1
176
     1
175
     1
176
     1
 42
1.0
176
     1
 92
        8
176
     1
 66
     7
176
     1
 43
1.0
176
     1
 76
     1
176
     1
 77
     6
176
     1
 78
     2
176
     1
 67
     7
176
     1
 79
     5
176
     1
170
     0
176
     1
171
     0
176
     1
290
     0
176
     1
 93
       13
176
     1
 44
0.0
176
     1
173
     0
176
     1
  0
VISUALSTYLE
  5
2C
102
{ACAD_REACTORS
330
2A
102
}
330
2A
100
AcDbVisualStyle
  2
FlatWithEdges
 70
     1
177
     2
291
     1
 71
     2
176
     1
 72
     1
176
     1
 73
     1
176
     1
 90
        2
176
     1
 40
-0.6
176
     1
 41
30.0
176
     1
 62
     5
 63
     7
421
 16777215
176
     1
 74
     1
176
     1
 91
        4
176
     1
 64
     7
176
     1
 65
   257
176
     1
 75
     1
176
     1
175
     1
176
     1
 42
1.0
176
     1
 92
        0
176
     1
 66
   257
176
     1
 43
1.0
176
     1
 76
     1
176
     1
 77
     6
176
     1
 78
     2
176
     1
 67
     7
176
     1
 79
     5
176
     1
170
     0
176
     1
171
     0
176
     1
290
     0
176
     1
 93
       13
176
     1
 44
0.0
176
     1
173
     0
176
     1
  0
VISUALSTYLE
  5
2D
102
{ACAD_REACTORS
330
2A
102
}
330
2A
100
AcDbVisualStyle
  2
Gouraud
 70
     2
177
     2
291
     1
 71
     2
176
     1
 72
     2
176
     1
 73
     1
176
     1
 90
        2
176
     1
 40
-0.6
176
     1
 41
30.0
176
     1
 62
     5
 63
     7
421
 16777215
176
     1
 74
     0
176
     1
 91
        4
176
     1
 64
     7
176
     1
 65
   257
176
     1
 75
     1
176
     1
175
     1
176
     1
 42
1.0
176
     1
 92
        0
176
     1
 66
     7
176
     1
 43
1.0
176
     1
 76
     1
176
     1
 77
     6
176
     1
 78
     2
176
     1
 67
     7
176
     1
 79
     5
176
     1
170
     0
176
     1
171
     0
176
     1
290
     0
176
     1
 93
       13
176
     1
 44
0.0
176
     1
173
     0
176
     1
  0
VISUALSTYLE
  5
2E
102
{ACAD_REACTORS
330
2A
102
}
330
2A
100
AcDbVisualStyle
  2
GouraudWithEdges
 70
     3
177
     2
291
     1
 71
     2
176
     1
 72
     2
176
     1
 73
     1
176
     1
 90
        2
176
     1
 40
-0.6
176
     1
 41
30.0
176
     1
 62
     5
 63
     7
421
 16777215
176
     1
 74
     1
176
     1
 91
        4
176
     1
 64
     7
176
     1
 65
   257
176
     1
 75
     1
176
     1
175
     1
176
     1
 42
1.0
176
     1
 92
        0
176
     1
 66
   257
176
     1
 43
1.0
176
     1
 76
     1
176
     1
 77
     6
176
     1
 78
     2
176
     1
 67
     7
176
     1
 79
     5
176
     1
170
     0
176
     1
171
     0
176
     1
290
     0
176
     1
 93
       13
176
     1
 44
0.0
176
     1
173
     0
176
     1
  0
VISUALSTYLE
  5
38
102
{ACAD_REACTORS
330
2A
102
}
330
2A
100
AcDbVisualStyle
  2
Linepattern
 70
    14
177
     2
291
     1
 71
     2
176
     1
 72
     2
176
     1
 73
     0
176
     1
 90
        0
176
     1
 40
-0.6
176
     1
 41
-30.0
176
     1
 62
     5
 63
     7
421
 16777215
176
     1
 74
     1
176
     1
 91
        4
176
     1
 64
     7
176
     1
 65
   257
176
     1
 75
     7
176
     1
175
     7
176
     1
 42
1.0
176
     1
 92
        8
176
     1
 66
     7
176
     1
 43
1.0
176
     1
 76
     1
176
     1
 77
     6
176
     1
 78
     2
176
     1
 67
     7
176
     1
 79
     5
176
     1
170
     0
176
     1
171
     0
176
     1
290
     0
176
     1
 93
        1
176
     1
 44
0.0
176
     1
173
     0
176
     1
  0
VISUALSTYLE
  5
33
102
{ACAD_REACTORS
330
2A
102
}
330
2A
100
AcDbVisualStyle
  2
Realistic
 70
     8
177
     2
291
     0
 71
     2
176
     1
 72
     2
176
     1
 73
     0
176
     1
 90
        0
176
     1
 40
-0.6
176
     1
 41
-30.0
176
     1
 62
     5
 63
     7
421
 16777215
176
     1
 74
     1
176
     1
 91
        0
176
     1
 64
     7
176
     1
 65
   257
176
     1
 75
     1
176
     1
175
     1
176
     1
 42
1.0
176
     1
 92
        8
176
     1
 66
     8
424
  7895160
176
     1
 43
1.0
176
     1
 76
     1
176
     1
 77
     6
176
     1
 78
     2
176
     1
 67
     7
176
     1
 79
     5
176
     1
170
     0
176
     1
171
     0
176
     1
290
     0
176
     1
 93
       13
176
     1
 44
0.0
176
     1
173
     0
176
     1
  0
VISUALSTYLE
  5
37
102
{ACAD_REACTORS
330
2A
102
}
330
2A
100
AcDbVisualStyle
  2
Thicken
 70
    13
177
     2
291
     1
 71
     2
176
     1
 72
     2
176
     1
 73
     0
176
     1
 90
        0
176
     1
 40
-0.6
176
     1
 41
-30.0
176
     1
 62
     5
 63
     7
421
 16777215
176
     1
 74
     1
176
     1
 91
        4
176
     1
 64
     7
176
     1
 65
   257
176
     1
 75
     1
176
     1
175
     1
176
     1
 42
1.0
176
     1
 92
       12
176
     1
 66
     7
176
     1
 43
1.0
176
     1
 76
     1
176
     1
 77
     6
176
     1
 78
     2
176
     1
 67
     7
176
     1
 79
     5
176
     1
170
     0
176
     1
171
     0
176
     1
290
     0
176
     1
 93
        1
176
     1
 44
0.0
176
     1
173
     0
176
     1
  0
ENDSEC
  0
EOF
