  0
SECTION
  2
HEADER
  9
$ACADVER
  1
AC1024
  9
$ACADMAINTVER
 70
     6
  9
$DWGCODEPAGE
  3
UNDEFINED
  9
$INSBASE
 10
0.0
 20
0.0
 30
0.0
  9
$EXTMIN
 10
1.000000000000000E+20
 20
1.000000000000000E+20
 30
1.000000000000000E+20
  9
$EXTMAX
 10
-1.000000000000000E+20
 20
-1.000000000000000E+20
 30
-1.000000000000000E+20
  9
$LIMMIN
 10
0.0
 20
0.0
  9
$LIMMAX
 10
12.0
 20
9.0
  9
$ORTHOMODE
 70
     0
  9
$REGENMODE
 70
     1
  9
$FILLMODE
 70
     1
  9
$QTEXTMODE
 70
     0
  9
$MIRRTEXT
 70
     1
  9
$LTSCALE
 40
1.0
  9
$ATTMODE
 70
     1
  9
$TEXTSIZE
 40
0.2
  9
$TRACEWID
 40
0.05
  9
$TEXTSTYLE
  7
Standard
  9
$CLAYER
  8
0
  9
$CELTYPE
  6
ByLayer
  9
$CECOLOR
 62
   256
  9
$CELTSCALE
 40
1.0
  9
$DISPSILH
 70
     0
  9
$DIMSCALE
 40
1.0
  9
$DIMASZ
 40
0.18
  9
$DIMEXO
 40
0.0625
  9
$DIMDLI
 40
0.38
  9
$DIMRND
 40
0.0
  9
$DIMDLE
 40
0.0
  9
$DIMEXE
 40
0.18
  9
$DIMTP
 40
0.0
  9
$DIMTM
 40
0.0
  9
$DIMTXT
 40
0.18
  9
$DIMCEN
 40
0.09
  9
$DIMTSZ
 40
0.0
  9
$DIMTOL
 70
     0
  9
$DIMLIM
 70
     0
  9
$DIMTIH
 70
     1
  9
$DIMTOH
 70
     1
  9
$DIMSE1
 70
     0
  9
$DIMSE2
 70
     0
  9
$DIMTAD
 70
     0
  9
$DIMZIN
 70
     0
  9
$DIMBLK
  1

  9
$DIMASO
 70
     1
  9
$DIMSHO
 70
     1
  9
$DIMPOST
  1

  9
$DIMAPOST
  1

  9
$DIMALT
 70
     0
  9
$DIMALTD
 70
     2
  9
$DIMALTF
 40
25.4
  9
$DIMLFAC
 40
1.0
  9
$DIMTOFL
 70
     0
  9
$DIMTVP
 40
0.0
  9
$DIMTIX
 70
     0
  9
$DIMSOXD
 70
     0
  9
$DIMSAH
 70
     0
  9
$DIMBLK1
  1

  9
$DIMBLK2
  1

  9
$DIMSTYLE
  2
Standard
  9
$DIMCLRD
 70
     0
  9
$DIMCLRE
 70
     0
  9
$DIMCLRT
 70
     0
  9
$DIMTFAC
 40
1.0
  9
$DIMGAP
 40
0.09
  9
$DIMJUST
 70
     0
  9
$DIMSD1
 70
     0
  9
$DIMSD2
 70
     0
  9
$DIMTOLJ
 70
     1
  9
$DIMTZIN
 70
     0
  9
$DIMALTZ
 70
     0
  9
$DIMALTTZ
 70
     0
  9
$DIMUPT
 70
     0
  9
$DIMDEC
 70
     4
  9
$DIMTDEC
 70
     4
  9
$DIMALTU
 70
     2
  9
$DIMALTTD
 70
     2
  9
$DIMTXSTY
  7
Standard
  9
$DIMAUNIT
 70
     0
  9
$DIMADEC
 70
     0
  9
$DIMALTRND
 40
0.0
  9
$DIMAZIN
 70
     0
  9
$DIMDSEP
 70
    46
  9
$DIMATFIT
 70
     3
  9
$DIMFRAC
 70
     0
  9
$DIMLDRBLK
  1

  9
$DIMLUNIT
 70
     2
  9
$DIMLWD
 70
    -2
  9
$DIMLWE
 70
    -2
  9
$DIMTMOVE
 70
     0
  9
$DIMFXL
 40
1.0
  9
$DIMFXLON
 70
     0
  9
$DIMJOGANG
 40
0.7853981633974483
  9
$DIMTFILL
 70
     0
  9
$DIMTFILLCLR
 70
     0
  9
$DIMARCSYM
 70
     0
  9
$DIMLTYPE
  6

  9
$DIMLTEX1
  6

  9
$DIMLTEX2
  6

  9
$DIMTXTDIRECTION
 70
     0
  9
$LUNITS
 70
     2
  9
$LUPREC
 70
     4
  9
$SKETCHINC
 40
0.1
  9
$FILLETRAD
 40
0.5
  9
$AUNITS
 70
     0
  9
$AUPREC
 70
     0
  9
$MENU
  1
.
  9
$ELEVATION
 40
0.0
  9
$PELEVATION
 40
0.0
  9
$THICKNESS
 40
0.0
  9
$LIMCHECK
 70
     0
  9
$CHAMFERA
 40
0.5
  9
$CHAMFERB
 40
0.5
  9
$CHAMFERC
 40
1.0
  9
$CHAMFERD
 40
0.0
  9
$SKPOLY
 70
     0
  9
$TDCREATE
 40
2457917.627997685
  9
$TDUCREATE
 40
2457917.252997685
  9
$TDUPDATE
 40
2457917.627997685
  9
$TDUUPDATE
 40
2457917.252997685
  9
$TDINDWG
 40
0.0000000116
  9
$TDUSRTIMER
 40
0.0000000116
  9
$USRTIMER
 70
     1
  9
$ANGBASE
 50
0.0
  9
$ANGDIR
 70
     0
  9
$PDMODE
 70
     0
  9
$PDSIZE
 40
0.0
  9
$PLINEWID
 40
0.0
  9
$SPLFRAME
 70
     0
  9
$SPLINETYPE
 70
     6
  9
$SPLINESEGS
 70
     8
  9
$HANDSEED
  5
F9
  9
$SURFTAB1
 70
     6
  9
$SURFTAB2
 70
     6
  9
$SURFTYPE
 70
     6
  9
$SURFU
 70
     6
  9
$SURFV
 70
     6
  9
$UCSBASE
  2

  9
$UCSNAME
  2

  9
$UCSORG
 10
0.0
 20
0.0
 30
0.0
  9
$UCSXDIR
 10
1.0
 20
0.0
 30
0.0
  9
$UCSYDIR
 10
0.0
 20
1.0
 30
0.0
  9
$UCSORTHOREF
  2

  9
$UCSORTHOVIEW
 70
     0
  9
$UCSORGTOP
 10
0.0
 20
0.0
 30
0.0
  9
$UCSORGBOTTOM
 10
0.0
 20
0.0
 30
0.0
  9
$UCSORGLEFT
 10
0.0
 20
0.0
 30
0.0
  9
$UCSORGRIGHT
 10
0.0
 20
0.0
 30
0.0
  9
$UCSORGFRONT
 10
0.0
 20
0.0
 30
0.0
  9
$UCSORGBACK
 10
0.0
 20
0.0
 30
0.0
  9
$PUCSBASE
  2

  9
$PUCSNAME
  2

  9
$PUCSORG
 10
0.0
 20
0.0
 30
0.0
  9
$PUCSXDIR
 10
1.0
 20
0.0
 30
0.0
  9
$PUCSYDIR
 10
0.0
 20
1.0
 30
0.0
  9
$PUCSORTHOREF
  2

  9
$PUCSORTHOVIEW
 70
     0
  9
$PUCSORGTOP
 10
0.0
 20
0.0
 30
0.0
  9
$PUCSORGBOTTOM
 10
0.0
 20
0.0
 30
0.0
  9
$PUCSORGLEFT
 10
0.0
 20
0.0
 30
0.0
  9
$PUCSORGRIGHT
 10
0.0
 20
0.0
 30
0.0
  9
$PUCSORGFRONT
 10
0.0
 20
0.0
 30
0.0
  9
$PUCSORGBACK
 10
0.0
 20
0.0
 30
0.0
  9
$USERI1
 70
     0
  9
$USERI2
 70
     0
  9
$USERI3
 70
     0
  9
$USERI4
 70
     0
  9
$USERI5
 70
     0
  9
$USERR1
 40
0.0
  9
$USERR2
 40
0.0
  9
$USERR3
 40
0.0
  9
$USERR4
 40
0.0
  9
$USERR5
 40
0.0
  9
$WORLDVIEW
 70
     1
  9
$SHADEDGE
 70
     3
  9
$SHADEDIF
 70
    70
  9
$TILEMODE
 70
     1
  9
$MAXACTVP
 70
    64
  9
$PINSBASE
 10
0.0
 20
0.0
 30
0.0
  9
$PLIMCHECK
 70
     0
  9
$PEXTMIN
 10
1.000000000000000E+20
 20
1.000000000000000E+20
 30
1.000000000000000E+20
  9
$PEXTMAX
 10
-1.000000000000000E+20
 20
-1.000000000000000E+20
 30
-1.000000000000000E+20
  9
$PLIMMIN
 10
0.0
 20
0.0
  9
$PLIMMAX
 10
12.0
 20
9.0
  9
$UNITMODE
 70
     0
  9
$VISRETAIN
 70
     1
  9
$PLINEGEN
 70
     0
  9
$PSLTSCALE
 70
     1
  9
$TREEDEPTH
 70
  3020
  9
$CMLSTYLE
  2
Standard
  9
$CMLJUST
 70
     0
  9
$CMLSCALE
 40
1.0
  9
$PROXYGRAPHICS
 70
     1
  9
$MEASUREMENT
 70
     0
  9
$CELWEIGHT
370
    -1
  9
$ENDCAPS
280
     0
  9
$JOINSTYLE
280
     0
  9
$LWDISPLAY
290
     1
  9
$INSUNITS
 70
     1
  9
$HYPERLINKBASE
  1

  9
$STYLESHEET
  1

  9
$XEDIT
290
     1
  9
$CEPSNTYPE
380
     0
  9
$PSTYLEMODE
290
     1
  9
$FINGERPRINTGUID
  2
{6E6963BE-3604-F8B0-2C5E-E2864B938D2B}
  9
$VERSIONGUID
  2
{FAEB1C32-E019-11D5-929B-00C0DF256EC4}
  9
$EXTNAMES
290
     1
  9
$PSVPSCALE
 40
0.0
  9
$OLESTARTUP
290
     0
  9
$SORTENTS
280
   127
  9
$INDEXCTL
280
     0
  9
$HIDETEXT
280
     1
  9
$XCLIPFRAME
280
     2
  9
$HALOGAP
280
     0
  9
$OBSCOLOR
 70
   257
  9
$OBSLTYPE
280
     0
  9
$INTERSECTIONDISPLAY
280
     0
  9
$INTERSECTIONCOLOR
 70
   257
  9
$DIMASSOC
280
     2
  9
$PROJECTNAME
  1

  9
$CAMERADISPLAY
290
     0
  9
$LENSLENGTH
 40
50.0
  9
$CAMERAHEIGHT
 40
0.0
  9
$STEPSPERSEC
 40
2.0
  9
$STEPSIZE
 40
6.0
  9
$3DDWFPREC
 40
2.0
  9
$PSOLWIDTH
 40
0.25
  9
$PSOLHEIGHT
 40
4.0
  9
$LOFTANG1
 40
1.570796326794897
  9
$LOFTANG2
 40
1.570796326794897
  9
$LOFTMAG1
 40
0.0
  9
$LOFTMAG2
 40
0.0
  9
$LOFTPARAM
 70
     7
  9
$LOFTNORMALS
280
     1
  9
$LATITUDE
 40
37.795
  9
$LONGITUDE
 40
-122.394
  9
$NORTHDIRECTION
 40
0.0
  9
$TIMEZONE
 70
 -8000
  9
$LIGHTGLYPHDISPLAY
280
     1
  9
$TILEMODELIGHTSYNCH
280
     1
  9
$CMATERIAL
347
3C
  9
$SOLIDHIST
280
     1
  9
$SHOWHIST
280
     1
  9
$DWFFRAME
280
     2
  9
$DGNFRAME
280
     2
  9
$REALWORLDSCALE
290
     1
  9
$INTERFERECOLOR
 62
   256
  9
$CSHADOW
280
     0
  9
$SHADOWPLANELOCATION
 40
0.0
  0
ENDSEC
  0
SECTION
  2
CLASSES
  0
CLASS
  1
ACDBDICTIONARYWDFLT
  2
AcDbDictionaryWithDefault
  3
ObjectDBX Classes
 90
        0
 91
        4
280
     0
281
     0
  0
CLASS
  1
VISUALSTYLE
  2
AcDbVisualStyle
  3
ObjectDBX Classes
 90
     4095
 91
        4
280
     0
281
     0
  0
CLASS
  1
MATERIAL
  2
AcDbMaterial
  3
ObjectDBX Classes
 90
     1153
 91
        4
280
     0
281
     0
  0
CLASS
  1
SUN
  2
AcDbSun
  3
SCENEOE
 90
     1024
 91
        4
280
     0
281
     0
  0
ENDSEC
  0
SECTION
  2
TABLES
  0
TABLE
  2
VPORT
  5
8
330
0
100
AcDbSymbolTable
 70
     1
  0
VPORT
  5
29
330
8
100
AcDbSymbolTableRecord
100
AcDbViewportTableRecord
  2
*Active
 70
     0
 10
0.0
 20
0.0
 11
1.0
 21
1.0
 12
0.0
 22
0.0
 13
0.0
 23
0.0
 14
0.5
 24
0.5
 15
0.5
 25
0.5
 16
0.0
 26
0.0
 36
1.0
 17
91.00082462281999
 27
-128.4993055234307
 37
0.0
 40
256.9986110468615
 41
0.7081814508812795
 42
50.0
 43
0.0
 44
0.0
 50
0.0
 51
0.0
 71
     0
 72
   100
 73
     1
 74
     3
 75
     0
 76
     0
 77
     0
 78
     0
281
     0
 65
     1
110
0.0
120
0.0
130
0.0
111
1.0
121
0.0
131
0.0
112
0.0
122
1.0
132
0.0
 79
     0
146
0.0
 60
     3
 61
     5
292
     1
282
     1
141
0.0
142
0.0
 63
   250
361
3F
  0
ENDTAB
  0
TABLE
  2
LTYPE
  5
5
330
0
100
AcDbSymbolTable
 70
     1
  0
LTYPE
  5
14
330
5
100
AcDbSymbolTableRecord
100
AcDbLinetypeTableRecord
  2
ByBlock
 70
     0
  3

 72
    65
 73
     0
 40
0.0
  0
LTYPE
  5
15
330
5
100
AcDbSymbolTableRecord
100
AcDbLinetypeTableRecord
  2
ByLayer
 70
     0
  3

 72
    65
 73
     0
 40
0.0
  0
LTYPE
  5
16
330
5
100
AcDbSymbolTableRecord
100
AcDbLinetypeTableRecord
  2
Continuous
 70
     0
  3
Solid line
 72
    65
 73
     0
 40
0.0
  0
ENDTAB
  0
TABLE
  2
LAYER
  5
2
330
0
100
AcDbSymbolTable
 70
     2
  0
LAYER
  5
10
330
2
100
AcDbSymbolTableRecord
100
AcDbLayerTableRecord
  2
0
 70
     0
 62
     7
  6
Continuous
370
    -3
390
F
347
3E
  0
LAYER
  5
40
330
2
100
AcDbSymbolTableRecord
100
AcDbLayerTableRecord
  2
_U+30EC_U+30A4_U+30E4_U+30FC 1
 70
     0
 62
     7
  6
Continuous
370
    -3
390
F
347
3E
  0
ENDTAB
  0
TABLE
  2
STYLE
  5
3
330
0
100
AcDbSymbolTable
 70
     1
  0
STYLE
  5
11
330
3
100
AcDbSymbolTableRecord
100
AcDbTextStyleTableRecord
  2
Standard
 70
     0
 40
0.0
 41
1.0
 50
0.0
 71
     0
 42
0.2
  3
txt
  4

  0
ENDTAB
  0
TABLE
  2
VIEW
  5
6
330
0
100
AcDbSymbolTable
 70
     0
  0
ENDTAB
  0
TABLE
  2
UCS
  5
7
330
0
100
AcDbSymbolTable
 70
     0
  0
ENDTAB
  0
TABLE
  2
APPID
  5
9
330
0
100
AcDbSymbolTable
 70
     1
  0
APPID
  5
12
330
9
100
AcDbSymbolTableRecord
100
AcDbRegAppTableRecord
  2
ACAD
 70
     0
  0
ENDTAB
  0
TABLE
  2
DIMSTYLE
  5
A
330
0
100
AcDbSymbolTable
 70
     1
100
AcDbDimStyleTable
  0
DIMSTYLE
105
27
330
A
100
AcDbSymbolTableRecord
100
AcDbDimStyleTableRecord
  2
Standard
 70
     0
178
     0
340
11
  0
ENDTAB
  0
TABLE
  2
BLOCK_RECORD
  5
1
330
0
100
AcDbSymbolTable
 70
     5
  0
BLOCK_RECORD
  5
1F
330
1
100
AcDbSymbolTableRecord
100
AcDbBlockTableRecord
  2
*Model_Space
340
22
 70
     0
280
     1
281
     0
  0
BLOCK_RECORD
  5
1B
330
1
100
AcDbSymbolTableRecord
100
AcDbBlockTableRecord
  2
*Paper_Space
340
1E
 70
     0
280
     1
281
     0
  0
BLOCK_RECORD
  5
23
330
1
100
AcDbSymbolTableRecord
100
AcDbBlockTableRecord
  2
*Paper_Space0
340
26
 70
     0
280
     1
281
     0
  0
BLOCK_RECORD
  5
9D
330
1
100
AcDbSymbolTableRecord
100
AcDbBlockTableRecord
  2
block 2
340
0
102
{BLKREFS
331
9E
102
}
 70
     0
280
     1
281
     0
  0
BLOCK_RECORD
  5
B4
330
1
100
AcDbSymbolTableRecord
100
AcDbBlockTableRecord
  2
block 3
340
0
102
{BLKREFS
331
B5
102
}
 70
     0
280
     1
281
     0
  0
BLOCK_RECORD
  5
CB
330
1
100
AcDbSymbolTableRecord
100
AcDbBlockTableRecord
  2
block 4
340
0
102
{BLKREFS
331
CC
102
}
 70
     0
280
     1
281
     0
  0
BLOCK_RECORD
  5
EC
330
1
100
AcDbSymbolTableRecord
100
AcDbBlockTableRecord
  2
block 5
340
0
102
{BLKREFS
331
ED
102
}
 70
     0
280
     1
281
     0
  0
ENDTAB
  0
ENDSEC
  0
SECTION
  2
BLOCKS
  0
BLOCK
  5
20
330
1F
100
AcDbEntity
  8
0
100
AcDbBlockBegin
  2
*Model_Space
 70
     0
 10
0.0
 20
0.0
 30
0.0
  3
*Model_Space
  1

  0
ENDBLK
  5
21
330
1F
100
AcDbEntity
  8
0
100
AcDbBlockEnd
  0
BLOCK
  5
1C
330
1B
100
AcDbEntity
 67
     1
  8
0
100
AcDbBlockBegin
  2
*Paper_Space
 70
     0
 10
0.0
 20
0.0
 30
0.0
  3
*Paper_Space
  1

  0
ENDBLK
  5
1D
330
1B
100
AcDbEntity
 67
     1
  8
0
100
AcDbBlockEnd
  0
BLOCK
  5
24
330
23
100
AcDbEntity
  8
0
100
AcDbBlockBegin
  2
*Paper_Space0
 70
     0
 10
0.0
 20
0.0
 30
0.0
  3
*Paper_Space0
  1

  0
ENDBLK
  5
25
330
23
100
AcDbEntity
  8
0
100
AcDbBlockEnd
  0
BLOCK
  5
9F
330
9D
100
AcDbEntity
  8
0
100
AcDbBlockBegin
  2
block 2
 70
     0
 10
0.0
 20
0.0
 30
0.0
  3
block 2
  1

  0
SPLINE
  5
A1
330
9D
100
AcDbEntity
  8
_U+30EC_U+30A4_U+30E4_U+30FC 1
370
     0
100
AcDbSpline
210
0.0
220
0.0
230
1.0
 70
    11
 71
     3
 72
    29
 73
    25
 74
     0
 42
0.0000000001
 43
0.0000000001
 12
1.0
 22
0.0
 32
0.0
 13
1.0
 23
0.0
 33
0.0
 40
0.0
 40
0.0
 40
0.0
 40
0.0
 40
1.0
 40
1.0
 40
1.0
 40
2.0
 40
2.0
 40
2.0
 40
3.0
 40
3.0
 40
3.0
 40
4.0
 40
4.0
 40
4.0
 40
5.0
 40
5.0
 40
5.0
 40
6.0
 40
6.0
 40
6.0
 40
7.0
 40
7.0
 40
7.0
 40
8.0
 40
8.0
 40
8.0
 40
8.0
 10
101.4570285119621
 20
-99.12711043528768
 30
0.0
 10
101.4570285119621
 20
-99.393760825846
 30
0.0
 10
101.3195692021007
 20
-99.64766436310892
 30
0.0
 10
100.9705810294449
 20
-99.64766436310892
 30
0.0
 10
100.7146104348908
 20
-99.64766436310892
 30
0.0
 10
100.6191812899494
 20
-99.50589868389089
 30
0.0
 10
100.5578585903119
 20
-99.40013425249371
 30
0.0
 10
100.4986029479656
 20
-99.52484670905976
 30
0.0
 10
100.3845702874039
 20
-99.60098331928378
 30
0.0
 10
100.2236843282427
 20
-99.60098331928378
 30
0.0
 10
99.94876570851976
 20
-99.60098331928378
 30
0.0
 10
99.81337345594945
 20
-99.40220130978487
 30
0.0
 10
99.81337345594945
 20
-99.12711043528768
 30
0.0
 10
99.81337345594945
 20
-98.84375133162587
 30
0.0
 10
99.95703393768436
 20
-98.65323755129155
 30
0.0
 10
100.2236843282427
 20
-98.65323755129155
 30
0.0
 10
100.3845702874039
 20
-98.65323755129155
 30
0.0
 10
100.4986029479656
 20
-98.73161347358099
 30
0.0
 10
100.5578585903119
 20
-98.85632593014704
 30
0.0
 10
100.6088460034936
 20
-98.76761472140186
 30
0.0
 10
100.7039306388865
 20
-98.60896807430609
 30
0.0
 10
100.966102405314
 20
-98.60896807430609
 30
0.0
 10
101.3405842845607
 20
-98.60896807430609
 30
0.0
 10
101.4570285119621
 20
-98.8881930633856
 30
0.0
 10
101.4570285119621
 20
-99.12711043528768
 30
0.0
  0
SPLINE
  5
A2
330
9D
100
AcDbEntity
  8
_U+30EC_U+30A4_U+30E4_U+30FC 1
370
     0
100
AcDbSpline
210
0.0
220
0.0
230
1.0
 70
    11
 71
     3
 72
    17
 73
    13
 74
     0
 42
0.0000000001
 43
0.0000000001
 12
1.0
 22
0.0
 32
0.0
 13
1.0
 23
0.0
 33
0.0
 40
0.0
 40
0.0
 40
0.0
 40
0.0
 40
1.0
 40
1.0
 40
1.0
 40
2.0
 40
2.0
 40
2.0
 40
3.0
 40
3.0
 40
3.0
 40
4.0
 40
4.0
 40
4.0
 40
4.0
 10
100.0056097840264
 20
-99.12711043528768
 30
0.0
 10
100.0056097840264
 20
-99.29213050903114
 30
0.0
 10
100.1010389289678
 20
-99.37687985796829
 30
0.0
 10
100.2364311815381
 20
-99.37687985796829
 30
0.0
 10
100.359076580813
 20
-99.37687985796829
 30
0.0
 10
100.4775878655056
 20
-99.30487736232656
 30
0.0
 10
100.4775878655056
 20
-99.12711043528768
 30
0.0
 10
100.4775878655056
 20
-98.94951576302304
 30
0.0
 10
100.359076580813
 20
-98.87751326738132
 30
0.0
 10
100.2364311815381
 20
-98.87751326738132
 30
0.0
 10
100.1010389289678
 20
-98.87751326738132
 30
0.0
 10
100.0056097840264
 20
-98.96432967360961
 30
0.0
 10
100.0056097840264
 20
-99.12711043528768
 30
0.0
  0
SPLINE
  5
A3
330
9D
100
AcDbEntity
  8
_U+30EC_U+30A4_U+30E4_U+30FC 1
370
     0
100
AcDbSpline
210
0.0
220
0.0
230
1.0
 70
    11
 71
     3
 72
    17
 73
    13
 74
     0
 42
0.0000000001
 43
0.0000000001
 12
1.0
 22
0.0
 32
0.0
 13
1.0
 23
0.0
 33
0.0
 40
0.0
 40
0.0
 40
0.0
 40
0.0
 40
1.0
 40
1.0
 40
1.0
 40
2.0
 40
2.0
 40
2.0
 40
3.0
 40
3.0
 40
3.0
 40
4.0
 40
4.0
 40
4.0
 40
4.0
 10
100.6656900790002
 20
-99.12711043528768
 30
0.0
 10
100.6656900790002
 20
-99.27111542657111
 30
0.0
 10
100.7525064852286
 20
-99.42338864701915
 30
0.0
 10
100.9557671188583
 20
-99.42338864701915
 30
0.0
 10
101.1607503002306
 20
-99.42338864701915
 30
0.0
 10
101.2623806170455
 20
-99.2964368783877
 30
0.0
 10
101.2623806170455
 20
-99.12711043528768
 30
0.0
 10
101.2623806170455
 20
-98.94107527908417
 30
0.0
 10
101.1397352177706
 20
-98.83100447833044
 30
0.0
 10
100.9619682907317
 20
-98.83100447833044
 30
0.0
 10
100.7397596319331
 20
-98.83100447833044
 30
0.0
 10
100.6656900790002
 20
-98.99395749478276
 30
0.0
 10
100.6656900790002
 20
-99.12711043528768
 30
0.0
  0
HATCH
  5
A4
330
9D
100
AcDbEntity
  8
_U+30EC_U+30A4_U+30E4_U+30FC 1
 62
   179
420
  2234388
100
AcDbHatch
 10
0.0
 20
0.0
 30
0.0
210
0.0
220
0.0
230
1.0
  2
SOLID
 70
     1
 71
     0
 91
        3
 92
        1
 93
        1
 72
     4
 94
        3
 73
     0
 74
     1
 95
       29
 96
       25
 40
0.0
 40
0.0
 40
0.0
 40
0.0
 40
1.0
 40
1.0
 40
1.0
 40
2.0
 40
2.0
 40
2.0
 40
3.0
 40
3.0
 40
3.0
 40
4.0
 40
4.0
 40
4.0
 40
5.0
 40
5.0
 40
5.0
 40
6.0
 40
6.0
 40
6.0
 40
7.0
 40
7.0
 40
7.0
 40
8.0
 40
8.0
 40
8.0
 40
8.0
 10
101.4570285119621
 20
-99.12711043528768
 10
101.4570285119621
 20
-99.393760825846
 10
101.3195692021007
 20
-99.64766436310892
 10
100.9705810294449
 20
-99.64766436310892
 10
100.7146104348908
 20
-99.64766436310892
 10
100.6191812899494
 20
-99.50589868389089
 10
100.5578585903119
 20
-99.40013425249371
 10
100.4986029479656
 20
-99.52484670905976
 10
100.3845702874039
 20
-99.60098331928378
 10
100.2236843282427
 20
-99.60098331928378
 10
99.94876570851976
 20
-99.60098331928378
 10
99.81337345594945
 20
-99.40220130978487
 10
99.81337345594945
 20
-99.12711043528768
 10
99.81337345594945
 20
-98.84375133162587
 10
99.95703393768436
 20
-98.65323755129155
 10
100.2236843282427
 20
-98.65323755129155
 10
100.3845702874039
 20
-98.65323755129155
 10
100.4986029479656
 20
-98.73161347358099
 10
100.5578585903119
 20
-98.85632593014704
 10
100.6088460034936
 20
-98.76761472140186
 10
100.7039306388865
 20
-98.60896807430609
 10
100.966102405314
 20
-98.60896807430609
 10
101.3405842845607
 20
-98.60896807430609
 10
101.4570285119621
 20
-98.8881930633856
 10
101.4570285119621
 20
-99.12711043528768
 97
        0
 97
        0
 92
        1
 93
        1
 72
     4
 94
        3
 73
     0
 74
     1
 95
       17
 96
       13
 40
0.0
 40
0.0
 40
0.0
 40
0.0
 40
1.0
 40
1.0
 40
1.0
 40
2.0
 40
2.0
 40
2.0
 40
3.0
 40
3.0
 40
3.0
 40
4.0
 40
4.0
 40
4.0
 40
4.0
 10
100.0056097840264
 20
-99.12711043528768
 10
100.0056097840264
 20
-99.29213050903114
 10
100.1010389289678
 20
-99.37687985796829
 10
100.2364311815381
 20
-99.37687985796829
 10
100.359076580813
 20
-99.37687985796829
 10
100.4775878655056
 20
-99.30487736232656
 10
100.4775878655056
 20
-99.12711043528768
 10
100.4775878655056
 20
-98.94951576302304
 10
100.359076580813
 20
-98.87751326738132
 10
100.2364311815381
 20
-98.87751326738132
 10
100.1010389289678
 20
-98.87751326738132
 10
100.0056097840264
 20
-98.96432967360961
 10
100.0056097840264
 20
-99.12711043528768
 97
        0
 97
        0
 92
        1
 93
        1
 72
     4
 94
        3
 73
     0
 74
     1
 95
       17
 96
       13
 40
0.0
 40
0.0
 40
0.0
 40
0.0
 40
1.0
 40
1.0
 40
1.0
 40
2.0
 40
2.0
 40
2.0
 40
3.0
 40
3.0
 40
3.0
 40
4.0
 40
4.0
 40
4.0
 40
4.0
 10
100.6656900790002
 20
-99.12711043528768
 10
100.6656900790002
 20
-99.27111542657111
 10
100.7525064852286
 20
-99.42338864701915
 10
100.9557671188583
 20
-99.42338864701915
 10
101.1607503002306
 20
-99.42338864701915
 10
101.2623806170455
 20
-99.2964368783877
 10
101.2623806170455
 20
-99.12711043528768
 10
101.2623806170455
 20
-98.94107527908417
 10
101.1397352177706
 20
-98.83100447833044
 10
100.9619682907317
 20
-98.83100447833044
 10
100.7397596319331
 20
-98.83100447833044
 10
100.6656900790002
 20
-98.99395749478276
 10
100.6656900790002
 20
-99.12711043528768
 97
        0
 97
        0
 75
     2
 76
     1
 98
        0
  0
ENDBLK
  5
A0
330
9D
100
AcDbEntity
  8
0
100
AcDbBlockEnd
  0
BLOCK
  5
B6
330
B4
100
AcDbEntity
  8
0
100
AcDbBlockBegin
  2
block 3
 70
     0
 10
0.0
 20
0.0
 30
0.0
  3
block 3
  1

  0
SPLINE
  5
B8
330
B4
100
AcDbEntity
  8
_U+30EC_U+30A4_U+30E4_U+30FC 1
370
     0
100
AcDbSpline
210
0.0
220
0.0
230
1.0
 70
    11
 71
     3
 72
    26
 73
    22
 74
     0
 42
0.0000000001
 43
0.0000000001
 12
1.0
 22
0.0
 32
0.0
 13
1.0
 23
0.0
 33
0.0
 40
0.0
 40
0.0
 40
0.0
 40
0.0
 40
1.0
 40
1.0
 40
1.0
 40
2.0
 40
2.0
 40
2.0
 40
3.0
 40
3.0
 40
3.0
 40
4.0
 40
4.0
 40
4.0
 40
5.0
 40
5.0
 40
5.0
 40
6.0
 40
6.0
 40
6.0
 40
7.0
 40
7.0
 40
7.0
 40
7.0
 10
91.6412624553883
 20
-90.7539781131622
 30
0.0
 10
91.6412624553883
 20
-90.7539781131622
 30
0.0
 10
91.6412624553883
 20
-89.64965275536537
 30
0.0
 10
91.6412624553883
 20
-89.64965275536537
 30
0.0
 10
91.6412624553883
 20
-89.64965275536537
 30
0.0
 10
91.31139456267563
 20
-89.64965275536537
 30
0.0
 10
91.31139456267563
 20
-89.64965275536537
 30
0.0
 10
91.31139456267563
 20
-89.64965275536537
 30
0.0
 10
91.31139456267563
 20
-89.50168590427388
 30
0.0
 10
91.31139456267563
 20
-89.50168590427388
 30
0.0
 10
91.64332951267944
 20
-89.48687199368732
 30
0.0
 10
91.69018281127885
 20
-89.323918977235
 30
0.0
 10
91.71946612290347
 20
-89.20971406189896
 30
0.0
 10
91.71946612290347
 20
-89.20971406189896
 30
0.0
 10
91.86553817147806
 20
-89.20971406189896
 30
0.0
 10
91.86553817147806
 20
-89.20971406189896
 30
0.0
 10
91.86553817147806
 20
-89.20971406189896
 30
0.0
 10
91.86553817147806
 20
-90.7539781131622
 30
0.0
 10
91.86553817147806
 20
-90.7539781131622
 30
0.0
 10
91.86553817147806
 20
-90.7539781131622
 30
0.0
 10
91.6412624553883
 20
-90.7539781131622
 30
0.0
 10
91.6412624553883
 20
-90.7539781131622
 30
0.0
  0
HATCH
  5
B9
330
B4
100
AcDbEntity
  8
_U+30EC_U+30A4_U+30E4_U+30FC 1
 62
   179
420
  2234388
100
AcDbHatch
 10
0.0
 20
0.0
 30
0.0
210
0.0
220
0.0
230
1.0
  2
SOLID
 70
     1
 71
     0
 91
        1
 92
        1
 93
        1
 72
     4
 94
        3
 73
     0
 74
     1
 95
       26
 96
       22
 40
0.0
 40
0.0
 40
0.0
 40
0.0
 40
1.0
 40
1.0
 40
1.0
 40
2.0
 40
2.0
 40
2.0
 40
3.0
 40
3.0
 40
3.0
 40
4.0
 40
4.0
 40
4.0
 40
5.0
 40
5.0
 40
5.0
 40
6.0
 40
6.0
 40
6.0
 40
7.0
 40
7.0
 40
7.0
 40
7.0
 10
91.6412624553883
 20
-90.7539781131622
 10
91.6412624553883
 20
-90.7539781131622
 10
91.6412624553883
 20
-89.64965275536537
 10
91.6412624553883
 20
-89.64965275536537
 10
91.6412624553883
 20
-89.64965275536537
 10
91.31139456267563
 20
-89.64965275536537
 10
91.31139456267563
 20
-89.64965275536537
 10
91.31139456267563
 20
-89.64965275536537
 10
91.31139456267563
 20
-89.50168590427388
 10
91.31139456267563
 20
-89.50168590427388
 10
91.64332951267944
 20
-89.48687199368732
 10
91.69018281127885
 20
-89.323918977235
 10
91.71946612290347
 20
-89.20971406189896
 10
91.71946612290347
 20
-89.20971406189896
 10
91.86553817147806
 20
-89.20971406189896
 10
91.86553817147806
 20
-89.20971406189896
 10
91.86553817147806
 20
-89.20971406189896
 10
91.86553817147806
 20
-90.7539781131622
 10
91.86553817147806
 20
-90.7539781131622
 10
91.86553817147806
 20
-90.7539781131622
 10
91.6412624553883
 20
-90.7539781131622
 10
91.6412624553883
 20
-90.7539781131622
 97
        0
 97
        0
 75
     2
 76
     1
 98
        0
  0
SPLINE
  5
BA
330
B4
100
AcDbEntity
  8
_U+30EC_U+30A4_U+30E4_U+30FC 1
370
     0
100
AcDbSpline
210
0.0
220
0.0
230
1.0
 70
    11
 71
     3
 72
    26
 73
    22
 74
     0
 42
0.0000000001
 43
0.0000000001
 12
1.0
 22
0.0
 32
0.0
 13
1.0
 23
0.0
 33
0.0
 40
0.0
 40
0.0
 40
0.0
 40
0.0
 40
1.0
 40
1.0
 40
1.0
 40
2.0
 40
2.0
 40
2.0
 40
3.0
 40
3.0
 40
3.0
 40
4.0
 40
4.0
 40
4.0
 40
5.0
 40
5.0
 40
5.0
 40
6.0
 40
6.0
 40
6.0
 40
7.0
 40
7.0
 40
7.0
 40
7.0
 10
92.81810707314965
 20
-90.7539781131622
 30
0.0
 10
92.81810707314965
 20
-90.7539781131622
 30
0.0
 10
92.81810707314965
 20
-89.64965275536537
 30
0.0
 10
92.81810707314965
 20
-89.64965275536537
 30
0.0
 10
92.81810707314965
 20
-89.64965275536537
 30
0.0
 10
92.48806692566271
 20
-89.64965275536537
 30
0.0
 10
92.48806692566271
 20
-89.64965275536537
 30
0.0
 10
92.48806692566271
 20
-89.64965275536537
 30
0.0
 10
92.48806692566271
 20
-89.50168590427388
 30
0.0
 10
92.48806692566271
 20
-89.50168590427388
 30
0.0
 10
92.82051863998932
 20
-89.48687199368732
 30
0.0
 10
92.86702742904019
 20
-89.323918977235
 30
0.0
 10
92.89665525021334
 20
-89.20971406189896
 30
0.0
 10
92.89665525021334
 20
-89.20971406189896
 30
0.0
 10
93.04238278923941
 20
-89.20971406189896
 30
0.0
 10
93.04238278923941
 20
-89.20971406189896
 30
0.0
 10
93.04238278923941
 20
-89.20971406189896
 30
0.0
 10
93.04238278923941
 20
-90.7539781131622
 30
0.0
 10
93.04238278923941
 20
-90.7539781131622
 30
0.0
 10
93.04238278923941
 20
-90.7539781131622
 30
0.0
 10
92.81810707314965
 20
-90.7539781131622
 30
0.0
 10
92.81810707314965
 20
-90.7539781131622
 30
0.0
  0
HATCH
  5
BB
330
B4
100
AcDbEntity
  8
_U+30EC_U+30A4_U+30E4_U+30FC 1
 62
   179
420
  2234388
100
AcDbHatch
 10
0.0
 20
0.0
 30
0.0
210
0.0
220
0.0
230
1.0
  2
SOLID
 70
     1
 71
     0
 91
        1
 92
        1
 93
        1
 72
     4
 94
        3
 73
     0
 74
     1
 95
       26
 96
       22
 40
0.0
 40
0.0
 40
0.0
 40
0.0
 40
1.0
 40
1.0
 40
1.0
 40
2.0
 40
2.0
 40
2.0
 40
3.0
 40
3.0
 40
3.0
 40
4.0
 40
4.0
 40
4.0
 40
5.0
 40
5.0
 40
5.0
 40
6.0
 40
6.0
 40
6.0
 40
7.0
 40
7.0
 40
7.0
 40
7.0
 10
92.81810707314965
 20
-90.7539781131622
 10
92.81810707314965
 20
-90.7539781131622
 10
92.81810707314965
 20
-89.64965275536537
 10
92.81810707314965
 20
-89.64965275536537
 10
92.81810707314965
 20
-89.64965275536537
 10
92.48806692566271
 20
-89.64965275536537
 10
92.48806692566271
 20
-89.64965275536537
 10
92.48806692566271
 20
-89.64965275536537
 10
92.48806692566271
 20
-89.50168590427388
 10
92.48806692566271
 20
-89.50168590427388
 10
92.82051863998932
 20
-89.48687199368732
 10
92.86702742904019
 20
-89.323918977235
 10
92.89665525021334
 20
-89.20971406189896
 10
92.89665525021334
 20
-89.20971406189896
 10
93.04238278923941
 20
-89.20971406189896
 10
93.04238278923941
 20
-89.20971406189896
 10
93.04238278923941
 20
-89.20971406189896
 10
93.04238278923941
 20
-90.7539781131622
 10
93.04238278923941
 20
-90.7539781131622
 10
93.04238278923941
 20
-90.7539781131622
 10
92.81810707314965
 20
-90.7539781131622
 10
92.81810707314965
 20
-90.7539781131622
 97
        0
 97
        0
 75
     2
 76
     1
 98
        0
  0
ENDBLK
  5
B7
330
B4
100
AcDbEntity
  8
0
100
AcDbBlockEnd
  0
BLOCK
  5
CD
330
CB
100
AcDbEntity
  8
0
100
AcDbBlockBegin
  2
block 4
 70
     0
 10
0.0
 20
0.0
 30
0.0
  3
block 4
  1

  0
SPLINE
  5
CF
330
CB
100
AcDbEntity
  8
_U+30EC_U+30A4_U+30E4_U+30FC 1
370
     0
100
AcDbSpline
210
0.0
220
0.0
230
1.0
 70
    11
 71
     3
 72
    62
 73
    58
 74
     0
 42
0.0000000001
 43
0.0000000001
 12
1.0
 22
0.0
 32
0.0
 13
1.0
 23
0.0
 33
0.0
 40
0.0
 40
0.0
 40
0.0
 40
0.0
 40
1.0
 40
1.0
 40
1.0
 40
2.0
 40
2.0
 40
2.0
 40
3.0
 40
3.0
 40
3.0
 40
4.0
 40
4.0
 40
4.0
 40
5.0
 40
5.0
 40
5.0
 40
6.0
 40
6.0
 40
6.0
 40
7.0
 40
7.0
 40
7.0
 40
8.0
 40
8.0
 40
8.0
 40
9.0
 40
9.0
 40
9.0
 40
10.0
 40
10.0
 40
10.0
 40
11.0
 40
11.0
 40
11.0
 40
12.0
 40
12.0
 40
12.0
 40
13.0
 40
13.0
 40
13.0
 40
14.0
 40
14.0
 40
14.0
 40
15.0
 40
15.0
 40
15.0
 40
16.0
 40
16.0
 40
16.0
 40
17.0
 40
17.0
 40
17.0
 40
18.0
 40
18.0
 40
18.0
 40
19.0
 40
19.0
 40
19.0
 40
19.0
 10
99.95703393768436
 20
-154.0867187114783
 30
0.0
 10
99.95703393768436
 20
-154.1818033468712
 30
0.0
 10
99.93601885522433
 20
-154.399533381539
 30
0.0
 10
99.74963918947232
 20
-154.5245903476536
 30
0.0
 10
99.6376735862017
 20
-154.5986599005865
 30
0.0
 10
99.53811032667798
 20
-154.6027940151687
 30
0.0
 10
99.45370548728935
 20
-154.6069281297511
 30
0.0
 10
99.45370548728935
 20
-154.6069281297511
 30
0.0
 10
99.45370548728935
 20
-154.3871310377921
 30
0.0
 10
99.45370548728935
 20
-154.3871310377921
 30
0.0
 10
99.5274305306737
 20
-154.385063980501
 30
0.0
 10
99.76238604276774
 20
-154.3743841844967
 30
0.0
 10
99.76238604276774
 20
-154.0908528260606
 30
0.0
 10
99.76238604276774
 20
-153.9533935161992
 30
0.0
 10
99.69245060441717
 20
-153.8011202957511
 30
0.0
 10
99.46404077374511
 20
-153.8011202957511
 30
0.0
 10
99.34759654634367
 20
-153.8011202957511
 30
0.0
 10
99.29902070000163
 20
-153.8390163460889
 30
0.0
 10
99.26732582153734
 20
-153.8707112245532
 30
0.0
 10
99.19325626860447
 20
-153.944780777486
 30
0.0
 10
99.18050941530905
 20
-154.0612250048875
 30
0.0
 10
99.18050941530905
 20
-154.1163465326515
 30
0.0
 10
99.18050941530905
 20
-154.1352945578203
 30
0.0
 10
99.18292098214872
 20
-154.171123550867
 30
0.0
 10
99.18705509673102
 20
-154.198684314749
 30
0.0
 10
99.18705509673102
 20
-154.198684314749
 30
0.0
 10
98.9924072018144
 20
-154.198684314749
 30
0.0
 10
98.9924072018144
 20
-154.198684314749
 30
0.0
 10
98.99860837368786
 20
-154.1607882644112
 30
0.0
 10
99.000675430979
 20
-154.1184135899426
 30
0.0
 10
99.000675430979
 20
-154.1118679085207
 30
0.0
 10
99.000675430979
 20
-154.0464110943009
 30
0.0
 10
98.97966034851898
 20
-153.847629084802
 30
0.0
 10
98.74263777913379
 20
-153.847629084802
 30
0.0
 10
98.5648708520949
 20
-153.847629084802
 30
0.0
 10
98.51009383387942
 20
-153.9785427132415
 30
0.0
 10
98.51009383387942
 20
-154.0887857687695
 30
0.0
 10
98.51009383387942
 20
-154.3530245924881
 30
0.0
 10
98.74263777913379
 20
-154.3616373312013
 30
0.0
 10
98.81464027477551
 20
-154.3657714457836
 30
0.0
 10
98.81464027477551
 20
-154.3657714457836
 30
0.0
 10
98.81464027477551
 20
-154.5690320794133
 30
0.0
 10
98.81464027477551
 20
-154.5690320794133
 30
0.0
 10
98.68992781820947
 20
-154.5604193407002
 30
0.0
 10
98.31337888167165
 20
-154.5328585768182
 30
0.0
 10
98.31337888167165
 20
-154.076038915474
 30
0.0
 10
98.31337888167165
 20
-153.8517631993843
 30
0.0
 10
98.44015839552885
 20
-153.6106065154168
 30
0.0
 10
98.73643660726034
 20
-153.6106065154168
 30
0.0
 10
98.92247176346383
 20
-153.6106065154168
 30
0.0
 10
99.00515405510983
 20
-153.7056911508097
 30
0.0
 10
99.06647675474727
 20
-153.8052544103334
 30
0.0
 10
99.09403751862928
 20
-153.743931710696
 30
0.0
 10
99.17430824343559
 20
-153.5620306690748
 30
0.0
 10
99.45129392044969
 20
-153.5620306690748
 30
0.0
 10
99.78994680664974
 20
-153.5620306690748
 30
0.0
 10
99.95703393768436
 20
-153.8093885249157
 30
0.0
 10
99.95703393768436
 20
-154.0867187114783
 30
0.0
  0
HATCH
  5
D0
330
CB
100
AcDbEntity
  8
_U+30EC_U+30A4_U+30E4_U+30FC 1
 62
   179
420
  2234388
100
AcDbHatch
 10
0.0
 20
0.0
 30
0.0
210
0.0
220
0.0
230
1.0
  2
SOLID
 70
     1
 71
     0
 91
        1
 92
        1
 93
        1
 72
     4
 94
        3
 73
     0
 74
     1
 95
       62
 96
       58
 40
0.0
 40
0.0
 40
0.0
 40
0.0
 40
1.0
 40
1.0
 40
1.0
 40
2.0
 40
2.0
 40
2.0
 40
3.0
 40
3.0
 40
3.0
 40
4.0
 40
4.0
 40
4.0
 40
5.0
 40
5.0
 40
5.0
 40
6.0
 40
6.0
 40
6.0
 40
7.0
 40
7.0
 40
7.0
 40
8.0
 40
8.0
 40
8.0
 40
9.0
 40
9.0
 40
9.0
 40
10.0
 40
10.0
 40
10.0
 40
11.0
 40
11.0
 40
11.0
 40
12.0
 40
12.0
 40
12.0
 40
13.0
 40
13.0
 40
13.0
 40
14.0
 40
14.0
 40
14.0
 40
15.0
 40
15.0
 40
15.0
 40
16.0
 40
16.0
 40
16.0
 40
17.0
 40
17.0
 40
17.0
 40
18.0
 40
18.0
 40
18.0
 40
19.0
 40
19.0
 40
19.0
 40
19.0
 10
99.95703393768436
 20
-154.0867187114783
 10
99.95703393768436
 20
-154.1818033468712
 10
99.93601885522433
 20
-154.399533381539
 10
99.74963918947232
 20
-154.5245903476536
 10
99.6376735862017
 20
-154.5986599005865
 10
99.53811032667798
 20
-154.6027940151687
 10
99.45370548728935
 20
-154.6069281297511
 10
99.45370548728935
 20
-154.6069281297511
 10
99.45370548728935
 20
-154.3871310377921
 10
99.45370548728935
 20
-154.3871310377921
 10
99.5274305306737
 20
-154.385063980501
 10
99.76238604276774
 20
-154.3743841844967
 10
99.76238604276774
 20
-154.0908528260606
 10
99.76238604276774
 20
-153.9533935161992
 10
99.69245060441717
 20
-153.8011202957511
 10
99.46404077374511
 20
-153.8011202957511
 10
99.34759654634367
 20
-153.8011202957511
 10
99.29902070000163
 20
-153.8390163460889
 10
99.26732582153734
 20
-153.8707112245532
 10
99.19325626860447
 20
-153.944780777486
 10
99.18050941530905
 20
-154.0612250048875
 10
99.18050941530905
 20
-154.1163465326515
 10
99.18050941530905
 20
-154.1352945578203
 10
99.18292098214872
 20
-154.171123550867
 10
99.18705509673102
 20
-154.198684314749
 10
99.18705509673102
 20
-154.198684314749
 10
98.9924072018144
 20
-154.198684314749
 10
98.9924072018144
 20
-154.198684314749
 10
98.99860837368786
 20
-154.1607882644112
 10
99.000675430979
 20
-154.1184135899426
 10
99.000675430979
 20
-154.1118679085207
 10
99.000675430979
 20
-154.0464110943009
 10
98.97966034851898
 20
-153.847629084802
 10
98.74263777913379
 20
-153.847629084802
 10
98.5648708520949
 20
-153.847629084802
 10
98.51009383387942
 20
-153.9785427132415
 10
98.51009383387942
 20
-154.0887857687695
 10
98.51009383387942
 20
-154.3530245924881
 10
98.74263777913379
 20
-154.3616373312013
 10
98.81464027477551
 20
-154.3657714457836
 10
98.81464027477551
 20
-154.3657714457836
 10
98.81464027477551
 20
-154.5690320794133
 10
98.81464027477551
 20
-154.5690320794133
 10
98.68992781820947
 20
-154.5604193407002
 10
98.31337888167165
 20
-154.5328585768182
 10
98.31337888167165
 20
-154.076038915474
 10
98.31337888167165
 20
-153.8517631993843
 10
98.44015839552885
 20
-153.6106065154168
 10
98.73643660726034
 20
-153.6106065154168
 10
98.92247176346383
 20
-153.6106065154168
 10
99.00515405510983
 20
-153.7056911508097
 10
99.06647675474727
 20
-153.8052544103334
 10
99.09403751862928
 20
-153.743931710696
 10
99.17430824343559
 20
-153.5620306690748
 10
99.45129392044969
 20
-153.5620306690748
 10
99.78994680664974
 20
-153.5620306690748
 10
99.95703393768436
 20
-153.8093885249157
 10
99.95703393768436
 20
-154.0867187114783
 97
        0
 97
        0
 75
     2
 76
     1
 98
        0
  0
SPLINE
  5
D1
330
CB
100
AcDbEntity
  8
_U+30EC_U+30A4_U+30E4_U+30FC 1
370
     0
100
AcDbSpline
210
0.0
220
0.0
230
1.0
 70
    11
 71
     3
 72
    62
 73
    58
 74
     0
 42
0.0000000001
 43
0.0000000001
 12
1.0
 22
0.0
 32
0.0
 13
1.0
 23
0.0
 33
0.0
 40
0.0
 40
0.0
 40
0.0
 40
0.0
 40
1.0
 40
1.0
 40
1.0
 40
2.0
 40
2.0
 40
2.0
 40
3.0
 40
3.0
 40
3.0
 40
4.0
 40
4.0
 40
4.0
 40
5.0
 40
5.0
 40
5.0
 40
6.0
 40
6.0
 40
6.0
 40
7.0
 40
7.0
 40
7.0
 40
8.0
 40
8.0
 40
8.0
 40
9.0
 40
9.0
 40
9.0
 40
10.0
 40
10.0
 40
10.0
 40
11.0
 40
11.0
 40
11.0
 40
12.0
 40
12.0
 40
12.0
 40
13.0
 40
13.0
 40
13.0
 40
14.0
 40
14.0
 40
14.0
 40
15.0
 40
15.0
 40
15.0
 40
16.0
 40
16.0
 40
16.0
 40
17.0
 40
17.0
 40
17.0
 40
18.0
 40
18.0
 40
18.0
 40
19.0
 40
19.0
 40
19.0
 40
19.0
 10
99.95703393768436
 20
-152.909874093717
 30
0.0
 10
99.95703393768436
 20
-153.0049587291099
 30
0.0
 10
99.93601885522433
 20
-153.2226887637777
 30
0.0
 10
99.74963918947232
 20
-153.3477457298922
 30
0.0
 10
99.6376735862017
 20
-153.4218152828251
 30
0.0
 10
99.53811032667798
 20
-153.4259493974074
 30
0.0
 10
99.45370548728935
 20
-153.4300835119897
 30
0.0
 10
99.45370548728935
 20
-153.4300835119897
 30
0.0
 10
99.45370548728935
 20
-153.2102864200308
 30
0.0
 10
99.45370548728935
 20
-153.2102864200308
 30
0.0
 10
99.5274305306737
 20
-153.2078748531911
 30
0.0
 10
99.76238604276774
 20
-153.1975395667353
 30
0.0
 10
99.76238604276774
 20
-152.9140082082993
 30
0.0
 10
99.76238604276774
 20
-152.7765488984378
 30
0.0
 10
99.69245060441717
 20
-152.6242756779898
 30
0.0
 10
99.46404077374511
 20
-152.6242756779898
 30
0.0
 10
99.34759654634367
 20
-152.6242756779898
 30
0.0
 10
99.29902070000163
 20
-152.6621717283275
 30
0.0
 10
99.26732582153734
 20
-152.6938666067918
 30
0.0
 10
99.19325626860447
 20
-152.7679361597247
 30
0.0
 10
99.18050941530905
 20
-152.8843803871261
 30
0.0
 10
99.18050941530905
 20
-152.9395019148901
 30
0.0
 10
99.18050941530905
 20
-152.958449940059
 30
0.0
 10
99.18292098214872
 20
-152.9942789331056
 30
0.0
 10
99.18705509673102
 20
-153.0218396969876
 30
0.0
 10
99.18705509673102
 20
-153.0218396969876
 30
0.0
 10
98.9924072018144
 20
-153.0218396969876
 30
0.0
 10
98.9924072018144
 20
-153.0218396969876
 30
0.0
 10
98.99860837368786
 20
-152.9839436466499
 30
0.0
 10
99.000675430979
 20
-152.9415689721813
 30
0.0
 10
99.000675430979
 20
-152.9350232907593
 30
0.0
 10
99.000675430979
 20
-152.8695664765395
 30
0.0
 10
98.97966034851898
 20
-152.6707844670406
 30
0.0
 10
98.74263777913379
 20
-152.6707844670406
 30
0.0
 10
98.5648708520949
 20
-152.6707844670406
 30
0.0
 10
98.51009383387942
 20
-152.8016980954801
 30
0.0
 10
98.51009383387942
 20
-152.9119411510081
 30
0.0
 10
98.51009383387942
 20
-153.1761799747268
 30
0.0
 10
98.74263777913379
 20
-153.1847927134399
 30
0.0
 10
98.81464027477551
 20
-153.1889268280222
 30
0.0
 10
98.81464027477551
 20
-153.1889268280222
 30
0.0
 10
98.81464027477551
 20
-153.392187461652
 30
0.0
 10
98.81464027477551
 20
-153.392187461652
 30
0.0
 10
98.68992781820947
 20
-153.3835747229388
 30
0.0
 10
98.31337888167165
 20
-153.3560139590568
 30
0.0
 10
98.31337888167165
 20
-152.8991942977127
 30
0.0
 10
98.31337888167165
 20
-152.6749185816229
 30
0.0
 10
98.44015839552885
 20
-152.4337618976554
 30
0.0
 10
98.73643660726034
 20
-152.4337618976554
 30
0.0
 10
98.92247176346383
 20
-152.4337618976554
 30
0.0
 10
99.00515405510983
 20
-152.5288465330484
 30
0.0
 10
99.06647675474727
 20
-152.6284097925721
 30
0.0
 10
99.09403751862928
 20
-152.5670870929346
 30
0.0
 10
99.17430824343559
 20
-152.3851860513134
 30
0.0
 10
99.45129392044969
 20
-152.3851860513134
 30
0.0
 10
99.78994680664974
 20
-152.3851860513134
 30
0.0
 10
99.95703393768436
 20
-152.6325439071544
 30
0.0
 10
99.95703393768436
 20
-152.909874093717
 30
0.0
  0
HATCH
  5
D2
330
CB
100
AcDbEntity
  8
_U+30EC_U+30A4_U+30E4_U+30FC 1
 62
   179
420
  2234388
100
AcDbHatch
 10
0.0
 20
0.0
 30
0.0
210
0.0
220
0.0
230
1.0
  2
SOLID
 70
     1
 71
     0
 91
        1
 92
        1
 93
        1
 72
     4
 94
        3
 73
     0
 74
     1
 95
       62
 96
       58
 40
0.0
 40
0.0
 40
0.0
 40
0.0
 40
1.0
 40
1.0
 40
1.0
 40
2.0
 40
2.0
 40
2.0
 40
3.0
 40
3.0
 40
3.0
 40
4.0
 40
4.0
 40
4.0
 40
5.0
 40
5.0
 40
5.0
 40
6.0
 40
6.0
 40
6.0
 40
7.0
 40
7.0
 40
7.0
 40
8.0
 40
8.0
 40
8.0
 40
9.0
 40
9.0
 40
9.0
 40
10.0
 40
10.0
 40
10.0
 40
11.0
 40
11.0
 40
11.0
 40
12.0
 40
12.0
 40
12.0
 40
13.0
 40
13.0
 40
13.0
 40
14.0
 40
14.0
 40
14.0
 40
15.0
 40
15.0
 40
15.0
 40
16.0
 40
16.0
 40
16.0
 40
17.0
 40
17.0
 40
17.0
 40
18.0
 40
18.0
 40
18.0
 40
19.0
 40
19.0
 40
19.0
 40
19.0
 10
99.95703393768436
 20
-152.909874093717
 10
99.95703393768436
 20
-153.0049587291099
 10
99.93601885522433
 20
-153.2226887637777
 10
99.74963918947232
 20
-153.3477457298922
 10
99.6376735862017
 20
-153.4218152828251
 10
99.53811032667798
 20
-153.4259493974074
 10
99.45370548728935
 20
-153.4300835119897
 10
99.45370548728935
 20
-153.4300835119897
 10
99.45370548728935
 20
-153.2102864200308
 10
99.45370548728935
 20
-153.2102864200308
 10
99.5274305306737
 20
-153.2078748531911
 10
99.76238604276774
 20
-153.1975395667353
 10
99.76238604276774
 20
-152.9140082082993
 10
99.76238604276774
 20
-152.7765488984378
 10
99.69245060441717
 20
-152.6242756779898
 10
99.46404077374511
 20
-152.6242756779898
 10
99.34759654634367
 20
-152.6242756779898
 10
99.29902070000163
 20
-152.6621717283275
 10
99.26732582153734
 20
-152.6938666067918
 10
99.19325626860447
 20
-152.7679361597247
 10
99.18050941530905
 20
-152.8843803871261
 10
99.18050941530905
 20
-152.9395019148901
 10
99.18050941530905
 20
-152.958449940059
 10
99.18292098214872
 20
-152.9942789331056
 10
99.18705509673102
 20
-153.0218396969876
 10
99.18705509673102
 20
-153.0218396969876
 10
98.9924072018144
 20
-153.0218396969876
 10
98.9924072018144
 20
-153.0218396969876
 10
98.99860837368786
 20
-152.9839436466499
 10
99.000675430979
 20
-152.9415689721813
 10
99.000675430979
 20
-152.9350232907593
 10
99.000675430979
 20
-152.8695664765395
 10
98.97966034851898
 20
-152.6707844670406
 10
98.74263777913379
 20
-152.6707844670406
 10
98.5648708520949
 20
-152.6707844670406
 10
98.51009383387942
 20
-152.8016980954801
 10
98.51009383387942
 20
-152.9119411510081
 10
98.51009383387942
 20
-153.1761799747268
 10
98.74263777913379
 20
-153.1847927134399
 10
98.81464027477551
 20
-153.1889268280222
 10
98.81464027477551
 20
-153.1889268280222
 10
98.81464027477551
 20
-153.392187461652
 10
98.81464027477551
 20
-153.392187461652
 10
98.68992781820947
 20
-153.3835747229388
 10
98.31337888167165
 20
-153.3560139590568
 10
98.31337888167165
 20
-152.8991942977127
 10
98.31337888167165
 20
-152.6749185816229
 10
98.44015839552885
 20
-152.4337618976554
 10
98.73643660726034
 20
-152.4337618976554
 10
98.92247176346383
 20
-152.4337618976554
 10
99.00515405510983
 20
-152.5288465330484
 10
99.06647675474727
 20
-152.6284097925721
 10
99.09403751862928
 20
-152.5670870929346
 10
99.17430824343559
 20
-152.3851860513134
 10
99.45129392044969
 20
-152.3851860513134
 10
99.78994680664974
 20
-152.3851860513134
 10
99.95703393768436
 20
-152.6325439071544
 10
99.95703393768436
 20
-152.909874093717
 97
        0
 97
        0
 75
     2
 76
     1
 98
        0
  0
POLYLINE
  5
D3
330
CB
100
AcDbEntity
  8
_U+30EC_U+30A4_U+30E4_U+30FC 1
370
     0
100
AcDb2dPolyline
 66
     1
 10
0.0
 20
0.0
 30
0.0
  0
VERTEX
  5
D4
330
D3
100
AcDbEntity
  8
_U+30EC_U+30A4_U+30E4_U+30FC 1
370
     0
100
AcDbVertex
100
AcDb2dVertex
 10
99.90639103405118
 20
-152.1643554307089
 30
0.0
  0
VERTEX
  5
D5
330
D3
100
AcDbEntity
  8
_U+30EC_U+30A4_U+30E4_U+30FC 1
370
     0
100
AcDbVertex
100
AcDb2dVertex
 10
99.65455455407943
 20
-152.1643554307089
 30
0.0
  0
VERTEX
  5
D6
330
D3
100
AcDbEntity
  8
_U+30EC_U+30A4_U+30E4_U+30FC 1
370
     0
100
AcDbVertex
100
AcDb2dVertex
 10
99.65455455407943
 20
-151.9128634602857
 30
0.0
  0
VERTEX
  5
D7
330
D3
100
AcDbEntity
  8
_U+30EC_U+30A4_U+30E4_U+30FC 1
370
     0
100
AcDbVertex
100
AcDb2dVertex
 10
99.90639103405118
 20
-151.9128634602857
 30
0.0
  0
VERTEX
  5
D8
330
D3
100
AcDbEntity
  8
_U+30EC_U+30A4_U+30E4_U+30FC 1
370
     0
100
AcDbVertex
100
AcDb2dVertex
 10
99.90639103405118
 20
-152.1643554307089
 30
0.0
  0
SEQEND
  5
D9
330
D3
100
AcDbEntity
  8
_U+30EC_U+30A4_U+30E4_U+30FC 1
370
     0
  0
HATCH
  5
DA
330
CB
100
AcDbEntity
  8
_U+30EC_U+30A4_U+30E4_U+30FC 1
 62
   179
420
  2234388
100
AcDbHatch
 10
0.0
 20
0.0
 30
0.0
210
0.0
220
0.0
230
1.0
  2
SOLID
 70
     1
 71
     0
 91
        1
 92
        1
 93
        4
 72
     1
 10
99.90639103405118
 20
-152.1643554307089
 11
99.65455455407943
 21
-152.1643554307089
 72
     1
 10
99.65455455407943
 20
-152.1643554307089
 11
99.65455455407943
 21
-151.9128634602857
 72
     1
 10
99.65455455407943
 20
-151.9128634602857
 11
99.90639103405118
 21
-151.9128634602857
 72
     1
 10
99.90639103405118
 20
-151.9128634602857
 11
99.90639103405118
 21
-152.1643554307089
 97
        0
 75
     2
 76
     1
 98
        0
  0
SPLINE
  5
DB
330
CB
100
AcDbEntity
  8
_U+30EC_U+30A4_U+30E4_U+30FC 1
370
     0
100
AcDbSpline
210
0.0
220
0.0
230
1.0
 70
    11
 71
     3
 72
    53
 73
    49
 74
     0
 42
0.0000000001
 43
0.0000000001
 12
1.0
 22
0.0
 32
0.0
 13
1.0
 23
0.0
 33
0.0
 40
0.0
 40
0.0
 40
0.0
 40
0.0
 40
1.0
 40
1.0
 40
1.0
 40
2.0
 40
2.0
 40
2.0
 40
3.0
 40
3.0
 40
3.0
 40
4.0
 40
4.0
 40
4.0
 40
5.0
 40
5.0
 40
5.0
 40
6.0
 40
6.0
 40
6.0
 40
7.0
 40
7.0
 40
7.0
 40
8.0
 40
8.0
 40
8.0
 40
9.0
 40
9.0
 40
9.0
 40
10.0
 40
10.0
 40
10.0
 40
11.0
 40
11.0
 40
11.0
 40
12.0
 40
12.0
 40
12.0
 40
13.0
 40
13.0
 40
13.0
 40
14.0
 40
14.0
 40
14.0
 40
15.0
 40
15.0
 40
15.0
 40
16.0
 40
16.0
 40
16.0
 40
16.0
 10
99.95703393768436
 20
-151.1952500707081
 30
0.0
 10
99.95703393768436
 20
-151.2734537382233
 30
0.0
 10
99.94015296980663
 20
-151.3750840550382
 30
0.0
 10
99.87676321287803
 20
-151.4767143718531
 30
0.0
 10
99.76652015735004
 20
-151.6500026747611
 30
0.0
 10
99.63560652891054
 20
-151.6713622667697
 30
0.0
 10
99.5274305306737
 20
-151.6903102919385
 30
0.0
 10
99.5274305306737
 20
-151.6903102919385
 30
0.0
 10
99.5274305306737
 20
-151.4681016331399
 30
0.0
 10
99.5274305306737
 20
-151.4681016331399
 30
0.0
 10
99.72655704972114
 20
-151.4133246149244
 30
0.0
 10
99.75618487089429
 20
-151.2862005915187
 30
0.0
 10
99.75618487089429
 20
-151.193183013417
 30
0.0
 10
99.75618487089429
 20
-151.0536566462644
 30
0.0
 10
99.65662161137057
 20
-150.9010389162678
 30
0.0
 10
99.4240776661162
 20
-150.9010389162678
 30
0.0
 10
99.16810707156215
 20
-150.9010389162678
 30
0.0
 10
99.09817163321158
 20
-151.0808729005979
 30
0.0
 10
99.09817163321158
 20
-151.2014512425816
 30
0.0
 10
99.09817163321158
 20
-151.2334906305944
 30
0.0
 10
99.09817163321158
 20
-151.3750840550382
 30
0.0
 10
99.22701820435992
 20
-151.4639675185576
 30
0.0
 10
99.22701820435992
 20
-151.4639675185576
 30
0.0
 10
99.20807017919104
 20
-151.6396673883054
 30
0.0
 10
99.20807017919104
 20
-151.6396673883054
 30
0.0
 10
99.20807017919104
 20
-151.6396673883054
 30
0.0
 10
98.36195472801369
 20
-151.5190890463216
 30
0.0
 10
98.36195472801369
 20
-151.5190890463216
 30
0.0
 10
98.36195472801369
 20
-151.5190890463216
 30
0.0
 10
98.36195472801369
 20
-150.7404974666552
 30
0.0
 10
98.36195472801369
 20
-150.7404974666552
 30
0.0
 10
98.36195472801369
 20
-150.7404974666552
 30
0.0
 10
98.5566026229303
 20
-150.7404974666552
 30
0.0
 10
98.5566026229303
 20
-150.7404974666552
 30
0.0
 10
98.5566026229303
 20
-150.7404974666552
 30
0.0
 10
98.5566026229303
 20
-151.3561360298693
 30
0.0
 10
98.5566026229303
 20
-151.3561360298693
 30
0.0
 10
98.5566026229303
 20
-151.3561360298693
 30
0.0
 10
98.97966034851898
 20
-151.421592844089
 30
0.0
 10
98.97966034851898
 20
-151.421592844089
 30
0.0
 10
98.94589841276353
 20
-151.3602701444516
 30
0.0
 10
98.90559079558611
 20
-151.2779323623541
 30
0.0
 10
98.90559079558611
 20
-151.1594210776615
 30
0.0
 10
98.90559079558611
 20
-150.9055175403986
 30
0.0
 10
99.0916259517896
 20
-150.6684949710134
 30
0.0
 10
99.40478513139881
 20
-150.6684949710134
 30
0.0
 10
99.72207842559031
 20
-150.6684949710134
 30
0.0
 10
99.95703393768436
 20
-150.8927706871032
 30
0.0
 10
99.95703393768436
 20
-151.1952500707081
 30
0.0
  0
HATCH
  5
DC
330
CB
100
AcDbEntity
  8
_U+30EC_U+30A4_U+30E4_U+30FC 1
 62
   179
420
  2234388
100
AcDbHatch
 10
0.0
 20
0.0
 30
0.0
210
0.0
220
0.0
230
1.0
  2
SOLID
 70
     1
 71
     0
 91
        1
 92
        1
 93
        1
 72
     4
 94
        3
 73
     0
 74
     1
 95
       53
 96
       49
 40
0.0
 40
0.0
 40
0.0
 40
0.0
 40
1.0
 40
1.0
 40
1.0
 40
2.0
 40
2.0
 40
2.0
 40
3.0
 40
3.0
 40
3.0
 40
4.0
 40
4.0
 40
4.0
 40
5.0
 40
5.0
 40
5.0
 40
6.0
 40
6.0
 40
6.0
 40
7.0
 40
7.0
 40
7.0
 40
8.0
 40
8.0
 40
8.0
 40
9.0
 40
9.0
 40
9.0
 40
10.0
 40
10.0
 40
10.0
 40
11.0
 40
11.0
 40
11.0
 40
12.0
 40
12.0
 40
12.0
 40
13.0
 40
13.0
 40
13.0
 40
14.0
 40
14.0
 40
14.0
 40
15.0
 40
15.0
 40
15.0
 40
16.0
 40
16.0
 40
16.0
 40
16.0
 10
99.95703393768436
 20
-151.1952500707081
 10
99.95703393768436
 20
-151.2734537382233
 10
99.94015296980663
 20
-151.3750840550382
 10
99.87676321287803
 20
-151.4767143718531
 10
99.76652015735004
 20
-151.6500026747611
 10
99.63560652891054
 20
-151.6713622667697
 10
99.5274305306737
 20
-151.6903102919385
 10
99.5274305306737
 20
-151.6903102919385
 10
99.5274305306737
 20
-151.4681016331399
 10
99.5274305306737
 20
-151.4681016331399
 10
99.72655704972114
 20
-151.4133246149244
 10
99.75618487089429
 20
-151.2862005915187
 10
99.75618487089429
 20
-151.193183013417
 10
99.75618487089429
 20
-151.0536566462644
 10
99.65662161137057
 20
-150.9010389162678
 10
99.4240776661162
 20
-150.9010389162678
 10
99.16810707156215
 20
-150.9010389162678
 10
99.09817163321158
 20
-151.0808729005979
 10
99.09817163321158
 20
-151.2014512425816
 10
99.09817163321158
 20
-151.2334906305944
 10
99.09817163321158
 20
-151.3750840550382
 10
99.22701820435992
 20
-151.4639675185576
 10
99.22701820435992
 20
-151.4639675185576
 10
99.20807017919104
 20
-151.6396673883054
 10
99.20807017919104
 20
-151.6396673883054
 10
99.20807017919104
 20
-151.6396673883054
 10
98.36195472801369
 20
-151.5190890463216
 10
98.36195472801369
 20
-151.5190890463216
 10
98.36195472801369
 20
-151.5190890463216
 10
98.36195472801369
 20
-150.7404974666552
 10
98.36195472801369
 20
-150.7404974666552
 10
98.36195472801369
 20
-150.7404974666552
 10
98.5566026229303
 20
-150.7404974666552
 10
98.5566026229303
 20
-150.7404974666552
 10
98.5566026229303
 20
-150.7404974666552
 10
98.5566026229303
 20
-151.3561360298693
 10
98.5566026229303
 20
-151.3561360298693
 10
98.5566026229303
 20
-151.3561360298693
 10
98.97966034851898
 20
-151.421592844089
 10
98.97966034851898
 20
-151.421592844089
 10
98.94589841276353
 20
-151.3602701444516
 10
98.90559079558611
 20
-151.2779323623541
 10
98.90559079558611
 20
-151.1594210776615
 10
98.90559079558611
 20
-150.9055175403986
 10
99.0916259517896
 20
-150.6684949710134
 10
99.40478513139881
 20
-150.6684949710134
 10
99.72207842559031
 20
-150.6684949710134
 10
99.95703393768436
 20
-150.8927706871032
 10
99.95703393768436
 20
-151.1952500707081
 97
        0
 97
        0
 75
     2
 76
     1
 98
        0
  0
ENDBLK
  5
CE
330
CB
100
AcDbEntity
  8
0
100
AcDbBlockEnd
  0
BLOCK
  5
EE
330
EC
100
AcDbEntity
  8
0
100
AcDbBlockBegin
  2
block 5
 70
     0
 10
0.0
 20
0.0
 30
0.0
  3
block 5
  1

  0
SPLINE
  5
F0
330
EC
100
AcDbEntity
  8
_U+30EC_U+30A4_U+30E4_U+30FC 1
370
     0
100
AcDbSpline
210
0.0
220
0.0
230
1.0
 70
    11
 71
     3
 72
    26
 73
    22
 74
     0
 42
0.0000000001
 43
0.0000000001
 12
1.0
 22
0.0
 32
0.0
 13
1.0
 23
0.0
 33
0.0
 40
0.0
 40
0.0
 40
0.0
 40
0.0
 40
1.0
 40
1.0
 40
1.0
 40
2.0
 40
2.0
 40
2.0
 40
3.0
 40
3.0
 40
3.0
 40
4.0
 40
4.0
 40
4.0
 40
5.0
 40
5.0
 40
5.0
 40
6.0
 40
6.0
 40
6.0
 40
7.0
 40
7.0
 40
7.0
 40
7.0
 10
82.40633949762758
 20
-133.3041801967087
 30
0.0
 10
82.40633949762758
 20
-133.3041801967087
 30
0.0
 10
82.40633949762758
 20
-133.5412027660939
 30
0.0
 10
82.40633949762758
 20
-133.5412027660939
 30
0.0
 10
82.09748668737494
 20
-133.515709059503
 30
0.0
 10
81.5791720716191
 20
-133.3231282218776
 30
0.0
 10
81.07360430915868
 20
-132.9169514641666
 30
0.0
 10
81.07360430915868
 20
-132.9169514641666
 30
0.0
 10
81.07360430915868
 20
-133.7547986861794
 30
0.0
 10
81.07360430915868
 20
-133.7547986861794
 30
0.0
 10
81.07360430915868
 20
-133.7547986861794
 30
0.0
 10
80.86207544636434
 20
-133.7547986861794
 30
0.0
 10
80.86207544636434
 20
-133.7547986861794
 30
0.0
 10
80.86207544636434
 20
-133.7547986861794
 30
0.0
 10
80.86207544636434
 20
-132.6799288947814
 30
0.0
 10
80.86207544636434
 20
-132.6799288947814
 30
0.0
 10
80.86207544636434
 20
-132.6799288947814
 30
0.0
 10
81.07360430915868
 20
-132.6799288947814
 30
0.0
 10
81.07360430915868
 20
-132.6799288947814
 30
0.0
 10
81.36350909424246
 20
-133.0037678703949
 30
0.0
 10
81.95572100815691
 20
-133.2704182609532
 30
0.0
 10
82.40633949762758
 20
-133.3041801967087
 30
0.0
  0
HATCH
  5
F1
330
EC
100
AcDbEntity
  8
_U+30EC_U+30A4_U+30E4_U+30FC 1
 62
   179
420
  2234388
100
AcDbHatch
 10
0.0
 20
0.0
 30
0.0
210
0.0
220
0.0
230
1.0
  2
SOLID
 70
     1
 71
     0
 91
        1
 92
        1
 93
        1
 72
     4
 94
        3
 73
     0
 74
     1
 95
       26
 96
       22
 40
0.0
 40
0.0
 40
0.0
 40
0.0
 40
1.0
 40
1.0
 40
1.0
 40
2.0
 40
2.0
 40
2.0
 40
3.0
 40
3.0
 40
3.0
 40
4.0
 40
4.0
 40
4.0
 40
5.0
 40
5.0
 40
5.0
 40
6.0
 40
6.0
 40
6.0
 40
7.0
 40
7.0
 40
7.0
 40
7.0
 10
82.40633949762758
 20
-133.3041801967087
 10
82.40633949762758
 20
-133.3041801967087
 10
82.40633949762758
 20
-133.5412027660939
 10
82.40633949762758
 20
-133.5412027660939
 10
82.09748668737494
 20
-133.515709059503
 10
81.5791720716191
 20
-133.3231282218776
 10
81.07360430915868
 20
-132.9169514641666
 10
81.07360430915868
 20
-132.9169514641666
 10
81.07360430915868
 20
-133.7547986861794
 10
81.07360430915868
 20
-133.7547986861794
 10
81.07360430915868
 20
-133.7547986861794
 10
80.86207544636434
 20
-133.7547986861794
 10
80.86207544636434
 20
-133.7547986861794
 10
80.86207544636434
 20
-133.7547986861794
 10
80.86207544636434
 20
-132.6799288947814
 10
80.86207544636434
 20
-132.6799288947814
 10
80.86207544636434
 20
-132.6799288947814
 10
81.07360430915868
 20
-132.6799288947814
 10
81.07360430915868
 20
-132.6799288947814
 10
81.36350909424246
 20
-133.0037678703949
 10
81.95572100815691
 20
-133.2704182609532
 10
82.40633949762758
 20
-133.3041801967087
 97
        0
 97
        0
 75
     2
 76
     1
 98
        0
  0
SPLINE
  5
F2
330
EC
100
AcDbEntity
  8
_U+30EC_U+30A4_U+30E4_U+30FC 1
370
     0
100
AcDbSpline
210
0.0
220
0.0
230
1.0
 70
    11
 71
     3
 72
    53
 73
    49
 74
     0
 42
0.0000000001
 43
0.0000000001
 12
1.0
 22
0.0
 32
0.0
 13
1.0
 23
0.0
 33
0.0
 40
0.0
 40
0.0
 40
0.0
 40
0.0
 40
1.0
 40
1.0
 40
1.0
 40
2.0
 40
2.0
 40
2.0
 40
3.0
 40
3.0
 40
3.0
 40
4.0
 40
4.0
 40
4.0
 40
5.0
 40
5.0
 40
5.0
 40
6.0
 40
6.0
 40
6.0
 40
7.0
 40
7.0
 40
7.0
 40
8.0
 40
8.0
 40
8.0
 40
9.0
 40
9.0
 40
9.0
 40
10.0
 40
10.0
 40
10.0
 40
11.0
 40
11.0
 40
11.0
 40
12.0
 40
12.0
 40
12.0
 40
13.0
 40
13.0
 40
13.0
 40
14.0
 40
14.0
 40
14.0
 40
15.0
 40
15.0
 40
15.0
 40
16.0
 40
16.0
 40
16.0
 40
16.0
 10
82.45715465603502
 20
-132.0574001405968
 30
0.0
 10
82.45715465603502
 20
-132.1356038081119
 30
0.0
 10
82.44027368815729
 20
-132.2372341249268
 30
0.0
 10
82.37671167645443
 20
-132.3388644417417
 30
0.0
 10
82.26681313047497
 20
-132.5121527446497
 30
0.0
 10
82.13555499248695
 20
-132.5335123366583
 30
0.0
 10
82.02772350379863
 20
-132.5524603618272
 30
0.0
 10
82.02772350379863
 20
-132.5524603618272
 30
0.0
 10
82.02772350379863
 20
-132.3302517030286
 30
0.0
 10
82.02772350379863
 20
-132.3302517030286
 30
0.0
 10
82.22650551329754
 20
-132.2754746848131
 30
0.0
 10
82.25613333447069
 20
-132.1483506614074
 30
0.0
 10
82.25613333447069
 20
-132.0553330833056
 30
0.0
 10
82.25613333447069
 20
-131.915806716153
 30
0.0
 10
82.15674232972124
 20
-131.763533495705
 30
0.0
 10
81.9240261296926
 20
-131.763533495705
 30
0.0
 10
81.66805553513855
 20
-131.763533495705
 30
0.0
 10
81.59829235156224
 20
-131.943367480035
 30
0.0
 10
81.59829235156224
 20
-132.0639458220188
 30
0.0
 10
81.59829235156224
 20
-132.095640700483
 30
0.0
 10
81.59829235156224
 20
-132.2372341249268
 30
0.0
 10
81.72731117748484
 20
-132.3261175884463
 30
0.0
 10
81.72731117748484
 20
-132.3261175884463
 30
0.0
 10
81.70819089754171
 20
-132.501817458194
 30
0.0
 10
81.70819089754171
 20
-132.501817458194
 30
0.0
 10
81.70819089754171
 20
-132.501817458194
 30
0.0
 10
80.86207544636434
 20
-132.3812391162103
 30
0.0
 10
80.86207544636434
 20
-132.3812391162103
 30
0.0
 10
80.86207544636434
 20
-132.3812391162103
 30
0.0
 10
80.86207544636434
 20
-131.6026475365438
 30
0.0
 10
80.86207544636434
 20
-131.6026475365438
 30
0.0
 10
80.86207544636434
 20
-131.6026475365438
 30
0.0
 10
81.05672334128096
 20
-131.6026475365438
 30
0.0
 10
81.05672334128096
 20
-131.6026475365438
 30
0.0
 10
81.05672334128096
 20
-131.6026475365438
 30
0.0
 10
81.05672334128096
 20
-132.2182860997579
 30
0.0
 10
81.05672334128096
 20
-132.2182860997579
 30
0.0
 10
81.05672334128096
 20
-132.2182860997579
 30
0.0
 10
81.47978106686965
 20
-132.2837429139777
 30
0.0
 10
81.47978106686965
 20
-132.2837429139777
 30
0.0
 10
81.44584687633993
 20
-132.2224202143402
 30
0.0
 10
81.40571151393677
 20
-132.1400824322428
 30
0.0
 10
81.40571151393677
 20
-132.0215711475502
 30
0.0
 10
81.40571151393677
 20
-131.7676676102872
 30
0.0
 10
81.59191892491452
 20
-131.5306450409021
 30
0.0
 10
81.90507810452374
 20
-131.5306450409021
 30
0.0
 10
82.22237139871524
 20
-131.5306450409021
 30
0.0
 10
82.45715465603502
 20
-131.7549207569918
 30
0.0
 10
82.45715465603502
 20
-132.0574001405968
 30
0.0
  0
HATCH
  5
F3
330
EC
100
AcDbEntity
  8
_U+30EC_U+30A4_U+30E4_U+30FC 1
 62
   179
420
  2234388
100
AcDbHatch
 10
0.0
 20
0.0
 30
0.0
210
0.0
220
0.0
230
1.0
  2
SOLID
 70
     1
 71
     0
 91
        1
 92
        1
 93
        1
 72
     4
 94
        3
 73
     0
 74
     1
 95
       53
 96
       49
 40
0.0
 40
0.0
 40
0.0
 40
0.0
 40
1.0
 40
1.0
 40
1.0
 40
2.0
 40
2.0
 40
2.0
 40
3.0
 40
3.0
 40
3.0
 40
4.0
 40
4.0
 40
4.0
 40
5.0
 40
5.0
 40
5.0
 40
6.0
 40
6.0
 40
6.0
 40
7.0
 40
7.0
 40
7.0
 40
8.0
 40
8.0
 40
8.0
 40
9.0
 40
9.0
 40
9.0
 40
10.0
 40
10.0
 40
10.0
 40
11.0
 40
11.0
 40
11.0
 40
12.0
 40
12.0
 40
12.0
 40
13.0
 40
13.0
 40
13.0
 40
14.0
 40
14.0
 40
14.0
 40
15.0
 40
15.0
 40
15.0
 40
16.0
 40
16.0
 40
16.0
 40
16.0
 10
82.45715465603502
 20
-132.0574001405968
 10
82.45715465603502
 20
-132.1356038081119
 10
82.44027368815729
 20
-132.2372341249268
 10
82.37671167645443
 20
-132.3388644417417
 10
82.26681313047497
 20
-132.5121527446497
 10
82.13555499248695
 20
-132.5335123366583
 10
82.02772350379863
 20
-132.5524603618272
 10
82.02772350379863
 20
-132.5524603618272
 10
82.02772350379863
 20
-132.3302517030286
 10
82.02772350379863
 20
-132.3302517030286
 10
82.22650551329754
 20
-132.2754746848131
 10
82.25613333447069
 20
-132.1483506614074
 10
82.25613333447069
 20
-132.0553330833056
 10
82.25613333447069
 20
-131.915806716153
 10
82.15674232972124
 20
-131.763533495705
 10
81.9240261296926
 20
-131.763533495705
 10
81.66805553513855
 20
-131.763533495705
 10
81.59829235156224
 20
-131.943367480035
 10
81.59829235156224
 20
-132.0639458220188
 10
81.59829235156224
 20
-132.095640700483
 10
81.59829235156224
 20
-132.2372341249268
 10
81.72731117748484
 20
-132.3261175884463
 10
81.72731117748484
 20
-132.3261175884463
 10
81.70819089754171
 20
-132.501817458194
 10
81.70819089754171
 20
-132.501817458194
 10
81.70819089754171
 20
-132.501817458194
 10
80.86207544636434
 20
-132.3812391162103
 10
80.86207544636434
 20
-132.3812391162103
 10
80.86207544636434
 20
-132.3812391162103
 10
80.86207544636434
 20
-131.6026475365438
 10
80.86207544636434
 20
-131.6026475365438
 10
80.86207544636434
 20
-131.6026475365438
 10
81.05672334128096
 20
-131.6026475365438
 10
81.05672334128096
 20
-131.6026475365438
 10
81.05672334128096
 20
-131.6026475365438
 10
81.05672334128096
 20
-132.2182860997579
 10
81.05672334128096
 20
-132.2182860997579
 10
81.05672334128096
 20
-132.2182860997579
 10
81.47978106686965
 20
-132.2837429139777
 10
81.47978106686965
 20
-132.2837429139777
 10
81.44584687633993
 20
-132.2224202143402
 10
81.40571151393677
 20
-132.1400824322428
 10
81.40571151393677
 20
-132.0215711475502
 10
81.40571151393677
 20
-131.7676676102872
 10
81.59191892491452
 20
-131.5306450409021
 10
81.90507810452374
 20
-131.5306450409021
 10
82.22237139871524
 20
-131.5306450409021
 10
82.45715465603502
 20
-131.7549207569918
 10
82.45715465603502
 20
-132.0574001405968
 97
        0
 97
        0
 75
     2
 76
     1
 98
        0
  0
ENDBLK
  5
EF
330
EC
100
AcDbEntity
  8
0
100
AcDbBlockEnd
  0
ENDSEC
  0
SECTION
  2
ENTITIES
  0
SPLINE
  5
41
330
1F
100
AcDbEntity
  8
_U+30EC_U+30A4_U+30E4_U+30FC 1
370
     0
100
AcDbSpline
210
0.0
220
0.0
230
1.0
 70
    11
 71
     3
 72
   104
 73
   100
 74
     0
 42
0.0000000001
 43
0.0000000001
 12
1.0
 22
0.0
 32
0.0
 13
1.0
 23
0.0
 33
0.0
 40
0.0
 40
0.0
 40
0.0
 40
0.0
 40
1.0
 40
1.0
 40
1.0
 40
2.0
 40
2.0
 40
2.0
 40
3.0
 40
3.0
 40
3.0
 40
4.0
 40
4.0
 40
4.0
 40
5.0
 40
5.0
 40
5.0
 40
6.0
 40
6.0
 40
6.0
 40
7.0
 40
7.0
 40
7.0
 40
8.0
 40
8.0
 40
8.0
 40
9.0
 40
9.0
 40
9.0
 40
10.0
 40
10.0
 40
10.0
 40
11.0
 40
11.0
 40
11.0
 40
12.0
 40
12.0
 40
12.0
 40
13.0
 40
13.0
 40
13.0
 40
14.0
 40
14.0
 40
14.0
 40
15.0
 40
15.0
 40
15.0
 40
16.0
 40
16.0
 40
16.0
 40
17.0
 40
17.0
 40
17.0
 40
18.0
 40
18.0
 40
18.0
 40
19.0
 40
19.0
 40
19.0
 40
20.0
 40
20.0
 40
20.0
 40
21.0
 40
21.0
 40
21.0
 40
22.0
 40
22.0
 40
22.0
 40
23.0
 40
23.0
 40
23.0
 40
24.0
 40
24.0
 40
24.0
 40
25.0
 40
25.0
 40
25.0
 40
26.0
 40
26.0
 40
26.0
 40
27.0
 40
27.0
 40
27.0
 40
28.0
 40
28.0
 40
28.0
 40
29.0
 40
29.0
 40
29.0
 40
30.0
 40
30.0
 40
30.0
 40
31.0
 40
31.0
 40
31.0
 40
32.0
 40
32.0
 40
32.0
 40
33.0
 40
33.0
 40
33.0
 40
33.0
 10
86.78230806377665
 20
-95.5927941427685
 30
0.0
 10
86.79987639666177
 20
-95.59484025387906
 30
0.0
 10
86.81416389629727
 20
-95.60863386498671
 30
0.0
 10
86.81416389629727
 20
-95.62655497609333
 30
0.0
 10
86.81416389629727
 20
-95.64616942053276
 30
0.0
 10
86.79832417447915
 20
-95.66204442052882
 30
0.0
 10
86.77885084164262
 20
-95.66204442052882
 30
0.0
 10
86.77885084164262
 20
-95.66204442052882
 30
0.0
 10
86.77885084164262
 20
-169.6268444020378
 30
0.0
 10
86.77885084164262
 20
-169.6268444020378
 30
0.0
 10
86.77885084164262
 20
-169.8911102353048
 30
0.0
 10
86.98504944749317
 20
-170.1053874574737
 30
0.0
 10
87.24497610752856
 20
-170.12330856858
 30
0.0
 10
87.24705749636435
 20
-170.1053874574737
 30
0.0
 10
87.26081582934668
 20
-170.0912410685883
 30
0.0
 10
87.27891332888497
 20
-170.0912410685883
 30
0.0
 10
87.2983888670643
 20
-170.0912410685883
 30
0.0
 10
87.31422638353962
 20
-170.1071160685844
 30
0.0
 10
87.31422638353962
 20
-170.1267305130238
 30
0.0
 10
87.31422638353962
 20
-170.1267305130238
 30
0.0
 10
88.24368997093814
 20
-170.1267305130238
 30
0.0
 10
88.24368997093814
 20
-170.1267305130238
 30
0.0
 10
88.24368997093814
 20
-170.1071160685844
 30
0.0
 10
88.25938858164874
 20
-170.0912410685883
 30
0.0
 10
88.27886191448526
 20
-170.0912410685883
 30
0.0
 10
88.29692413624669
 20
-170.0912410685883
 30
0.0
 10
88.3107177470059
 20
-170.1053874574737
 30
0.0
 10
88.3127638580648
 20
-170.12330856858
 30
0.0
 10
88.57272579587706
 20
-170.1053874574737
 30
0.0
 10
88.77888912395073
 20
-169.8911102353048
 30
0.0
 10
88.77888912395073
 20
-169.6268444020378
 30
0.0
 10
88.77888912395073
 20
-169.6268444020378
 30
0.0
 10
88.77888912395073
 20
-135.9265830215741
 30
0.0
 10
88.77888912395073
 20
-135.9265830215741
 30
0.0
 10
88.77888912395073
 20
-135.9265830215741
 30
0.0
 10
95.47873867524555
 20
-135.9265830215741
 30
0.0
 10
95.47873867524555
 20
-135.9265830215741
 30
0.0
 10
95.47873867524555
 20
-135.9265830215741
 30
0.0
 10
95.47873867524555
 20
-143.1268480197741
 30
0.0
 10
95.47873867524555
 20
-143.1268480197741
 30
0.0
 10
95.47873867524555
 20
-143.1268480197741
 30
0.0
 10
96.27869997593007
 20
-143.1268480197741
 30
0.0
 10
96.27869997593007
 20
-143.1268480197741
 30
0.0
 10
96.27869997593007
 20
-143.1268480197741
 30
0.0
 10
96.27869997593007
 20
-135.6268630216491
 30
0.0
 10
96.27869997593007
 20
-135.6268630216491
 30
0.0
 10
96.27869997593007
 20
-135.362279688382
 30
0.0
 10
96.07267775375973
 20
-135.1476496884353
 30
0.0
 10
95.81292505560864
 20
-135.1300813551061
 30
0.0
 10
95.81084366677285
 20
-135.148002466213
 30
0.0
 10
95.79708533379052
 20
-135.1621135773203
 30
0.0
 10
95.77916664272188
 20
-135.1621135773203
 30
0.0
 10
95.7591970014238
 20
-135.1621135773203
 30
0.0
 10
95.74367477959758
 20
-135.1462738551024
 30
0.0
 10
95.74367477959758
 20
-135.1266241328848
 30
0.0
 10
95.74367477959758
 20
-135.1266241328848
 30
0.0
 10
88.47885163160532
 20
-135.1266241328848
 30
0.0
 10
88.47885163160532
 20
-135.1266241328848
 30
0.0
 10
88.20269719420617
 20
-135.1266241328848
 30
0.0
 10
87.97896553324738
 20
-135.3505674661621
 30
0.0
 10
87.97896553324738
 20
-135.6268630216491
 30
0.0
 10
87.97896553324738
 20
-135.6268630216491
 30
0.0
 10
87.97896553324738
 20
-169.3267716243352
 30
0.0
 10
87.97896553324738
 20
-169.3267716243352
 30
0.0
 10
87.97896553324738
 20
-169.3267716243352
 30
0.0
 10
87.57898609900725
 20
-169.3267716243352
 30
0.0
 10
87.57898609900725
 20
-169.3267716243352
 30
0.0
 10
87.57898609900725
 20
-169.3267716243352
 30
0.0
 10
87.57898609900725
 20
-95.92662775379601
 30
0.0
 10
87.57898609900725
 20
-95.92662775379601
 30
0.0
 10
87.57898609900725
 20
-95.92662775379601
 30
0.0
 10
96.97874974808819
 20
-95.92662775379601
 30
0.0
 10
96.97874974808819
 20
-95.92662775379601
 30
0.0
 10
96.97874974808819
 20
-95.92662775379601
 30
0.0
 10
96.97874974808819
 20
-103.1268574742182
 30
0.0
 10
96.97874974808819
 20
-103.1268574742182
 30
0.0
 10
96.97874974808819
 20
-103.1268574742182
 30
0.0
 10
97.74357195079817
 20
-103.1268574742182
 30
0.0
 10
97.74357195079817
 20
-103.1268574742182
 30
0.0
 10
97.74357195079817
 20
-103.1072430297788
 30
0.0
 10
97.7594116726163
 20
-103.0913680297827
 30
0.0
 10
97.77871108666632
 20
-103.0913680297827
 30
0.0
 10
97.77871108666632
 20
-103.0913680297827
 30
0.0
 10
97.77871108666632
 20
-95.66204442052882
 30
0.0
 10
97.77871108666632
 20
-95.66204442052882
 30
0.0
 10
97.7594116726163
 20
-95.66204442052882
 30
0.0
 10
97.74357195079817
 20
-95.64616942053276
 30
0.0
 10
97.74357195079817
 20
-95.62655497609333
 30
0.0
 10
97.74357195079817
 20
-95.60863386498671
 30
0.0
 10
97.75803583931805
 20
-95.59484025387906
 30
0.0
 10
97.7752513944344
 20
-95.5927941427685
 30
0.0
 10
97.76216333921276
 20
-95.39608525392875
 30
0.0
 10
97.6367508424123
 20
-95.23105580952543
 30
0.0
 10
97.46106751356102
 20
-95.16215830954287
 30
0.0
 10
97.46106751356102
 20
-95.16215830954287
 30
0.0
 10
87.09716222241072
 20
-95.16215830954287
 30
0.0
 10
87.09716222241072
 20
-95.16215830954287
 30
0.0
 10
86.92130250467505
 20
-95.23105580952543
 30
0.0
 10
86.7955725078827
 20
-95.39608525392875
 30
0.0
 10
86.78230806377665
 20
-95.5927941427685
 30
0.0
  0
SPLINE
  5
42
330
1F
100
AcDbEntity
  8
_U+30EC_U+30A4_U+30E4_U+30FC 1
370
     0
100
AcDbSpline
210
0.0
220
0.0
230
1.0
 70
    11
 71
     3
 72
    26
 73
    22
 74
     0
 42
0.0000000001
 43
0.0000000001
 12
1.0
 22
0.0
 32
0.0
 13
1.0
 23
0.0
 33
0.0
 40
0.0
 40
0.0
 40
0.0
 40
0.0
 40
1.0
 40
1.0
 40
1.0
 40
2.0
 40
2.0
 40
2.0
 40
3.0
 40
3.0
 40
3.0
 40
4.0
 40
4.0
 40
4.0
 40
5.0
 40
5.0
 40
5.0
 40
6.0
 40
6.0
 40
6.0
 40
7.0
 40
7.0
 40
7.0
 40
7.0
 10
87.24360027423033
 20
-170.1267305130238
 30
0.0
 10
87.24360027423033
 20
-170.1253546796909
 30
0.0
 10
87.24479971864417
 20
-170.1246844019136
 30
0.0
 10
87.24497610752856
 20
-170.12330856858
 30
0.0
 10
86.98504944749317
 20
-170.1053874574737
 30
0.0
 10
86.77885084164262
 20
-169.8911102353048
 30
0.0
 10
86.77885084164262
 20
-169.6268444020378
 30
0.0
 10
86.77885084164262
 20
-169.6268444020378
 30
0.0
 10
86.77885084164262
 20
-95.66204442052882
 30
0.0
 10
86.77885084164262
 20
-95.66204442052882
 30
0.0
 10
86.7593775088061
 20
-95.66204442052882
 30
0.0
 10
86.74371417587237
 20
-95.64616942053276
 30
0.0
 10
86.74371417587237
 20
-95.62655497609333
 30
0.0
 10
86.74371417587237
 20
-95.62655497609333
 30
0.0
 10
86.74371417587237
 20
-170.1618671796815
 30
0.0
 10
86.74371417587237
 20
-170.1618671796815
 30
0.0
 10
86.74371417587237
 20
-170.1618671796815
 30
0.0
 10
87.27891332888497
 20
-170.1618671796815
 30
0.0
 10
87.27891332888497
 20
-170.1618671796815
 30
0.0
 10
87.25943999604844
 20
-170.1618671796815
 30
0.0
 10
87.24360027423033
 20
-170.1460274574636
 30
0.0
 10
87.24360027423033
 20
-170.1267305130238
 30
0.0
  0
POLYLINE
  5
43
330
1F
100
AcDbEntity
  8
_U+30EC_U+30A4_U+30E4_U+30FC 1
 62
   179
420
  2234388
370
    25
100
AcDb2dPolyline
 66
     1
 10
0.0
 20
0.0
 30
0.0
  0
VERTEX
  5
44
330
43
100
AcDbEntity
  8
_U+30EC_U+30A4_U+30E4_U+30FC 1
 62
   179
420
  2234388
370
    25
100
AcDbVertex
100
AcDb2dVertex
 10
86.77885084164262
 20
-95.62655497609333
 30
0.0
  0
VERTEX
  5
45
330
43
100
AcDbEntity
  8
_U+30EC_U+30A4_U+30E4_U+30FC 1
 62
   179
420
  2234388
370
    25
100
AcDbVertex
100
AcDb2dVertex
 10
86.77885084164262
 20
-169.6268444020378
 30
0.0
  0
SEQEND
  5
46
330
43
100
AcDbEntity
  8
_U+30EC_U+30A4_U+30E4_U+30FC 1
 62
   179
420
  2234388
370
    25
  0
POLYLINE
  5
47
330
1F
100
AcDbEntity
  8
_U+30EC_U+30A4_U+30E4_U+30FC 1
 62
   179
420
  2234388
370
    25
100
AcDb2dPolyline
 66
     1
 10
0.0
 20
0.0
 30
0.0
  0
VERTEX
  5
48
330
47
100
AcDbEntity
  8
_U+30EC_U+30A4_U+30E4_U+30FC 1
 62
   179
420
  2234388
370
    25
100
AcDbVertex
100
AcDb2dVertex
 10
97.77871108666632
 20
-95.62655497609333
 30
0.0
  0
VERTEX
  5
49
330
47
100
AcDbEntity
  8
_U+30EC_U+30A4_U+30E4_U+30FC 1
 62
   179
420
  2234388
370
    25
100
AcDbVertex
100
AcDb2dVertex
 10
97.77871108666632
 20
-103.1268574742182
 30
0.0
  0
SEQEND
  5
4A
330
47
100
AcDbEntity
  8
_U+30EC_U+30A4_U+30E4_U+30FC 1
 62
   179
420
  2234388
370
    25
  0
POLYLINE
  5
4B
330
1F
100
AcDbEntity
  8
_U+30EC_U+30A4_U+30E4_U+30FC 1
 62
   179
420
  2234388
370
    25
100
AcDb2dPolyline
 66
     1
 10
0.0
 20
0.0
 30
0.0
  0
VERTEX
  5
4C
330
4B
100
AcDbEntity
  8
_U+30EC_U+30A4_U+30E4_U+30FC 1
 62
   179
420
  2234388
370
    25
100
AcDbVertex
100
AcDb2dVertex
 10
87.27891332888497
 20
-95.12666886510738
 30
0.0
  0
VERTEX
  5
4D
330
4B
100
AcDbEntity
  8
_U+30EC_U+30A4_U+30E4_U+30FC 1
 62
   179
420
  2234388
370
    25
100
AcDbVertex
100
AcDb2dVertex
 10
97.27917775345813
 20
-95.12666886510738
 30
0.0
  0
SEQEND
  5
4E
330
4B
100
AcDbEntity
  8
_U+30EC_U+30A4_U+30E4_U+30FC 1
 62
   179
420
  2234388
370
    25
  0
POLYLINE
  5
4F
330
1F
100
AcDbEntity
  8
_U+30EC_U+30A4_U+30E4_U+30FC 1
 62
   179
420
  2234388
370
    25
100
AcDb2dPolyline
 66
     1
 10
0.0
 20
0.0
 30
0.0
  0
VERTEX
  5
50
330
4F
100
AcDbEntity
  8
_U+30EC_U+30A4_U+30E4_U+30FC 1
 62
   179
420
  2234388
370
    25
100
AcDbVertex
100
AcDb2dVertex
 10
87.27891332888497
 20
-170.1267305130238
 30
0.0
  0
VERTEX
  5
51
330
4F
100
AcDbEntity
  8
_U+30EC_U+30A4_U+30E4_U+30FC 1
 62
   179
420
  2234388
370
    25
100
AcDbVertex
100
AcDb2dVertex
 10
88.27886191448526
 20
-170.1267305130238
 30
0.0
  0
SEQEND
  5
52
330
4F
100
AcDbEntity
  8
_U+30EC_U+30A4_U+30E4_U+30FC 1
 62
   179
420
  2234388
370
    25
  0
POLYLINE
  5
53
330
1F
100
AcDbEntity
  8
_U+30EC_U+30A4_U+30E4_U+30FC 1
 62
   179
420
  2234388
370
    25
100
AcDb2dPolyline
 66
     1
 10
0.0
 20
0.0
 30
0.0
  0
VERTEX
  5
54
330
53
100
AcDbEntity
  8
_U+30EC_U+30A4_U+30E4_U+30FC 1
 62
   179
420
  2234388
370
    25
100
AcDbVertex
100
AcDb2dVertex
 10
96.97874974808819
 20
-103.1268574742182
 30
0.0
  0
VERTEX
  5
55
330
53
100
AcDbEntity
  8
_U+30EC_U+30A4_U+30E4_U+30FC 1
 62
   179
420
  2234388
370
    25
100
AcDbVertex
100
AcDb2dVertex
 10
97.77871108666632
 20
-103.1268574742182
 30
0.0
  0
SEQEND
  5
56
330
53
100
AcDbEntity
  8
_U+30EC_U+30A4_U+30E4_U+30FC 1
 62
   179
420
  2234388
370
    25
  0
POLYLINE
  5
57
330
1F
100
AcDbEntity
  8
_U+30EC_U+30A4_U+30E4_U+30FC 1
 62
   179
420
  2234388
370
    25
100
AcDb2dPolyline
 66
     1
 10
0.0
 20
0.0
 30
0.0
  0
VERTEX
  5
58
330
57
100
AcDbEntity
  8
_U+30EC_U+30A4_U+30E4_U+30FC 1
 62
   179
420
  2234388
370
    25
100
AcDbVertex
100
AcDb2dVertex
 10
88.47885163160532
 20
-135.1266241328848
 30
0.0
  0
VERTEX
  5
59
330
57
100
AcDbEntity
  8
_U+30EC_U+30A4_U+30E4_U+30FC 1
 62
   179
420
  2234388
370
    25
100
AcDbVertex
100
AcDb2dVertex
 10
95.77916664272188
 20
-135.1266241328848
 30
0.0
  0
SEQEND
  5
5A
330
57
100
AcDbEntity
  8
_U+30EC_U+30A4_U+30E4_U+30FC 1
 62
   179
420
  2234388
370
    25
  0
POLYLINE
  5
5B
330
1F
100
AcDbEntity
  8
_U+30EC_U+30A4_U+30E4_U+30FC 1
 62
   179
420
  2234388
370
    25
100
AcDb2dPolyline
 66
     1
 10
0.0
 20
0.0
 30
0.0
  0
VERTEX
  5
5C
330
5B
100
AcDbEntity
  8
_U+30EC_U+30A4_U+30E4_U+30FC 1
 62
   179
420
  2234388
370
    25
100
AcDbVertex
100
AcDb2dVertex
 10
96.97874974808819
 20
-95.92662775379601
 30
0.0
  0
VERTEX
  5
5D
330
5B
100
AcDbEntity
  8
_U+30EC_U+30A4_U+30E4_U+30FC 1
 62
   179
420
  2234388
370
    25
100
AcDbVertex
100
AcDb2dVertex
 10
96.97874974808819
 20
-103.1268574742182
 30
0.0
  0
SEQEND
  5
5E
330
5B
100
AcDbEntity
  8
_U+30EC_U+30A4_U+30E4_U+30FC 1
 62
   179
420
  2234388
370
    25
  0
POLYLINE
  5
5F
330
1F
100
AcDbEntity
  8
_U+30EC_U+30A4_U+30E4_U+30FC 1
 62
   179
420
  2234388
370
    25
100
AcDb2dPolyline
 66
     1
 10
0.0
 20
0.0
 30
0.0
  0
VERTEX
  5
60
330
5F
100
AcDbEntity
  8
_U+30EC_U+30A4_U+30E4_U+30FC 1
 62
   179
420
  2234388
370
    25
100
AcDbVertex
100
AcDb2dVertex
 10
87.57898609900725
 20
-95.92662775379601
 30
0.0
  0
VERTEX
  5
61
330
5F
100
AcDbEntity
  8
_U+30EC_U+30A4_U+30E4_U+30FC 1
 62
   179
420
  2234388
370
    25
100
AcDbVertex
100
AcDb2dVertex
 10
96.97874974808819
 20
-95.92662775379601
 30
0.0
  0
SEQEND
  5
62
330
5F
100
AcDbEntity
  8
_U+30EC_U+30A4_U+30E4_U+30FC 1
 62
   179
420
  2234388
370
    25
  0
POLYLINE
  5
63
330
1F
100
AcDbEntity
  8
_U+30EC_U+30A4_U+30E4_U+30FC 1
 62
   179
420
  2234388
370
    25
100
AcDb2dPolyline
 66
     1
 10
0.0
 20
0.0
 30
0.0
  0
VERTEX
  5
64
330
63
100
AcDbEntity
  8
_U+30EC_U+30A4_U+30E4_U+30FC 1
 62
   179
420
  2234388
370
    25
100
AcDbVertex
100
AcDb2dVertex
 10
87.57898609900725
 20
-95.92662775379601
 30
0.0
  0
VERTEX
  5
65
330
63
100
AcDbEntity
  8
_U+30EC_U+30A4_U+30E4_U+30FC 1
 62
   179
420
  2234388
370
    25
100
AcDbVertex
100
AcDb2dVertex
 10
87.57898609900725
 20
-169.3267716243352
 30
0.0
  0
SEQEND
  5
66
330
63
100
AcDbEntity
  8
_U+30EC_U+30A4_U+30E4_U+30FC 1
 62
   179
420
  2234388
370
    25
  0
POLYLINE
  5
67
330
1F
100
AcDbEntity
  8
_U+30EC_U+30A4_U+30E4_U+30FC 1
 62
   179
420
  2234388
370
    25
100
AcDb2dPolyline
 66
     1
 10
0.0
 20
0.0
 30
0.0
  0
VERTEX
  5
68
330
67
100
AcDbEntity
  8
_U+30EC_U+30A4_U+30E4_U+30FC 1
 62
   179
420
  2234388
370
    25
100
AcDbVertex
100
AcDb2dVertex
 10
87.57898609900725
 20
-169.3267716243352
 30
0.0
  0
VERTEX
  5
69
330
67
100
AcDbEntity
  8
_U+30EC_U+30A4_U+30E4_U+30FC 1
 62
   179
420
  2234388
370
    25
100
AcDbVertex
100
AcDb2dVertex
 10
87.97896553324738
 20
-169.3267716243352
 30
0.0
  0
SEQEND
  5
6A
330
67
100
AcDbEntity
  8
_U+30EC_U+30A4_U+30E4_U+30FC 1
 62
   179
420
  2234388
370
    25
  0
POLYLINE
  5
6B
330
1F
100
AcDbEntity
  8
_U+30EC_U+30A4_U+30E4_U+30FC 1
 62
   179
420
  2234388
370
    25
100
AcDb2dPolyline
 66
     1
 10
0.0
 20
0.0
 30
0.0
  0
VERTEX
  5
6C
330
6B
100
AcDbEntity
  8
_U+30EC_U+30A4_U+30E4_U+30FC 1
 62
   179
420
  2234388
370
    25
100
AcDbVertex
100
AcDb2dVertex
 10
88.77888912395073
 20
-135.9265830215741
 30
0.0
  0
VERTEX
  5
6D
330
6B
100
AcDbEntity
  8
_U+30EC_U+30A4_U+30E4_U+30FC 1
 62
   179
420
  2234388
370
    25
100
AcDbVertex
100
AcDb2dVertex
 10
88.77888912395073
 20
-169.6268444020378
 30
0.0
  0
SEQEND
  5
6E
330
6B
100
AcDbEntity
  8
_U+30EC_U+30A4_U+30E4_U+30FC 1
 62
   179
420
  2234388
370
    25
  0
POLYLINE
  5
6F
330
1F
100
AcDbEntity
  8
_U+30EC_U+30A4_U+30E4_U+30FC 1
 62
   179
420
  2234388
370
    25
100
AcDb2dPolyline
 66
     1
 10
0.0
 20
0.0
 30
0.0
  0
VERTEX
  5
70
330
6F
100
AcDbEntity
  8
_U+30EC_U+30A4_U+30E4_U+30FC 1
 62
   179
420
  2234388
370
    25
100
AcDbVertex
100
AcDb2dVertex
 10
87.97896553324738
 20
-135.6268630216491
 30
0.0
  0
VERTEX
  5
71
330
6F
100
AcDbEntity
  8
_U+30EC_U+30A4_U+30E4_U+30FC 1
 62
   179
420
  2234388
370
    25
100
AcDbVertex
100
AcDb2dVertex
 10
87.97896553324738
 20
-169.3267716243352
 30
0.0
  0
SEQEND
  5
72
330
6F
100
AcDbEntity
  8
_U+30EC_U+30A4_U+30E4_U+30FC 1
 62
   179
420
  2234388
370
    25
  0
POLYLINE
  5
73
330
1F
100
AcDbEntity
  8
_U+30EC_U+30A4_U+30E4_U+30FC 1
 62
   179
420
  2234388
370
    25
100
AcDb2dPolyline
 66
     1
 10
0.0
 20
0.0
 30
0.0
  0
VERTEX
  5
74
330
73
100
AcDbEntity
  8
_U+30EC_U+30A4_U+30E4_U+30FC 1
 62
   179
420
  2234388
370
    25
100
AcDbVertex
100
AcDb2dVertex
 10
88.77888912395073
 20
-135.9265830215741
 30
0.0
  0
VERTEX
  5
75
330
73
100
AcDbEntity
  8
_U+30EC_U+30A4_U+30E4_U+30FC 1
 62
   179
420
  2234388
370
    25
100
AcDbVertex
100
AcDb2dVertex
 10
95.47873867524555
 20
-135.9265830215741
 30
0.0
  0
SEQEND
  5
76
330
73
100
AcDbEntity
  8
_U+30EC_U+30A4_U+30E4_U+30FC 1
 62
   179
420
  2234388
370
    25
  0
POLYLINE
  5
77
330
1F
100
AcDbEntity
  8
_U+30EC_U+30A4_U+30E4_U+30FC 1
 62
   179
420
  2234388
370
    25
100
AcDb2dPolyline
 66
     1
 10
0.0
 20
0.0
 30
0.0
  0
VERTEX
  5
78
330
77
100
AcDbEntity
  8
_U+30EC_U+30A4_U+30E4_U+30FC 1
 62
   179
420
  2234388
370
    25
100
AcDbVertex
100
AcDb2dVertex
 10
96.27869997593007
 20
-135.6268630216491
 30
0.0
  0
VERTEX
  5
79
330
77
100
AcDbEntity
  8
_U+30EC_U+30A4_U+30E4_U+30FC 1
 62
   179
420
  2234388
370
    25
100
AcDbVertex
100
AcDb2dVertex
 10
96.27869997593007
 20
-143.1268480197741
 30
0.0
  0
SEQEND
  5
7A
330
77
100
AcDbEntity
  8
_U+30EC_U+30A4_U+30E4_U+30FC 1
 62
   179
420
  2234388
370
    25
  0
POLYLINE
  5
7B
330
1F
100
AcDbEntity
  8
_U+30EC_U+30A4_U+30E4_U+30FC 1
 62
   179
420
  2234388
370
    25
100
AcDb2dPolyline
 66
     1
 10
0.0
 20
0.0
 30
0.0
  0
VERTEX
  5
7C
330
7B
100
AcDbEntity
  8
_U+30EC_U+30A4_U+30E4_U+30FC 1
 62
   179
420
  2234388
370
    25
100
AcDbVertex
100
AcDb2dVertex
 10
95.47873867524555
 20
-135.9265830215741
 30
0.0
  0
VERTEX
  5
7D
330
7B
100
AcDbEntity
  8
_U+30EC_U+30A4_U+30E4_U+30FC 1
 62
   179
420
  2234388
370
    25
100
AcDbVertex
100
AcDb2dVertex
 10
95.47873867524555
 20
-143.1268480197741
 30
0.0
  0
SEQEND
  5
7E
330
7B
100
AcDbEntity
  8
_U+30EC_U+30A4_U+30E4_U+30FC 1
 62
   179
420
  2234388
370
    25
  0
POLYLINE
  5
7F
330
1F
100
AcDbEntity
  8
_U+30EC_U+30A4_U+30E4_U+30FC 1
 62
   179
420
  2234388
370
    25
100
AcDb2dPolyline
 66
     1
 10
0.0
 20
0.0
 30
0.0
  0
VERTEX
  5
80
330
7F
100
AcDbEntity
  8
_U+30EC_U+30A4_U+30E4_U+30FC 1
 62
   179
420
  2234388
370
    25
100
AcDbVertex
100
AcDb2dVertex
 10
95.47873867524555
 20
-143.1268480197741
 30
0.0
  0
VERTEX
  5
81
330
7F
100
AcDbEntity
  8
_U+30EC_U+30A4_U+30E4_U+30FC 1
 62
   179
420
  2234388
370
    25
100
AcDbVertex
100
AcDb2dVertex
 10
96.27869997593007
 20
-143.1268480197741
 30
0.0
  0
SEQEND
  5
82
330
7F
100
AcDbEntity
  8
_U+30EC_U+30A4_U+30E4_U+30FC 1
 62
   179
420
  2234388
370
    25
  0
SPLINE
  5
83
330
1F
100
AcDbEntity
  8
_U+30EC_U+30A4_U+30E4_U+30FC 1
 62
   179
420
  2234388
370
    25
100
AcDbSpline
210
0.0
220
0.0
230
1.0
 70
     8
 71
     3
 72
     8
 73
     4
 74
     0
 42
0.0000000001
 43
0.0000000001
 12
1.0
 22
0.0
 32
0.0
 13
1.0
 23
0.0
 33
0.0
 40
0.0
 40
0.0
 40
0.0
 40
0.0
 40
1.0
 40
1.0
 40
1.0
 40
1.0
 10
87.27891332888497
 20
-95.12666886510738
 30
0.0
 10
87.00279416926269
 20
-95.12666886510738
 30
0.0
 10
86.77885084164262
 20
-95.35061219838467
 30
0.0
 10
86.77885084164262
 20
-95.62655497609333
 30
0.0
  0
SPLINE
  5
84
330
1F
100
AcDbEntity
  8
_U+30EC_U+30A4_U+30E4_U+30FC 1
 62
   179
420
  2234388
370
    25
100
AcDbSpline
210
0.0
220
0.0
230
1.0
 70
     8
 71
     3
 72
     8
 73
     4
 74
     0
 42
0.0000000001
 43
0.0000000001
 12
1.0
 22
0.0
 32
0.0
 13
1.0
 23
0.0
 33
0.0
 40
0.0
 40
0.0
 40
0.0
 40
0.0
 40
1.0
 40
1.0
 40
1.0
 40
1.0
 10
97.77871108666632
 20
-95.62655497609333
 30
0.0
 10
97.77871108666632
 20
-95.35061219838467
 30
0.0
 10
97.55511806671714
 20
-95.12666886510738
 30
0.0
 10
97.27917775345813
 20
-95.12666886510738
 30
0.0
  0
SPLINE
  5
85
330
1F
100
AcDbEntity
  8
_U+30EC_U+30A4_U+30E4_U+30FC 1
 62
   179
420
  2234388
370
    25
100
AcDbSpline
210
0.0
220
0.0
230
1.0
 70
     8
 71
     3
 72
     8
 73
     4
 74
     0
 42
0.0000000001
 43
0.0000000001
 12
1.0
 22
0.0
 32
0.0
 13
1.0
 23
0.0
 33
0.0
 40
0.0
 40
0.0
 40
0.0
 40
0.0
 40
1.0
 40
1.0
 40
1.0
 40
1.0
 10
86.77885084164262
 20
-169.6268444020378
 30
0.0
 10
86.77885084164262
 20
-169.9028224575241
 30
0.0
 10
87.00279416926269
 20
-170.1267305130238
 30
0.0
 10
87.27891332888497
 20
-170.1267305130238
 30
0.0
  0
SPLINE
  5
86
330
1F
100
AcDbEntity
  8
_U+30EC_U+30A4_U+30E4_U+30FC 1
 62
   179
420
  2234388
370
    25
100
AcDbSpline
210
0.0
220
0.0
230
1.0
 70
     8
 71
     3
 72
     8
 73
     4
 74
     0
 42
0.0000000001
 43
0.0000000001
 12
1.0
 22
0.0
 32
0.0
 13
1.0
 23
0.0
 33
0.0
 40
0.0
 40
0.0
 40
0.0
 40
0.0
 40
1.0
 40
1.0
 40
1.0
 40
1.0
 10
88.27886191448526
 20
-170.1267305130238
 30
0.0
 10
88.55498331119456
 20
-170.1267305130238
 30
0.0
 10
88.77888912395073
 20
-169.9028224575241
 30
0.0
 10
88.77888912395073
 20
-169.6268444020378
 30
0.0
  0
SPLINE
  5
87
330
1F
100
AcDbEntity
  8
_U+30EC_U+30A4_U+30E4_U+30FC 1
 62
   179
420
  2234388
370
    25
100
AcDbSpline
210
0.0
220
0.0
230
1.0
 70
     8
 71
     3
 72
     8
 73
     4
 74
     0
 42
0.0000000001
 43
0.0000000001
 12
1.0
 22
0.0
 32
0.0
 13
1.0
 23
0.0
 33
0.0
 40
0.0
 40
0.0
 40
0.0
 40
0.0
 40
1.0
 40
1.0
 40
1.0
 40
1.0
 10
88.47885163160532
 20
-135.1266241328848
 30
0.0
 10
88.20269719420617
 20
-135.1266241328848
 30
0.0
 10
87.97896553324738
 20
-135.3505674661621
 30
0.0
 10
87.97896553324738
 20
-135.6268630216491
 30
0.0
  0
SPLINE
  5
88
330
1F
100
AcDbEntity
  8
_U+30EC_U+30A4_U+30E4_U+30FC 1
 62
   179
420
  2234388
370
    25
100
AcDbSpline
210
0.0
220
0.0
230
1.0
 70
     8
 71
     3
 72
     8
 73
     4
 74
     0
 42
0.0000000001
 43
0.0000000001
 12
1.0
 22
0.0
 32
0.0
 13
1.0
 23
0.0
 33
0.0
 40
0.0
 40
0.0
 40
0.0
 40
0.0
 40
1.0
 40
1.0
 40
1.0
 40
1.0
 10
96.27869997593007
 20
-135.6268630216491
 30
0.0
 10
96.27869997593007
 20
-135.3505674661621
 30
0.0
 10
96.0551069938745
 20
-135.1266241328848
 30
0.0
 10
95.77916664272188
 20
-135.1266241328848
 30
0.0
  0
SPLINE
  5
89
330
1F
100
AcDbEntity
  8
_U+30EC_U+30A4_U+30E4_U+30FC 1
 62
   179
420
  2234388
370
     9
100
AcDbSpline
210
0.0
220
0.0
230
1.0
 70
    11
 71
     3
 72
    17
 73
    13
 74
     0
 42
0.0000000001
 43
0.0000000001
 12
1.0
 22
0.0
 32
0.0
 13
1.0
 23
0.0
 33
0.0
 40
0.0
 40
0.0
 40
0.0
 40
0.0
 40
1.0
 40
1.0
 40
1.0
 40
2.0
 40
2.0
 40
2.0
 40
3.0
 40
3.0
 40
3.0
 40
4.0
 40
4.0
 40
4.0
 40
4.0
 10
100.3790688280055
 20
-170.1267305130238
 30
0.0
 10
100.3790688280055
 20
-170.0716266241489
 30
0.0
 10
100.3342660513707
 20
-170.0268238463822
 30
0.0
 10
100.2791621638877
 20
-170.0268238463822
 30
0.0
 10
100.2236702208589
 20
-170.0268238463822
 30
0.0
 10
100.178902722001
 20
-170.0716266241489
 30
0.0
 10
100.178902722001
 20
-170.1267305130238
 30
0.0
 10
100.178902722001
 20
-170.1818696796769
 30
0.0
 10
100.2236702208589
 20
-170.2266371796655
 30
0.0
 10
100.2791621638877
 20
-170.2266371796655
 30
0.0
 10
100.3342660513707
 20
-170.2266371796655
 30
0.0
 10
100.3790688280055
 20
-170.1818696796769
 30
0.0
 10
100.3790688280055
 20
-170.1267305130238
 30
0.0
  0
SPLINE
  5
8A
330
1F
100
AcDbEntity
  8
_U+30EC_U+30A4_U+30E4_U+30FC 1
 62
   179
420
  2234388
370
     9
100
AcDbSpline
210
0.0
220
0.0
230
1.0
 70
    11
 71
     3
 72
    17
 73
    13
 74
     0
 42
0.0000000001
 43
0.0000000001
 12
1.0
 22
0.0
 32
0.0
 13
1.0
 23
0.0
 33
0.0
 40
0.0
 40
0.0
 40
0.0
 40
0.0
 40
1.0
 40
1.0
 40
1.0
 40
2.0
 40
2.0
 40
2.0
 40
3.0
 40
3.0
 40
3.0
 40
4.0
 40
4.0
 40
4.0
 40
4.0
 10
100.3790688280055
 20
-135.1266241328848
 30
0.0
 10
100.3790688280055
 20
-135.0715202440099
 30
0.0
 10
100.3342660513707
 20
-135.0267174662432
 30
0.0
 10
100.2791621638877
 20
-135.0267174662432
 30
0.0
 10
100.2236702208589
 20
-135.0267174662432
 30
0.0
 10
100.178902722001
 20
-135.0715202440099
 30
0.0
 10
100.178902722001
 20
-135.1266241328848
 30
0.0
 10
100.178902722001
 20
-135.1817632995379
 30
0.0
 10
100.2236702208589
 20
-135.2265307995264
 30
0.0
 10
100.2791621638877
 20
-135.2265307995264
 30
0.0
 10
100.3342660513707
 20
-135.2265307995264
 30
0.0
 10
100.3790688280055
 20
-135.1817632995379
 30
0.0
 10
100.3790688280055
 20
-135.1266241328848
 30
0.0
  0
SPLINE
  5
8B
330
1F
100
AcDbEntity
  8
_U+30EC_U+30A4_U+30E4_U+30FC 1
 62
   179
420
  2234388
370
     9
100
AcDbSpline
210
0.0
220
0.0
230
1.0
 70
    11
 71
     3
 72
    17
 73
    13
 74
     0
 42
0.0000000001
 43
0.0000000001
 12
1.0
 22
0.0
 32
0.0
 13
1.0
 23
0.0
 33
0.0
 40
0.0
 40
0.0
 40
0.0
 40
0.0
 40
1.0
 40
1.0
 40
1.0
 40
2.0
 40
2.0
 40
2.0
 40
3.0
 40
3.0
 40
3.0
 40
4.0
 40
4.0
 40
4.0
 40
4.0
 10
101.8790471967522
 20
-103.1268574742182
 30
0.0
 10
101.8790471967522
 20
-103.0714008075655
 30
0.0
 10
101.8342771242134
 20
-103.0265980297988
 30
0.0
 10
101.7791379589534
 20
-103.0265980297988
 30
0.0
 10
101.7236812937016
 20
-103.0265980297988
 30
0.0
 10
101.6788785170668
 20
-103.0714008075655
 30
0.0
 10
101.6788785170668
 20
-103.1268574742182
 30
0.0
 10
101.6788785170668
 20
-103.1819966408713
 30
0.0
 10
101.7236812937016
 20
-103.2267641408602
 30
0.0
 10
101.7791379589534
 20
-103.2267641408602
 30
0.0
 10
101.8342771242134
 20
-103.2267641408602
 30
0.0
 10
101.8790471967522
 20
-103.1819966408713
 30
0.0
 10
101.8790471967522
 20
-103.1268574742182
 30
0.0
  0
SPLINE
  5
8C
330
1F
100
AcDbEntity
  8
_U+30EC_U+30A4_U+30E4_U+30FC 1
 62
   179
420
  2234388
370
     9
100
AcDbSpline
210
0.0
220
0.0
230
1.0
 70
    11
 71
     3
 72
    17
 73
    13
 74
     0
 42
0.0000000001
 43
0.0000000001
 12
1.0
 22
0.0
 32
0.0
 13
1.0
 23
0.0
 33
0.0
 40
0.0
 40
0.0
 40
0.0
 40
0.0
 40
1.0
 40
1.0
 40
1.0
 40
2.0
 40
2.0
 40
2.0
 40
3.0
 40
3.0
 40
3.0
 40
4.0
 40
4.0
 40
4.0
 40
4.0
 10
101.8790471967522
 20
-95.12666886510738
 30
0.0
 10
101.8790471967522
 20
-95.0715296984543
 30
0.0
 10
101.8342771242134
 20
-95.02676219846542
 30
0.0
 10
101.7791379589534
 20
-95.02676219846542
 30
0.0
 10
101.7236812937016
 20
-95.02676219846542
 30
0.0
 10
101.6788785170668
 20
-95.0715296984543
 30
0.0
 10
101.6788785170668
 20
-95.12666886510738
 30
0.0
 10
101.6788785170668
 20
-95.1817727539823
 30
0.0
 10
101.7236812937016
 20
-95.22657553174902
 30
0.0
 10
101.7791379589534
 20
-95.22657553174902
 30
0.0
 10
101.8342771242134
 20
-95.22657553174902
 30
0.0
 10
101.8790471967522
 20
-95.1817727539823
 30
0.0
 10
101.8790471967522
 20
-95.12666886510738
 30
0.0
  0
SPLINE
  5
8D
330
1F
100
AcDbEntity
  8
_U+30EC_U+30A4_U+30E4_U+30FC 1
 62
   179
420
  2234388
370
     9
100
AcDbSpline
210
0.0
220
0.0
230
1.0
 70
    11
 71
     3
 72
    17
 73
    13
 74
     0
 42
0.0000000001
 43
0.0000000001
 12
1.0
 22
0.0
 32
0.0
 13
1.0
 23
0.0
 33
0.0
 40
0.0
 40
0.0
 40
0.0
 40
0.0
 40
1.0
 40
1.0
 40
1.0
 40
2.0
 40
2.0
 40
2.0
 40
3.0
 40
3.0
 40
3.0
 40
4.0
 40
4.0
 40
4.0
 40
4.0
 10
97.87893278067817
 20
-91.12655692166274
 30
0.0
 10
97.87893278067817
 20
-91.07145303278782
 30
0.0
 10
97.83416528182028
 20
-91.0266502550211
 30
0.0
 10
97.77871108666632
 20
-91.0266502550211
 30
0.0
 10
97.72356945130848
 20
-91.0266502550211
 30
0.0
 10
97.6788019524506
 20
-91.07145303278782
 30
0.0
 10
97.6788019524506
 20
-91.12655692166274
 30
0.0
 10
97.6788019524506
 20
-91.18204886609325
 30
0.0
 10
97.72356945130848
 20
-91.22681636608213
 30
0.0
 10
97.77871108666632
 20
-91.22681636608213
 30
0.0
 10
97.83416528182028
 20
-91.22681636608213
 30
0.0
 10
97.87893278067817
 20
-91.18204886609325
 30
0.0
 10
97.87893278067817
 20
-91.12655692166274
 30
0.0
  0
SPLINE
  5
8E
330
1F
100
AcDbEntity
  8
_U+30EC_U+30A4_U+30E4_U+30FC 1
 62
   179
420
  2234388
370
     9
100
AcDbSpline
210
0.0
220
0.0
230
1.0
 70
    11
 71
     3
 72
    17
 73
    13
 74
     0
 42
0.0000000001
 43
0.0000000001
 12
1.0
 22
0.0
 32
0.0
 13
1.0
 23
0.0
 33
0.0
 40
0.0
 40
0.0
 40
0.0
 40
0.0
 40
1.0
 40
1.0
 40
1.0
 40
2.0
 40
2.0
 40
2.0
 40
3.0
 40
3.0
 40
3.0
 40
4.0
 40
4.0
 40
4.0
 40
4.0
 10
86.87893608939129
 20
-91.12655692166274
 30
0.0
 10
86.87893608939129
 20
-91.07145303278782
 30
0.0
 10
86.83413331162488
 20
-91.0266502550211
 30
0.0
 10
86.77885084164262
 20
-91.0266502550211
 30
0.0
 10
86.72374695415955
 20
-91.0266502550211
 30
0.0
 10
86.6789441775248
 20
-91.07145303278782
 30
0.0
 10
86.6789441775248
 20
-91.12655692166274
 30
0.0
 10
86.6789441775248
 20
-91.18204886609325
 30
0.0
 10
86.72374695415955
 20
-91.22681636608213
 30
0.0
 10
86.77885084164262
 20
-91.22681636608213
 30
0.0
 10
86.83413331162488
 20
-91.22681636608213
 30
0.0
 10
86.87893608939129
 20
-91.18204886609325
 30
0.0
 10
86.87893608939129
 20
-91.12655692166274
 30
0.0
  0
SPLINE
  5
8F
330
1F
100
AcDbEntity
  8
_U+30EC_U+30A4_U+30E4_U+30FC 1
 62
   179
420
  2234388
370
     9
100
AcDbSpline
210
0.0
220
0.0
230
1.0
 70
    11
 71
     3
 72
    17
 73
    13
 74
     0
 42
0.0000000001
 43
0.0000000001
 12
1.0
 22
0.0
 32
0.0
 13
1.0
 23
0.0
 33
0.0
 40
0.0
 40
0.0
 40
0.0
 40
0.0
 40
1.0
 40
1.0
 40
1.0
 40
2.0
 40
2.0
 40
2.0
 40
3.0
 40
3.0
 40
3.0
 40
4.0
 40
4.0
 40
4.0
 40
4.0
 10
82.87882205225176
 20
-95.12666886510738
 30
0.0
 10
82.87882205225176
 20
-95.0715296984543
 30
0.0
 10
82.83423094227827
 20
-95.02676219846542
 30
0.0
 10
82.77891538813392
 20
-95.02676219846542
 30
0.0
 10
82.72363511176647
 20
-95.02676219846542
 30
0.0
 10
82.6788323351317
 20
-95.0715296984543
 30
0.0
 10
82.6788323351317
 20
-95.12666886510738
 30
0.0
 10
82.6788323351317
 20
-95.1817727539823
 30
0.0
 10
82.72363511176647
 20
-95.22657553174902
 30
0.0
 10
82.77891538813392
 20
-95.22657553174902
 30
0.0
 10
82.83423094227827
 20
-95.22657553174902
 30
0.0
 10
82.87882205225176
 20
-95.1817727539823
 30
0.0
 10
82.87882205225176
 20
-95.12666886510738
 30
0.0
  0
SPLINE
  5
90
330
1F
100
AcDbEntity
  8
_U+30EC_U+30A4_U+30E4_U+30FC 1
 62
   179
420
  2234388
370
     9
100
AcDbSpline
210
0.0
220
0.0
230
1.0
 70
    11
 71
     3
 72
    17
 73
    13
 74
     0
 42
0.0000000001
 43
0.0000000001
 12
1.0
 22
0.0
 32
0.0
 13
1.0
 23
0.0
 33
0.0
 40
0.0
 40
0.0
 40
0.0
 40
0.0
 40
1.0
 40
1.0
 40
1.0
 40
2.0
 40
2.0
 40
2.0
 40
3.0
 40
3.0
 40
3.0
 40
4.0
 40
4.0
 40
4.0
 40
4.0
 10
82.87882205225176
 20
-170.1267305130238
 30
0.0
 10
82.87882205225176
 20
-170.0716266241489
 30
0.0
 10
82.83423094227827
 20
-170.0268238463822
 30
0.0
 10
82.77891538813392
 20
-170.0268238463822
 30
0.0
 10
82.72363511176647
 20
-170.0268238463822
 30
0.0
 10
82.6788323351317
 20
-170.0716266241489
 30
0.0
 10
82.6788323351317
 20
-170.1267305130238
 30
0.0
 10
82.6788323351317
 20
-170.1818696796769
 30
0.0
 10
82.72363511176647
 20
-170.2266371796655
 30
0.0
 10
82.77891538813392
 20
-170.2266371796655
 30
0.0
 10
82.83423094227827
 20
-170.2266371796655
 30
0.0
 10
82.87882205225176
 20
-170.1818696796769
 30
0.0
 10
82.87882205225176
 20
-170.1267305130238
 30
0.0
  0
POLYLINE
  5
91
330
1F
100
AcDbEntity
  8
_U+30EC_U+30A4_U+30E4_U+30FC 1
 62
   179
420
  2234388
370
     9
100
AcDb2dPolyline
 66
     1
 10
0.0
 20
0.0
 30
0.0
  0
VERTEX
  5
92
330
91
100
AcDbEntity
  8
_U+30EC_U+30A4_U+30E4_U+30FC 1
 62
   179
420
  2234388
370
     9
100
AcDbVertex
100
AcDb2dVertex
 10
101.7791379589534
 20
-95.12666886510738
 30
0.0
  0
VERTEX
  5
93
330
91
100
AcDbEntity
  8
_U+30EC_U+30A4_U+30E4_U+30FC 1
 62
   179
420
  2234388
370
     9
100
AcDbVertex
100
AcDb2dVertex
 10
101.7791379589534
 20
-103.1268574742182
 30
0.0
  0
SEQEND
  5
94
330
91
100
AcDbEntity
  8
_U+30EC_U+30A4_U+30E4_U+30FC 1
 62
   179
420
  2234388
370
     9
  0
POLYLINE
  5
95
330
1F
100
AcDbEntity
  8
_U+30EC_U+30A4_U+30E4_U+30FC 1
 62
   179
420
  2234388
370
     9
100
AcDb2dPolyline
 66
     1
 10
0.0
 20
0.0
 30
0.0
  0
VERTEX
  5
96
330
95
100
AcDbEntity
  8
_U+30EC_U+30A4_U+30E4_U+30FC 1
 62
   179
420
  2234388
370
     9
100
AcDbVertex
100
AcDb2dVertex
 10
99.81889300896344
 20
-95.12666886510738
 30
0.0
  0
VERTEX
  5
97
330
95
100
AcDbEntity
  8
_U+30EC_U+30A4_U+30E4_U+30FC 1
 62
   179
420
  2234388
370
     9
100
AcDbVertex
100
AcDb2dVertex
 10
102.7789101556693
 20
-95.12666886510738
 30
0.0
  0
SEQEND
  5
98
330
95
100
AcDbEntity
  8
_U+30EC_U+30A4_U+30E4_U+30FC 1
 62
   179
420
  2234388
370
     9
  0
POLYLINE
  5
99
330
1F
100
AcDbEntity
  8
_U+30EC_U+30A4_U+30E4_U+30FC 1
 62
   179
420
  2234388
370
     9
100
AcDb2dPolyline
 66
     1
 10
0.0
 20
0.0
 30
0.0
  0
VERTEX
  5
9A
330
99
100
AcDbEntity
  8
_U+30EC_U+30A4_U+30E4_U+30FC 1
 62
   179
420
  2234388
370
     9
100
AcDbVertex
100
AcDb2dVertex
 10
100.3190966073133
 20
-103.1268574742182
 30
0.0
  0
VERTEX
  5
9B
330
99
100
AcDbEntity
  8
_U+30EC_U+30A4_U+30E4_U+30FC 1
 62
   179
420
  2234388
370
     9
100
AcDbVertex
100
AcDb2dVertex
 10
102.7789101556693
 20
-103.1268574742182
 30
0.0
  0
SEQEND
  5
9C
330
99
100
AcDbEntity
  8
_U+30EC_U+30A4_U+30E4_U+30FC 1
 62
   179
420
  2234388
370
     9
  0
INSERT
  5
9E
330
1F
100
AcDbEntity
  8
_U+30EC_U+30A4_U+30E4_U+30FC 1
100
AcDbBlockReference
  2
block 2
 10
0.0
 20
0.0
 30
0.0
  0
SPLINE
  5
A5
330
1F
100
AcDbEntity
  8
_U+30EC_U+30A4_U+30E4_U+30FC 1
 62
   179
420
  2234388
370
    25
100
AcDbSpline
210
0.0
220
0.0
230
1.0
 70
    11
 71
     3
 72
    17
 73
    13
 74
     0
 42
0.0000000001
 43
0.0000000001
 12
1.0
 22
0.0
 32
0.0
 13
1.0
 23
0.0
 33
0.0
 40
0.0
 40
0.0
 40
0.0
 40
0.0
 40
1.0
 40
1.0
 40
1.0
 40
2.0
 40
2.0
 40
2.0
 40
3.0
 40
3.0
 40
3.0
 40
4.0
 40
4.0
 40
4.0
 40
4.0
 10
97.31431196174951
 20
-95.12666886510738
 30
0.0
 10
97.31431196174951
 20
-95.14631858732466
 30
0.0
 10
97.29843696215451
 20
-95.16180553176511
 30
0.0
 10
97.27917775345813
 20
-95.16180553176511
 30
0.0
 10
97.25917279648957
 20
-95.16180553176511
 30
0.0
 10
97.24368585244022
 20
-95.14631858732466
 30
0.0
 10
97.24368585244022
 20
-95.12666886510738
 30
0.0
 10
97.24368585244022
 20
-95.10737192066756
 30
0.0
 10
97.25917279648957
 20
-95.09153219844934
 30
0.0
 10
97.27917775345813
 20
-95.09153219844934
 30
0.0
 10
97.29843696215451
 20
-95.09153219844934
 30
0.0
 10
97.31431196174951
 20
-95.10737192066756
 30
0.0
 10
97.31431196174951
 20
-95.12666886510738
 30
0.0
  0
SPLINE
  5
A6
330
1F
100
AcDbEntity
  8
_U+30EC_U+30A4_U+30E4_U+30FC 1
 62
   179
420
  2234388
370
    25
100
AcDbSpline
210
0.0
220
0.0
230
1.0
 70
    11
 71
     3
 72
    17
 73
    13
 74
     0
 42
0.0000000001
 43
0.0000000001
 12
1.0
 22
0.0
 32
0.0
 13
1.0
 23
0.0
 33
0.0
 40
0.0
 40
0.0
 40
0.0
 40
0.0
 40
1.0
 40
1.0
 40
1.0
 40
2.0
 40
2.0
 40
2.0
 40
3.0
 40
3.0
 40
3.0
 40
4.0
 40
4.0
 40
4.0
 40
4.0
 10
97.81419806010747
 20
-103.1268574742182
 30
0.0
 10
97.81419806010747
 20
-103.146154418658
 30
0.0
 10
97.79832306051247
 20
-103.1619941408762
 30
0.0
 10
97.77871108666632
 20
-103.1619941408762
 30
0.0
 10
97.7594116726163
 20
-103.1619941408762
 30
0.0
 10
97.74357195079817
 20
-103.146154418658
 30
0.0
 10
97.74357195079817
 20
-103.1268574742182
 30
0.0
 10
97.74357195079817
 20
-103.1072430297788
 30
0.0
 10
97.7594116726163
 20
-103.0913680297827
 30
0.0
 10
97.77871108666632
 20
-103.0913680297827
 30
0.0
 10
97.79832306051247
 20
-103.0913680297827
 30
0.0
 10
97.81419806010747
 20
-103.1072430297788
 30
0.0
 10
97.81419806010747
 20
-103.1268574742182
 30
0.0
  0
SPLINE
  5
A7
330
1F
100
AcDbEntity
  8
_U+30EC_U+30A4_U+30E4_U+30FC 1
 62
   179
420
  2234388
370
     9
100
AcDbSpline
210
0.0
220
0.0
230
1.0
 70
    11
 71
     3
 72
    17
 73
    13
 74
     0
 42
0.0000000001
 43
0.0000000001
 12
1.0
 22
0.0
 32
0.0
 13
1.0
 23
0.0
 33
0.0
 40
0.0
 40
0.0
 40
0.0
 40
0.0
 40
1.0
 40
1.0
 40
1.0
 40
2.0
 40
2.0
 40
2.0
 40
3.0
 40
3.0
 40
3.0
 40
4.0
 40
4.0
 40
4.0
 40
4.0
 10
101.8142746247237
 20
-103.1268574742182
 30
0.0
 10
101.8142746247237
 20
-103.146154418658
 30
0.0
 10
101.7984349029056
 20
-103.1619941408762
 30
0.0
 10
101.7791379589534
 20
-103.1619941408762
 30
0.0
 10
101.7594882372325
 20
-103.1619941408762
 30
0.0
 10
101.7436485154144
 20
-103.146154418658
 30
0.0
 10
101.7436485154144
 20
-103.1268574742182
 30
0.0
 10
101.7436485154144
 20
-103.1072430297788
 30
0.0
 10
101.7594882372325
 20
-103.0913680297827
 30
0.0
 10
101.7791379589534
 20
-103.0913680297827
 30
0.0
 10
101.7984349029056
 20
-103.0913680297827
 30
0.0
 10
101.8142746247237
 20
-103.1072430297788
 30
0.0
 10
101.8142746247237
 20
-103.1268574742182
 30
0.0
  0
POLYLINE
  5
A8
330
1F
100
AcDbEntity
  8
_U+30EC_U+30A4_U+30E4_U+30FC 1
 62
   179
420
  2234388
370
     9
100
AcDb2dPolyline
 66
     1
 10
0.0
 20
0.0
 30
0.0
  0
VERTEX
  5
A9
330
A8
100
AcDbEntity
  8
_U+30EC_U+30A4_U+30E4_U+30FC 1
 62
   179
420
  2234388
370
     9
100
AcDbVertex
100
AcDb2dVertex
 10
86.77885084164262
 20
-91.12655692166274
 30
0.0
  0
VERTEX
  5
AA
330
A8
100
AcDbEntity
  8
_U+30EC_U+30A4_U+30E4_U+30FC 1
 62
   179
420
  2234388
370
     9
100
AcDbVertex
100
AcDb2dVertex
 10
97.77871108666632
 20
-91.12655692166274
 30
0.0
  0
SEQEND
  5
AB
330
A8
100
AcDbEntity
  8
_U+30EC_U+30A4_U+30E4_U+30FC 1
 62
   179
420
  2234388
370
     9
  0
POLYLINE
  5
AC
330
1F
100
AcDbEntity
  8
_U+30EC_U+30A4_U+30E4_U+30FC 1
 62
   179
420
  2234388
370
     9
100
AcDb2dPolyline
 66
     1
 10
0.0
 20
0.0
 30
0.0
  0
VERTEX
  5
AD
330
AC
100
AcDbEntity
  8
_U+30EC_U+30A4_U+30E4_U+30FC 1
 62
   179
420
  2234388
370
     9
100
AcDbVertex
100
AcDb2dVertex
 10
86.77885084164262
 20
-93.08683719895048
 30
0.0
  0
VERTEX
  5
AE
330
AC
100
AcDbEntity
  8
_U+30EC_U+30A4_U+30E4_U+30FC 1
 62
   179
420
  2234388
370
     9
100
AcDbVertex
100
AcDb2dVertex
 10
86.77885084164262
 20
-90.12678469969052
 30
0.0
  0
SEQEND
  5
AF
330
AC
100
AcDbEntity
  8
_U+30EC_U+30A4_U+30E4_U+30FC 1
 62
   179
420
  2234388
370
     9
  0
POLYLINE
  5
B0
330
1F
100
AcDbEntity
  8
_U+30EC_U+30A4_U+30E4_U+30FC 1
 62
   179
420
  2234388
370
     9
100
AcDb2dPolyline
 66
     1
 10
0.0
 20
0.0
 30
0.0
  0
VERTEX
  5
B1
330
B0
100
AcDbEntity
  8
_U+30EC_U+30A4_U+30E4_U+30FC 1
 62
   179
420
  2234388
370
     9
100
AcDbVertex
100
AcDb2dVertex
 10
97.77871108666632
 20
-93.08683719895048
 30
0.0
  0
VERTEX
  5
B2
330
B0
100
AcDbEntity
  8
_U+30EC_U+30A4_U+30E4_U+30FC 1
 62
   179
420
  2234388
370
     9
100
AcDbVertex
100
AcDb2dVertex
 10
97.77871108666632
 20
-90.12678469969052
 30
0.0
  0
SEQEND
  5
B3
330
B0
100
AcDbEntity
  8
_U+30EC_U+30A4_U+30E4_U+30FC 1
 62
   179
420
  2234388
370
     9
  0
INSERT
  5
B5
330
1F
100
AcDbEntity
  8
_U+30EC_U+30A4_U+30E4_U+30FC 1
100
AcDbBlockReference
  2
block 3
 10
0.0
 20
0.0
 30
0.0
  0
SPLINE
  5
BC
330
1F
100
AcDbEntity
  8
_U+30EC_U+30A4_U+30E4_U+30FC 1
 62
   179
420
  2234388
370
    25
100
AcDbSpline
210
0.0
220
0.0
230
1.0
 70
    11
 71
     3
 72
    17
 73
    13
 74
     0
 42
0.0000000001
 43
0.0000000001
 12
1.0
 22
0.0
 32
0.0
 13
1.0
 23
0.0
 33
0.0
 40
0.0
 40
0.0
 40
0.0
 40
0.0
 40
1.0
 40
1.0
 40
1.0
 40
2.0
 40
2.0
 40
2.0
 40
3.0
 40
3.0
 40
3.0
 40
4.0
 40
4.0
 40
4.0
 40
4.0
 10
86.81416389629727
 20
-95.62655497609333
 30
0.0
 10
86.81416389629727
 20
-95.64616942053276
 30
0.0
 10
86.79832417447915
 20
-95.66204442052882
 30
0.0
 10
86.77885084164262
 20
-95.66204442052882
 30
0.0
 10
86.7593775088061
 20
-95.66204442052882
 30
0.0
 10
86.74371417587237
 20
-95.64616942053276
 30
0.0
 10
86.74371417587237
 20
-95.62655497609333
 30
0.0
 10
86.74371417587237
 20
-95.60725803165383
 30
0.0
 10
86.7593775088061
 20
-95.59141830943561
 30
0.0
 10
86.77885084164262
 20
-95.59141830943561
 30
0.0
 10
86.79832417447915
 20
-95.59141830943561
 30
0.0
 10
86.81416389629727
 20
-95.60725803165383
 30
0.0
 10
86.81416389629727
 20
-95.62655497609333
 30
0.0
  0
SPLINE
  5
BD
330
1F
100
AcDbEntity
  8
_U+30EC_U+30A4_U+30E4_U+30FC 1
 62
   179
420
  2234388
370
    25
100
AcDbSpline
210
0.0
220
0.0
230
1.0
 70
    11
 71
     3
 72
    17
 73
    13
 74
     0
 42
0.0000000001
 43
0.0000000001
 12
1.0
 22
0.0
 32
0.0
 13
1.0
 23
0.0
 33
0.0
 40
0.0
 40
0.0
 40
0.0
 40
0.0
 40
1.0
 40
1.0
 40
1.0
 40
2.0
 40
2.0
 40
2.0
 40
3.0
 40
3.0
 40
3.0
 40
4.0
 40
4.0
 40
4.0
 40
4.0
 10
97.81419806010747
 20
-95.62655497609333
 30
0.0
 10
97.81419806010747
 20
-95.64616942053276
 30
0.0
 10
97.79832306051247
 20
-95.66204442052882
 30
0.0
 10
97.77871108666632
 20
-95.66204442052882
 30
0.0
 10
97.7594116726163
 20
-95.66204442052882
 30
0.0
 10
97.74357195079817
 20
-95.64616942053276
 30
0.0
 10
97.74357195079817
 20
-95.62655497609333
 30
0.0
 10
97.74357195079817
 20
-95.60725803165383
 30
0.0
 10
97.7594116726163
 20
-95.59141830943561
 30
0.0
 10
97.77871108666632
 20
-95.59141830943561
 30
0.0
 10
97.79832306051247
 20
-95.59141830943561
 30
0.0
 10
97.81419806010747
 20
-95.60725803165383
 30
0.0
 10
97.81419806010747
 20
-95.62655497609333
 30
0.0
  0
SPLINE
  5
BE
330
1F
100
AcDbEntity
  8
_U+30EC_U+30A4_U+30E4_U+30FC 1
 62
   179
420
  2234388
370
     9
100
AcDbSpline
210
0.0
220
0.0
230
1.0
 70
    11
 71
     3
 72
    17
 73
    13
 74
     0
 42
0.0000000001
 43
0.0000000001
 12
1.0
 22
0.0
 32
0.0
 13
1.0
 23
0.0
 33
0.0
 40
0.0
 40
0.0
 40
0.0
 40
0.0
 40
1.0
 40
1.0
 40
1.0
 40
2.0
 40
2.0
 40
2.0
 40
3.0
 40
3.0
 40
3.0
 40
4.0
 40
4.0
 40
4.0
 40
4.0
 10
97.81419806010747
 20
-91.12655692166274
 30
0.0
 10
97.81419806010747
 20
-91.14620664388
 30
0.0
 10
97.79832306051247
 20
-91.16204636609822
 30
0.0
 10
97.77871108666632
 20
-91.16204636609822
 30
0.0
 10
97.7594116726163
 20
-91.16204636609822
 30
0.0
 10
97.74357195079817
 20
-91.14620664388
 30
0.0
 10
97.74357195079817
 20
-91.12655692166274
 30
0.0
 10
97.74357195079817
 20
-91.10725997722322
 30
0.0
 10
97.7594116726163
 20
-91.09142025500502
 30
0.0
 10
97.77871108666632
 20
-91.09142025500502
 30
0.0
 10
97.79832306051247
 20
-91.09142025500502
 30
0.0
 10
97.81419806010747
 20
-91.10725997722322
 30
0.0
 10
97.81419806010747
 20
-91.12655692166274
 30
0.0
  0
POLYLINE
  5
BF
330
1F
100
AcDbEntity
  8
_U+30EC_U+30A4_U+30E4_U+30FC 1
 62
   179
420
  2234388
370
     9
100
AcDb2dPolyline
 66
     1
 10
0.0
 20
0.0
 30
0.0
  0
VERTEX
  5
C0
330
BF
100
AcDbEntity
  8
_U+30EC_U+30A4_U+30E4_U+30FC 1
 62
   179
420
  2234388
370
     9
100
AcDbVertex
100
AcDb2dVertex
 10
100.2791621638877
 20
-135.1266241328848
 30
0.0
  0
VERTEX
  5
C1
330
BF
100
AcDbEntity
  8
_U+30EC_U+30A4_U+30E4_U+30FC 1
 62
   179
420
  2234388
370
     9
100
AcDbVertex
100
AcDb2dVertex
 10
100.2791621638877
 20
-170.1267305130238
 30
0.0
  0
SEQEND
  5
C2
330
BF
100
AcDbEntity
  8
_U+30EC_U+30A4_U+30E4_U+30FC 1
 62
   179
420
  2234388
370
     9
  0
POLYLINE
  5
C3
330
1F
100
AcDbEntity
  8
_U+30EC_U+30A4_U+30E4_U+30FC 1
 62
   179
420
  2234388
370
     9
100
AcDb2dPolyline
 66
     1
 10
0.0
 20
0.0
 30
0.0
  0
VERTEX
  5
C4
330
C3
100
AcDbEntity
  8
_U+30EC_U+30A4_U+30E4_U+30FC 1
 62
   179
420
  2234388
370
     9
100
AcDbVertex
100
AcDb2dVertex
 10
98.31888193612079
 20
-135.1266241328848
 30
0.0
  0
VERTEX
  5
C5
330
C3
100
AcDbEntity
  8
_U+30EC_U+30A4_U+30E4_U+30FC 1
 62
   179
420
  2234388
370
     9
100
AcDbVertex
100
AcDb2dVertex
 10
101.2788990828267
 20
-135.1266241328848
 30
0.0
  0
SEQEND
  5
C6
330
C3
100
AcDbEntity
  8
_U+30EC_U+30A4_U+30E4_U+30FC 1
 62
   179
420
  2234388
370
     9
  0
POLYLINE
  5
C7
330
1F
100
AcDbEntity
  8
_U+30EC_U+30A4_U+30E4_U+30FC 1
 62
   179
420
  2234388
370
     9
100
AcDb2dPolyline
 66
     1
 10
0.0
 20
0.0
 30
0.0
  0
VERTEX
  5
C8
330
C7
100
AcDbEntity
  8
_U+30EC_U+30A4_U+30E4_U+30FC 1
 62
   179
420
  2234388
370
     9
100
AcDbVertex
100
AcDb2dVertex
 10
90.81893240523823
 20
-170.1267305130238
 30
0.0
  0
VERTEX
  5
C9
330
C7
100
AcDbEntity
  8
_U+30EC_U+30A4_U+30E4_U+30FC 1
 62
   179
420
  2234388
370
     9
100
AcDbVertex
100
AcDb2dVertex
 10
101.2788990828267
 20
-170.1267305130238
 30
0.0
  0
SEQEND
  5
CA
330
C7
100
AcDbEntity
  8
_U+30EC_U+30A4_U+30E4_U+30FC 1
 62
   179
420
  2234388
370
     9
  0
INSERT
  5
CC
330
1F
100
AcDbEntity
  8
_U+30EC_U+30A4_U+30E4_U+30FC 1
100
AcDbBlockReference
  2
block 4
 10
0.0
 20
0.0
 30
0.0
  0
SPLINE
  5
DD
330
1F
100
AcDbEntity
  8
_U+30EC_U+30A4_U+30E4_U+30FC 1
 62
   179
420
  2234388
370
    25
100
AcDbSpline
210
0.0
220
0.0
230
1.0
 70
    11
 71
     3
 72
    17
 73
    13
 74
     0
 42
0.0000000001
 43
0.0000000001
 12
1.0
 22
0.0
 32
0.0
 13
1.0
 23
0.0
 33
0.0
 40
0.0
 40
0.0
 40
0.0
 40
0.0
 40
1.0
 40
1.0
 40
1.0
 40
2.0
 40
2.0
 40
2.0
 40
3.0
 40
3.0
 40
3.0
 40
4.0
 40
4.0
 40
4.0
 40
4.0
 10
95.81430088890687
 20
-135.1266241328848
 30
0.0
 10
95.81430088890687
 20
-135.1462738551024
 30
0.0
 10
95.79846116708876
 20
-135.1621135773203
 30
0.0
 10
95.77916664272188
 20
-135.1621135773203
 30
0.0
 10
95.7591970014238
 20
-135.1621135773203
 30
0.0
 10
95.74367477959758
 20
-135.1462738551024
 30
0.0
 10
95.74367477959758
 20
-135.1266241328848
 30
0.0
 10
95.74367477959758
 20
-135.1073271884456
 30
0.0
 10
95.7591970014238
 20
-135.0914874662271
 30
0.0
 10
95.77916664272188
 20
-135.0914874662271
 30
0.0
 10
95.79846116708876
 20
-135.0914874662271
 30
0.0
 10
95.81430088890687
 20
-135.1073271884456
 30
0.0
 10
95.81430088890687
 20
-135.1266241328848
 30
0.0
  0
SPLINE
  5
DE
330
1F
100
AcDbEntity
  8
_U+30EC_U+30A4_U+30E4_U+30FC 1
 62
   179
420
  2234388
370
    25
100
AcDbSpline
210
0.0
220
0.0
230
1.0
 70
    11
 71
     3
 72
    17
 73
    13
 74
     0
 42
0.0000000001
 43
0.0000000001
 12
1.0
 22
0.0
 32
0.0
 13
1.0
 23
0.0
 33
0.0
 40
0.0
 40
0.0
 40
0.0
 40
0.0
 40
1.0
 40
1.0
 40
1.0
 40
2.0
 40
2.0
 40
2.0
 40
3.0
 40
3.0
 40
3.0
 40
4.0
 40
4.0
 40
4.0
 40
4.0
 10
88.31417496913991
 20
-170.1267305130238
 30
0.0
 10
88.31417496913991
 20
-170.1460274574636
 30
0.0
 10
88.29829996954491
 20
-170.1618671796815
 30
0.0
 10
88.27886191448526
 20
-170.1618671796815
 30
0.0
 10
88.25938858164874
 20
-170.1618671796815
 30
0.0
 10
88.24368997093814
 20
-170.1460274574636
 30
0.0
 10
88.24368997093814
 20
-170.1267305130238
 30
0.0
 10
88.24368997093814
 20
-170.1071160685844
 30
0.0
 10
88.25938858164874
 20
-170.0912410685883
 30
0.0
 10
88.27886191448526
 20
-170.0912410685883
 30
0.0
 10
88.29829996954491
 20
-170.0912410685883
 30
0.0
 10
88.31417496913991
 20
-170.1071160685844
 30
0.0
 10
88.31417496913991
 20
-170.1267305130238
 30
0.0
  0
SPLINE
  5
DF
330
1F
100
AcDbEntity
  8
_U+30EC_U+30A4_U+30E4_U+30FC 1
 62
   179
420
  2234388
370
     9
100
AcDbSpline
210
0.0
220
0.0
230
1.0
 70
    11
 71
     3
 72
    17
 73
    13
 74
     0
 42
0.0000000001
 43
0.0000000001
 12
1.0
 22
0.0
 32
0.0
 13
1.0
 23
0.0
 33
0.0
 40
0.0
 40
0.0
 40
0.0
 40
0.0
 40
1.0
 40
1.0
 40
1.0
 40
2.0
 40
2.0
 40
2.0
 40
3.0
 40
3.0
 40
3.0
 40
4.0
 40
4.0
 40
4.0
 40
4.0
 10
100.3142988296579
 20
-170.1267305130238
 30
0.0
 10
100.3142988296579
 20
-170.1460274574636
 30
0.0
 10
100.2984238300629
 20
-170.1618671796815
 30
0.0
 10
100.2791621638877
 20
-170.1618671796815
 30
0.0
 10
100.2595124421667
 20
-170.1618671796815
 30
0.0
 10
100.2436727203486
 20
-170.1460274574636
 30
0.0
 10
100.2436727203486
 20
-170.1267305130238
 30
0.0
 10
100.2436727203486
 20
-170.1071160685844
 30
0.0
 10
100.2595124421667
 20
-170.0912410685883
 30
0.0
 10
100.2791621638877
 20
-170.0912410685883
 30
0.0
 10
100.2984238300629
 20
-170.0912410685883
 30
0.0
 10
100.3142988296579
 20
-170.1071160685844
 30
0.0
 10
100.3142988296579
 20
-170.1267305130238
 30
0.0
  0
POLYLINE
  5
E0
330
1F
100
AcDbEntity
  8
_U+30EC_U+30A4_U+30E4_U+30FC 1
 62
   179
420
  2234388
370
     9
100
AcDb2dPolyline
 66
     1
 10
0.0
 20
0.0
 30
0.0
  0
VERTEX
  5
E1
330
E0
100
AcDbEntity
  8
_U+30EC_U+30A4_U+30E4_U+30FC 1
 62
   179
420
  2234388
370
     9
100
AcDbVertex
100
AcDb2dVertex
 10
82.77891538813392
 20
-170.1267305130238
 30
0.0
  0
VERTEX
  5
E2
330
E0
100
AcDbEntity
  8
_U+30EC_U+30A4_U+30E4_U+30FC 1
 62
   179
420
  2234388
370
     9
100
AcDbVertex
100
AcDb2dVertex
 10
82.77891538813392
 20
-95.12666886510738
 30
0.0
  0
SEQEND
  5
E3
330
E0
100
AcDbEntity
  8
_U+30EC_U+30A4_U+30E4_U+30FC 1
 62
   179
420
  2234388
370
     9
  0
POLYLINE
  5
E4
330
1F
100
AcDbEntity
  8
_U+30EC_U+30A4_U+30E4_U+30FC 1
 62
   179
420
  2234388
370
     9
100
AcDb2dPolyline
 66
     1
 10
0.0
 20
0.0
 30
0.0
  0
VERTEX
  5
E5
330
E4
100
AcDbEntity
  8
_U+30EC_U+30A4_U+30E4_U+30FC 1
 62
   179
420
  2234388
370
     9
100
AcDbVertex
100
AcDb2dVertex
 10
84.73884283813202
 20
-170.1267305130238
 30
0.0
  0
VERTEX
  5
E6
330
E4
100
AcDbEntity
  8
_U+30EC_U+30A4_U+30E4_U+30FC 1
 62
   179
420
  2234388
370
     9
100
AcDbVertex
100
AcDb2dVertex
 10
81.7790020803105
 20
-170.1267305130238
 30
0.0
  0
SEQEND
  5
E7
330
E4
100
AcDbEntity
  8
_U+30EC_U+30A4_U+30E4_U+30FC 1
 62
   179
420
  2234388
370
     9
  0
POLYLINE
  5
E8
330
1F
100
AcDbEntity
  8
_U+30EC_U+30A4_U+30E4_U+30FC 1
 62
   179
420
  2234388
370
     9
100
AcDb2dPolyline
 66
     1
 10
0.0
 20
0.0
 30
0.0
  0
VERTEX
  5
E9
330
E8
100
AcDbEntity
  8
_U+30EC_U+30A4_U+30E4_U+30FC 1
 62
   179
420
  2234388
370
     9
100
AcDbVertex
100
AcDb2dVertex
 10
84.73884283813202
 20
-95.12666886510738
 30
0.0
  0
VERTEX
  5
EA
330
E8
100
AcDbEntity
  8
_U+30EC_U+30A4_U+30E4_U+30FC 1
 62
   179
420
  2234388
370
     9
100
AcDbVertex
100
AcDb2dVertex
 10
81.7790020803105
 20
-95.12666886510738
 30
0.0
  0
SEQEND
  5
EB
330
E8
100
AcDbEntity
  8
_U+30EC_U+30A4_U+30E4_U+30FC 1
 62
   179
420
  2234388
370
     9
  0
INSERT
  5
ED
330
1F
100
AcDbEntity
  8
_U+30EC_U+30A4_U+30E4_U+30FC 1
100
AcDbBlockReference
  2
block 5
 10
0.0
 20
0.0
 30
0.0
  0
SPLINE
  5
F4
330
1F
100
AcDbEntity
  8
_U+30EC_U+30A4_U+30E4_U+30FC 1
 62
   179
420
  2234388
370
    25
100
AcDbSpline
210
0.0
220
0.0
230
1.0
 70
    11
 71
     3
 72
    17
 73
    13
 74
     0
 42
0.0000000001
 43
0.0000000001
 12
1.0
 22
0.0
 32
0.0
 13
1.0
 23
0.0
 33
0.0
 40
0.0
 40
0.0
 40
0.0
 40
0.0
 40
1.0
 40
1.0
 40
1.0
 40
2.0
 40
2.0
 40
2.0
 40
3.0
 40
3.0
 40
3.0
 40
4.0
 40
4.0
 40
4.0
 40
4.0
 10
87.31422638353962
 20
-170.1267305130238
 30
0.0
 10
87.31422638353962
 20
-170.1460274574636
 30
0.0
 10
87.2983888670643
 20
-170.1618671796815
 30
0.0
 10
87.27891332888497
 20
-170.1618671796815
 30
0.0
 10
87.25943999604844
 20
-170.1618671796815
 30
0.0
 10
87.24360027423033
 20
-170.1460274574636
 30
0.0
 10
87.24360027423033
 20
-170.1267305130238
 30
0.0
 10
87.24360027423033
 20
-170.1071160685844
 30
0.0
 10
87.25943999604844
 20
-170.0912410685883
 30
0.0
 10
87.27891332888497
 20
-170.0912410685883
 30
0.0
 10
87.2983888670643
 20
-170.0912410685883
 30
0.0
 10
87.31422638353962
 20
-170.1071160685844
 30
0.0
 10
87.31422638353962
 20
-170.1267305130238
 30
0.0
  0
SPLINE
  5
F5
330
1F
100
AcDbEntity
  8
_U+30EC_U+30A4_U+30E4_U+30FC 1
 62
   179
420
  2234388
370
    25
100
AcDbSpline
210
0.0
220
0.0
230
1.0
 70
    11
 71
     3
 72
    17
 73
    13
 74
     0
 42
0.0000000001
 43
0.0000000001
 12
1.0
 22
0.0
 32
0.0
 13
1.0
 23
0.0
 33
0.0
 40
0.0
 40
0.0
 40
0.0
 40
0.0
 40
1.0
 40
1.0
 40
1.0
 40
2.0
 40
2.0
 40
2.0
 40
3.0
 40
3.0
 40
3.0
 40
4.0
 40
4.0
 40
4.0
 40
4.0
 10
87.31422638353962
 20
-95.12666886510738
 30
0.0
 10
87.31422638353962
 20
-95.14631858732466
 30
0.0
 10
87.2983888670643
 20
-95.16180553176511
 30
0.0
 10
87.27891332888497
 20
-95.16180553176511
 30
0.0
 10
87.25943999604844
 20
-95.16180553176511
 30
0.0
 10
87.24360027423033
 20
-95.14631858732466
 30
0.0
 10
87.24360027423033
 20
-95.12666886510738
 30
0.0
 10
87.24360027423033
 20
-95.10737192066756
 30
0.0
 10
87.25943999604844
 20
-95.09153219844934
 30
0.0
 10
87.27891332888497
 20
-95.09153219844934
 30
0.0
 10
87.2983888670643
 20
-95.09153219844934
 30
0.0
 10
87.31422638353962
 20
-95.10737192066756
 30
0.0
 10
87.31422638353962
 20
-95.12666886510738
 30
0.0
  0
SPLINE
  5
F6
330
1F
100
AcDbEntity
  8
_U+30EC_U+30A4_U+30E4_U+30FC 1
 62
   179
420
  2234388
370
     9
100
AcDbSpline
210
0.0
220
0.0
230
1.0
 70
    11
 71
     3
 72
    17
 73
    13
 74
     0
 42
0.0000000001
 43
0.0000000001
 12
1.0
 22
0.0
 32
0.0
 13
1.0
 23
0.0
 33
0.0
 40
0.0
 40
0.0
 40
0.0
 40
0.0
 40
1.0
 40
1.0
 40
1.0
 40
2.0
 40
2.0
 40
2.0
 40
3.0
 40
3.0
 40
3.0
 40
4.0
 40
4.0
 40
4.0
 40
4.0
 10
82.81423053485193
 20
-95.12666886510738
 30
0.0
 10
82.81423053485193
 20
-95.14631858732466
 30
0.0
 10
82.79838872097045
 20
-95.16180553176511
 30
0.0
 10
82.77891538813392
 20
-95.16180553176511
 30
0.0
 10
82.75947733307427
 20
-95.16180553176511
 30
0.0
 10
82.74360233347929
 20
-95.14631858732466
 30
0.0
 10
82.74360233347929
 20
-95.12666886510738
 30
0.0
 10
82.74360233347929
 20
-95.10737192066756
 30
0.0
 10
82.75947733307427
 20
-95.09153219844934
 30
0.0
 10
82.77891538813392
 20
-95.09153219844934
 30
0.0
 10
82.79838872097045
 20
-95.09153219844934
 30
0.0
 10
82.81423053485193
 20
-95.10737192066756
 30
0.0
 10
82.81423053485193
 20
-95.12666886510738
 30
0.0
  0
ENDSEC
  0
SECTION
  2
OBJECTS
  0
DICTIONARY
  5
C
330
0
100
AcDbDictionary
281
     1
  3
ACAD_GROUP
350
D
  3
ACAD_LAYOUT
350
1A
  3
ACAD_MATERIAL
350
3B
  3
ACAD_MLEADERSTYLE
350
F8
  3
ACAD_MLINESTYLE
350
17
  3
ACAD_PLOTSETTINGS
350
19
  3
ACAD_PLOTSTYLENAME
350
E
  3
ACAD_TABLESTYLE
350
F7
  3
ACAD_VISUALSTYLE
350
2A
  0
SUN
  5
3F
330
29
100
AcDbSun
 90
        1
290
     0
 63
     7
421
 16777215
 40
1.0
291
     1
 91
  2455826
 92
 54000000
292
     0
 70
     2
 71
   256
280
     1
  0
DICTIONARY
  5
D
102
{ACAD_REACTORS
330
C
102
}
330
C
100
AcDbDictionary
281
     1
  0
DICTIONARY
  5
1A
102
{ACAD_REACTORS
330
C
102
}
330
C
100
AcDbDictionary
281
     1
  3
Layout1
350
1E
  3
Layout2
350
26
  3
Model
350
22
  0
DICTIONARY
  5
3B
102
{ACAD_REACTORS
330
C
102
}
330
C
100
AcDbDictionary
281
     1
  3
ByBlock
350
3D
  3
ByLayer
350
3C
  3
Global
350
3E
  0
DICTIONARY
  5
F8
102
{ACAD_REACTORS
330
C
102
}
330
C
100
AcDbDictionary
281
     1
  0
DICTIONARY
  5
17
102
{ACAD_REACTORS
330
C
102
}
330
C
100
AcDbDictionary
281
     1
  3
Standard
350
18
  0
DICTIONARY
  5
19
102
{ACAD_REACTORS
330
C
102
}
330
C
100
AcDbDictionary
281
     1
  0
ACDBDICTIONARYWDFLT
  5
E
102
{ACAD_REACTORS
330
C
102
}
330
C
100
AcDbDictionary
281
     1
  3
Normal
350
F
100
AcDbDictionaryWithDefault
340
F
  0
DICTIONARY
  5
F7
102
{ACAD_REACTORS
330
C
102
}
330
C
100
AcDbDictionary
281
     1
  0
DICTIONARY
  5
2A
102
{ACAD_REACTORS
330
C
102
}
330
C
100
AcDbDictionary
281
     1
  3
2dWireframe
350
2F
  3
3D Hidden
350
31
  3
3dWireframe
350
30
  3
Basic
350
32
  3
Brighten
350
36
  3
ColorChange
350
3A
  3
Conceptual
350
34
  3
Dim
350
35
  3
Facepattern
350
39
  3
Flat
350
2B
  3
FlatWithEdges
350
2C
  3
Gouraud
350
2D
  3
GouraudWithEdges
350
2E
  3
Linepattern
350
38
  3
Realistic
350
33
  3
Thicken
350
37
  0
LAYOUT
  5
1E
102
{ACAD_REACTORS
330
1A
102
}
330
1A
100
AcDbPlotSettings
  1

  2
none_device
  4

  6

 40
0.0
 41
0.0
 42
0.0
 43
0.0
 44
0.0
 45
0.0
 46
0.0
 47
0.0
 48
0.0
 49
0.0
140
0.0
141
0.0
142
1.0
143
1.0
 70
   688
 72
     0
 73
     0
 74
     5
  7

 75
    16
 76
     0
 77
     2
 78
   300
147
1.0
148
0.0
149
0.0
100
AcDbLayout
  1
Layout1
 70
     1
 71
     1
 10
0.0
 20
0.0
 11
12.0
 21
9.0
 12
0.0
 22
0.0
 32
0.0
 14
1.000000000000000E+20
 24
1.000000000000000E+20
 34
1.000000000000000E+20
 15
-1.000000000000000E+20
 25
-1.000000000000000E+20
 35
-1.000000000000000E+20
146
0.0
 13
0.0
 23
0.0
 33
0.0
 16
1.0
 26
0.0
 36
0.0
 17
0.0
 27
1.0
 37
0.0
 76
     0
330
1B
  0
LAYOUT
  5
26
102
{ACAD_REACTORS
330
1A
102
}
330
1A
100
AcDbPlotSettings
  1

  2
none_device
  4

  6

 40
0.0
 41
0.0
 42
0.0
 43
0.0
 44
0.0
 45
0.0
 46
0.0
 47
0.0
 48
0.0
 49
0.0
140
0.0
141
0.0
142
1.0
143
1.0
 70
   688
 72
     0
 73
     0
 74
     5
  7

 75
    16
 76
     0
 77
     2
 78
   300
147
1.0
148
0.0
149
0.0
100
AcDbLayout
  1
Layout2
 70
     1
 71
     2
 10
0.0
 20
0.0
 11
0.0
 21
0.0
 12
0.0
 22
0.0
 32
0.0
 14
0.0
 24
0.0
 34
0.0
 15
0.0
 25
0.0
 35
0.0
146
0.0
 13
0.0
 23
0.0
 33
0.0
 16
1.0
 26
0.0
 36
0.0
 17
0.0
 27
1.0
 37
0.0
 76
     0
330
23
  0
LAYOUT
  5
22
102
{ACAD_REACTORS
330
1A
102
}
330
1A
100
AcDbPlotSettings
  1

  2
none_device
  4

  6

 40
0.0
 41
0.0
 42
0.0
 43
0.0
 44
0.0
 45
0.0
 46
0.0
 47
0.0
 48
0.0
 49
0.0
140
0.0
141
0.0
142
1.0
143
1.0
 70
  1712
 72
     0
 73
     0
 74
     0
  7

 75
     0
 76
     0
 77
     2
 78
   300
147
1.0
148
0.0
149
0.0
100
AcDbLayout
  1
Model
 70
     1
 71
     0
 10
0.0
 20
0.0
 11
12.0
 21
9.0
 12
0.0
 22
0.0
 32
0.0
 14
1.000000000000000E+20
 24
1.000000000000000E+20
 34
1.000000000000000E+20
 15
-1.000000000000000E+20
 25
-1.000000000000000E+20
 35
-1.000000000000000E+20
146
0.0
 13
0.0
 23
0.0
 33
0.0
 16
1.0
 26
0.0
 36
0.0
 17
0.0
 27
1.0
 37
0.0
 76
     0
330
1F
331
29
  0
MATERIAL
  5
3D
102
{ACAD_REACTORS
330
3B
102
}
330
3B
100
AcDbMaterial
  1
ByBlock
 72
     1
 94
      127
  0
MATERIAL
  5
3C
102
{ACAD_REACTORS
330
3B
102
}
330
3B
100
AcDbMaterial
  1
ByLayer
 72
     1
 94
      127
  0
MATERIAL
  5
3E
102
{ACAD_REACTORS
330
3B
102
}
330
3B
100
AcDbMaterial
  1
Global
 72
     1
 94
      127
  0
MLINESTYLE
  5
18
102
{ACAD_REACTORS
330
17
102
}
330
17
100
AcDbMlineStyle
  2
Standard
 70
     0
  3

 62
   256
 51
90.0
 52
90.0
 71
     2
 49
0.5
 62
   256
  6
BYLAYER
 49
-0.5
 62
   256
  6
BYLAYER
  0
ACDBPLACEHOLDER
  5
F
102
{ACAD_REACTORS
330
E
102
}
330
E
  0
VISUALSTYLE
  5
2F
102
{ACAD_REACTORS
330
2A
102
}
330
2A
100
AcDbVisualStyle
  2
2dWireframe
 70
     4
177
     2
291
     0
 71
     0
176
     1
 72
     2
176
     1
 73
     0
176
     1
 90
        0
176
     1
 40
-0.6
176
     1
 41
-30.0
176
     1
 62
     5
 63
     7
421
 16777215
176
     1
 74
     1
176
     1
 91
        4
176
     1
 64
     7
176
     1
 65
   257
176
     1
 75
     1
176
     1
175
     1
176
     1
 42
1.0
176
     1
 92
        0
176
     1
 66
   257
176
     1
 43
1.0
176
     1
 76
     1
176
     1
 77
     6
176
     1
 78
     2
176
     1
 67
     7
176
     1
 79
     5
176
     1
170
     0
176
     1
171
     0
176
     1
290
     0
176
     1
 93
        1
176
     1
 44
0.0
176
     1
173
     0
176
     1
  0
VISUALSTYLE
  5
31
102
{ACAD_REACTORS
330
2A
102
}
330
2A
100
AcDbVisualStyle
  2
3D Hidden
 70
     6
177
     2
291
     0
 71
     1
176
     1
 72
     2
176
     1
 73
     2
176
     1
 90
        0
176
     1
 40
-0.6
176
     1
 41
-30.0
176
     1
 62
     5
 63
     7
421
 16777215
176
     1
 74
     2
176
     1
 91
        2
176
     1
 64
     7
176
     1
 65
   257
176
     1
 75
     2
176
     1
175
     1
176
     1
 42
40.0
176
     1
 92
        0
176
     1
 66
   257
176
     1
 43
1.0
176
     1
 76
     1
176
     1
 77
     6
176
     1
 78
     2
176
     1
 67
     7
176
     1
 79
     3
176
     1
170
     0
176
     1
171
     0
176
     1
290
     0
176
     1
 93
        1
176
     1
 44
0.0
176
     1
173
     0
176
     1
  0
VISUALSTYLE
  5
30
102
{ACAD_REACTORS
330
2A
102
}
330
2A
100
AcDbVisualStyle
  2
3dWireframe
 70
     5
177
     2
291
     0
 71
     0
176
     1
 72
     2
176
     1
 73
     0
176
     1
 90
        0
176
     1
 40
-0.6
176
     1
 41
-30.0
176
     1
 62
     5
 63
     7
421
 16777215
176
     1
 74
     1
176
     1
 91
        4
176
     1
 64
     7
176
     1
 65
   257
176
     1
 75
     1
176
     1
175
     1
176
     1
 42
1.0
176
     1
 92
        0
176
     1
 66
   257
176
     1
 43
1.0
176
     1
 76
     1
176
     1
 77
     6
176
     1
 78
     2
176
     1
 67
     7
176
     1
 79
     5
176
     1
170
     0
176
     1
171
     0
176
     1
290
     0
176
     1
 93
        1
176
     1
 44
0.0
176
     1
173
     0
176
     1
  0
VISUALSTYLE
  5
32
102
{ACAD_REACTORS
330
2A
102
}
330
2A
100
AcDbVisualStyle
  2
Basic
 70
     7
177
     2
291
     1
 71
     1
176
     1
 72
     0
176
     1
 73
     1
176
     1
 90
        0
176
     1
 40
-0.6
176
     1
 41
-30.0
176
     1
 62
     5
 63
     7
421
 16777215
176
     1
 74
     0
176
     1
 91
        4
176
     1
 64
     7
176
     1
 65
   257
176
     1
 75
     1
176
     1
175
     1
176
     1
 42
1.0
176
     1
 92
        8
176
     1
 66
     7
176
     1
 43
1.0
176
     1
 76
     1
176
     1
 77
     6
176
     1
 78
     2
176
     1
 67
     7
176
     1
 79
     5
176
     1
170
     0
176
     1
171
     0
176
     1
290
     0
176
     1
 93
        1
176
     1
 44
0.0
176
     1
173
     0
176
     1
  0
VISUALSTYLE
  5
36
102
{ACAD_REACTORS
330
2A
102
}
330
2A
100
AcDbVisualStyle
  2
Brighten
 70
    12
177
     2
291
     1
 71
     2
176
     1
 72
     2
176
     1
 73
     0
176
     1
 90
        0
176
     1
 40
-0.6
176
     1
 41
-30.0
176
     1
 62
     5
 63
     7
421
 16777215
176
     1
 74
     1
176
     1
 91
        4
176
     1
 64
     7
176
     1
 65
   257
176
     1
 75
     1
176
     1
175
     1
176
     1
 42
1.0
176
     1
 92
        8
176
     1
 66
     7
176
     1
 43
1.0
176
     1
 76
     1
176
     1
 77
     6
176
     1
 78
     2
176
     1
 67
     7
176
     1
 79
     5
176
     1
170
     0
176
     1
171
     0
176
     1
290
     0
176
     1
 93
        1
176
     1
 44
50.0
176
     1
173
     0
176
     1
  0
VISUALSTYLE
  5
3A
102
{ACAD_REACTORS
330
2A
102
}
330
2A
100
AcDbVisualStyle
  2
ColorChange
 70
    16
177
     2
291
     1
 71
     2
176
     1
 72
     2
176
     1
 73
     3
176
     1
 90
        0
176
     1
 40
-0.6
176
     1
 41
-30.0
176
     1
 62
     5
 63
     8
421
  8421504
176
     1
 74
     1
176
     1
 91
        4
176
     1
 64
     7
176
     1
 65
   257
176
     1
 75
     1
176
     1
175
     1
176
     1
 42
1.0
176
     1
 92
        8
176
     1
 66
     8
424
  8421504
176
     1
 43
1.0
176
     1
 76
     1
176
     1
 77
     6
176
     1
 78
     2
176
     1
 67
     7
176
     1
 79
     5
176
     1
170
     0
176
     1
171
     0
176
     1
290
     0
176
     1
 93
        1
176
     1
 44
0.0
176
     1
173
     0
176
     1
  0
VISUALSTYLE
  5
34
102
{ACAD_REACTORS
330
2A
102
}
330
2A
100
AcDbVisualStyle
  2
Conceptual
 70
     9
177
     2
291
     0
 71
     3
176
     1
 72
     2
176
     1
 73
     0
176
     1
 90
        0
176
     1
 40
-0.6
176
     1
 41
-30.0
176
     1
 62
     5
 63
     7
421
 16777215
176
     1
 74
     2
176
     1
 91
        2
176
     1
 64
     7
176
     1
 65
   257
176
     1
 75
     1
176
     1
175
     1
176
     1
 42
40.0
176
     1
 92
        8
176
     1
 66
     7
176
     1
 43
1.0
176
     1
 76
     1
176
     1
 77
     6
176
     1
 78
     2
176
     1
 67
     7
176
     1
 79
     3
176
     1
170
     0
176
     1
171
     0
176
     1
290
     0
176
     1
 93
        1
176
     1
 44
0.0
176
     1
173
     0
176
     1
  0
VISUALSTYLE
  5
35
102
{ACAD_REACTORS
330
2A
102
}
330
2A
100
AcDbVisualStyle
  2
Dim
 70
    11
177
     2
291
     1
 71
     2
176
     1
 72
     2
176
     1
 73
     0
176
     1
 90
        0
176
     1
 40
-0.6
176
     1
 41
-30.0
176
     1
 62
     5
 63
     7
421
 16777215
176
     1
 74
     1
176
     1
 91
        4
176
     1
 64
     7
176
     1
 65
   257
176
     1
 75
     1
176
     1
175
     1
176
     1
 42
1.0
176
     1
 92
        8
176
     1
 66
     7
176
     1
 43
1.0
176
     1
 76
     1
176
     1
 77
     6
176
     1
 78
     2
176
     1
 67
     7
176
     1
 79
     5
176
     1
170
     0
176
     1
171
     0
176
     1
290
     0
176
     1
 93
        1
176
     1
 44
-50.0
176
     1
173
     0
176
     1
  0
VISUALSTYLE
  5
39
102
{ACAD_REACTORS
330
2A
102
}
330
2A
100
AcDbVisualStyle
  2
Facepattern
 70
    15
177
     2
291
     1
 71
     2
176
     1
 72
     2
176
     1
 73
     0
176
     1
 90
        0
176
     1
 40
-0.6
176
     1
 41
-30.0
176
     1
 62
     5
 63
     7
421
 16777215
176
     1
 74
     1
176
     1
 91
        4
176
     1
 64
     7
176
     1
 65
   257
176
     1
 75
     1
176
     1
175
     1
176
     1
 42
1.0
176
     1
 92
        8
176
     1
 66
     7
176
     1
 43
1.0
176
     1
 76
     1
176
     1
 77
     6
176
     1
 78
     2
176
     1
 67
     7
176
     1
 79
     5
176
     1
170
     0
176
     1
171
     0
176
     1
290
     0
176
     1
 93
        1
176
     1
 44
0.0
176
     1
173
     0
176
     1
  0
VISUALSTYLE
  5
2B
102
{ACAD_REACTORS
330
2A
102
}
330
2A
100
AcDbVisualStyle
  2
Flat
 70
     0
177
     2
291
     1
 71
     2
176
     1
 72
     1
176
     1
 73
     1
176
     1
 90
        2
176
     1
 40
-0.6
176
     1
 41
30.0
176
     1
 62
     5
 63
     7
421
 16777215
176
     1
 74
     0
176
     1
 91
        4
176
     1
 64
     7
176
     1
 65
   257
176
     1
 75
     1
176
     1
175
     1
176
     1
 42
1.0
176
     1
 92
        8
176
     1
 66
     7
176
     1
 43
1.0
176
     1
 76
     1
176
     1
 77
     6
176
     1
 78
     2
176
     1
 67
     7
176
     1
 79
     5
176
     1
170
     0
176
     1
171
     0
176
     1
290
     0
176
     1
 93
       13
176
     1
 44
0.0
176
     1
173
     0
176
     1
  0
VISUALSTYLE
  5
2C
102
{ACAD_REACTORS
330
2A
102
}
330
2A
100
AcDbVisualStyle
  2
FlatWithEdges
 70
     1
177
     2
291
     1
 71
     2
176
     1
 72
     1
176
     1
 73
     1
176
     1
 90
        2
176
     1
 40
-0.6
176
     1
 41
30.0
176
     1
 62
     5
 63
     7
421
 16777215
176
     1
 74
     1
176
     1
 91
        4
176
     1
 64
     7
176
     1
 65
   257
176
     1
 75
     1
176
     1
175
     1
176
     1
 42
1.0
176
     1
 92
        0
176
     1
 66
   257
176
     1
 43
1.0
176
     1
 76
     1
176
     1
 77
     6
176
     1
 78
     2
176
     1
 67
     7
176
     1
 79
     5
176
     1
170
     0
176
     1
171
     0
176
     1
290
     0
176
     1
 93
       13
176
     1
 44
0.0
176
     1
173
     0
176
     1
  0
VISUALSTYLE
  5
2D
102
{ACAD_REACTORS
330
2A
102
}
330
2A
100
AcDbVisualStyle
  2
Gouraud
 70
     2
177
     2
291
     1
 71
     2
176
     1
 72
     2
176
     1
 73
     1
176
     1
 90
        2
176
     1
 40
-0.6
176
     1
 41
30.0
176
     1
 62
     5
 63
     7
421
 16777215
176
     1
 74
     0
176
     1
 91
        4
176
     1
 64
     7
176
     1
 65
   257
176
     1
 75
     1
176
     1
175
     1
176
     1
 42
1.0
176
     1
 92
        0
176
     1
 66
     7
176
     1
 43
1.0
176
     1
 76
     1
176
     1
 77
     6
176
     1
 78
     2
176
     1
 67
     7
176
     1
 79
     5
176
     1
170
     0
176
     1
171
     0
176
     1
290
     0
176
     1
 93
       13
176
     1
 44
0.0
176
     1
173
     0
176
     1
  0
VISUALSTYLE
  5
2E
102
{ACAD_REACTORS
330
2A
102
}
330
2A
100
AcDbVisualStyle
  2
GouraudWithEdges
 70
     3
177
     2
291
     1
 71
     2
176
     1
 72
     2
176
     1
 73
     1
176
     1
 90
        2
176
     1
 40
-0.6
176
     1
 41
30.0
176
     1
 62
     5
 63
     7
421
 16777215
176
     1
 74
     1
176
     1
 91
        4
176
     1
 64
     7
176
     1
 65
   257
176
     1
 75
     1
176
     1
175
     1
176
     1
 42
1.0
176
     1
 92
        0
176
     1
 66
   257
176
     1
 43
1.0
176
     1
 76
     1
176
     1
 77
     6
176
     1
 78
     2
176
     1
 67
     7
176
     1
 79
     5
176
     1
170
     0
176
     1
171
     0
176
     1
290
     0
176
     1
 93
       13
176
     1
 44
0.0
176
     1
173
     0
176
     1
  0
VISUALSTYLE
  5
38
102
{ACAD_REACTORS
330
2A
102
}
330
2A
100
AcDbVisualStyle
  2
Linepattern
 70
    14
177
     2
291
     1
 71
     2
176
     1
 72
     2
176
     1
 73
     0
176
     1
 90
        0
176
     1
 40
-0.6
176
     1
 41
-30.0
176
     1
 62
     5
 63
     7
421
 16777215
176
     1
 74
     1
176
     1
 91
        4
176
     1
 64
     7
176
     1
 65
   257
176
     1
 75
     7
176
     1
175
     7
176
     1
 42
1.0
176
     1
 92
        8
176
     1
 66
     7
176
     1
 43
1.0
176
     1
 76
     1
176
     1
 77
     6
176
     1
 78
     2
176
     1
 67
     7
176
     1
 79
     5
176
     1
170
     0
176
     1
171
     0
176
     1
290
     0
176
     1
 93
        1
176
     1
 44
0.0
176
     1
173
     0
176
     1
  0
VISUALSTYLE
  5
33
102
{ACAD_REACTORS
330
2A
102
}
330
2A
100
AcDbVisualStyle
  2
Realistic
 70
     8
177
     2
291
     0
 71
     2
176
     1
 72
     2
176
     1
 73
     0
176
     1
 90
        0
176
     1
 40
-0.6
176
     1
 41
-30.0
176
     1
 62
     5
 63
     7
421
 16777215
176
     1
 74
     1
176
     1
 91
        0
176
     1
 64
     7
176
     1
 65
   257
176
     1
 75
     1
176
     1
175
     1
176
     1
 42
1.0
176
     1
 92
        8
176
     1
 66
     8
424
  7895160
176
     1
 43
1.0
176
     1
 76
     1
176
     1
 77
     6
176
     1
 78
     2
176
     1
 67
     7
176
     1
 79
     5
176
     1
170
     0
176
     1
171
     0
176
     1
290
     0
176
     1
 93
       13
176
     1
 44
0.0
176
     1
173
     0
176
     1
  0
VISUALSTYLE
  5
37
102
{ACAD_REACTORS
330
2A
102
}
330
2A
100
AcDbVisualStyle
  2
Thicken
 70
    13
177
     2
291
     1
 71
     2
176
     1
 72
     2
176
     1
 73
     0
176
     1
 90
        0
176
     1
 40
-0.6
176
     1
 41
-30.0
176
     1
 62
     5
 63
     7
421
 16777215
176
     1
 74
     1
176
     1
 91
        4
176
     1
 64
     7
176
     1
 65
   257
176
     1
 75
     1
176
     1
175
     1
176
     1
 42
1.0
176
     1
 92
       12
176
     1
 66
     7
176
     1
 43
1.0
176
     1
 76
     1
176
     1
 77
     6
176
     1
 78
     2
176
     1
 67
     7
176
     1
 79
     5
176
     1
170
     0
176
     1
171
     0
176
     1
290
     0
176
     1
 93
        1
176
     1
 44
0.0
176
     1
173
     0
176
     1
  0
ENDSEC
  0
EOF
