  0
SECTION
  2
HEADER
  9
$ACADVER
  1
AC1024
  9
$ACADMAINTVER
 70
     6
  9
$DWGCODEPAGE
  3
UNDEFINED
  9
$INSBASE
 10
0.0
 20
0.0
 30
0.0
  9
$EXTMIN
 10
1.000000000000000E+20
 20
1.000000000000000E+20
 30
1.000000000000000E+20
  9
$EXTMAX
 10
-1.000000000000000E+20
 20
-1.000000000000000E+20
 30
-1.000000000000000E+20
  9
$LIMMIN
 10
0.0
 20
0.0
  9
$LIMMAX
 10
12.0
 20
9.0
  9
$ORTHOMODE
 70
     0
  9
$REGENMODE
 70
     1
  9
$FILLMODE
 70
     1
  9
$QTEXTMODE
 70
     0
  9
$MIRRTEXT
 70
     1
  9
$LTSCALE
 40
1.0
  9
$ATTMODE
 70
     1
  9
$TEXTSIZE
 40
0.2
  9
$TRACEWID
 40
0.05
  9
$TEXTSTYLE
  7
Standard
  9
$CLAYER
  8
0
  9
$CELTYPE
  6
ByLayer
  9
$CECOLOR
 62
   256
  9
$CELTSCALE
 40
1.0
  9
$DISPSILH
 70
     0
  9
$DIMSCALE
 40
1.0
  9
$DIMASZ
 40
0.18
  9
$DIMEXO
 40
0.0625
  9
$DIMDLI
 40
0.38
  9
$DIMRND
 40
0.0
  9
$DIMDLE
 40
0.0
  9
$DIMEXE
 40
0.18
  9
$DIMTP
 40
0.0
  9
$DIMTM
 40
0.0
  9
$DIMTXT
 40
0.18
  9
$DIMCEN
 40
0.09
  9
$DIMTSZ
 40
0.0
  9
$DIMTOL
 70
     0
  9
$DIMLIM
 70
     0
  9
$DIMTIH
 70
     1
  9
$DIMTOH
 70
     1
  9
$DIMSE1
 70
     0
  9
$DIMSE2
 70
     0
  9
$DIMTAD
 70
     0
  9
$DIMZIN
 70
     0
  9
$DIMBLK
  1

  9
$DIMASO
 70
     1
  9
$DIMSHO
 70
     1
  9
$DIMPOST
  1

  9
$DIMAPOST
  1

  9
$DIMALT
 70
     0
  9
$DIMALTD
 70
     2
  9
$DIMALTF
 40
25.4
  9
$DIMLFAC
 40
1.0
  9
$DIMTOFL
 70
     0
  9
$DIMTVP
 40
0.0
  9
$DIMTIX
 70
     0
  9
$DIMSOXD
 70
     0
  9
$DIMSAH
 70
     0
  9
$DIMBLK1
  1

  9
$DIMBLK2
  1

  9
$DIMSTYLE
  2
Standard
  9
$DIMCLRD
 70
     0
  9
$DIMCLRE
 70
     0
  9
$DIMCLRT
 70
     0
  9
$DIMTFAC
 40
1.0
  9
$DIMGAP
 40
0.09
  9
$DIMJUST
 70
     0
  9
$DIMSD1
 70
     0
  9
$DIMSD2
 70
     0
  9
$DIMTOLJ
 70
     1
  9
$DIMTZIN
 70
     0
  9
$DIMALTZ
 70
     0
  9
$DIMALTTZ
 70
     0
  9
$DIMUPT
 70
     0
  9
$DIMDEC
 70
     4
  9
$DIMTDEC
 70
     4
  9
$DIMALTU
 70
     2
  9
$DIMALTTD
 70
     2
  9
$DIMTXSTY
  7
Standard
  9
$DIMAUNIT
 70
     0
  9
$DIMADEC
 70
     0
  9
$DIMALTRND
 40
0.0
  9
$DIMAZIN
 70
     0
  9
$DIMDSEP
 70
    46
  9
$DIMATFIT
 70
     3
  9
$DIMFRAC
 70
     0
  9
$DIMLDRBLK
  1

  9
$DIMLUNIT
 70
     2
  9
$DIMLWD
 70
    -2
  9
$DIMLWE
 70
    -2
  9
$DIMTMOVE
 70
     0
  9
$DIMFXL
 40
1.0
  9
$DIMFXLON
 70
     0
  9
$DIMJOGANG
 40
0.7853981633974483
  9
$DIMTFILL
 70
     0
  9
$DIMTFILLCLR
 70
     0
  9
$DIMARCSYM
 70
     0
  9
$DIMLTYPE
  6

  9
$DIMLTEX1
  6

  9
$DIMLTEX2
  6

  9
$DIMTXTDIRECTION
 70
     0
  9
$LUNITS
 70
     2
  9
$LUPREC
 70
     4
  9
$SKETCHINC
 40
0.1
  9
$FILLETRAD
 40
0.5
  9
$AUNITS
 70
     0
  9
$AUPREC
 70
     0
  9
$MENU
  1
.
  9
$ELEVATION
 40
0.0
  9
$PELEVATION
 40
0.0
  9
$THICKNESS
 40
0.0
  9
$LIMCHECK
 70
     0
  9
$CHAMFERA
 40
0.5
  9
$CHAMFERB
 40
0.5
  9
$CHAMFERC
 40
1.0
  9
$CHAMFERD
 40
0.0
  9
$SKPOLY
 70
     0
  9
$TDCREATE
 40
2457917.645381933
  9
$TDUCREATE
 40
2457917.270381944
  9
$TDUPDATE
 40
2457917.645381933
  9
$TDUUPDATE
 40
2457917.270381944
  9
$TDINDWG
 40
0.0000000116
  9
$TDUSRTIMER
 40
0.0000000116
  9
$USRTIMER
 70
     1
  9
$ANGBASE
 50
0.0
  9
$ANGDIR
 70
     0
  9
$PDMODE
 70
     0
  9
$PDSIZE
 40
0.0
  9
$PLINEWID
 40
0.0
  9
$SPLFRAME
 70
     0
  9
$SPLINETYPE
 70
     6
  9
$SPLINESEGS
 70
     8
  9
$HANDSEED
  5
104
  9
$SURFTAB1
 70
     6
  9
$SURFTAB2
 70
     6
  9
$SURFTYPE
 70
     6
  9
$SURFU
 70
     6
  9
$SURFV
 70
     6
  9
$UCSBASE
  2

  9
$UCSNAME
  2

  9
$UCSORG
 10
0.0
 20
0.0
 30
0.0
  9
$UCSXDIR
 10
1.0
 20
0.0
 30
0.0
  9
$UCSYDIR
 10
0.0
 20
1.0
 30
0.0
  9
$UCSORTHOREF
  2

  9
$UCSORTHOVIEW
 70
     0
  9
$UCSORGTOP
 10
0.0
 20
0.0
 30
0.0
  9
$UCSORGBOTTOM
 10
0.0
 20
0.0
 30
0.0
  9
$UCSORGLEFT
 10
0.0
 20
0.0
 30
0.0
  9
$UCSORGRIGHT
 10
0.0
 20
0.0
 30
0.0
  9
$UCSORGFRONT
 10
0.0
 20
0.0
 30
0.0
  9
$UCSORGBACK
 10
0.0
 20
0.0
 30
0.0
  9
$PUCSBASE
  2

  9
$PUCSNAME
  2

  9
$PUCSORG
 10
0.0
 20
0.0
 30
0.0
  9
$PUCSXDIR
 10
1.0
 20
0.0
 30
0.0
  9
$PUCSYDIR
 10
0.0
 20
1.0
 30
0.0
  9
$PUCSORTHOREF
  2

  9
$PUCSORTHOVIEW
 70
     0
  9
$PUCSORGTOP
 10
0.0
 20
0.0
 30
0.0
  9
$PUCSORGBOTTOM
 10
0.0
 20
0.0
 30
0.0
  9
$PUCSORGLEFT
 10
0.0
 20
0.0
 30
0.0
  9
$PUCSORGRIGHT
 10
0.0
 20
0.0
 30
0.0
  9
$PUCSORGFRONT
 10
0.0
 20
0.0
 30
0.0
  9
$PUCSORGBACK
 10
0.0
 20
0.0
 30
0.0
  9
$USERI1
 70
     0
  9
$USERI2
 70
     0
  9
$USERI3
 70
     0
  9
$USERI4
 70
     0
  9
$USERI5
 70
     0
  9
$USERR1
 40
0.0
  9
$USERR2
 40
0.0
  9
$USERR3
 40
0.0
  9
$USERR4
 40
0.0
  9
$USERR5
 40
0.0
  9
$WORLDVIEW
 70
     1
  9
$SHADEDGE
 70
     3
  9
$SHADEDIF
 70
    70
  9
$TILEMODE
 70
     1
  9
$MAXACTVP
 70
    64
  9
$PINSBASE
 10
0.0
 20
0.0
 30
0.0
  9
$PLIMCHECK
 70
     0
  9
$PEXTMIN
 10
1.000000000000000E+20
 20
1.000000000000000E+20
 30
1.000000000000000E+20
  9
$PEXTMAX
 10
-1.000000000000000E+20
 20
-1.000000000000000E+20
 30
-1.000000000000000E+20
  9
$PLIMMIN
 10
0.0
 20
0.0
  9
$PLIMMAX
 10
12.0
 20
9.0
  9
$UNITMODE
 70
     0
  9
$VISRETAIN
 70
     1
  9
$PLINEGEN
 70
     0
  9
$PSLTSCALE
 70
     1
  9
$TREEDEPTH
 70
  3020
  9
$CMLSTYLE
  2
Standard
  9
$CMLJUST
 70
     0
  9
$CMLSCALE
 40
1.0
  9
$PROXYGRAPHICS
 70
     1
  9
$MEASUREMENT
 70
     0
  9
$CELWEIGHT
370
    -1
  9
$ENDCAPS
280
     0
  9
$JOINSTYLE
280
     0
  9
$LWDISPLAY
290
     1
  9
$INSUNITS
 70
     1
  9
$HYPERLINKBASE
  1

  9
$STYLESHEET
  1

  9
$XEDIT
290
     1
  9
$CEPSNTYPE
380
     0
  9
$PSTYLEMODE
290
     1
  9
$FINGERPRINTGUID
  2
{A6CCA090-1DBD-C811-8E71-2040263B63C0}
  9
$VERSIONGUID
  2
{FAEB1C32-E019-11D5-929B-00C0DF256EC4}
  9
$EXTNAMES
290
     1
  9
$PSVPSCALE
 40
0.0
  9
$OLESTARTUP
290
     0
  9
$SORTENTS
280
   127
  9
$INDEXCTL
280
     0
  9
$HIDETEXT
280
     1
  9
$XCLIPFRAME
280
     2
  9
$HALOGAP
280
     0
  9
$OBSCOLOR
 70
   257
  9
$OBSLTYPE
280
     0
  9
$INTERSECTIONDISPLAY
280
     0
  9
$INTERSECTIONCOLOR
 70
   257
  9
$DIMASSOC
280
     2
  9
$PROJECTNAME
  1

  9
$CAMERADISPLAY
290
     0
  9
$LENSLENGTH
 40
50.0
  9
$CAMERAHEIGHT
 40
0.0
  9
$STEPSPERSEC
 40
2.0
  9
$STEPSIZE
 40
6.0
  9
$3DDWFPREC
 40
2.0
  9
$PSOLWIDTH
 40
0.25
  9
$PSOLHEIGHT
 40
4.0
  9
$LOFTANG1
 40
1.570796326794897
  9
$LOFTANG2
 40
1.570796326794897
  9
$LOFTMAG1
 40
0.0
  9
$LOFTMAG2
 40
0.0
  9
$LOFTPARAM
 70
     7
  9
$LOFTNORMALS
280
     1
  9
$LATITUDE
 40
37.795
  9
$LONGITUDE
 40
-122.394
  9
$NORTHDIRECTION
 40
0.0
  9
$TIMEZONE
 70
 -8000
  9
$LIGHTGLYPHDISPLAY
280
     1
  9
$TILEMODELIGHTSYNCH
280
     1
  9
$CMATERIAL
347
3C
  9
$SOLIDHIST
280
     1
  9
$SHOWHIST
280
     1
  9
$DWFFRAME
280
     2
  9
$DGNFRAME
280
     2
  9
$REALWORLDSCALE
290
     1
  9
$INTERFERECOLOR
 62
   256
  9
$CSHADOW
280
     0
  9
$SHADOWPLANELOCATION
 40
0.0
  0
ENDSEC
  0
SECTION
  2
CLASSES
  0
CLASS
  1
ACDBDICTIONARYWDFLT
  2
AcDbDictionaryWithDefault
  3
ObjectDBX Classes
 90
        0
 91
        4
280
     0
281
     0
  0
CLASS
  1
VISUALSTYLE
  2
AcDbVisualStyle
  3
ObjectDBX Classes
 90
     4095
 91
        4
280
     0
281
     0
  0
CLASS
  1
MATERIAL
  2
AcDbMaterial
  3
ObjectDBX Classes
 90
     1153
 91
        4
280
     0
281
     0
  0
CLASS
  1
SUN
  2
AcDbSun
  3
SCENEOE
 90
     1024
 91
        4
280
     0
281
     0
  0
ENDSEC
  0
SECTION
  2
TABLES
  0
TABLE
  2
VPORT
  5
8
330
0
100
AcDbSymbolTable
 70
     1
  0
VPORT
  5
29
330
8
100
AcDbSymbolTableRecord
100
AcDbViewportTableRecord
  2
*Active
 70
     0
 10
0.0
 20
0.0
 11
1.0
 21
1.0
 12
0.0
 22
0.0
 13
0.0
 23
0.0
 14
0.5
 24
0.5
 15
0.5
 25
0.5
 16
0.0
 26
0.0
 36
1.0
 17
91.00082462281999
 27
-128.4993055234307
 37
0.0
 40
256.9986110468615
 41
0.7081814508812795
 42
50.0
 43
0.0
 44
0.0
 50
0.0
 51
0.0
 71
     0
 72
   100
 73
     1
 74
     3
 75
     0
 76
     0
 77
     0
 78
     0
281
     0
 65
     1
110
0.0
120
0.0
130
0.0
111
1.0
121
0.0
131
0.0
112
0.0
122
1.0
132
0.0
 79
     0
146
0.0
 60
     3
 61
     5
292
     1
282
     1
141
0.0
142
0.0
 63
   250
361
3F
  0
ENDTAB
  0
TABLE
  2
LTYPE
  5
5
330
0
100
AcDbSymbolTable
 70
     1
  0
LTYPE
  5
14
330
5
100
AcDbSymbolTableRecord
100
AcDbLinetypeTableRecord
  2
ByBlock
 70
     0
  3

 72
    65
 73
     0
 40
0.0
  0
LTYPE
  5
15
330
5
100
AcDbSymbolTableRecord
100
AcDbLinetypeTableRecord
  2
ByLayer
 70
     0
  3

 72
    65
 73
     0
 40
0.0
  0
LTYPE
  5
16
330
5
100
AcDbSymbolTableRecord
100
AcDbLinetypeTableRecord
  2
Continuous
 70
     0
  3
Solid line
 72
    65
 73
     0
 40
0.0
  0
ENDTAB
  0
TABLE
  2
LAYER
  5
2
330
0
100
AcDbSymbolTable
 70
     2
  0
LAYER
  5
10
330
2
100
AcDbSymbolTableRecord
100
AcDbLayerTableRecord
  2
0
 70
     0
 62
     7
  6
Continuous
370
    -3
390
F
347
3E
  0
LAYER
  5
40
330
2
100
AcDbSymbolTableRecord
100
AcDbLayerTableRecord
  2
_U+30EC_U+30A4_U+30E4_U+30FC 1
 70
     0
 62
     7
  6
Continuous
370
    -3
390
F
347
3E
  0
ENDTAB
  0
TABLE
  2
STYLE
  5
3
330
0
100
AcDbSymbolTable
 70
     1
  0
STYLE
  5
11
330
3
100
AcDbSymbolTableRecord
100
AcDbTextStyleTableRecord
  2
Standard
 70
     0
 40
0.0
 41
1.0
 50
0.0
 71
     0
 42
0.2
  3
txt
  4

  0
ENDTAB
  0
TABLE
  2
VIEW
  5
6
330
0
100
AcDbSymbolTable
 70
     0
  0
ENDTAB
  0
TABLE
  2
UCS
  5
7
330
0
100
AcDbSymbolTable
 70
     0
  0
ENDTAB
  0
TABLE
  2
APPID
  5
9
330
0
100
AcDbSymbolTable
 70
     1
  0
APPID
  5
12
330
9
100
AcDbSymbolTableRecord
100
AcDbRegAppTableRecord
  2
ACAD
 70
     0
  0
ENDTAB
  0
TABLE
  2
DIMSTYLE
  5
A
330
0
100
AcDbSymbolTable
 70
     1
100
AcDbDimStyleTable
  0
DIMSTYLE
105
27
330
A
100
AcDbSymbolTableRecord
100
AcDbDimStyleTableRecord
  2
Standard
 70
     0
178
     0
340
11
  0
ENDTAB
  0
TABLE
  2
BLOCK_RECORD
  5
1
330
0
100
AcDbSymbolTable
 70
     3
  0
BLOCK_RECORD
  5
1F
330
1
100
AcDbSymbolTableRecord
100
AcDbBlockTableRecord
  2
*Model_Space
340
22
 70
     0
280
     1
281
     0
  0
BLOCK_RECORD
  5
1B
330
1
100
AcDbSymbolTableRecord
100
AcDbBlockTableRecord
  2
*Paper_Space
340
1E
 70
     0
280
     1
281
     0
  0
BLOCK_RECORD
  5
23
330
1
100
AcDbSymbolTableRecord
100
AcDbBlockTableRecord
  2
*Paper_Space0
340
26
 70
     0
280
     1
281
     0
  0
BLOCK_RECORD
  5
C8
330
1
100
AcDbSymbolTableRecord
100
AcDbBlockTableRecord
  2
block 2
340
0
102
{BLKREFS
331
C9
102
}
 70
     0
280
     1
281
     0
  0
BLOCK_RECORD
  5
DE
330
1
100
AcDbSymbolTableRecord
100
AcDbBlockTableRecord
  2
block 3
340
0
102
{BLKREFS
331
DF
102
}
 70
     0
280
     1
281
     0
  0
ENDTAB
  0
ENDSEC
  0
SECTION
  2
BLOCKS
  0
BLOCK
  5
20
330
1F
100
AcDbEntity
  8
0
100
AcDbBlockBegin
  2
*Model_Space
 70
     0
 10
0.0
 20
0.0
 30
0.0
  3
*Model_Space
  1

  0
ENDBLK
  5
21
330
1F
100
AcDbEntity
  8
0
100
AcDbBlockEnd
  0
BLOCK
  5
1C
330
1B
100
AcDbEntity
 67
     1
  8
0
100
AcDbBlockBegin
  2
*Paper_Space
 70
     0
 10
0.0
 20
0.0
 30
0.0
  3
*Paper_Space
  1

  0
ENDBLK
  5
1D
330
1B
100
AcDbEntity
 67
     1
  8
0
100
AcDbBlockEnd
  0
BLOCK
  5
24
330
23
100
AcDbEntity
  8
0
100
AcDbBlockBegin
  2
*Paper_Space0
 70
     0
 10
0.0
 20
0.0
 30
0.0
  3
*Paper_Space0
  1

  0
ENDBLK
  5
25
330
23
100
AcDbEntity
  8
0
100
AcDbBlockEnd
  0
BLOCK
  5
CA
330
C8
100
AcDbEntity
  8
0
100
AcDbBlockBegin
  2
block 2
 70
     0
 10
0.0
 20
0.0
 30
0.0
  3
block 2
  1

  0
POLYLINE
  5
CC
330
C8
100
AcDbEntity
  8
_U+30EC_U+30A4_U+30E4_U+30FC 1
370
     0
100
AcDb2dPolyline
 66
     1
 10
0.0
 20
0.0
 30
0.0
  0
VERTEX
  5
CD
330
CC
100
AcDbEntity
  8
_U+30EC_U+30A4_U+30E4_U+30FC 1
370
     0
100
AcDbVertex
100
AcDb2dVertex
 10
84.86475963590188
 20
-142.5766546952586
 30
0.0
  0
VERTEX
  5
CE
330
CC
100
AcDbEntity
  8
_U+30EC_U+30A4_U+30E4_U+30FC 1
370
     0
100
AcDbVertex
100
AcDb2dVertex
 10
84.72075464461842
 20
-142.1494628550876
 30
0.0
  0
VERTEX
  5
CF
330
CC
100
AcDbEntity
  8
_U+30EC_U+30A4_U+30E4_U+30FC 1
370
     0
100
AcDbVertex
100
AcDb2dVertex
 10
84.14955781316401
 20
-142.1494628550876
 30
0.0
  0
VERTEX
  5
D0
330
CC
100
AcDbEntity
  8
_U+30EC_U+30A4_U+30E4_U+30FC 1
370
     0
100
AcDbVertex
100
AcDb2dVertex
 10
84.00365801936367
 20
-142.5766546952586
 30
0.0
  0
VERTEX
  5
D1
330
CC
100
AcDbEntity
  8
_U+30EC_U+30A4_U+30E4_U+30FC 1
370
     0
100
AcDbVertex
100
AcDb2dVertex
 10
83.74975448210076
 20
-142.5766546952586
 30
0.0
  0
VERTEX
  5
D2
330
CC
100
AcDbEntity
  8
_U+30EC_U+30A4_U+30E4_U+30FC 1
370
     0
100
AcDbVertex
100
AcDb2dVertex
 10
84.30407034567746
 20
-141.0322183892211
 30
0.0
  0
VERTEX
  5
D3
330
CC
100
AcDbEntity
  8
_U+30EC_U+30A4_U+30E4_U+30FC 1
370
     0
100
AcDbVertex
100
AcDb2dVertex
 10
84.56434730958809
 20
-141.0322183892211
 30
0.0
  0
VERTEX
  5
D4
330
CC
100
AcDbEntity
  8
_U+30EC_U+30A4_U+30E4_U+30FC 1
370
     0
100
AcDbVertex
100
AcDb2dVertex
 10
85.11849091839052
 20
-142.5766546952586
 30
0.0
  0
VERTEX
  5
D5
330
CC
100
AcDbEntity
  8
_U+30EC_U+30A4_U+30E4_U+30FC 1
370
     0
100
AcDbVertex
100
AcDb2dVertex
 10
84.86475963590188
 20
-142.5766546952586
 30
0.0
  0
SEQEND
  5
D6
330
CC
100
AcDbEntity
  8
_U+30EC_U+30A4_U+30E4_U+30FC 1
370
     0
  0
POLYLINE
  5
D7
330
C8
100
AcDbEntity
  8
_U+30EC_U+30A4_U+30E4_U+30FC 1
370
     0
100
AcDb2dPolyline
 66
     1
 10
0.0
 20
0.0
 30
0.0
  0
VERTEX
  5
D8
330
D7
100
AcDbEntity
  8
_U+30EC_U+30A4_U+30E4_U+30FC 1
370
     0
100
AcDbVertex
100
AcDb2dVertex
 10
84.43515622889122
 20
-141.3095485757837
 30
0.0
  0
VERTEX
  5
D9
330
D7
100
AcDbEntity
  8
_U+30EC_U+30A4_U+30E4_U+30FC 1
370
     0
100
AcDbVertex
100
AcDb2dVertex
 10
84.21949325151458
 20
-141.9400010495845
 30
0.0
  0
VERTEX
  5
DA
330
D7
100
AcDbEntity
  8
_U+30EC_U+30A4_U+30E4_U+30FC 1
370
     0
100
AcDbVertex
100
AcDb2dVertex
 10
84.64892440375097
 20
-141.9400010495845
 30
0.0
  0
VERTEX
  5
DB
330
D7
100
AcDbEntity
  8
_U+30EC_U+30A4_U+30E4_U+30FC 1
370
     0
100
AcDbVertex
100
AcDb2dVertex
 10
84.43515622889122
 20
-141.3095485757837
 30
0.0
  0
SEQEND
  5
DC
330
D7
100
AcDbEntity
  8
_U+30EC_U+30A4_U+30E4_U+30FC 1
370
     0
  0
HATCH
  5
DD
330
C8
100
AcDbEntity
  8
_U+30EC_U+30A4_U+30E4_U+30FC 1
 62
   179
420
  2234388
100
AcDbHatch
 10
0.0
 20
0.0
 30
0.0
210
0.0
220
0.0
230
1.0
  2
SOLID
 70
     1
 71
     0
 91
        2
 92
        1
 93
        8
 72
     1
 10
84.86475963590188
 20
-142.5766546952586
 11
84.72075464461842
 21
-142.1494628550876
 72
     1
 10
84.72075464461842
 20
-142.1494628550876
 11
84.14955781316401
 21
-142.1494628550876
 72
     1
 10
84.14955781316401
 20
-142.1494628550876
 11
84.00365801936367
 21
-142.5766546952586
 72
     1
 10
84.00365801936367
 20
-142.5766546952586
 11
83.74975448210076
 21
-142.5766546952586
 72
     1
 10
83.74975448210076
 20
-142.5766546952586
 11
84.30407034567746
 21
-141.0322183892211
 72
     1
 10
84.30407034567746
 20
-141.0322183892211
 11
84.56434730958809
 21
-141.0322183892211
 72
     1
 10
84.56434730958809
 20
-141.0322183892211
 11
85.11849091839052
 21
-142.5766546952586
 72
     1
 10
85.11849091839052
 20
-142.5766546952586
 11
84.86475963590188
 21
-142.5766546952586
 97
        0
 92
        1
 93
        3
 72
     1
 10
84.43515622889122
 20
-141.3095485757837
 11
84.21949325151458
 21
-141.9400010495845
 72
     1
 10
84.21949325151458
 20
-141.9400010495845
 11
84.64892440375097
 21
-141.9400010495845
 72
     1
 10
84.64892440375097
 20
-141.9400010495845
 11
84.43515622889122
 21
-141.3095485757837
 97
        0
 75
     2
 76
     1
 98
        0
  0
ENDBLK
  5
CB
330
C8
100
AcDbEntity
  8
0
100
AcDbBlockEnd
  0
BLOCK
  5
E0
330
DE
100
AcDbEntity
  8
0
100
AcDbBlockBegin
  2
block 3
 70
     0
 10
0.0
 20
0.0
 30
0.0
  3
block 3
  1

  0
POLYLINE
  5
E2
330
DE
100
AcDbEntity
  8
_U+30EC_U+30A4_U+30E4_U+30FC 1
370
     0
100
AcDb2dPolyline
 66
     1
 10
0.0
 20
0.0
 30
0.0
  0
VERTEX
  5
E3
330
E2
100
AcDbEntity
  8
_U+30EC_U+30A4_U+30E4_U+30FC 1
370
     0
100
AcDbVertex
100
AcDb2dVertex
 10
73.09941404422516
 20
-134.1813015072533
 30
0.0
  0
VERTEX
  5
E4
330
E2
100
AcDbEntity
  8
_U+30EC_U+30A4_U+30E4_U+30FC 1
370
     0
100
AcDbVertex
100
AcDb2dVertex
 10
73.44633515958981
 20
-134.1813015072533
 30
0.0
  0
VERTEX
  5
E5
330
E2
100
AcDbEntity
  8
_U+30EC_U+30A4_U+30E4_U+30FC 1
370
     0
100
AcDbVertex
100
AcDb2dVertex
 10
73.44633515958981
 20
-134.3990315419211
 30
0.0
  0
VERTEX
  5
E6
330
E2
100
AcDbEntity
  8
_U+30EC_U+30A4_U+30E4_U+30FC 1
370
     0
100
AcDbVertex
100
AcDb2dVertex
 10
73.09941404422516
 20
-134.3990315419211
 30
0.0
  0
VERTEX
  5
E7
330
E2
100
AcDbEntity
  8
_U+30EC_U+30A4_U+30E4_U+30FC 1
370
     0
100
AcDbVertex
100
AcDb2dVertex
 10
73.09941404422516
 20
-135.0549777223127
 30
0.0
  0
VERTEX
  5
E8
330
E2
100
AcDbEntity
  8
_U+30EC_U+30A4_U+30E4_U+30FC 1
370
     0
100
AcDbVertex
100
AcDb2dVertex
 10
72.87513832813539
 20
-135.0549777223127
 30
0.0
  0
VERTEX
  5
E9
330
E2
100
AcDbEntity
  8
_U+30EC_U+30A4_U+30E4_U+30FC 1
370
     0
100
AcDbVertex
100
AcDb2dVertex
 10
71.90207110832657
 20
-134.3759494021699
 30
0.0
  0
VERTEX
  5
EA
330
E2
100
AcDbEntity
  8
_U+30EC_U+30A4_U+30E4_U+30FC 1
370
     0
100
AcDbVertex
100
AcDb2dVertex
 10
71.90207110832657
 20
-134.1813015072533
 30
0.0
  0
VERTEX
  5
EB
330
E2
100
AcDbEntity
  8
_U+30EC_U+30A4_U+30E4_U+30FC 1
370
     0
100
AcDbVertex
100
AcDb2dVertex
 10
72.90045977995197
 20
-134.1813015072533
 30
0.0
  0
VERTEX
  5
EC
330
E2
100
AcDbEntity
  8
_U+30EC_U+30A4_U+30E4_U+30FC 1
370
     0
100
AcDbVertex
100
AcDb2dVertex
 10
72.90045977995197
 20
-133.9739067590413
 30
0.0
  0
VERTEX
  5
ED
330
E2
100
AcDbEntity
  8
_U+30EC_U+30A4_U+30E4_U+30FC 1
370
     0
100
AcDbVertex
100
AcDb2dVertex
 10
73.09941404422516
 20
-133.9739067590413
 30
0.0
  0
VERTEX
  5
EE
330
E2
100
AcDbEntity
  8
_U+30EC_U+30A4_U+30E4_U+30FC 1
370
     0
100
AcDbVertex
100
AcDb2dVertex
 10
73.09941404422516
 20
-134.1813015072533
 30
0.0
  0
SEQEND
  5
EF
330
E2
100
AcDbEntity
  8
_U+30EC_U+30A4_U+30E4_U+30FC 1
370
     0
  0
POLYLINE
  5
F0
330
DE
100
AcDbEntity
  8
_U+30EC_U+30A4_U+30E4_U+30FC 1
370
     0
100
AcDb2dPolyline
 66
     1
 10
0.0
 20
0.0
 30
0.0
  0
VERTEX
  5
F1
330
F0
100
AcDbEntity
  8
_U+30EC_U+30A4_U+30E4_U+30FC 1
370
     0
100
AcDbVertex
100
AcDb2dVertex
 10
72.24468585433466
 20
-134.3990315419211
 30
0.0
  0
VERTEX
  5
F2
330
F0
100
AcDbEntity
  8
_U+30EC_U+30A4_U+30E4_U+30FC 1
370
     0
100
AcDbVertex
100
AcDb2dVertex
 10
72.90045977995197
 20
-134.8561957128137
 30
0.0
  0
VERTEX
  5
F3
330
F0
100
AcDbEntity
  8
_U+30EC_U+30A4_U+30E4_U+30FC 1
370
     0
100
AcDbVertex
100
AcDb2dVertex
 10
72.90045977995197
 20
-134.3990315419211
 30
0.0
  0
VERTEX
  5
F4
330
F0
100
AcDbEntity
  8
_U+30EC_U+30A4_U+30E4_U+30FC 1
370
     0
100
AcDbVertex
100
AcDb2dVertex
 10
72.24468585433466
 20
-134.3990315419211
 30
0.0
  0
SEQEND
  5
F5
330
F0
100
AcDbEntity
  8
_U+30EC_U+30A4_U+30E4_U+30FC 1
370
     0
  0
HATCH
  5
F6
330
DE
100
AcDbEntity
  8
_U+30EC_U+30A4_U+30E4_U+30FC 1
 62
   179
420
  2234388
100
AcDbHatch
 10
0.0
 20
0.0
 30
0.0
210
0.0
220
0.0
230
1.0
  2
SOLID
 70
     1
 71
     0
 91
        2
 92
        1
 93
       11
 72
     1
 10
73.09941404422516
 20
-134.1813015072533
 11
73.44633515958981
 21
-134.1813015072533
 72
     1
 10
73.44633515958981
 20
-134.1813015072533
 11
73.44633515958981
 21
-134.3990315419211
 72
     1
 10
73.44633515958981
 20
-134.3990315419211
 11
73.09941404422516
 21
-134.3990315419211
 72
     1
 10
73.09941404422516
 20
-134.3990315419211
 11
73.09941404422516
 21
-135.0549777223127
 72
     1
 10
73.09941404422516
 20
-135.0549777223127
 11
72.87513832813539
 21
-135.0549777223127
 72
     1
 10
72.87513832813539
 20
-135.0549777223127
 11
71.90207110832657
 21
-134.3759494021699
 72
     1
 10
71.90207110832657
 20
-134.3759494021699
 11
71.90207110832657
 21
-134.1813015072533
 72
     1
 10
71.90207110832657
 20
-134.1813015072533
 11
72.90045977995197
 21
-134.1813015072533
 72
     1
 10
72.90045977995197
 20
-134.1813015072533
 11
72.90045977995197
 21
-133.9739067590413
 72
     1
 10
72.90045977995197
 20
-133.9739067590413
 11
73.09941404422516
 21
-133.9739067590413
 72
     1
 10
73.09941404422516
 20
-133.9739067590413
 11
73.09941404422516
 21
-134.1813015072533
 97
        0
 92
        1
 93
        3
 72
     1
 10
72.24468585433466
 20
-134.3990315419211
 11
72.90045977995197
 21
-134.8561957128137
 72
     1
 10
72.90045977995197
 20
-134.8561957128137
 11
72.90045977995197
 21
-134.3990315419211
 72
     1
 10
72.90045977995197
 20
-134.3990315419211
 11
72.24468585433466
 21
-134.3990315419211
 97
        0
 75
     2
 76
     1
 98
        0
  0
SPLINE
  5
F7
330
DE
100
AcDbEntity
  8
_U+30EC_U+30A4_U+30E4_U+30FC 1
370
     0
100
AcDbSpline
210
0.0
220
0.0
230
1.0
 70
    11
 71
     3
 72
    53
 73
    49
 74
     0
 42
0.0000000001
 43
0.0000000001
 12
1.0
 22
0.0
 32
0.0
 13
1.0
 23
0.0
 33
0.0
 40
0.0
 40
0.0
 40
0.0
 40
0.0
 40
1.0
 40
1.0
 40
1.0
 40
2.0
 40
2.0
 40
2.0
 40
3.0
 40
3.0
 40
3.0
 40
4.0
 40
4.0
 40
4.0
 40
5.0
 40
5.0
 40
5.0
 40
6.0
 40
6.0
 40
6.0
 40
7.0
 40
7.0
 40
7.0
 40
8.0
 40
8.0
 40
8.0
 40
9.0
 40
9.0
 40
9.0
 40
10.0
 40
10.0
 40
10.0
 40
11.0
 40
11.0
 40
11.0
 40
12.0
 40
12.0
 40
12.0
 40
13.0
 40
13.0
 40
13.0
 40
14.0
 40
14.0
 40
14.0
 40
15.0
 40
15.0
 40
15.0
 40
16.0
 40
16.0
 40
16.0
 40
16.0
 10
73.49715031799724
 20
-133.3555121194389
 30
0.0
 10
73.49715031799724
 20
-133.4337157869541
 30
0.0
 10
73.48009709534526
 20
-133.5353461037689
 30
0.0
 10
73.41670733841666
 20
-133.6369764205838
 30
0.0
 10
73.30663653766292
 20
-133.8102647234919
 30
0.0
 10
73.17555065444917
 20
-133.8316243155004
 30
0.0
 10
73.06771916576085
 20
-133.8505723406693
 30
0.0
 10
73.06771916576085
 20
-133.8505723406693
 30
0.0
 10
73.06771916576085
 20
-133.6283636818707
 30
0.0
 10
73.06771916576085
 20
-133.6283636818707
 30
0.0
 10
73.26650117525976
 20
-133.5735866636552
 30
0.0
 10
73.29612899643291
 20
-133.4464626402495
 30
0.0
 10
73.29612899643291
 20
-133.3534450621478
 30
0.0
 10
73.29612899643291
 20
-133.2139186949951
 30
0.0
 10
73.19673799168346
 20
-133.0616454745471
 30
0.0
 10
72.96402179165483
 20
-133.0616454745471
 30
0.0
 10
72.70805119710077
 20
-133.0616454745471
 30
0.0
 10
72.63828801352446
 20
-133.2414794588771
 30
0.0
 10
72.63828801352446
 20
-133.3620578008609
 30
0.0
 10
72.63828801352446
 20
-133.3937526793252
 30
0.0
 10
72.63828801352446
 20
-133.5353461037689
 30
0.0
 10
72.76730683944706
 20
-133.6242295672884
 30
0.0
 10
72.76730683944706
 20
-133.6242295672884
 30
0.0
 10
72.74818655950394
 20
-133.7999294370361
 30
0.0
 10
72.74818655950394
 20
-133.7999294370361
 30
0.0
 10
72.74818655950394
 20
-133.7999294370361
 30
0.0
 10
71.90207110832657
 20
-133.6793510950524
 30
0.0
 10
71.90207110832657
 20
-133.6793510950524
 30
0.0
 10
71.90207110832657
 20
-133.6793510950524
 30
0.0
 10
71.90207110832657
 20
-132.9007595153859
 30
0.0
 10
71.90207110832657
 20
-132.9007595153859
 30
0.0
 10
71.90207110832657
 20
-132.9007595153859
 30
0.0
 10
72.09671900324318
 20
-132.9007595153859
 30
0.0
 10
72.09671900324318
 20
-132.9007595153859
 30
0.0
 10
72.09671900324318
 20
-132.9007595153859
 30
0.0
 10
72.09671900324318
 20
-133.5163980786001
 30
0.0
 10
72.09671900324318
 20
-133.5163980786001
 30
0.0
 10
72.09671900324318
 20
-133.5163980786001
 30
0.0
 10
72.51977672883187
 20
-133.5818548928198
 30
0.0
 10
72.51977672883187
 20
-133.5818548928198
 30
0.0
 10
72.48584253830215
 20
-133.5205321931824
 30
0.0
 10
72.44570717589899
 20
-133.4381944110849
 30
0.0
 10
72.44570717589899
 20
-133.3196831263923
 30
0.0
 10
72.44570717589899
 20
-133.0657795891294
 30
0.0
 10
72.63191458687675
 20
-132.8287570197442
 30
0.0
 10
72.94490151171169
 20
-132.8287570197442
 30
0.0
 10
73.26236706067746
 20
-132.8287570197442
 30
0.0
 10
73.49715031799724
 20
-133.053032735834
 30
0.0
 10
73.49715031799724
 20
-133.3555121194389
 30
0.0
  0
HATCH
  5
F8
330
DE
100
AcDbEntity
  8
_U+30EC_U+30A4_U+30E4_U+30FC 1
 62
   179
420
  2234388
100
AcDbHatch
 10
0.0
 20
0.0
 30
0.0
210
0.0
220
0.0
230
1.0
  2
SOLID
 70
     1
 71
     0
 91
        1
 92
        1
 93
        1
 72
     4
 94
        3
 73
     0
 74
     1
 95
       53
 96
       49
 40
0.0
 40
0.0
 40
0.0
 40
0.0
 40
1.0
 40
1.0
 40
1.0
 40
2.0
 40
2.0
 40
2.0
 40
3.0
 40
3.0
 40
3.0
 40
4.0
 40
4.0
 40
4.0
 40
5.0
 40
5.0
 40
5.0
 40
6.0
 40
6.0
 40
6.0
 40
7.0
 40
7.0
 40
7.0
 40
8.0
 40
8.0
 40
8.0
 40
9.0
 40
9.0
 40
9.0
 40
10.0
 40
10.0
 40
10.0
 40
11.0
 40
11.0
 40
11.0
 40
12.0
 40
12.0
 40
12.0
 40
13.0
 40
13.0
 40
13.0
 40
14.0
 40
14.0
 40
14.0
 40
15.0
 40
15.0
 40
15.0
 40
16.0
 40
16.0
 40
16.0
 40
16.0
 10
73.49715031799724
 20
-133.3555121194389
 10
73.49715031799724
 20
-133.4337157869541
 10
73.48009709534526
 20
-133.5353461037689
 10
73.41670733841666
 20
-133.6369764205838
 10
73.30663653766292
 20
-133.8102647234919
 10
73.17555065444917
 20
-133.8316243155004
 10
73.06771916576085
 20
-133.8505723406693
 10
73.06771916576085
 20
-133.8505723406693
 10
73.06771916576085
 20
-133.6283636818707
 10
73.06771916576085
 20
-133.6283636818707
 10
73.26650117525976
 20
-133.5735866636552
 10
73.29612899643291
 20
-133.4464626402495
 10
73.29612899643291
 20
-133.3534450621478
 10
73.29612899643291
 20
-133.2139186949951
 10
73.19673799168346
 20
-133.0616454745471
 10
72.96402179165483
 20
-133.0616454745471
 10
72.70805119710077
 20
-133.0616454745471
 10
72.63828801352446
 20
-133.2414794588771
 10
72.63828801352446
 20
-133.3620578008609
 10
72.63828801352446
 20
-133.3937526793252
 10
72.63828801352446
 20
-133.5353461037689
 10
72.76730683944706
 20
-133.6242295672884
 10
72.76730683944706
 20
-133.6242295672884
 10
72.74818655950394
 20
-133.7999294370361
 10
72.74818655950394
 20
-133.7999294370361
 10
72.74818655950394
 20
-133.7999294370361
 10
71.90207110832657
 20
-133.6793510950524
 10
71.90207110832657
 20
-133.6793510950524
 10
71.90207110832657
 20
-133.6793510950524
 10
71.90207110832657
 20
-132.9007595153859
 10
71.90207110832657
 20
-132.9007595153859
 10
71.90207110832657
 20
-132.9007595153859
 10
72.09671900324318
 20
-132.9007595153859
 10
72.09671900324318
 20
-132.9007595153859
 10
72.09671900324318
 20
-132.9007595153859
 10
72.09671900324318
 20
-133.5163980786001
 10
72.09671900324318
 20
-133.5163980786001
 10
72.09671900324318
 20
-133.5163980786001
 10
72.51977672883187
 20
-133.5818548928198
 10
72.51977672883187
 20
-133.5818548928198
 10
72.48584253830215
 20
-133.5205321931824
 10
72.44570717589899
 20
-133.4381944110849
 10
72.44570717589899
 20
-133.3196831263923
 10
72.44570717589899
 20
-133.0657795891294
 10
72.63191458687675
 20
-132.8287570197442
 10
72.94490151171169
 20
-132.8287570197442
 10
73.26236706067746
 20
-132.8287570197442
 10
73.49715031799724
 20
-133.053032735834
 10
73.49715031799724
 20
-133.3555121194389
 97
        0
 97
        0
 75
     2
 76
     1
 98
        0
  0
ENDBLK
  5
E1
330
DE
100
AcDbEntity
  8
0
100
AcDbBlockEnd
  0
ENDSEC
  0
SECTION
  2
ENTITIES
  0
SPLINE
  5
41
330
1F
100
AcDbEntity
  8
_U+30EC_U+30A4_U+30E4_U+30FC 1
 62
   179
420
  2234388
370
     9
100
AcDbSpline
210
0.0
220
0.0
230
1.0
 70
    11
 71
     3
 72
   254
 73
   250
 74
     0
 42
0.0000000001
 43
0.0000000001
 12
1.0
 22
0.0
 32
0.0
 13
1.0
 23
0.0
 33
0.0
 40
0.0
 40
0.0
 40
0.0
 40
0.0
 40
1.0
 40
1.0
 40
1.0
 40
2.0
 40
2.0
 40
2.0
 40
3.0
 40
3.0
 40
3.0
 40
4.0
 40
4.0
 40
4.0
 40
5.0
 40
5.0
 40
5.0
 40
6.0
 40
6.0
 40
6.0
 40
7.0
 40
7.0
 40
7.0
 40
8.0
 40
8.0
 40
8.0
 40
9.0
 40
9.0
 40
9.0
 40
10.0
 40
10.0
 40
10.0
 40
11.0
 40
11.0
 40
11.0
 40
12.0
 40
12.0
 40
12.0
 40
13.0
 40
13.0
 40
13.0
 40
14.0
 40
14.0
 40
14.0
 40
15.0
 40
15.0
 40
15.0
 40
16.0
 40
16.0
 40
16.0
 40
17.0
 40
17.0
 40
17.0
 40
18.0
 40
18.0
 40
18.0
 40
19.0
 40
19.0
 40
19.0
 40
20.0
 40
20.0
 40
20.0
 40
21.0
 40
21.0
 40
21.0
 40
22.0
 40
22.0
 40
22.0
 40
23.0
 40
23.0
 40
23.0
 40
24.0
 40
24.0
 40
24.0
 40
25.0
 40
25.0
 40
25.0
 40
26.0
 40
26.0
 40
26.0
 40
27.0
 40
27.0
 40
27.0
 40
28.0
 40
28.0
 40
28.0
 40
29.0
 40
29.0
 40
29.0
 40
30.0
 40
30.0
 40
30.0
 40
31.0
 40
31.0
 40
31.0
 40
32.0
 40
32.0
 40
32.0
 40
33.0
 40
33.0
 40
33.0
 40
34.0
 40
34.0
 40
34.0
 40
35.0
 40
35.0
 40
35.0
 40
36.0
 40
36.0
 40
36.0
 40
37.0
 40
37.0
 40
37.0
 40
38.0
 40
38.0
 40
38.0
 40
39.0
 40
39.0
 40
39.0
 40
40.0
 40
40.0
 40
40.0
 40
41.0
 40
41.0
 40
41.0
 40
42.0
 40
42.0
 40
42.0
 40
43.0
 40
43.0
 40
43.0
 40
44.0
 40
44.0
 40
44.0
 40
45.0
 40
45.0
 40
45.0
 40
46.0
 40
46.0
 40
46.0
 40
47.0
 40
47.0
 40
47.0
 40
48.0
 40
48.0
 40
48.0
 40
49.0
 40
49.0
 40
49.0
 40
50.0
 40
50.0
 40
50.0
 40
51.0
 40
51.0
 40
51.0
 40
52.0
 40
52.0
 40
52.0
 40
53.0
 40
53.0
 40
53.0
 40
54.0
 40
54.0
 40
54.0
 40
55.0
 40
55.0
 40
55.0
 40
56.0
 40
56.0
 40
56.0
 40
57.0
 40
57.0
 40
57.0
 40
58.0
 40
58.0
 40
58.0
 40
59.0
 40
59.0
 40
59.0
 40
60.0
 40
60.0
 40
60.0
 40
61.0
 40
61.0
 40
61.0
 40
62.0
 40
62.0
 40
62.0
 40
63.0
 40
63.0
 40
63.0
 40
64.0
 40
64.0
 40
64.0
 40
65.0
 40
65.0
 40
65.0
 40
66.0
 40
66.0
 40
66.0
 40
67.0
 40
67.0
 40
67.0
 40
68.0
 40
68.0
 40
68.0
 40
69.0
 40
69.0
 40
69.0
 40
70.0
 40
70.0
 40
70.0
 40
71.0
 40
71.0
 40
71.0
 40
72.0
 40
72.0
 40
72.0
 40
73.0
 40
73.0
 40
73.0
 40
74.0
 40
74.0
 40
74.0
 40
75.0
 40
75.0
 40
75.0
 40
76.0
 40
76.0
 40
76.0
 40
77.0
 40
77.0
 40
77.0
 40
78.0
 40
78.0
 40
78.0
 40
79.0
 40
79.0
 40
79.0
 40
80.0
 40
80.0
 40
80.0
 40
81.0
 40
81.0
 40
81.0
 40
82.0
 40
82.0
 40
82.0
 40
83.0
 40
83.0
 40
83.0
 40
83.0
 10
89.4978854944965
 20
-130.3389710785263
 30
0.0
 10
89.4978854944965
 20
-130.3389710785263
 30
0.0
 10
89.93885770546858
 20
-130.3389710785263
 30
0.0
 10
89.93885770546858
 20
-130.3389710785263
 30
0.0
 10
89.93885770546858
 20
-130.3389710785263
 30
0.0
 10
90.20344103205183
 20
-129.5893183009359
 30
0.0
 10
90.37982991644067
 20
-129.5893183009359
 30
0.0
 10
90.37982991644067
 20
-129.5893183009359
 30
0.0
 10
91.085385453996
 20
-129.5452210787247
 30
0.0
 10
91.085385453996
 20
-129.5452210787247
 30
0.0
 10
91.085385453996
 20
-129.5452210787247
 30
0.0
 10
91.48243683275527
 20
-129.5452210787247
 30
0.0
 10
91.48243683275527
 20
-130.2507766341039
 30
0.0
 10
91.48243683275527
 20
-130.2507766341039
 30
0.0
 10
91.085385453996
 20
-130.6035544117935
 30
0.0
 10
91.43833961165805
 20
-131.1327210783278
 30
0.0
 10
91.43833961165805
 20
-131.1327210783278
 30
0.0
 10
91.7029229382413
 20
-131.3532071893838
 30
0.0
 10
91.34996878057925
 20
-131.617790522651
 30
0.0
 10
91.34996878057925
 20
-131.617790522651
 30
0.0
 10
91.17357989619042
 20
-131.838276633707
 30
0.0
 10
91.48243683275527
 20
-132.1469571891854
 30
0.0
 10
91.48243683275527
 20
-132.1469571891854
 30
0.0
 10
91.57063127494968
 20
-132.3233460780302
 30
0.0
 10
91.34996878057925
 20
-132.5438321890862
 30
0.0
 10
91.34996878057925
 20
-132.5438321890862
 30
0.0
 10
91.26177433838484
 20
-132.8966099667758
 30
0.0
 10
91.43833961165805
 20
-133.0729988556205
 30
0.0
 10
91.43833961165805
 20
-133.0729988556205
 30
0.0
 10
91.6147284960469
 20
-133.2052905222542
 30
0.0
 10
91.34996878057925
 20
-133.3816794110989
 30
0.0
 10
91.34996878057925
 20
-133.3816794110989
 30
0.0
 10
91.17357989619042
 20
-133.6462627443661
 30
0.0
 10
91.43833961165805
 20
-133.8226516332109
 30
0.0
 10
91.43833961165805
 20
-133.8226516332109
 30
0.0
 10
91.7029229382413
 20
-134.1313321886893
 30
0.0
 10
91.34996878057925
 20
-134.3077210775341
 30
0.0
 10
91.34996878057925
 20
-134.3077210775341
 30
0.0
 10
91.21767711728762
 20
-134.4841099663789
 30
0.0
 10
91.43833961165805
 20
-134.7486932996461
 30
0.0
 10
91.43833961165805
 20
-134.7486932996461
 30
0.0
 10
91.6588257171441
 20
-135.0132766329133
 30
0.0
 10
91.39424239056085
 20
-135.1455682995469
 30
0.0
 10
91.39424239056085
 20
-135.1455682995469
 30
0.0
 10
91.21767711728762
 20
-135.4983460772364
 30
0.0
 10
91.48243683275527
 20
-135.7188321882924
 30
0.0
 10
91.48243683275527
 20
-135.7188321882924
 30
0.0
 10
91.52653405385247
 20
-135.8952210771372
 30
0.0
 10
91.30587155948204
 20
-136.071609965982
 30
0.0
 10
91.30587155948204
 20
-136.071609965982
 30
0.0
 10
91.30587155948204
 20
-136.4243877436716
 30
0.0
 10
91.48243683275527
 20
-136.5566794103052
 30
0.0
 10
91.48243683275527
 20
-136.5566794103052
 30
0.0
 10
91.57063127494968
 20
-136.6889710769388
 30
0.0
 10
91.34996878057925
 20
-136.8653599657836
 30
0.0
 10
91.34996878057925
 20
-136.8653599657836
 30
0.0
 10
91.30587155948204
 20
-137.174040521262
 30
0.0
 10
91.48243683275527
 20
-137.3504294101068
 30
0.0
 10
91.48243683275527
 20
-137.3504294101068
 30
0.0
 10
91.57063127494968
 20
-138.4087627431755
 30
0.0
 10
90.99719101180158
 20
-138.5851516320203
 30
0.0
 10
90.99719101180158
 20
-138.5851516320203
 30
0.0
 10
89.76246882107975
 20
-138.5410544098091
 30
0.0
 10
89.76246882107975
 20
-138.5410544098091
 30
0.0
 10
89.76246882107975
 20
-138.5410544098091
 30
0.0
 10
89.32149661010766
 20
-137.9677905210635
 30
0.0
 10
89.32149661010766
 20
-137.9677905210635
 30
0.0
 10
89.32149661010766
 20
-137.9677905210635
 30
0.0
 10
78.69406632568044
 20
-137.9677905210635
 30
0.0
 10
78.69406632568044
 20
-137.9677905210635
 30
0.0
 10
78.69406632568044
 20
-137.9677905210635
 30
0.0
 10
77.94423717814351
 20
-138.5410544098091
 30
0.0
 10
77.94423717814351
 20
-138.5410544098091
 30
0.0
 10
77.94423717814351
 20
-138.5410544098091
 30
0.0
 10
76.97409831400492
 20
-138.5410544098091
 30
0.0
 10
76.97409831400492
 20
-138.5410544098091
 30
0.0
 10
76.97409831400492
 20
-138.5410544098091
 30
0.0
 10
76.35673721864401
 20
-138.6733460764427
 30
0.0
 10
76.35673721864401
 20
-137.3063321878955
 30
0.0
 10
76.35673721864401
 20
-137.3063321878955
 30
0.0
 10
76.79770942961609
 20
-136.953554410206
 30
0.0
 10
76.40083443974122
 20
-136.7771655213612
 30
0.0
 10
76.40083443974122
 20
-136.7771655213612
 30
0.0
 10
76.13625111315797
 20
-136.73306829915
 30
0.0
 10
76.40083443974122
 20
-136.5566794103052
 30
0.0
 10
76.40083443974122
 20
-136.5566794103052
 30
0.0
 10
76.70951498742167
 20
-136.071609965982
 30
0.0
 10
76.26854277644959
 20
-135.9393182993484
 30
0.0
 10
76.26854277644959
 20
-135.9393182993484
 30
0.0
 10
76.00395944986634
 20
-135.7188321882924
 30
0.0
 10
76.3126399975468
 20
-135.63063774387
 30
0.0
 10
76.3126399975468
 20
-135.63063774387
 30
0.0
 10
76.88590387181051
 20
-135.1896655217581
 30
0.0
 10
76.22444555535239
 20
-135.0132766329133
 30
0.0
 10
76.22444555535239
 20
-135.0132766329133
 30
0.0
 10
76.04805667096355
 20
-134.7486932996461
 30
0.0
 10
76.35673721864401
 20
-134.7927905218573
 30
0.0
 10
76.35673721864401
 20
-134.7927905218573
 30
0.0
 10
76.66541776632447
 20
-134.4841099663789
 30
0.0
 10
76.40083443974122
 20
-134.3518182997453
 30
0.0
 10
76.40083443974122
 20
-134.3518182997453
 30
0.0
 10
76.00395944986634
 20
-134.2636238553229
 30
0.0
 10
76.40083443974122
 20
-134.0431377442669
 30
0.0
 10
76.40083443974122
 20
-134.0431377442669
 30
0.0
 10
76.75361220851889
 20
-133.6021655221549
 30
0.0
 10
76.35673721864401
 20
-133.4698738555213
 30
0.0
 10
76.35673721864401
 20
-133.4698738555213
 30
0.0
 10
76.09215389206076
 20
-133.0289016334094
 30
0.0
 10
76.40083443974122
 20
-132.9848044111982
 30
0.0
 10
76.40083443974122
 20
-132.9848044111982
 30
0.0
 10
76.70951498742167
 20
-132.6320266335086
 30
0.0
 10
76.22444555535239
 20
-132.4115405224526
 30
0.0
 10
76.22444555535239
 20
-132.4115405224526
 30
0.0
 10
76.00395944986634
 20
-132.279248855819
 30
0.0
 10
76.35673721864401
 20
-132.1028599669742
 30
0.0
 10
76.35673721864401
 20
-132.1028599669742
 30
0.0
 10
76.75361220851889
 20
-131.617790522651
 30
0.0
 10
76.3126399975468
 20
-131.4414016338062
 30
0.0
 10
76.3126399975468
 20
-131.4414016338062
 30
0.0
 10
75.95986222876914
 20
-131.2650127449614
 30
0.0
 10
76.35673721864401
 20
-131.2209155227502
 30
0.0
 10
76.35673721864401
 20
-131.2209155227502
 30
0.0
 10
76.79770942961609
 20
-130.7358460784271
 30
0.0
 10
76.44493166083842
 20
-130.2948738563151
 30
0.0
 10
76.44493166083842
 20
-130.2948738563151
 30
0.0
 10
76.44493166083842
 20
-129.8539016342031
 30
0.0
 10
76.44493166083842
 20
-129.8539016342031
 30
0.0
 10
76.44493166083842
 20
-129.8539016342031
 30
0.0
 10
76.35673721864401
 20
-129.5452210787247
 30
0.0
 10
76.75361220851889
 20
-129.6334155231471
 30
0.0
 10
76.75361220851889
 20
-129.6334155231471
 30
0.0
 10
77.32687608278259
 20
-129.5893183009359
 30
0.0
 10
77.32687608278259
 20
-129.5893183009359
 30
0.0
 10
77.32687608278259
 20
-129.5893183009359
 30
0.0
 10
77.72375107265746
 20
-129.5893183009359
 30
0.0
 10
77.85604273594909
 20
-130.2948738563151
 30
0.0
 10
77.85604273594909
 20
-130.2948738563151
 30
0.0
 10
78.38538577799999
 20
-130.2948738563151
 30
0.0
 10
78.38538577799999
 20
-130.2948738563151
 30
0.0
 10
78.38538577799999
 20
-130.2948738563151
 30
0.0
 10
78.12080245141674
 20
-129.5011238565135
 30
0.0
 10
78.12080245141674
 20
-129.5011238565135
 30
0.0
 10
78.12080245141674
 20
-129.5011238565135
 30
0.0
 10
77.81194551485189
 20
-129.0601516344015
 30
0.0
 10
77.01819553510214
 20
-129.1042488566127
 30
0.0
 10
77.01819553510214
 20
-129.1042488566127
 30
0.0
 10
76.09215389206076
 20
-128.9719571899792
 30
0.0
 10
75.95986222876914
 20
-129.4570266343023
 30
0.0
 10
75.95986222876914
 20
-129.4570266343023
 30
0.0
 10
75.87166778657472
 20
-129.9420960786255
 30
0.0
 10
76.00395944986634
 20
-130.0302905230479
 30
0.0
 10
76.00395944986634
 20
-130.0302905230479
 30
0.0
 10
75.56298723889425
 20
-130.3389710785263
 30
0.0
 10
76.04805667096355
 20
-130.8681377450607
 30
0.0
 10
76.04805667096355
 20
-130.8681377450607
 30
0.0
 10
75.60708445999147
 20
-130.956332189483
 30
0.0
 10
75.95986222876914
 20
-131.7059849670734
 30
0.0
 10
75.95986222876914
 20
-131.7059849670734
 30
0.0
 10
75.60708445999147
 20
-132.279248855819
 30
0.0
 10
76.00395944986634
 20
-132.720221077931
 30
0.0
 10
76.00395944986634
 20
-132.720221077931
 30
0.0
 10
75.56298723889425
 20
-133.0729988556205
 30
0.0
 10
75.95986222876914
 20
-133.6021655221549
 30
0.0
 10
75.95986222876914
 20
-133.6021655221549
 30
0.0
 10
75.60708445999147
 20
-134.1754294109005
 30
0.0
 10
76.00395944986634
 20
-134.4841099663789
 30
0.0
 10
76.00395944986634
 20
-134.4841099663789
 30
0.0
 10
75.65118168108867
 20
-134.6604988552237
 30
0.0
 10
75.95986222876914
 20
-135.410151632814
 30
0.0
 10
75.95986222876914
 20
-135.410151632814
 30
0.0
 10
75.65118168108867
 20
-135.7188321882924
 30
0.0
 10
75.95986222876914
 20
-136.2039016326156
 30
0.0
 10
75.95986222876914
 20
-136.2039016326156
 30
0.0
 10
75.69527890218588
 20
-136.6448738547276
 30
0.0
 10
76.04805667096355
 20
-136.953554410206
 30
0.0
 10
76.04805667096355
 20
-136.953554410206
 30
0.0
 10
75.38659835450542
 20
-138.7174432986539
 30
0.0
 10
77.06229275619934
 20
-139.0261238541323
 30
0.0
 10
77.06229275619934
 20
-139.0261238541323
 30
0.0
 10
78.25309411470836
 20
-139.0261238541323
 30
0.0
 10
78.25309411470836
 20
-139.0261238541323
 30
0.0
 10
78.25309411470836
 20
-139.0261238541323
 30
0.0
 10
78.87045521006928
 20
-138.4528599653867
 30
0.0
 10
78.87045521006928
 20
-138.4528599653867
 30
0.0
 10
78.87045521006928
 20
-138.4528599653867
 30
0.0
 10
89.0128160624272
 20
-138.4528599653867
 30
0.0
 10
89.0128160624272
 20
-138.4528599653867
 30
0.0
 10
89.0128160624272
 20
-138.4528599653867
 30
0.0
 10
89.58607993669091
 20
-139.0261238541323
 30
0.0
 10
89.58607993669091
 20
-139.0261238541323
 30
0.0
 10
89.58607993669091
 20
-139.0261238541323
 30
0.0
 10
91.0412882328988
 20
-138.8938321874987
 30
0.0
 10
91.0412882328988
 20
-138.8938321874987
 30
0.0
 10
91.0412882328988
 20
-138.8938321874987
 30
0.0
 10
91.87931182263014
 20
-138.9379294097099
 30
0.0
 10
91.87931182263014
 20
-137.0417488546284
 30
0.0
 10
91.87931182263014
 20
-137.0417488546284
 30
0.0
 10
92.32028403360222
 20
-136.73306829915
 30
0.0
 10
91.96750626482455
 20
-136.4684849658828
 30
0.0
 10
91.96750626482455
 20
-136.4684849658828
 30
0.0
 10
91.6588257171441
 20
-136.071609965982
 30
0.0
 10
91.96750626482455
 20
-135.9834155215596
 30
0.0
 10
91.96750626482455
 20
-135.9834155215596
 30
0.0
 10
92.2320895914078
 20
-135.63063774387
 30
0.0
 10
91.87931182263014
 20
-135.4983460772364
 30
0.0
 10
91.87931182263014
 20
-135.4983460772364
 30
0.0
 10
91.7029229382413
 20
-135.2778599661804
 30
0.0
 10
92.01160348592177
 20
-135.1455682995469
 30
0.0
 10
92.01160348592177
 20
-135.1455682995469
 30
0.0
 10
92.27618681250502
 20
-134.6604988552237
 30
0.0
 10
91.83521460153293
 20
-134.5282071885901
 30
0.0
 10
91.83521460153293
 20
-134.5282071885901
 30
0.0
 10
91.7029229382413
 20
-134.3518182997453
 30
0.0
 10
91.92340904372735
 20
-134.2636238553229
 30
0.0
 10
91.92340904372735
 20
-134.2636238553229
 30
0.0
 10
92.14389514921339
 20
-133.8226516332109
 30
0.0
 10
91.83521460153293
 20
-133.8226516332109
 30
0.0
 10
91.83521460153293
 20
-133.8226516332109
 30
0.0
 10
91.74702015933852
 20
-133.4698738555213
 30
0.0
 10
91.92340904372735
 20
-133.4257766333101
 30
0.0
 10
91.92340904372735
 20
-133.4257766333101
 30
0.0
 10
92.40847847579664
 20
-132.9407071889869
 30
0.0
 10
91.83521460153293
 20
-132.8525127445646
 30
0.0
 10
91.83521460153293
 20
-132.8525127445646
 30
0.0
 10
91.6147284960469
 20
-132.6320266335086
 30
0.0
 10
91.92340904372735
 20
-132.5438321890862
 30
0.0
 10
91.92340904372735
 20
-132.5438321890862
 30
0.0
 10
92.32028403360222
 20
-131.9705683003406
 30
0.0
 10
91.87931182263014
 20
-131.9705683003406
 30
0.0
 10
91.87931182263014
 20
-131.9705683003406
 30
0.0
 10
91.57063127494968
 20
-131.6618877448622
 30
0.0
 10
91.92340904372735
 20
-131.6618877448622
 30
0.0
 10
91.92340904372735
 20
-131.6618877448622
 30
0.0
 10
92.1879923703106
 20
-131.1768183005391
 30
0.0
 10
92.01160348592177
 20
-131.1327210783278
 30
0.0
 10
92.01160348592177
 20
-131.1327210783278
 30
0.0
 10
91.6147284960469
 20
-130.7358460784271
 30
0.0
 10
91.92340904372735
 20
-130.6476516340047
 30
0.0
 10
91.92340904372735
 20
-130.6476516340047
 30
0.0
 10
92.27618681250502
 20
-130.0302905230479
 30
0.0
 10
91.87931182263014
 20
-130.0302905230479
 30
0.0
 10
91.87931182263014
 20
-130.0302905230479
 30
0.0
 10
92.09979792811617
 20
-129.0601516344015
 30
0.0
 10
91.30587155948204
 20
-129.1042488566127
 30
0.0
 10
91.30587155948204
 20
-129.1042488566127
 30
0.0
 10
90.29163547424625
 20
-129.1042488566127
 30
0.0
 10
90.29163547424625
 20
-129.1042488566127
 30
0.0
 10
90.29163547424625
 20
-129.1042488566127
 30
0.0
 10
89.4978854944965
 20
-129.1042488566127
 30
0.0
 10
89.4978854944965
 20
-130.3389710785263
 30
0.0
  0
HATCH
  5
42
330
1F
100
AcDbEntity
  8
_U+30EC_U+30A4_U+30E4_U+30FC 1
 62
   179
420
  2234388
100
AcDbHatch
 10
0.0
 20
0.0
 30
0.0
210
0.0
220
0.0
230
1.0
  2
SOLID
 70
     1
 71
     0
 91
        1
 92
        1
 93
        1
 72
     4
 94
        3
 73
     0
 74
     1
 95
      254
 96
      250
 40
0.0
 40
0.0
 40
0.0
 40
0.0
 40
1.0
 40
1.0
 40
1.0
 40
2.0
 40
2.0
 40
2.0
 40
3.0
 40
3.0
 40
3.0
 40
4.0
 40
4.0
 40
4.0
 40
5.0
 40
5.0
 40
5.0
 40
6.0
 40
6.0
 40
6.0
 40
7.0
 40
7.0
 40
7.0
 40
8.0
 40
8.0
 40
8.0
 40
9.0
 40
9.0
 40
9.0
 40
10.0
 40
10.0
 40
10.0
 40
11.0
 40
11.0
 40
11.0
 40
12.0
 40
12.0
 40
12.0
 40
13.0
 40
13.0
 40
13.0
 40
14.0
 40
14.0
 40
14.0
 40
15.0
 40
15.0
 40
15.0
 40
16.0
 40
16.0
 40
16.0
 40
17.0
 40
17.0
 40
17.0
 40
18.0
 40
18.0
 40
18.0
 40
19.0
 40
19.0
 40
19.0
 40
20.0
 40
20.0
 40
20.0
 40
21.0
 40
21.0
 40
21.0
 40
22.0
 40
22.0
 40
22.0
 40
23.0
 40
23.0
 40
23.0
 40
24.0
 40
24.0
 40
24.0
 40
25.0
 40
25.0
 40
25.0
 40
26.0
 40
26.0
 40
26.0
 40
27.0
 40
27.0
 40
27.0
 40
28.0
 40
28.0
 40
28.0
 40
29.0
 40
29.0
 40
29.0
 40
30.0
 40
30.0
 40
30.0
 40
31.0
 40
31.0
 40
31.0
 40
32.0
 40
32.0
 40
32.0
 40
33.0
 40
33.0
 40
33.0
 40
34.0
 40
34.0
 40
34.0
 40
35.0
 40
35.0
 40
35.0
 40
36.0
 40
36.0
 40
36.0
 40
37.0
 40
37.0
 40
37.0
 40
38.0
 40
38.0
 40
38.0
 40
39.0
 40
39.0
 40
39.0
 40
40.0
 40
40.0
 40
40.0
 40
41.0
 40
41.0
 40
41.0
 40
42.0
 40
42.0
 40
42.0
 40
43.0
 40
43.0
 40
43.0
 40
44.0
 40
44.0
 40
44.0
 40
45.0
 40
45.0
 40
45.0
 40
46.0
 40
46.0
 40
46.0
 40
47.0
 40
47.0
 40
47.0
 40
48.0
 40
48.0
 40
48.0
 40
49.0
 40
49.0
 40
49.0
 40
50.0
 40
50.0
 40
50.0
 40
51.0
 40
51.0
 40
51.0
 40
52.0
 40
52.0
 40
52.0
 40
53.0
 40
53.0
 40
53.0
 40
54.0
 40
54.0
 40
54.0
 40
55.0
 40
55.0
 40
55.0
 40
56.0
 40
56.0
 40
56.0
 40
57.0
 40
57.0
 40
57.0
 40
58.0
 40
58.0
 40
58.0
 40
59.0
 40
59.0
 40
59.0
 40
60.0
 40
60.0
 40
60.0
 40
61.0
 40
61.0
 40
61.0
 40
62.0
 40
62.0
 40
62.0
 40
63.0
 40
63.0
 40
63.0
 40
64.0
 40
64.0
 40
64.0
 40
65.0
 40
65.0
 40
65.0
 40
66.0
 40
66.0
 40
66.0
 40
67.0
 40
67.0
 40
67.0
 40
68.0
 40
68.0
 40
68.0
 40
69.0
 40
69.0
 40
69.0
 40
70.0
 40
70.0
 40
70.0
 40
71.0
 40
71.0
 40
71.0
 40
72.0
 40
72.0
 40
72.0
 40
73.0
 40
73.0
 40
73.0
 40
74.0
 40
74.0
 40
74.0
 40
75.0
 40
75.0
 40
75.0
 40
76.0
 40
76.0
 40
76.0
 40
77.0
 40
77.0
 40
77.0
 40
78.0
 40
78.0
 40
78.0
 40
79.0
 40
79.0
 40
79.0
 40
80.0
 40
80.0
 40
80.0
 40
81.0
 40
81.0
 40
81.0
 40
82.0
 40
82.0
 40
82.0
 40
83.0
 40
83.0
 40
83.0
 40
83.0
 10
89.4978854944965
 20
-130.3389710785263
 10
89.4978854944965
 20
-130.3389710785263
 10
89.93885770546858
 20
-130.3389710785263
 10
89.93885770546858
 20
-130.3389710785263
 10
89.93885770546858
 20
-130.3389710785263
 10
90.20344103205183
 20
-129.5893183009359
 10
90.37982991644067
 20
-129.5893183009359
 10
90.37982991644067
 20
-129.5893183009359
 10
91.085385453996
 20
-129.5452210787247
 10
91.085385453996
 20
-129.5452210787247
 10
91.085385453996
 20
-129.5452210787247
 10
91.48243683275527
 20
-129.5452210787247
 10
91.48243683275527
 20
-130.2507766341039
 10
91.48243683275527
 20
-130.2507766341039
 10
91.085385453996
 20
-130.6035544117935
 10
91.43833961165805
 20
-131.1327210783278
 10
91.43833961165805
 20
-131.1327210783278
 10
91.7029229382413
 20
-131.3532071893838
 10
91.34996878057925
 20
-131.617790522651
 10
91.34996878057925
 20
-131.617790522651
 10
91.17357989619042
 20
-131.838276633707
 10
91.48243683275527
 20
-132.1469571891854
 10
91.48243683275527
 20
-132.1469571891854
 10
91.57063127494968
 20
-132.3233460780302
 10
91.34996878057925
 20
-132.5438321890862
 10
91.34996878057925
 20
-132.5438321890862
 10
91.26177433838484
 20
-132.8966099667758
 10
91.43833961165805
 20
-133.0729988556205
 10
91.43833961165805
 20
-133.0729988556205
 10
91.6147284960469
 20
-133.2052905222542
 10
91.34996878057925
 20
-133.3816794110989
 10
91.34996878057925
 20
-133.3816794110989
 10
91.17357989619042
 20
-133.6462627443661
 10
91.43833961165805
 20
-133.8226516332109
 10
91.43833961165805
 20
-133.8226516332109
 10
91.7029229382413
 20
-134.1313321886893
 10
91.34996878057925
 20
-134.3077210775341
 10
91.34996878057925
 20
-134.3077210775341
 10
91.21767711728762
 20
-134.4841099663789
 10
91.43833961165805
 20
-134.7486932996461
 10
91.43833961165805
 20
-134.7486932996461
 10
91.6588257171441
 20
-135.0132766329133
 10
91.39424239056085
 20
-135.1455682995469
 10
91.39424239056085
 20
-135.1455682995469
 10
91.21767711728762
 20
-135.4983460772364
 10
91.48243683275527
 20
-135.7188321882924
 10
91.48243683275527
 20
-135.7188321882924
 10
91.52653405385247
 20
-135.8952210771372
 10
91.30587155948204
 20
-136.071609965982
 10
91.30587155948204
 20
-136.071609965982
 10
91.30587155948204
 20
-136.4243877436716
 10
91.48243683275527
 20
-136.5566794103052
 10
91.48243683275527
 20
-136.5566794103052
 10
91.57063127494968
 20
-136.6889710769388
 10
91.34996878057925
 20
-136.8653599657836
 10
91.34996878057925
 20
-136.8653599657836
 10
91.30587155948204
 20
-137.174040521262
 10
91.48243683275527
 20
-137.3504294101068
 10
91.48243683275527
 20
-137.3504294101068
 10
91.57063127494968
 20
-138.4087627431755
 10
90.99719101180158
 20
-138.5851516320203
 10
90.99719101180158
 20
-138.5851516320203
 10
89.76246882107975
 20
-138.5410544098091
 10
89.76246882107975
 20
-138.5410544098091
 10
89.76246882107975
 20
-138.5410544098091
 10
89.32149661010766
 20
-137.9677905210635
 10
89.32149661010766
 20
-137.9677905210635
 10
89.32149661010766
 20
-137.9677905210635
 10
78.69406632568044
 20
-137.9677905210635
 10
78.69406632568044
 20
-137.9677905210635
 10
78.69406632568044
 20
-137.9677905210635
 10
77.94423717814351
 20
-138.5410544098091
 10
77.94423717814351
 20
-138.5410544098091
 10
77.94423717814351
 20
-138.5410544098091
 10
76.97409831400492
 20
-138.5410544098091
 10
76.97409831400492
 20
-138.5410544098091
 10
76.97409831400492
 20
-138.5410544098091
 10
76.35673721864401
 20
-138.6733460764427
 10
76.35673721864401
 20
-137.3063321878955
 10
76.35673721864401
 20
-137.3063321878955
 10
76.79770942961609
 20
-136.953554410206
 10
76.40083443974122
 20
-136.7771655213612
 10
76.40083443974122
 20
-136.7771655213612
 10
76.13625111315797
 20
-136.73306829915
 10
76.40083443974122
 20
-136.5566794103052
 10
76.40083443974122
 20
-136.5566794103052
 10
76.70951498742167
 20
-136.071609965982
 10
76.26854277644959
 20
-135.9393182993484
 10
76.26854277644959
 20
-135.9393182993484
 10
76.00395944986634
 20
-135.7188321882924
 10
76.3126399975468
 20
-135.63063774387
 10
76.3126399975468
 20
-135.63063774387
 10
76.88590387181051
 20
-135.1896655217581
 10
76.22444555535239
 20
-135.0132766329133
 10
76.22444555535239
 20
-135.0132766329133
 10
76.04805667096355
 20
-134.7486932996461
 10
76.35673721864401
 20
-134.7927905218573
 10
76.35673721864401
 20
-134.7927905218573
 10
76.66541776632447
 20
-134.4841099663789
 10
76.40083443974122
 20
-134.3518182997453
 10
76.40083443974122
 20
-134.3518182997453
 10
76.00395944986634
 20
-134.2636238553229
 10
76.40083443974122
 20
-134.0431377442669
 10
76.40083443974122
 20
-134.0431377442669
 10
76.75361220851889
 20
-133.6021655221549
 10
76.35673721864401
 20
-133.4698738555213
 10
76.35673721864401
 20
-133.4698738555213
 10
76.09215389206076
 20
-133.0289016334094
 10
76.40083443974122
 20
-132.9848044111982
 10
76.40083443974122
 20
-132.9848044111982
 10
76.70951498742167
 20
-132.6320266335086
 10
76.22444555535239
 20
-132.4115405224526
 10
76.22444555535239
 20
-132.4115405224526
 10
76.00395944986634
 20
-132.279248855819
 10
76.35673721864401
 20
-132.1028599669742
 10
76.35673721864401
 20
-132.1028599669742
 10
76.75361220851889
 20
-131.617790522651
 10
76.3126399975468
 20
-131.4414016338062
 10
76.3126399975468
 20
-131.4414016338062
 10
75.95986222876914
 20
-131.2650127449614
 10
76.35673721864401
 20
-131.2209155227502
 10
76.35673721864401
 20
-131.2209155227502
 10
76.79770942961609
 20
-130.7358460784271
 10
76.44493166083842
 20
-130.2948738563151
 10
76.44493166083842
 20
-130.2948738563151
 10
76.44493166083842
 20
-129.8539016342031
 10
76.44493166083842
 20
-129.8539016342031
 10
76.44493166083842
 20
-129.8539016342031
 10
76.35673721864401
 20
-129.5452210787247
 10
76.75361220851889
 20
-129.6334155231471
 10
76.75361220851889
 20
-129.6334155231471
 10
77.32687608278259
 20
-129.5893183009359
 10
77.32687608278259
 20
-129.5893183009359
 10
77.32687608278259
 20
-129.5893183009359
 10
77.72375107265746
 20
-129.5893183009359
 10
77.85604273594909
 20
-130.2948738563151
 10
77.85604273594909
 20
-130.2948738563151
 10
78.38538577799999
 20
-130.2948738563151
 10
78.38538577799999
 20
-130.2948738563151
 10
78.38538577799999
 20
-130.2948738563151
 10
78.12080245141674
 20
-129.5011238565135
 10
78.12080245141674
 20
-129.5011238565135
 10
78.12080245141674
 20
-129.5011238565135
 10
77.81194551485189
 20
-129.0601516344015
 10
77.01819553510214
 20
-129.1042488566127
 10
77.01819553510214
 20
-129.1042488566127
 10
76.09215389206076
 20
-128.9719571899792
 10
75.95986222876914
 20
-129.4570266343023
 10
75.95986222876914
 20
-129.4570266343023
 10
75.87166778657472
 20
-129.9420960786255
 10
76.00395944986634
 20
-130.0302905230479
 10
76.00395944986634
 20
-130.0302905230479
 10
75.56298723889425
 20
-130.3389710785263
 10
76.04805667096355
 20
-130.8681377450607
 10
76.04805667096355
 20
-130.8681377450607
 10
75.60708445999147
 20
-130.956332189483
 10
75.95986222876914
 20
-131.7059849670734
 10
75.95986222876914
 20
-131.7059849670734
 10
75.60708445999147
 20
-132.279248855819
 10
76.00395944986634
 20
-132.720221077931
 10
76.00395944986634
 20
-132.720221077931
 10
75.56298723889425
 20
-133.0729988556205
 10
75.95986222876914
 20
-133.6021655221549
 10
75.95986222876914
 20
-133.6021655221549
 10
75.60708445999147
 20
-134.1754294109005
 10
76.00395944986634
 20
-134.4841099663789
 10
76.00395944986634
 20
-134.4841099663789
 10
75.65118168108867
 20
-134.6604988552237
 10
75.95986222876914
 20
-135.410151632814
 10
75.95986222876914
 20
-135.410151632814
 10
75.65118168108867
 20
-135.7188321882924
 10
75.95986222876914
 20
-136.2039016326156
 10
75.95986222876914
 20
-136.2039016326156
 10
75.69527890218588
 20
-136.6448738547276
 10
76.04805667096355
 20
-136.953554410206
 10
76.04805667096355
 20
-136.953554410206
 10
75.38659835450542
 20
-138.7174432986539
 10
77.06229275619934
 20
-139.0261238541323
 10
77.06229275619934
 20
-139.0261238541323
 10
78.25309411470836
 20
-139.0261238541323
 10
78.25309411470836
 20
-139.0261238541323
 10
78.25309411470836
 20
-139.0261238541323
 10
78.87045521006928
 20
-138.4528599653867
 10
78.87045521006928
 20
-138.4528599653867
 10
78.87045521006928
 20
-138.4528599653867
 10
89.0128160624272
 20
-138.4528599653867
 10
89.0128160624272
 20
-138.4528599653867
 10
89.0128160624272
 20
-138.4528599653867
 10
89.58607993669091
 20
-139.0261238541323
 10
89.58607993669091
 20
-139.0261238541323
 10
89.58607993669091
 20
-139.0261238541323
 10
91.0412882328988
 20
-138.8938321874987
 10
91.0412882328988
 20
-138.8938321874987
 10
91.0412882328988
 20
-138.8938321874987
 10
91.87931182263014
 20
-138.9379294097099
 10
91.87931182263014
 20
-137.0417488546284
 10
91.87931182263014
 20
-137.0417488546284
 10
92.32028403360222
 20
-136.73306829915
 10
91.96750626482455
 20
-136.4684849658828
 10
91.96750626482455
 20
-136.4684849658828
 10
91.6588257171441
 20
-136.071609965982
 10
91.96750626482455
 20
-135.9834155215596
 10
91.96750626482455
 20
-135.9834155215596
 10
92.2320895914078
 20
-135.63063774387
 10
91.87931182263014
 20
-135.4983460772364
 10
91.87931182263014
 20
-135.4983460772364
 10
91.7029229382413
 20
-135.2778599661804
 10
92.01160348592177
 20
-135.1455682995469
 10
92.01160348592177
 20
-135.1455682995469
 10
92.27618681250502
 20
-134.6604988552237
 10
91.83521460153293
 20
-134.5282071885901
 10
91.83521460153293
 20
-134.5282071885901
 10
91.7029229382413
 20
-134.3518182997453
 10
91.92340904372735
 20
-134.2636238553229
 10
91.92340904372735
 20
-134.2636238553229
 10
92.14389514921339
 20
-133.8226516332109
 10
91.83521460153293
 20
-133.8226516332109
 10
91.83521460153293
 20
-133.8226516332109
 10
91.74702015933852
 20
-133.4698738555213
 10
91.92340904372735
 20
-133.4257766333101
 10
91.92340904372735
 20
-133.4257766333101
 10
92.40847847579664
 20
-132.9407071889869
 10
91.83521460153293
 20
-132.8525127445646
 10
91.83521460153293
 20
-132.8525127445646
 10
91.6147284960469
 20
-132.6320266335086
 10
91.92340904372735
 20
-132.5438321890862
 10
91.92340904372735
 20
-132.5438321890862
 10
92.32028403360222
 20
-131.9705683003406
 10
91.87931182263014
 20
-131.9705683003406
 10
91.87931182263014
 20
-131.9705683003406
 10
91.57063127494968
 20
-131.6618877448622
 10
91.92340904372735
 20
-131.6618877448622
 10
91.92340904372735
 20
-131.6618877448622
 10
92.1879923703106
 20
-131.1768183005391
 10
92.01160348592177
 20
-131.1327210783278
 10
92.01160348592177
 20
-131.1327210783278
 10
91.6147284960469
 20
-130.7358460784271
 10
91.92340904372735
 20
-130.6476516340047
 10
91.92340904372735
 20
-130.6476516340047
 10
92.27618681250502
 20
-130.0302905230479
 10
91.87931182263014
 20
-130.0302905230479
 10
91.87931182263014
 20
-130.0302905230479
 10
92.09979792811617
 20
-129.0601516344015
 10
91.30587155948204
 20
-129.1042488566127
 10
91.30587155948204
 20
-129.1042488566127
 10
90.29163547424625
 20
-129.1042488566127
 10
90.29163547424625
 20
-129.1042488566127
 10
90.29163547424625
 20
-129.1042488566127
 10
89.4978854944965
 20
-129.1042488566127
 10
89.4978854944965
 20
-130.3389710785263
 97
        0
 97
        0
 75
     2
 76
     1
 98
        0
  0
POLYLINE
  5
43
330
1F
100
AcDbEntity
  8
_U+30EC_U+30A4_U+30E4_U+30FC 1
 62
   179
420
  2234388
370
     9
100
AcDb2dPolyline
 66
     1
 10
0.0
 20
0.0
 30
0.0
  0
VERTEX
  5
44
330
43
100
AcDbEntity
  8
_U+30EC_U+30A4_U+30E4_U+30FC 1
 62
   179
420
  2234388
370
     9
100
AcDbVertex
100
AcDb2dVertex
 10
76.04805667096355
 20
-129.4129294120911
 30
0.0
  0
VERTEX
  5
45
330
43
100
AcDbEntity
  8
_U+30EC_U+30A4_U+30E4_U+30FC 1
 62
   179
420
  2234388
370
     9
100
AcDbVertex
100
AcDb2dVertex
 10
94.8779228572403
 20
-113.6259827493712
 30
0.0
  0
VERTEX
  5
46
330
43
100
AcDbEntity
  8
_U+30EC_U+30A4_U+30E4_U+30FC 1
 62
   179
420
  2234388
370
     9
100
AcDbVertex
100
AcDb2dVertex
 10
96.50952003783702
 20
-113.7582744160048
 30
0.0
  0
VERTEX
  5
47
330
43
100
AcDbEntity
  8
_U+30EC_U+30A4_U+30E4_U+30FC 1
 62
   179
420
  2234388
370
     9
100
AcDbVertex
100
AcDb2dVertex
 10
96.60942670195486
 20
-115.3016771933968
 30
0.0
  0
VERTEX
  5
48
330
43
100
AcDbEntity
  8
_U+30EC_U+30A4_U+30E4_U+30FC 1
 62
   179
420
  2234388
370
     9
100
AcDbVertex
100
AcDb2dVertex
 10
78.39709998040075
 20
-130.3065860785343
 30
0.0
  0
SEQEND
  5
49
330
43
100
AcDbEntity
  8
_U+30EC_U+30A4_U+30E4_U+30FC 1
 62
   179
420
  2234388
370
     9
  0
POLYLINE
  5
4A
330
1F
100
AcDbEntity
  8
_U+30EC_U+30A4_U+30E4_U+30FC 1
 62
   179
420
  2234388
370
     9
100
AcDb2dPolyline
 66
     1
 10
0.0
 20
0.0
 30
0.0
  0
VERTEX
  5
4B
330
4A
100
AcDbEntity
  8
_U+30EC_U+30A4_U+30E4_U+30FC 1
 62
   179
420
  2234388
370
     9
100
AcDbVertex
100
AcDb2dVertex
 10
78.07670523031952
 20
-128.9278599677679
 30
0.0
  0
VERTEX
  5
4C
330
4A
100
AcDbEntity
  8
_U+30EC_U+30A4_U+30E4_U+30FC 1
 62
   179
420
  2234388
370
     9
100
AcDbVertex
100
AcDb2dVertex
 10
96.24493671125377
 20
-113.8905660826384
 30
0.0
  0
SEQEND
  5
4D
330
4A
100
AcDbEntity
  8
_U+30EC_U+30A4_U+30E4_U+30FC 1
 62
   179
420
  2234388
370
     9
  0
SPLINE
  5
4E
330
1F
100
AcDbEntity
  8
_U+30EC_U+30A4_U+30E4_U+30FC 1
 62
   179
420
  2234388
370
     9
100
AcDbSpline
210
0.0
220
0.0
230
1.0
 70
     8
 71
     3
 72
    35
 73
    31
 74
     0
 42
0.0000000001
 43
0.0000000001
 12
1.0
 22
0.0
 32
0.0
 13
1.0
 23
0.0
 33
0.0
 40
0.0
 40
0.0
 40
0.0
 40
0.0
 40
1.0
 40
1.0
 40
1.0
 40
2.0
 40
2.0
 40
2.0
 40
3.0
 40
3.0
 40
3.0
 40
4.0
 40
4.0
 40
4.0
 40
5.0
 40
5.0
 40
5.0
 40
6.0
 40
6.0
 40
6.0
 40
7.0
 40
7.0
 40
7.0
 40
8.0
 40
8.0
 40
8.0
 40
9.0
 40
9.0
 40
9.0
 40
10.0
 40
10.0
 40
10.0
 40
10.0
 10
94.8338256361431
 20
-116.8891771929999
 30
0.0
 10
94.8338256361431
 20
-116.8891771929999
 30
0.0
 10
95.23070062601798
 20
-117.3742466373231
 30
0.0
 10
94.8338256361431
 20
-117.8593160816462
 30
0.0
 10
94.8338256361431
 20
-117.8593160816462
 30
0.0
 10
95.23070062601798
 20
-118.3884827481806
 30
0.0
 10
94.8338256361431
 20
-118.8294549702926
 30
0.0
 10
94.8338256361431
 20
-118.8294549702926
 30
0.0
 10
95.27479784711518
 20
-119.4909133034606
 30
0.0
 10
94.8779228572403
 20
-119.6673021923053
 30
0.0
 10
94.8779228572403
 20
-119.6673021923053
 30
0.0
 10
95.18660340492077
 20
-119.9759827477837
 30
0.0
 10
94.8779228572403
 20
-120.4610521921069
 30
0.0
 10
94.8779228572403
 20
-120.4610521921069
 30
0.0
 10
95.09840896272635
 20
-121.0784133030637
 30
0.0
 10
94.78972841504589
 20
-121.4752883029645
 30
0.0
 10
94.78972841504589
 20
-121.4752883029645
 30
0.0
 10
95.27479784711518
 20
-121.7398716362317
 30
0.0
 10
94.74563119394868
 20
-122.269038302766
 30
0.0
 10
94.74563119394868
 20
-122.269038302766
 30
0.0
 10
95.23070062601798
 20
-122.4013299693996
 30
0.0
 10
94.74563119394868
 20
-123.0627883025676
 30
0.0
 10
94.74563119394868
 20
-123.0627883025676
 30
0.0
 10
96.3772283745454
 20
-123.15098274699
 30
0.0
 10
96.3772283745454
 20
-123.15098274699
 30
0.0
 10
96.3772283745454
 20
-123.15098274699
 30
0.0
 10
96.64181170112865
 20
-122.930496635934
 30
0.0
 10
96.64181170112865
 20
-122.930496635934
 30
0.0
 10
96.64181170112865
 20
-122.930496635934
 30
0.0
 10
97.4355616808784
 20
-123.0186910803564
 30
0.0
 10
97.4355616808784
 20
-123.0186910803564
 30
0.0
  0
SPLINE
  5
4F
330
1F
100
AcDbEntity
  8
_U+30EC_U+30A4_U+30E4_U+30FC 1
 62
   179
420
  2234388
370
     9
100
AcDbSpline
210
0.0
220
0.0
230
1.0
 70
     8
 71
     3
 72
    50
 73
    46
 74
     0
 42
0.0000000001
 43
0.0000000001
 12
1.0
 22
0.0
 32
0.0
 13
1.0
 23
0.0
 33
0.0
 40
0.0
 40
0.0
 40
0.0
 40
0.0
 40
1.0
 40
1.0
 40
1.0
 40
2.0
 40
2.0
 40
2.0
 40
3.0
 40
3.0
 40
3.0
 40
4.0
 40
4.0
 40
4.0
 40
5.0
 40
5.0
 40
5.0
 40
6.0
 40
6.0
 40
6.0
 40
7.0
 40
7.0
 40
7.0
 40
8.0
 40
8.0
 40
8.0
 40
9.0
 40
9.0
 40
9.0
 40
10.0
 40
10.0
 40
10.0
 40
11.0
 40
11.0
 40
11.0
 40
12.0
 40
12.0
 40
12.0
 40
13.0
 40
13.0
 40
13.0
 40
14.0
 40
14.0
 40
14.0
 40
15.0
 40
15.0
 40
15.0
 40
15.0
 10
90.11524658985742
 20
-129.1924433010351
 30
0.0
 10
90.11524658985742
 20
-129.1924433010351
 30
0.0
 10
108.5480613973749
 20
-113.7141771937936
 30
0.0
 10
108.5480613973749
 20
-113.7141771937936
 30
0.0
 10
108.5480613973749
 20
-113.7141771937936
 30
0.0
 10
110.1355613568744
 20
-113.7141771937936
 30
0.0
 10
110.1355613568744
 20
-113.7141771937936
 30
0.0
 10
110.1355613568744
 20
-113.7141771937936
 30
0.0
 10
110.3119502412632
 20
-115.2134827489744
 30
0.0
 10
110.3119502412632
 20
-115.2134827489744
 30
0.0
 10
110.3119502412632
 20
-115.2134827489744
 30
0.0
 10
110.0914641357772
 20
-115.3457744156079
 30
0.0
 10
110.0914641357772
 20
-115.3457744156079
 30
0.0
 10
110.0914641357772
 20
-115.3457744156079
 30
0.0
 10
110.4883391256521
 20
-115.7867466377199
 30
0.0
 10
110.04736691468
 20
-116.3159133042543
 30
0.0
 10
110.04736691468
 20
-116.3159133042543
 30
0.0
 10
110.5765335678465
 20
-116.6686910819439
 30
0.0
 10
110.0032696935828
 20
-117.2860521929007
 30
0.0
 10
110.0032696935828
 20
-117.2860521929007
 30
0.0
 10
110.5765335678465
 20
-117.5065383039566
 30
0.0
 10
110.1355613568744
 20
-118.0798021927022
 30
0.0
 10
109.6945891459023
 20
-118.6530660814478
 30
0.0
 10
110.1355613568744
 20
-118.2120938593358
 30
0.0
 10
110.1355613568744
 20
-118.2120938593358
 30
0.0
 10
110.1355613568744
 20
-118.2120938593358
 30
0.0
 10
110.6206307889437
 20
-118.476677192603
 30
0.0
 10
110.1355613568744
 20
-119.0058438591374
 30
0.0
 10
110.1355613568744
 20
-119.0058438591374
 30
0.0
 10
110.5765335678465
 20
-119.4027188590382
 30
0.0
 10
110.1355613568744
 20
-119.8877883033613
 30
0.0
 10
110.1355613568744
 20
-119.8877883033613
 30
0.0
 10
110.4883391256521
 20
-120.3287605254733
 30
0.0
 10
110.1355613568744
 20
-120.8138299697965
 30
0.0
 10
110.1355613568744
 20
-120.8138299697965
 30
0.0
 10
110.5765335678465
 20
-121.3429966363309
 30
0.0
 10
110.0914641357772
 20
-121.828066080654
 30
0.0
 10
110.0914641357772
 20
-121.828066080654
 30
0.0
 10
110.4883391256521
 20
-122.1808438583436
 30
0.0
 10
110.1796585779716
 20
-122.5336216360332
 30
0.0
 10
110.1796585779716
 20
-122.5336216360332
 30
0.0
 10
110.1355613568744
 20
-123.6801494135244
 30
0.0
 10
110.1355613568744
 20
-123.6801494135244
 30
0.0
 10
110.1355613568744
 20
-123.6801494135244
 30
0.0
 10
91.30587155948204
 20
-138.7174432986539
 30
0.0
 10
91.30587155948204
 20
-138.7174432986539
 30
0.0
  0
POLYLINE
  5
50
330
1F
100
AcDbEntity
  8
_U+30EC_U+30A4_U+30E4_U+30FC 1
 62
   179
420
  2234388
370
     9
100
AcDb2dPolyline
 66
     1
 10
0.0
 20
0.0
 30
0.0
  0
VERTEX
  5
51
330
50
100
AcDbEntity
  8
_U+30EC_U+30A4_U+30E4_U+30FC 1
 62
   179
420
  2234388
370
     9
100
AcDbVertex
100
AcDb2dVertex
 10
91.96750626482455
 20
-129.0160544121904
 30
0.0
  0
VERTEX
  5
52
330
50
100
AcDbEntity
  8
_U+30EC_U+30A4_U+30E4_U+30FC 1
 62
   179
420
  2234388
370
     9
100
AcDbVertex
100
AcDb2dVertex
 10
109.9150752513884
 20
-114.1110521936944
 30
0.0
  0
SEQEND
  5
53
330
50
100
AcDbEntity
  8
_U+30EC_U+30A4_U+30E4_U+30FC 1
 62
   179
420
  2234388
370
     9
  0
POLYLINE
  5
54
330
1F
100
AcDbEntity
  8
_U+30EC_U+30A4_U+30E4_U+30FC 1
 62
   179
420
  2234388
370
     9
100
AcDb2dPolyline
 66
     1
 10
0.0
 20
0.0
 30
0.0
  0
VERTEX
  5
55
330
54
100
AcDbEntity
  8
_U+30EC_U+30A4_U+30E4_U+30FC 1
 62
   179
420
  2234388
370
     9
100
AcDbVertex
100
AcDb2dVertex
 10
76.35673721864401
 20
-130.4712627451599
 30
0.0
  0
VERTEX
  5
56
330
54
100
AcDbEntity
  8
_U+30EC_U+30A4_U+30E4_U+30FC 1
 62
   179
420
  2234388
370
     9
100
AcDbVertex
100
AcDb2dVertex
 10
77.37097330387981
 20
-129.4129294120911
 30
0.0
  0
SEQEND
  5
57
330
54
100
AcDbEntity
  8
_U+30EC_U+30A4_U+30E4_U+30FC 1
 62
   179
420
  2234388
370
     9
  0
POLYLINE
  5
58
330
1F
100
AcDbEntity
  8
_U+30EC_U+30A4_U+30E4_U+30FC 1
 62
   179
420
  2234388
370
     9
100
AcDb2dPolyline
 66
     1
 10
0.0
 20
0.0
 30
0.0
  0
VERTEX
  5
59
330
58
100
AcDbEntity
  8
_U+30EC_U+30A4_U+30E4_U+30FC 1
 62
   179
420
  2234388
370
     9
100
AcDbVertex
100
AcDb2dVertex
 10
76.3126399975468
 20
-131.2650127449614
 30
0.0
  0
VERTEX
  5
5A
330
58
100
AcDbEntity
  8
_U+30EC_U+30A4_U+30E4_U+30FC 1
 62
   179
420
  2234388
370
     9
100
AcDbVertex
100
AcDb2dVertex
 10
77.81194551485189
 20
-130.1184849674703
 30
0.0
  0
SEQEND
  5
5B
330
58
100
AcDbEntity
  8
_U+30EC_U+30A4_U+30E4_U+30FC 1
 62
   179
420
  2234388
370
     9
  0
POLYLINE
  5
5C
330
1F
100
AcDbEntity
  8
_U+30EC_U+30A4_U+30E4_U+30FC 1
 62
   179
420
  2234388
370
     9
100
AcDb2dPolyline
 66
     1
 10
0.0
 20
0.0
 30
0.0
  0
VERTEX
  5
5D
330
5C
100
AcDbEntity
  8
_U+30EC_U+30A4_U+30E4_U+30FC 1
 62
   179
420
  2234388
370
     9
100
AcDbVertex
100
AcDb2dVertex
 10
76.22444555535239
 20
-132.3233460780302
 30
0.0
  0
VERTEX
  5
5E
330
5C
100
AcDbEntity
  8
_U+30EC_U+30A4_U+30E4_U+30FC 1
 62
   179
420
  2234388
370
     9
100
AcDbVertex
100
AcDb2dVertex
 10
78.51767744129161
 20
-130.3830683007375
 30
0.0
  0
SEQEND
  5
5F
330
5C
100
AcDbEntity
  8
_U+30EC_U+30A4_U+30E4_U+30FC 1
 62
   179
420
  2234388
370
     9
  0
POLYLINE
  5
60
330
1F
100
AcDbEntity
  8
_U+30EC_U+30A4_U+30E4_U+30FC 1
 62
   179
420
  2234388
370
     9
100
AcDb2dPolyline
 66
     1
 10
0.0
 20
0.0
 30
0.0
  0
VERTEX
  5
61
330
60
100
AcDbEntity
  8
_U+30EC_U+30A4_U+30E4_U+30FC 1
 62
   179
420
  2234388
370
     9
100
AcDbVertex
100
AcDb2dVertex
 10
76.44493166083842
 20
-132.8848977445565
 30
0.0
  0
VERTEX
  5
62
330
60
100
AcDbEntity
  8
_U+30EC_U+30A4_U+30E4_U+30FC 1
 62
   179
420
  2234388
370
     9
100
AcDbVertex
100
AcDb2dVertex
 10
94.78972841504589
 20
-117.8593160816462
 30
0.0
  0
SEQEND
  5
63
330
60
100
AcDbEntity
  8
_U+30EC_U+30A4_U+30E4_U+30FC 1
 62
   179
420
  2234388
370
     9
  0
POLYLINE
  5
64
330
1F
100
AcDbEntity
  8
_U+30EC_U+30A4_U+30E4_U+30FC 1
 62
   179
420
  2234388
370
     9
100
AcDb2dPolyline
 66
     1
 10
0.0
 20
0.0
 30
0.0
  0
VERTEX
  5
65
330
64
100
AcDbEntity
  8
_U+30EC_U+30A4_U+30E4_U+30FC 1
 62
   179
420
  2234388
370
     9
100
AcDbVertex
100
AcDb2dVertex
 10
76.40083443974122
 20
-133.9108460776333
 30
0.0
  0
VERTEX
  5
66
330
64
100
AcDbEntity
  8
_U+30EC_U+30A4_U+30E4_U+30FC 1
 62
   179
420
  2234388
370
     9
100
AcDbVertex
100
AcDb2dVertex
 10
94.8779228572403
 20
-118.7970699703006
 30
0.0
  0
SEQEND
  5
67
330
64
100
AcDbEntity
  8
_U+30EC_U+30A4_U+30E4_U+30FC 1
 62
   179
420
  2234388
370
     9
  0
POLYLINE
  5
68
330
1F
100
AcDbEntity
  8
_U+30EC_U+30A4_U+30E4_U+30FC 1
 62
   179
420
  2234388
370
     9
100
AcDb2dPolyline
 66
     1
 10
0.0
 20
0.0
 30
0.0
  0
VERTEX
  5
69
330
68
100
AcDbEntity
  8
_U+30EC_U+30A4_U+30E4_U+30FC 1
 62
   179
420
  2234388
370
     9
100
AcDbVertex
100
AcDb2dVertex
 10
76.35673721864401
 20
-134.7486932996461
 30
0.0
  0
VERTEX
  5
6A
330
68
100
AcDbEntity
  8
_U+30EC_U+30A4_U+30E4_U+30FC 1
 62
   179
420
  2234388
370
     9
100
AcDbVertex
100
AcDb2dVertex
 10
94.92202007833751
 20
-119.6232049700942
 30
0.0
  0
SEQEND
  5
6B
330
68
100
AcDbEntity
  8
_U+30EC_U+30A4_U+30E4_U+30FC 1
 62
   179
420
  2234388
370
     9
  0
POLYLINE
  5
6C
330
1F
100
AcDbEntity
  8
_U+30EC_U+30A4_U+30E4_U+30FC 1
 62
   179
420
  2234388
370
     9
100
AcDb2dPolyline
 66
     1
 10
0.0
 20
0.0
 30
0.0
  0
VERTEX
  5
6D
330
6C
100
AcDbEntity
  8
_U+30EC_U+30A4_U+30E4_U+30FC 1
 62
   179
420
  2234388
370
     9
100
AcDbVertex
100
AcDb2dVertex
 10
76.3448486078362
 20
-135.63063774387
 30
0.0
  0
VERTEX
  5
6E
330
6C
100
AcDbEntity
  8
_U+30EC_U+30A4_U+30E4_U+30FC 1
 62
   179
420
  2234388
370
     9
100
AcDbVertex
100
AcDb2dVertex
 10
94.8779228572403
 20
-120.4610521921069
 30
0.0
  0
SEQEND
  5
6F
330
6C
100
AcDbEntity
  8
_U+30EC_U+30A4_U+30E4_U+30FC 1
 62
   179
420
  2234388
370
     9
  0
POLYLINE
  5
70
330
1F
100
AcDbEntity
  8
_U+30EC_U+30A4_U+30E4_U+30FC 1
 62
   179
420
  2234388
370
     9
100
AcDb2dPolyline
 66
     1
 10
0.0
 20
0.0
 30
0.0
  0
VERTEX
  5
71
330
70
100
AcDbEntity
  8
_U+30EC_U+30A4_U+30E4_U+30FC 1
 62
   179
420
  2234388
370
     9
100
AcDbVertex
100
AcDb2dVertex
 10
76.44493166083842
 20
-136.512582188094
 30
0.0
  0
VERTEX
  5
72
330
70
100
AcDbEntity
  8
_U+30EC_U+30A4_U+30E4_U+30FC 1
 62
   179
420
  2234388
370
     9
100
AcDbVertex
100
AcDb2dVertex
 10
94.78972841504589
 20
-121.5193855251757
 30
0.0
  0
SEQEND
  5
73
330
70
100
AcDbEntity
  8
_U+30EC_U+30A4_U+30E4_U+30FC 1
 62
   179
420
  2234388
370
     9
  0
POLYLINE
  5
74
330
1F
100
AcDbEntity
  8
_U+30EC_U+30A4_U+30E4_U+30FC 1
 62
   179
420
  2234388
370
     9
100
AcDb2dPolyline
 66
     1
 10
0.0
 20
0.0
 30
0.0
  0
VERTEX
  5
75
330
74
100
AcDbEntity
  8
_U+30EC_U+30A4_U+30E4_U+30FC 1
 62
   179
420
  2234388
370
     9
100
AcDbVertex
100
AcDb2dVertex
 10
76.44493166083842
 20
-137.2622349656843
 30
0.0
  0
VERTEX
  5
76
330
74
100
AcDbEntity
  8
_U+30EC_U+30A4_U+30E4_U+30FC 1
 62
   179
420
  2234388
370
     9
100
AcDbVertex
100
AcDb2dVertex
 10
94.8338256361431
 20
-122.1367466361324
 30
0.0
  0
SEQEND
  5
77
330
74
100
AcDbEntity
  8
_U+30EC_U+30A4_U+30E4_U+30FC 1
 62
   179
420
  2234388
370
     9
  0
POLYLINE
  5
78
330
1F
100
AcDbEntity
  8
_U+30EC_U+30A4_U+30E4_U+30FC 1
 62
   179
420
  2234388
370
     9
100
AcDb2dPolyline
 66
     1
 10
0.0
 20
0.0
 30
0.0
  0
VERTEX
  5
79
330
78
100
AcDbEntity
  8
_U+30EC_U+30A4_U+30E4_U+30FC 1
 62
   179
420
  2234388
370
     9
100
AcDbVertex
100
AcDb2dVertex
 10
76.88590387181051
 20
-137.9677905210635
 30
0.0
  0
VERTEX
  5
7A
330
78
100
AcDbEntity
  8
_U+30EC_U+30A4_U+30E4_U+30FC 1
 62
   179
420
  2234388
370
     9
100
AcDbVertex
100
AcDb2dVertex
 10
94.78972841504589
 20
-123.0627883025676
 30
0.0
  0
SEQEND
  5
7B
330
78
100
AcDbEntity
  8
_U+30EC_U+30A4_U+30E4_U+30FC 1
 62
   179
420
  2234388
370
     9
  0
POLYLINE
  5
7C
330
1F
100
AcDbEntity
  8
_U+30EC_U+30A4_U+30E4_U+30FC 1
 62
   179
420
  2234388
370
     9
100
AcDb2dPolyline
 66
     1
 10
0.0
 20
0.0
 30
0.0
  0
VERTEX
  5
7D
330
7C
100
AcDbEntity
  8
_U+30EC_U+30A4_U+30E4_U+30FC 1
 62
   179
420
  2234388
370
     9
100
AcDbVertex
100
AcDb2dVertex
 10
78.91455243116648
 20
-137.6591099655851
 30
0.0
  0
VERTEX
  5
7E
330
7C
100
AcDbEntity
  8
_U+30EC_U+30A4_U+30E4_U+30FC 1
 62
   179
420
  2234388
370
     9
100
AcDbVertex
100
AcDb2dVertex
 10
96.46542281673982
 20
-123.0627883025676
 30
0.0
  0
SEQEND
  5
7F
330
7C
100
AcDbEntity
  8
_U+30EC_U+30A4_U+30E4_U+30FC 1
 62
   179
420
  2234388
370
     9
  0
POLYLINE
  5
80
330
1F
100
AcDbEntity
  8
_U+30EC_U+30A4_U+30E4_U+30FC 1
 62
   179
420
  2234388
370
     9
100
AcDb2dPolyline
 66
     1
 10
0.0
 20
0.0
 30
0.0
  0
VERTEX
  5
81
330
80
100
AcDbEntity
  8
_U+30EC_U+30A4_U+30E4_U+30FC 1
 62
   179
420
  2234388
370
     9
100
AcDbVertex
100
AcDb2dVertex
 10
89.40969105230208
 20
-137.8354988544299
 30
0.0
  0
VERTEX
  5
82
330
80
100
AcDbEntity
  8
_U+30EC_U+30A4_U+30E4_U+30FC 1
 62
   179
420
  2234388
370
     9
100
AcDbVertex
100
AcDb2dVertex
 10
91.43833961165805
 20
-136.292096077038
 30
0.0
  0
SEQEND
  5
83
330
80
100
AcDbEntity
  8
_U+30EC_U+30A4_U+30E4_U+30FC 1
 62
   179
420
  2234388
370
     9
  0
POLYLINE
  5
84
330
1F
100
AcDbEntity
  8
_U+30EC_U+30A4_U+30E4_U+30FC 1
 62
   179
420
  2234388
370
     9
100
AcDb2dPolyline
 66
     1
 10
0.0
 20
0.0
 30
0.0
  0
VERTEX
  5
85
330
84
100
AcDbEntity
  8
_U+30EC_U+30A4_U+30E4_U+30FC 1
 62
   179
420
  2234388
370
     9
100
AcDbVertex
100
AcDb2dVertex
 10
89.93885770546858
 20
-138.5410544098091
 30
0.0
  0
VERTEX
  5
86
330
84
100
AcDbEntity
  8
_U+30EC_U+30A4_U+30E4_U+30FC 1
 62
   179
420
  2234388
370
     9
100
AcDbVertex
100
AcDb2dVertex
 10
91.48243683275527
 20
-137.394526632318
 30
0.0
  0
SEQEND
  5
87
330
84
100
AcDbEntity
  8
_U+30EC_U+30A4_U+30E4_U+30FC 1
 62
   179
420
  2234388
370
     9
  0
POLYLINE
  5
88
330
1F
100
AcDbEntity
  8
_U+30EC_U+30A4_U+30E4_U+30FC 1
 62
   179
420
  2234388
370
     9
100
AcDb2dPolyline
 66
     1
 10
0.0
 20
0.0
 30
0.0
  0
VERTEX
  5
89
330
88
100
AcDbEntity
  8
_U+30EC_U+30A4_U+30E4_U+30FC 1
 62
   179
420
  2234388
370
     9
100
AcDbVertex
100
AcDb2dVertex
 10
91.92340904372735
 20
-130.6476516340047
 30
0.0
  0
VERTEX
  5
8A
330
88
100
AcDbEntity
  8
_U+30EC_U+30A4_U+30E4_U+30FC 1
 62
   179
420
  2234388
370
     9
100
AcDbVertex
100
AcDb2dVertex
 10
110.0914641357772
 20
-116.3159133042543
 30
0.0
  0
SEQEND
  5
8B
330
88
100
AcDbEntity
  8
_U+30EC_U+30A4_U+30E4_U+30FC 1
 62
   179
420
  2234388
370
     9
  0
POLYLINE
  5
8C
330
1F
100
AcDbEntity
  8
_U+30EC_U+30A4_U+30E4_U+30FC 1
 62
   179
420
  2234388
370
     9
100
AcDb2dPolyline
 66
     1
 10
0.0
 20
0.0
 30
0.0
  0
VERTEX
  5
8D
330
8C
100
AcDbEntity
  8
_U+30EC_U+30A4_U+30E4_U+30FC 1
 62
   179
420
  2234388
370
     9
100
AcDbVertex
100
AcDb2dVertex
 10
91.83521460153293
 20
-131.5619810782206
 30
0.0
  0
VERTEX
  5
8E
330
8C
100
AcDbEntity
  8
_U+30EC_U+30A4_U+30E4_U+30FC 1
 62
   179
420
  2234388
370
     9
100
AcDbVertex
100
AcDb2dVertex
 10
110.0032696935828
 20
-117.3301494151119
 30
0.0
  0
SEQEND
  5
8F
330
8C
100
AcDbEntity
  8
_U+30EC_U+30A4_U+30E4_U+30FC 1
 62
   179
420
  2234388
370
     9
  0
POLYLINE
  5
90
330
1F
100
AcDbEntity
  8
_U+30EC_U+30A4_U+30E4_U+30FC 1
 62
   179
420
  2234388
370
     9
100
AcDb2dPolyline
 66
     1
 10
0.0
 20
0.0
 30
0.0
  0
VERTEX
  5
91
330
90
100
AcDbEntity
  8
_U+30EC_U+30A4_U+30E4_U+30FC 1
 62
   179
420
  2234388
370
     9
100
AcDbVertex
100
AcDb2dVertex
 10
91.7029229382413
 20
-132.6320266335086
 30
0.0
  0
VERTEX
  5
92
330
90
100
AcDbEntity
  8
_U+30EC_U+30A4_U+30E4_U+30FC 1
 62
   179
420
  2234388
370
     9
100
AcDbVertex
100
AcDb2dVertex
 10
110.04736691468
 20
-118.3120005259775
 30
0.0
  0
SEQEND
  5
93
330
90
100
AcDbEntity
  8
_U+30EC_U+30A4_U+30E4_U+30FC 1
 62
   179
420
  2234388
370
     9
  0
POLYLINE
  5
94
330
1F
100
AcDbEntity
  8
_U+30EC_U+30A4_U+30E4_U+30FC 1
 62
   179
420
  2234388
370
     9
100
AcDb2dPolyline
 66
     1
 10
0.0
 20
0.0
 30
0.0
  0
VERTEX
  5
95
330
94
100
AcDbEntity
  8
_U+30EC_U+30A4_U+30E4_U+30FC 1
 62
   179
420
  2234388
370
     9
100
AcDbVertex
100
AcDb2dVertex
 10
91.79111738043572
 20
-133.5139710777325
 30
0.0
  0
VERTEX
  5
96
330
94
100
AcDbEntity
  8
_U+30EC_U+30A4_U+30E4_U+30FC 1
 62
   179
420
  2234388
370
     9
100
AcDbVertex
100
AcDb2dVertex
 10
110.1796585779716
 20
-119.0499410813486
 30
0.0
  0
SEQEND
  5
97
330
94
100
AcDbEntity
  8
_U+30EC_U+30A4_U+30E4_U+30FC 1
 62
   179
420
  2234388
370
     9
  0
POLYLINE
  5
98
330
1F
100
AcDbEntity
  8
_U+30EC_U+30A4_U+30E4_U+30FC 1
 62
   179
420
  2234388
370
     9
100
AcDb2dPolyline
 66
     1
 10
0.0
 20
0.0
 30
0.0
  0
VERTEX
  5
99
330
98
100
AcDbEntity
  8
_U+30EC_U+30A4_U+30E4_U+30FC 1
 62
   179
420
  2234388
370
     9
100
AcDbVertex
100
AcDb2dVertex
 10
91.7029229382413
 20
-134.4841099663789
 30
0.0
  0
VERTEX
  5
9A
330
98
100
AcDbEntity
  8
_U+30EC_U+30A4_U+30E4_U+30FC 1
 62
   179
420
  2234388
370
     9
100
AcDbVertex
100
AcDb2dVertex
 10
110.0914641357772
 20
-119.9759827477837
 30
0.0
  0
SEQEND
  5
9B
330
98
100
AcDbEntity
  8
_U+30EC_U+30A4_U+30E4_U+30FC 1
 62
   179
420
  2234388
370
     9
  0
POLYLINE
  5
9C
330
1F
100
AcDbEntity
  8
_U+30EC_U+30A4_U+30E4_U+30FC 1
 62
   179
420
  2234388
370
     9
100
AcDb2dPolyline
 66
     1
 10
0.0
 20
0.0
 30
0.0
  0
VERTEX
  5
9D
330
9C
100
AcDbEntity
  8
_U+30EC_U+30A4_U+30E4_U+30FC 1
 62
   179
420
  2234388
370
     9
100
AcDbVertex
100
AcDb2dVertex
 10
91.87931182263014
 20
-135.1014710773356
 30
0.0
  0
VERTEX
  5
9E
330
9C
100
AcDbEntity
  8
_U+30EC_U+30A4_U+30E4_U+30FC 1
 62
   179
420
  2234388
370
     9
100
AcDbVertex
100
AcDb2dVertex
 10
110.1355613568744
 20
-120.7697327475853
 30
0.0
  0
SEQEND
  5
9F
330
9C
100
AcDbEntity
  8
_U+30EC_U+30A4_U+30E4_U+30FC 1
 62
   179
420
  2234388
370
     9
  0
POLYLINE
  5
A0
330
1F
100
AcDbEntity
  8
_U+30EC_U+30A4_U+30E4_U+30FC 1
 62
   179
420
  2234388
370
     9
100
AcDb2dPolyline
 66
     1
 10
0.0
 20
0.0
 30
0.0
  0
VERTEX
  5
A1
330
A0
100
AcDbEntity
  8
_U+30EC_U+30A4_U+30E4_U+30FC 1
 62
   179
420
  2234388
370
     9
100
AcDbVertex
100
AcDb2dVertex
 10
110.0914641357772
 20
-121.7839688584428
 30
0.0
  0
VERTEX
  5
A2
330
A0
100
AcDbEntity
  8
_U+30EC_U+30A4_U+30E4_U+30FC 1
 62
   179
420
  2234388
370
     9
100
AcDbVertex
100
AcDb2dVertex
 10
91.83521460153293
 20
-136.3361932992492
 30
0.0
  0
SEQEND
  5
A3
330
A0
100
AcDbEntity
  8
_U+30EC_U+30A4_U+30E4_U+30FC 1
 62
   179
420
  2234388
370
     9
  0
POLYLINE
  5
A4
330
1F
100
AcDbEntity
  8
_U+30EC_U+30A4_U+30E4_U+30FC 1
 62
   179
420
  2234388
370
     9
100
AcDb2dPolyline
 66
     1
 10
0.0
 20
0.0
 30
0.0
  0
VERTEX
  5
A5
330
A4
100
AcDbEntity
  8
_U+30EC_U+30A4_U+30E4_U+30FC 1
 62
   179
420
  2234388
370
     9
100
AcDbVertex
100
AcDb2dVertex
 10
91.83521460153293
 20
-137.0858460768396
 30
0.0
  0
VERTEX
  5
A6
330
A4
100
AcDbEntity
  8
_U+30EC_U+30A4_U+30E4_U+30FC 1
 62
   179
420
  2234388
370
     9
100
AcDbVertex
100
AcDb2dVertex
 10
110.1355613568744
 20
-122.489524413822
 30
0.0
  0
SEQEND
  5
A7
330
A4
100
AcDbEntity
  8
_U+30EC_U+30A4_U+30E4_U+30FC 1
 62
   179
420
  2234388
370
     9
  0
POLYLINE
  5
A8
330
1F
100
AcDbEntity
  8
_U+30EC_U+30A4_U+30E4_U+30FC 1
 62
   179
420
  2234388
370
     9
100
AcDb2dPolyline
 66
     1
 10
0.0
 20
0.0
 30
0.0
  0
VERTEX
  5
A9
330
A8
100
AcDbEntity
  8
_U+30EC_U+30A4_U+30E4_U+30FC 1
 62
   179
420
  2234388
370
     9
100
AcDbVertex
100
AcDb2dVertex
 10
76.00395944986634
 20
-139.9521655205674
 30
0.0
  0
VERTEX
  5
AA
330
A8
100
AcDbEntity
  8
_U+30EC_U+30A4_U+30E4_U+30FC 1
 62
   179
420
  2234388
370
     9
100
AcDbVertex
100
AcDb2dVertex
 10
76.00395944986634
 20
-142.5098044088169
 30
0.0
  0
SEQEND
  5
AB
330
A8
100
AcDbEntity
  8
_U+30EC_U+30A4_U+30E4_U+30FC 1
 62
   179
420
  2234388
370
     9
  0
POLYLINE
  5
AC
330
1F
100
AcDbEntity
  8
_U+30EC_U+30A4_U+30E4_U+30FC 1
 62
   179
420
  2234388
370
     9
100
AcDb2dPolyline
 66
     1
 10
0.0
 20
0.0
 30
0.0
  0
VERTEX
  5
AD
330
AC
100
AcDbEntity
  8
_U+30EC_U+30A4_U+30E4_U+30FC 1
 62
   179
420
  2234388
370
     9
100
AcDbVertex
100
AcDb2dVertex
 10
76.00395944986634
 20
-141.7160544090154
 30
0.0
  0
VERTEX
  5
AE
330
AC
100
AcDbEntity
  8
_U+30EC_U+30A4_U+30E4_U+30FC 1
 62
   179
420
  2234388
370
     9
100
AcDbVertex
100
AcDb2dVertex
 10
82.88330232991524
 20
-141.8042488534377
 30
0.0
  0
SEQEND
  5
AF
330
AC
100
AcDbEntity
  8
_U+30EC_U+30A4_U+30E4_U+30FC 1
 62
   179
420
  2234388
370
     9
  0
POLYLINE
  5
B0
330
1F
100
AcDbEntity
  8
_U+30EC_U+30A4_U+30E4_U+30FC 1
 62
   179
420
  2234388
370
     9
100
AcDb2dPolyline
 66
     1
 10
0.0
 20
0.0
 30
0.0
  0
VERTEX
  5
B1
330
B0
100
AcDbEntity
  8
_U+30EC_U+30A4_U+30E4_U+30FC 1
 62
   179
420
  2234388
370
     9
100
AcDbVertex
100
AcDb2dVertex
 10
85.8819133645254
 20
-141.7160544090154
 30
0.0
  0
VERTEX
  5
B2
330
B0
100
AcDbEntity
  8
_U+30EC_U+30A4_U+30E4_U+30FC 1
 62
   179
420
  2234388
370
     9
100
AcDbVertex
100
AcDb2dVertex
 10
92.05570070701897
 20
-141.6278599645929
 30
0.0
  0
SEQEND
  5
B3
330
B0
100
AcDbEntity
  8
_U+30EC_U+30A4_U+30E4_U+30FC 1
 62
   179
420
  2234388
370
     9
  0
POLYLINE
  5
B4
330
1F
100
AcDbEntity
  8
_U+30EC_U+30A4_U+30E4_U+30FC 1
 62
   179
420
  2234388
370
     9
100
AcDb2dPolyline
 66
     1
 10
0.0
 20
0.0
 30
0.0
  0
VERTEX
  5
B5
330
B4
100
AcDbEntity
  8
_U+30EC_U+30A4_U+30E4_U+30FC 1
 62
   179
420
  2234388
370
     9
100
AcDbVertex
100
AcDb2dVertex
 10
91.96750626482455
 20
-139.9521655205674
 30
0.0
  0
VERTEX
  5
B6
330
B4
100
AcDbEntity
  8
_U+30EC_U+30A4_U+30E4_U+30FC 1
 62
   179
420
  2234388
370
     9
100
AcDbVertex
100
AcDb2dVertex
 10
91.96750626482455
 20
-142.4216099643945
 30
0.0
  0
SEQEND
  5
B7
330
B4
100
AcDbEntity
  8
_U+30EC_U+30A4_U+30E4_U+30FC 1
 62
   179
420
  2234388
370
     9
  0
POLYLINE
  5
B8
330
1F
100
AcDbEntity
  8
_U+30EC_U+30A4_U+30E4_U+30FC 1
 62
   179
420
  2234388
370
     9
100
AcDb2dPolyline
 66
     1
 10
0.0
 20
0.0
 30
0.0
  0
VERTEX
  5
B9
330
B8
100
AcDbEntity
  8
_U+30EC_U+30A4_U+30E4_U+30FC 1
 62
   179
420
  2234388
370
     9
100
AcDbVertex
100
AcDb2dVertex
 10
72.29979287770084
 20
-139.1584155207659
 30
0.0
  0
VERTEX
  5
BA
330
B8
100
AcDbEntity
  8
_U+30EC_U+30A4_U+30E4_U+30FC 1
 62
   179
420
  2234388
370
     9
100
AcDbVertex
100
AcDb2dVertex
 10
74.94562614353335
 20
-138.9820266319211
 30
0.0
  0
SEQEND
  5
BB
330
B8
100
AcDbEntity
  8
_U+30EC_U+30A4_U+30E4_U+30FC 1
 62
   179
420
  2234388
370
     9
  0
POLYLINE
  5
BC
330
1F
100
AcDbEntity
  8
_U+30EC_U+30A4_U+30E4_U+30FC 1
 62
   179
420
  2234388
370
     9
100
AcDb2dPolyline
 66
     1
 10
0.0
 20
0.0
 30
0.0
  0
VERTEX
  5
BD
330
BC
100
AcDbEntity
  8
_U+30EC_U+30A4_U+30E4_U+30FC 1
 62
   179
420
  2234388
370
     9
100
AcDbVertex
100
AcDb2dVertex
 10
73.18173729964501
 20
-138.8938321874987
 30
0.0
  0
VERTEX
  5
BE
330
BC
100
AcDbEntity
  8
_U+30EC_U+30A4_U+30E4_U+30FC 1
 62
   179
420
  2234388
370
     9
100
AcDbVertex
100
AcDb2dVertex
 10
73.18173729964501
 20
-135.7188321882924
 30
0.0
  0
SEQEND
  5
BF
330
BC
100
AcDbEntity
  8
_U+30EC_U+30A4_U+30E4_U+30FC 1
 62
   179
420
  2234388
370
     9
  0
POLYLINE
  5
C0
330
1F
100
AcDbEntity
  8
_U+30EC_U+30A4_U+30E4_U+30FC 1
 62
   179
420
  2234388
370
     9
100
AcDb2dPolyline
 66
     1
 10
0.0
 20
0.0
 30
0.0
  0
VERTEX
  5
C1
330
C0
100
AcDbEntity
  8
_U+30EC_U+30A4_U+30E4_U+30FC 1
 62
   179
420
  2234388
370
     9
100
AcDbVertex
100
AcDb2dVertex
 10
72.21159843550642
 20
-129.0160544121904
 30
0.0
  0
VERTEX
  5
C2
330
C0
100
AcDbEntity
  8
_U+30EC_U+30A4_U+30E4_U+30FC 1
 62
   179
420
  2234388
370
     9
100
AcDbVertex
100
AcDb2dVertex
 10
74.94562614353335
 20
-129.0160544121904
 30
0.0
  0
SEQEND
  5
C3
330
C0
100
AcDbEntity
  8
_U+30EC_U+30A4_U+30E4_U+30FC 1
 62
   179
420
  2234388
370
     9
  0
POLYLINE
  5
C4
330
1F
100
AcDbEntity
  8
_U+30EC_U+30A4_U+30E4_U+30FC 1
 62
   179
420
  2234388
370
     9
100
AcDb2dPolyline
 66
     1
 10
0.0
 20
0.0
 30
0.0
  0
VERTEX
  5
C5
330
C4
100
AcDbEntity
  8
_U+30EC_U+30A4_U+30E4_U+30FC 1
 62
   179
420
  2234388
370
     9
100
AcDbVertex
100
AcDb2dVertex
 10
73.09354285745059
 20
-129.1924433010351
 30
0.0
  0
VERTEX
  5
C6
330
C4
100
AcDbEntity
  8
_U+30EC_U+30A4_U+30E4_U+30FC 1
 62
   179
420
  2234388
370
     9
100
AcDbVertex
100
AcDb2dVertex
 10
73.09354285745059
 20
-132.1028599669742
 30
0.0
  0
SEQEND
  5
C7
330
C4
100
AcDbEntity
  8
_U+30EC_U+30A4_U+30E4_U+30FC 1
 62
   179
420
  2234388
370
     9
  0
INSERT
  5
C9
330
1F
100
AcDbEntity
  8
_U+30EC_U+30A4_U+30E4_U+30FC 1
100
AcDbBlockReference
  2
block 2
 10
0.0
 20
0.0
 30
0.0
  0
INSERT
  5
DF
330
1F
100
AcDbEntity
  8
_U+30EC_U+30A4_U+30E4_U+30FC 1
100
AcDbBlockReference
  2
block 3
 10
0.0
 20
0.0
 30
0.0
  0
SPLINE
  5
F9
330
1F
100
AcDbEntity
  8
_U+30EC_U+30A4_U+30E4_U+30FC 1
 62
   179
420
  2234388
370
     9
100
AcDbSpline
210
0.0
220
0.0
230
1.0
 70
    11
 71
     3
 72
    17
 73
    13
 74
     0
 42
0.0000000001
 43
0.0000000001
 12
1.0
 22
0.0
 32
0.0
 13
1.0
 23
0.0
 33
0.0
 40
0.0
 40
0.0
 40
0.0
 40
0.0
 40
1.0
 40
1.0
 40
1.0
 40
2.0
 40
2.0
 40
2.0
 40
3.0
 40
3.0
 40
3.0
 40
4.0
 40
4.0
 40
4.0
 40
4.0
 10
85.63990781514393
 20
-141.8214996867667
 30
0.0
 10
85.63990781514393
 20
-142.4874382977117
 30
0.0
 10
85.10005199558347
 20
-143.0269413531324
 30
0.0
 10
84.43411340146186
 20
-143.0269413531324
 30
0.0
 10
83.76852758510904
 20
-143.0269413531324
 30
0.0
 10
83.22902454331735
 20
-142.4874382977117
 30
0.0
 10
83.22902454331735
 20
-141.8214996867667
 30
0.0
 10
83.22902454331735
 20
-141.1559138536001
 30
0.0
 10
83.76852758510904
 20
-140.6160580204016
 30
0.0
 10
84.43411340146186
 20
-140.6160580204016
 30
0.0
 10
85.10005199558347
 20
-140.6160580204016
 30
0.0
 10
85.63990781514393
 20
-141.1559138536001
 30
0.0
 10
85.63990781514393
 20
-141.8214996867667
 30
0.0
  0
SPLINE
  5
FA
330
1F
100
AcDbEntity
  8
_U+30EC_U+30A4_U+30E4_U+30FC 1
370
     0
100
AcDbSpline
210
0.0
220
0.0
230
1.0
 70
    11
 71
     3
 72
    17
 73
    13
 74
     0
 42
0.0000000001
 43
0.0000000001
 12
1.0
 22
0.0
 32
0.0
 13
1.0
 23
0.0
 33
0.0
 40
0.0
 40
0.0
 40
0.0
 40
0.0
 40
1.0
 40
1.0
 40
1.0
 40
2.0
 40
2.0
 40
2.0
 40
3.0
 40
3.0
 40
3.0
 40
4.0
 40
4.0
 40
4.0
 40
4.0
 10
92.23071375810957
 20
-141.6278599645929
 30
0.0
 10
92.23071375810957
 20
-141.7594813534492
 30
0.0
 10
92.12392792750057
 20
-141.8655969089779
 30
0.0
 10
91.99230654196963
 20
-141.8655969089779
 30
0.0
 10
91.86072043421555
 20
-141.8655969089779
 30
0.0
 10
91.75425210359846
 20
-141.7594813534492
 30
0.0
 10
91.75425210359846
 20
-141.6278599645929
 30
0.0
 10
91.75425210359846
 20
-141.4962738535149
 30
0.0
 10
91.86072043421555
 20
-141.3894880202082
 30
0.0
 10
91.99230654196963
 20
-141.3894880202082
 30
0.0
 10
92.12392792750057
 20
-141.3894880202082
 30
0.0
 10
92.23071375810957
 20
-141.4962738535149
 30
0.0
 10
92.23071375810957
 20
-141.6278599645929
 30
0.0
  0
HATCH
  5
FB
330
1F
100
AcDbEntity
  8
_U+30EC_U+30A4_U+30E4_U+30FC 1
 62
   179
420
  2234388
100
AcDbHatch
 10
0.0
 20
0.0
 30
0.0
210
0.0
220
0.0
230
1.0
  2
SOLID
 70
     1
 71
     0
 91
        1
 92
        1
 93
        1
 72
     4
 94
        3
 73
     0
 74
     1
 95
       17
 96
       13
 40
0.0
 40
0.0
 40
0.0
 40
0.0
 40
1.0
 40
1.0
 40
1.0
 40
2.0
 40
2.0
 40
2.0
 40
3.0
 40
3.0
 40
3.0
 40
4.0
 40
4.0
 40
4.0
 40
4.0
 10
92.23071375810957
 20
-141.6278599645929
 10
92.23071375810957
 20
-141.7594813534492
 10
92.12392792750057
 20
-141.8655969089779
 10
91.99230654196963
 20
-141.8655969089779
 10
91.86072043421555
 20
-141.8655969089779
 10
91.75425210359846
 20
-141.7594813534492
 10
91.75425210359846
 20
-141.6278599645929
 10
91.75425210359846
 20
-141.4962738535149
 10
91.86072043421555
 20
-141.3894880202082
 10
91.99230654196963
 20
-141.3894880202082
 10
92.12392792750057
 20
-141.3894880202082
 10
92.23071375810957
 20
-141.4962738535149
 10
92.23071375810957
 20
-141.6278599645929
 97
        0
 97
        0
 75
     2
 76
     1
 98
        0
  0
SPLINE
  5
FC
330
1F
100
AcDbEntity
  8
_U+30EC_U+30A4_U+30E4_U+30FC 1
370
     0
100
AcDbSpline
210
0.0
220
0.0
230
1.0
 70
    11
 71
     3
 72
    17
 73
    13
 74
     0
 42
0.0000000001
 43
0.0000000001
 12
1.0
 22
0.0
 32
0.0
 13
1.0
 23
0.0
 33
0.0
 40
0.0
 40
0.0
 40
0.0
 40
0.0
 40
1.0
 40
1.0
 40
1.0
 40
2.0
 40
2.0
 40
2.0
 40
3.0
 40
3.0
 40
3.0
 40
4.0
 40
4.0
 40
4.0
 40
4.0
 10
76.28096055391056
 20
-141.6278599645929
 30
0.0
 10
76.28096055391056
 20
-141.7594813534492
 30
0.0
 10
76.17431583440907
 20
-141.8655969089779
 30
0.0
 10
76.04272972665501
 20
-141.8655969089779
 30
0.0
 10
75.91128473000845
 20
-141.8655969089779
 30
0.0
 10
75.80467528828383
 20
-141.7594813534492
 30
0.0
 10
75.80467528828383
 20
-141.6278599645929
 30
0.0
 10
75.80467528828383
 20
-141.4962738535149
 30
0.0
 10
75.91128473000845
 20
-141.3894880202082
 30
0.0
 10
76.04272972665501
 20
-141.3894880202082
 30
0.0
 10
76.17431583440907
 20
-141.3894880202082
 30
0.0
 10
76.28096055391056
 20
-141.4962738535149
 30
0.0
 10
76.28096055391056
 20
-141.6278599645929
 30
0.0
  0
HATCH
  5
FD
330
1F
100
AcDbEntity
  8
_U+30EC_U+30A4_U+30E4_U+30FC 1
 62
   179
420
  2234388
100
AcDbHatch
 10
0.0
 20
0.0
 30
0.0
210
0.0
220
0.0
230
1.0
  2
SOLID
 70
     1
 71
     0
 91
        1
 92
        1
 93
        1
 72
     4
 94
        3
 73
     0
 74
     1
 95
       17
 96
       13
 40
0.0
 40
0.0
 40
0.0
 40
0.0
 40
1.0
 40
1.0
 40
1.0
 40
2.0
 40
2.0
 40
2.0
 40
3.0
 40
3.0
 40
3.0
 40
4.0
 40
4.0
 40
4.0
 40
4.0
 10
76.28096055391056
 20
-141.6278599645929
 10
76.28096055391056
 20
-141.7594813534492
 10
76.17431583440907
 20
-141.8655969089779
 10
76.04272972665501
 20
-141.8655969089779
 10
75.91128473000845
 20
-141.8655969089779
 10
75.80467528828383
 20
-141.7594813534492
 10
75.80467528828383
 20
-141.6278599645929
 10
75.80467528828383
 20
-141.4962738535149
 10
75.91128473000845
 20
-141.3894880202082
 10
76.04272972665501
 20
-141.3894880202082
 10
76.17431583440907
 20
-141.3894880202082
 10
76.28096055391056
 20
-141.4962738535149
 10
76.28096055391056
 20
-141.6278599645929
 97
        0
 97
        0
 75
     2
 76
     1
 98
        0
  0
SPLINE
  5
FE
330
1F
100
AcDbEntity
  8
_U+30EC_U+30A4_U+30E4_U+30FC 1
370
     0
100
AcDbSpline
210
0.0
220
0.0
230
1.0
 70
    11
 71
     3
 72
    17
 73
    13
 74
     0
 42
0.0000000001
 43
0.0000000001
 12
1.0
 22
0.0
 32
0.0
 13
1.0
 23
0.0
 33
0.0
 40
0.0
 40
0.0
 40
0.0
 40
0.0
 40
1.0
 40
1.0
 40
1.0
 40
2.0
 40
2.0
 40
2.0
 40
3.0
 40
3.0
 40
3.0
 40
4.0
 40
4.0
 40
4.0
 40
4.0
 10
73.42533034898598
 20
-139.0833444096738
 30
0.0
 10
73.42533034898598
 20
-139.2149305207518
 30
0.0
 10
73.31868562948449
 20
-139.3213988540583
 30
0.0
 10
73.18709952173043
 20
-139.3213988540583
 30
0.0
 10
73.05565452508387
 20
-139.3213988540583
 30
0.0
 10
72.94904508335925
 20
-139.2149305207518
 30
0.0
 10
72.94904508335925
 20
-139.0833444096738
 30
0.0
 10
72.94904508335925
 20
-138.9520757985953
 30
0.0
 10
73.05565452508387
 20
-138.8452546875111
 30
0.0
 10
73.18709952173043
 20
-138.8452546875111
 30
0.0
 10
73.31868562948449
 20
-138.8452546875111
 30
0.0
 10
73.42533034898598
 20
-138.9520757985953
 30
0.0
 10
73.42533034898598
 20
-139.0833444096738
 30
0.0
  0
HATCH
  5
FF
330
1F
100
AcDbEntity
  8
_U+30EC_U+30A4_U+30E4_U+30FC 1
 62
   179
420
  2234388
100
AcDbHatch
 10
0.0
 20
0.0
 30
0.0
210
0.0
220
0.0
230
1.0
  2
SOLID
 70
     1
 71
     0
 91
        1
 92
        1
 93
        1
 72
     4
 94
        3
 73
     0
 74
     1
 95
       17
 96
       13
 40
0.0
 40
0.0
 40
0.0
 40
0.0
 40
1.0
 40
1.0
 40
1.0
 40
2.0
 40
2.0
 40
2.0
 40
3.0
 40
3.0
 40
3.0
 40
4.0
 40
4.0
 40
4.0
 40
4.0
 10
73.42533034898598
 20
-139.0833444096738
 10
73.42533034898598
 20
-139.2149305207518
 10
73.31868562948449
 20
-139.3213988540583
 10
73.18709952173043
 20
-139.3213988540583
 10
73.05565452508387
 20
-139.3213988540583
 10
72.94904508335925
 20
-139.2149305207518
 10
72.94904508335925
 20
-139.0833444096738
 10
72.94904508335925
 20
-138.9520757985953
 10
73.05565452508387
 20
-138.8452546875111
 10
73.18709952173043
 20
-138.8452546875111
 10
73.31868562948449
 20
-138.8452546875111
 10
73.42533034898598
 20
-138.9520757985953
 10
73.42533034898598
 20
-139.0833444096738
 97
        0
 97
        0
 75
     2
 76
     1
 98
        0
  0
SPLINE
  5
100
330
1F
100
AcDbEntity
  8
_U+30EC_U+30A4_U+30E4_U+30FC 1
370
     0
100
AcDbSpline
210
0.0
220
0.0
230
1.0
 70
    11
 71
     3
 72
    17
 73
    13
 74
     0
 42
0.0000000001
 43
0.0000000001
 12
1.0
 22
0.0
 32
0.0
 13
1.0
 23
0.0
 33
0.0
 40
0.0
 40
0.0
 40
0.0
 40
0.0
 40
1.0
 40
1.0
 40
1.0
 40
2.0
 40
2.0
 40
2.0
 40
3.0
 40
3.0
 40
3.0
 40
4.0
 40
4.0
 40
4.0
 40
4.0
 10
73.42533034898598
 20
-129.0677363566221
 30
0.0
 10
73.42533034898598
 20
-129.1993577454777
 30
0.0
 10
73.31868562948449
 20
-129.3057908010067
 30
0.0
 10
73.18709952173043
 20
-129.3057908010067
 30
0.0
 10
73.05565452508387
 20
-129.3057908010067
 30
0.0
 10
72.94904508335925
 20
-129.1993577454777
 30
0.0
 10
72.94904508335925
 20
-129.0677363566221
 30
0.0
 10
72.94904508335925
 20
-128.9365030233212
 30
0.0
 10
73.05565452508387
 20
-128.829681912237
 30
0.0
 10
73.18709952173043
 20
-128.829681912237
 30
0.0
 10
73.31868562948449
 20
-128.829681912237
 30
0.0
 10
73.42533034898598
 20
-128.9365030233212
 30
0.0
 10
73.42533034898598
 20
-129.0677363566221
 30
0.0
  0
HATCH
  5
101
330
1F
100
AcDbEntity
  8
_U+30EC_U+30A4_U+30E4_U+30FC 1
 62
   179
420
  2234388
100
AcDbHatch
 10
0.0
 20
0.0
 30
0.0
210
0.0
220
0.0
230
1.0
  2
SOLID
 70
     1
 71
     0
 91
        1
 92
        1
 93
        1
 72
     4
 94
        3
 73
     0
 74
     1
 95
       17
 96
       13
 40
0.0
 40
0.0
 40
0.0
 40
0.0
 40
1.0
 40
1.0
 40
1.0
 40
2.0
 40
2.0
 40
2.0
 40
3.0
 40
3.0
 40
3.0
 40
4.0
 40
4.0
 40
4.0
 40
4.0
 10
73.42533034898598
 20
-129.0677363566221
 10
73.42533034898598
 20
-129.1993577454777
 10
73.31868562948449
 20
-129.3057908010067
 10
73.18709952173043
 20
-129.3057908010067
 10
73.05565452508387
 20
-129.3057908010067
 10
72.94904508335925
 20
-129.1993577454777
 10
72.94904508335925
 20
-129.0677363566221
 10
72.94904508335925
 20
-128.9365030233212
 10
73.05565452508387
 20
-128.829681912237
 10
73.18709952173043
 20
-128.829681912237
 10
73.31868562948449
 20
-128.829681912237
 10
73.42533034898598
 20
-128.9365030233212
 10
73.42533034898598
 20
-129.0677363566221
 97
        0
 97
        0
 75
     2
 76
     1
 98
        0
  0
ENDSEC
  0
SECTION
  2
OBJECTS
  0
DICTIONARY
  5
C
330
0
100
AcDbDictionary
281
     1
  3
ACAD_GROUP
350
D
  3
ACAD_LAYOUT
350
1A
  3
ACAD_MATERIAL
350
3B
  3
ACAD_MLEADERSTYLE
350
103
  3
ACAD_MLINESTYLE
350
17
  3
ACAD_PLOTSETTINGS
350
19
  3
ACAD_PLOTSTYLENAME
350
E
  3
ACAD_TABLESTYLE
350
102
  3
ACAD_VISUALSTYLE
350
2A
  0
SUN
  5
3F
330
29
100
AcDbSun
 90
        1
290
     0
 63
     7
421
 16777215
 40
1.0
291
     1
 91
  2455826
 92
 54000000
292
     0
 70
     2
 71
   256
280
     1
  0
DICTIONARY
  5
D
102
{ACAD_REACTORS
330
C
102
}
330
C
100
AcDbDictionary
281
     1
  0
DICTIONARY
  5
1A
102
{ACAD_REACTORS
330
C
102
}
330
C
100
AcDbDictionary
281
     1
  3
Layout1
350
1E
  3
Layout2
350
26
  3
Model
350
22
  0
DICTIONARY
  5
3B
102
{ACAD_REACTORS
330
C
102
}
330
C
100
AcDbDictionary
281
     1
  3
ByBlock
350
3D
  3
ByLayer
350
3C
  3
Global
350
3E
  0
DICTIONARY
  5
103
102
{ACAD_REACTORS
330
C
102
}
330
C
100
AcDbDictionary
281
     1
  0
DICTIONARY
  5
17
102
{ACAD_REACTORS
330
C
102
}
330
C
100
AcDbDictionary
281
     1
  3
Standard
350
18
  0
DICTIONARY
  5
19
102
{ACAD_REACTORS
330
C
102
}
330
C
100
AcDbDictionary
281
     1
  0
ACDBDICTIONARYWDFLT
  5
E
102
{ACAD_REACTORS
330
C
102
}
330
C
100
AcDbDictionary
281
     1
  3
Normal
350
F
100
AcDbDictionaryWithDefault
340
F
  0
DICTIONARY
  5
102
102
{ACAD_REACTORS
330
C
102
}
330
C
100
AcDbDictionary
281
     1
  0
DICTIONARY
  5
2A
102
{ACAD_REACTORS
330
C
102
}
330
C
100
AcDbDictionary
281
     1
  3
2dWireframe
350
2F
  3
3D Hidden
350
31
  3
3dWireframe
350
30
  3
Basic
350
32
  3
Brighten
350
36
  3
ColorChange
350
3A
  3
Conceptual
350
34
  3
Dim
350
35
  3
Facepattern
350
39
  3
Flat
350
2B
  3
FlatWithEdges
350
2C
  3
Gouraud
350
2D
  3
GouraudWithEdges
350
2E
  3
Linepattern
350
38
  3
Realistic
350
33
  3
Thicken
350
37
  0
LAYOUT
  5
1E
102
{ACAD_REACTORS
330
1A
102
}
330
1A
100
AcDbPlotSettings
  1

  2
none_device
  4

  6

 40
0.0
 41
0.0
 42
0.0
 43
0.0
 44
0.0
 45
0.0
 46
0.0
 47
0.0
 48
0.0
 49
0.0
140
0.0
141
0.0
142
1.0
143
1.0
 70
   688
 72
     0
 73
     0
 74
     5
  7

 75
    16
 76
     0
 77
     2
 78
   300
147
1.0
148
0.0
149
0.0
100
AcDbLayout
  1
Layout1
 70
     1
 71
     1
 10
0.0
 20
0.0
 11
12.0
 21
9.0
 12
0.0
 22
0.0
 32
0.0
 14
1.000000000000000E+20
 24
1.000000000000000E+20
 34
1.000000000000000E+20
 15
-1.000000000000000E+20
 25
-1.000000000000000E+20
 35
-1.000000000000000E+20
146
0.0
 13
0.0
 23
0.0
 33
0.0
 16
1.0
 26
0.0
 36
0.0
 17
0.0
 27
1.0
 37
0.0
 76
     0
330
1B
  0
LAYOUT
  5
26
102
{ACAD_REACTORS
330
1A
102
}
330
1A
100
AcDbPlotSettings
  1

  2
none_device
  4

  6

 40
0.0
 41
0.0
 42
0.0
 43
0.0
 44
0.0
 45
0.0
 46
0.0
 47
0.0
 48
0.0
 49
0.0
140
0.0
141
0.0
142
1.0
143
1.0
 70
   688
 72
     0
 73
     0
 74
     5
  7

 75
    16
 76
     0
 77
     2
 78
   300
147
1.0
148
0.0
149
0.0
100
AcDbLayout
  1
Layout2
 70
     1
 71
     2
 10
0.0
 20
0.0
 11
0.0
 21
0.0
 12
0.0
 22
0.0
 32
0.0
 14
0.0
 24
0.0
 34
0.0
 15
0.0
 25
0.0
 35
0.0
146
0.0
 13
0.0
 23
0.0
 33
0.0
 16
1.0
 26
0.0
 36
0.0
 17
0.0
 27
1.0
 37
0.0
 76
     0
330
23
  0
LAYOUT
  5
22
102
{ACAD_REACTORS
330
1A
102
}
330
1A
100
AcDbPlotSettings
  1

  2
none_device
  4

  6

 40
0.0
 41
0.0
 42
0.0
 43
0.0
 44
0.0
 45
0.0
 46
0.0
 47
0.0
 48
0.0
 49
0.0
140
0.0
141
0.0
142
1.0
143
1.0
 70
  1712
 72
     0
 73
     0
 74
     0
  7

 75
     0
 76
     0
 77
     2
 78
   300
147
1.0
148
0.0
149
0.0
100
AcDbLayout
  1
Model
 70
     1
 71
     0
 10
0.0
 20
0.0
 11
12.0
 21
9.0
 12
0.0
 22
0.0
 32
0.0
 14
1.000000000000000E+20
 24
1.000000000000000E+20
 34
1.000000000000000E+20
 15
-1.000000000000000E+20
 25
-1.000000000000000E+20
 35
-1.000000000000000E+20
146
0.0
 13
0.0
 23
0.0
 33
0.0
 16
1.0
 26
0.0
 36
0.0
 17
0.0
 27
1.0
 37
0.0
 76
     0
330
1F
331
29
  0
MATERIAL
  5
3D
102
{ACAD_REACTORS
330
3B
102
}
330
3B
100
AcDbMaterial
  1
ByBlock
 72
     1
 94
      127
  0
MATERIAL
  5
3C
102
{ACAD_REACTORS
330
3B
102
}
330
3B
100
AcDbMaterial
  1
ByLayer
 72
     1
 94
      127
  0
MATERIAL
  5
3E
102
{ACAD_REACTORS
330
3B
102
}
330
3B
100
AcDbMaterial
  1
Global
 72
     1
 94
      127
  0
MLINESTYLE
  5
18
102
{ACAD_REACTORS
330
17
102
}
330
17
100
AcDbMlineStyle
  2
Standard
 70
     0
  3

 62
   256
 51
90.0
 52
90.0
 71
     2
 49
0.5
 62
   256
  6
BYLAYER
 49
-0.5
 62
   256
  6
BYLAYER
  0
ACDBPLACEHOLDER
  5
F
102
{ACAD_REACTORS
330
E
102
}
330
E
  0
VISUALSTYLE
  5
2F
102
{ACAD_REACTORS
330
2A
102
}
330
2A
100
AcDbVisualStyle
  2
2dWireframe
 70
     4
177
     2
291
     0
 71
     0
176
     1
 72
     2
176
     1
 73
     0
176
     1
 90
        0
176
     1
 40
-0.6
176
     1
 41
-30.0
176
     1
 62
     5
 63
     7
421
 16777215
176
     1
 74
     1
176
     1
 91
        4
176
     1
 64
     7
176
     1
 65
   257
176
     1
 75
     1
176
     1
175
     1
176
     1
 42
1.0
176
     1
 92
        0
176
     1
 66
   257
176
     1
 43
1.0
176
     1
 76
     1
176
     1
 77
     6
176
     1
 78
     2
176
     1
 67
     7
176
     1
 79
     5
176
     1
170
     0
176
     1
171
     0
176
     1
290
     0
176
     1
 93
        1
176
     1
 44
0.0
176
     1
173
     0
176
     1
  0
VISUALSTYLE
  5
31
102
{ACAD_REACTORS
330
2A
102
}
330
2A
100
AcDbVisualStyle
  2
3D Hidden
 70
     6
177
     2
291
     0
 71
     1
176
     1
 72
     2
176
     1
 73
     2
176
     1
 90
        0
176
     1
 40
-0.6
176
     1
 41
-30.0
176
     1
 62
     5
 63
     7
421
 16777215
176
     1
 74
     2
176
     1
 91
        2
176
     1
 64
     7
176
     1
 65
   257
176
     1
 75
     2
176
     1
175
     1
176
     1
 42
40.0
176
     1
 92
        0
176
     1
 66
   257
176
     1
 43
1.0
176
     1
 76
     1
176
     1
 77
     6
176
     1
 78
     2
176
     1
 67
     7
176
     1
 79
     3
176
     1
170
     0
176
     1
171
     0
176
     1
290
     0
176
     1
 93
        1
176
     1
 44
0.0
176
     1
173
     0
176
     1
  0
VISUALSTYLE
  5
30
102
{ACAD_REACTORS
330
2A
102
}
330
2A
100
AcDbVisualStyle
  2
3dWireframe
 70
     5
177
     2
291
     0
 71
     0
176
     1
 72
     2
176
     1
 73
     0
176
     1
 90
        0
176
     1
 40
-0.6
176
     1
 41
-30.0
176
     1
 62
     5
 63
     7
421
 16777215
176
     1
 74
     1
176
     1
 91
        4
176
     1
 64
     7
176
     1
 65
   257
176
     1
 75
     1
176
     1
175
     1
176
     1
 42
1.0
176
     1
 92
        0
176
     1
 66
   257
176
     1
 43
1.0
176
     1
 76
     1
176
     1
 77
     6
176
     1
 78
     2
176
     1
 67
     7
176
     1
 79
     5
176
     1
170
     0
176
     1
171
     0
176
     1
290
     0
176
     1
 93
        1
176
     1
 44
0.0
176
     1
173
     0
176
     1
  0
VISUALSTYLE
  5
32
102
{ACAD_REACTORS
330
2A
102
}
330
2A
100
AcDbVisualStyle
  2
Basic
 70
     7
177
     2
291
     1
 71
     1
176
     1
 72
     0
176
     1
 73
     1
176
     1
 90
        0
176
     1
 40
-0.6
176
     1
 41
-30.0
176
     1
 62
     5
 63
     7
421
 16777215
176
     1
 74
     0
176
     1
 91
        4
176
     1
 64
     7
176
     1
 65
   257
176
     1
 75
     1
176
     1
175
     1
176
     1
 42
1.0
176
     1
 92
        8
176
     1
 66
     7
176
     1
 43
1.0
176
     1
 76
     1
176
     1
 77
     6
176
     1
 78
     2
176
     1
 67
     7
176
     1
 79
     5
176
     1
170
     0
176
     1
171
     0
176
     1
290
     0
176
     1
 93
        1
176
     1
 44
0.0
176
     1
173
     0
176
     1
  0
VISUALSTYLE
  5
36
102
{ACAD_REACTORS
330
2A
102
}
330
2A
100
AcDbVisualStyle
  2
Brighten
 70
    12
177
     2
291
     1
 71
     2
176
     1
 72
     2
176
     1
 73
     0
176
     1
 90
        0
176
     1
 40
-0.6
176
     1
 41
-30.0
176
     1
 62
     5
 63
     7
421
 16777215
176
     1
 74
     1
176
     1
 91
        4
176
     1
 64
     7
176
     1
 65
   257
176
     1
 75
     1
176
     1
175
     1
176
     1
 42
1.0
176
     1
 92
        8
176
     1
 66
     7
176
     1
 43
1.0
176
     1
 76
     1
176
     1
 77
     6
176
     1
 78
     2
176
     1
 67
     7
176
     1
 79
     5
176
     1
170
     0
176
     1
171
     0
176
     1
290
     0
176
     1
 93
        1
176
     1
 44
50.0
176
     1
173
     0
176
     1
  0
VISUALSTYLE
  5
3A
102
{ACAD_REACTORS
330
2A
102
}
330
2A
100
AcDbVisualStyle
  2
ColorChange
 70
    16
177
     2
291
     1
 71
     2
176
     1
 72
     2
176
     1
 73
     3
176
     1
 90
        0
176
     1
 40
-0.6
176
     1
 41
-30.0
176
     1
 62
     5
 63
     8
421
  8421504
176
     1
 74
     1
176
     1
 91
        4
176
     1
 64
     7
176
     1
 65
   257
176
     1
 75
     1
176
     1
175
     1
176
     1
 42
1.0
176
     1
 92
        8
176
     1
 66
     8
424
  8421504
176
     1
 43
1.0
176
     1
 76
     1
176
     1
 77
     6
176
     1
 78
     2
176
     1
 67
     7
176
     1
 79
     5
176
     1
170
     0
176
     1
171
     0
176
     1
290
     0
176
     1
 93
        1
176
     1
 44
0.0
176
     1
173
     0
176
     1
  0
VISUALSTYLE
  5
34
102
{ACAD_REACTORS
330
2A
102
}
330
2A
100
AcDbVisualStyle
  2
Conceptual
 70
     9
177
     2
291
     0
 71
     3
176
     1
 72
     2
176
     1
 73
     0
176
     1
 90
        0
176
     1
 40
-0.6
176
     1
 41
-30.0
176
     1
 62
     5
 63
     7
421
 16777215
176
     1
 74
     2
176
     1
 91
        2
176
     1
 64
     7
176
     1
 65
   257
176
     1
 75
     1
176
     1
175
     1
176
     1
 42
40.0
176
     1
 92
        8
176
     1
 66
     7
176
     1
 43
1.0
176
     1
 76
     1
176
     1
 77
     6
176
     1
 78
     2
176
     1
 67
     7
176
     1
 79
     3
176
     1
170
     0
176
     1
171
     0
176
     1
290
     0
176
     1
 93
        1
176
     1
 44
0.0
176
     1
173
     0
176
     1
  0
VISUALSTYLE
  5
35
102
{ACAD_REACTORS
330
2A
102
}
330
2A
100
AcDbVisualStyle
  2
Dim
 70
    11
177
     2
291
     1
 71
     2
176
     1
 72
     2
176
     1
 73
     0
176
     1
 90
        0
176
     1
 40
-0.6
176
     1
 41
-30.0
176
     1
 62
     5
 63
     7
421
 16777215
176
     1
 74
     1
176
     1
 91
        4
176
     1
 64
     7
176
     1
 65
   257
176
     1
 75
     1
176
     1
175
     1
176
     1
 42
1.0
176
     1
 92
        8
176
     1
 66
     7
176
     1
 43
1.0
176
     1
 76
     1
176
     1
 77
     6
176
     1
 78
     2
176
     1
 67
     7
176
     1
 79
     5
176
     1
170
     0
176
     1
171
     0
176
     1
290
     0
176
     1
 93
        1
176
     1
 44
-50.0
176
     1
173
     0
176
     1
  0
VISUALSTYLE
  5
39
102
{ACAD_REACTORS
330
2A
102
}
330
2A
100
AcDbVisualStyle
  2
Facepattern
 70
    15
177
     2
291
     1
 71
     2
176
     1
 72
     2
176
     1
 73
     0
176
     1
 90
        0
176
     1
 40
-0.6
176
     1
 41
-30.0
176
     1
 62
     5
 63
     7
421
 16777215
176
     1
 74
     1
176
     1
 91
        4
176
     1
 64
     7
176
     1
 65
   257
176
     1
 75
     1
176
     1
175
     1
176
     1
 42
1.0
176
     1
 92
        8
176
     1
 66
     7
176
     1
 43
1.0
176
     1
 76
     1
176
     1
 77
     6
176
     1
 78
     2
176
     1
 67
     7
176
     1
 79
     5
176
     1
170
     0
176
     1
171
     0
176
     1
290
     0
176
     1
 93
        1
176
     1
 44
0.0
176
     1
173
     0
176
     1
  0
VISUALSTYLE
  5
2B
102
{ACAD_REACTORS
330
2A
102
}
330
2A
100
AcDbVisualStyle
  2
Flat
 70
     0
177
     2
291
     1
 71
     2
176
     1
 72
     1
176
     1
 73
     1
176
     1
 90
        2
176
     1
 40
-0.6
176
     1
 41
30.0
176
     1
 62
     5
 63
     7
421
 16777215
176
     1
 74
     0
176
     1
 91
        4
176
     1
 64
     7
176
     1
 65
   257
176
     1
 75
     1
176
     1
175
     1
176
     1
 42
1.0
176
     1
 92
        8
176
     1
 66
     7
176
     1
 43
1.0
176
     1
 76
     1
176
     1
 77
     6
176
     1
 78
     2
176
     1
 67
     7
176
     1
 79
     5
176
     1
170
     0
176
     1
171
     0
176
     1
290
     0
176
     1
 93
       13
176
     1
 44
0.0
176
     1
173
     0
176
     1
  0
VISUALSTYLE
  5
2C
102
{ACAD_REACTORS
330
2A
102
}
330
2A
100
AcDbVisualStyle
  2
FlatWithEdges
 70
     1
177
     2
291
     1
 71
     2
176
     1
 72
     1
176
     1
 73
     1
176
     1
 90
        2
176
     1
 40
-0.6
176
     1
 41
30.0
176
     1
 62
     5
 63
     7
421
 16777215
176
     1
 74
     1
176
     1
 91
        4
176
     1
 64
     7
176
     1
 65
   257
176
     1
 75
     1
176
     1
175
     1
176
     1
 42
1.0
176
     1
 92
        0
176
     1
 66
   257
176
     1
 43
1.0
176
     1
 76
     1
176
     1
 77
     6
176
     1
 78
     2
176
     1
 67
     7
176
     1
 79
     5
176
     1
170
     0
176
     1
171
     0
176
     1
290
     0
176
     1
 93
       13
176
     1
 44
0.0
176
     1
173
     0
176
     1
  0
VISUALSTYLE
  5
2D
102
{ACAD_REACTORS
330
2A
102
}
330
2A
100
AcDbVisualStyle
  2
Gouraud
 70
     2
177
     2
291
     1
 71
     2
176
     1
 72
     2
176
     1
 73
     1
176
     1
 90
        2
176
     1
 40
-0.6
176
     1
 41
30.0
176
     1
 62
     5
 63
     7
421
 16777215
176
     1
 74
     0
176
     1
 91
        4
176
     1
 64
     7
176
     1
 65
   257
176
     1
 75
     1
176
     1
175
     1
176
     1
 42
1.0
176
     1
 92
        0
176
     1
 66
     7
176
     1
 43
1.0
176
     1
 76
     1
176
     1
 77
     6
176
     1
 78
     2
176
     1
 67
     7
176
     1
 79
     5
176
     1
170
     0
176
     1
171
     0
176
     1
290
     0
176
     1
 93
       13
176
     1
 44
0.0
176
     1
173
     0
176
     1
  0
VISUALSTYLE
  5
2E
102
{ACAD_REACTORS
330
2A
102
}
330
2A
100
AcDbVisualStyle
  2
GouraudWithEdges
 70
     3
177
     2
291
     1
 71
     2
176
     1
 72
     2
176
     1
 73
     1
176
     1
 90
        2
176
     1
 40
-0.6
176
     1
 41
30.0
176
     1
 62
     5
 63
     7
421
 16777215
176
     1
 74
     1
176
     1
 91
        4
176
     1
 64
     7
176
     1
 65
   257
176
     1
 75
     1
176
     1
175
     1
176
     1
 42
1.0
176
     1
 92
        0
176
     1
 66
   257
176
     1
 43
1.0
176
     1
 76
     1
176
     1
 77
     6
176
     1
 78
     2
176
     1
 67
     7
176
     1
 79
     5
176
     1
170
     0
176
     1
171
     0
176
     1
290
     0
176
     1
 93
       13
176
     1
 44
0.0
176
     1
173
     0
176
     1
  0
VISUALSTYLE
  5
38
102
{ACAD_REACTORS
330
2A
102
}
330
2A
100
AcDbVisualStyle
  2
Linepattern
 70
    14
177
     2
291
     1
 71
     2
176
     1
 72
     2
176
     1
 73
     0
176
     1
 90
        0
176
     1
 40
-0.6
176
     1
 41
-30.0
176
     1
 62
     5
 63
     7
421
 16777215
176
     1
 74
     1
176
     1
 91
        4
176
     1
 64
     7
176
     1
 65
   257
176
     1
 75
     7
176
     1
175
     7
176
     1
 42
1.0
176
     1
 92
        8
176
     1
 66
     7
176
     1
 43
1.0
176
     1
 76
     1
176
     1
 77
     6
176
     1
 78
     2
176
     1
 67
     7
176
     1
 79
     5
176
     1
170
     0
176
     1
171
     0
176
     1
290
     0
176
     1
 93
        1
176
     1
 44
0.0
176
     1
173
     0
176
     1
  0
VISUALSTYLE
  5
33
102
{ACAD_REACTORS
330
2A
102
}
330
2A
100
AcDbVisualStyle
  2
Realistic
 70
     8
177
     2
291
     0
 71
     2
176
     1
 72
     2
176
     1
 73
     0
176
     1
 90
        0
176
     1
 40
-0.6
176
     1
 41
-30.0
176
     1
 62
     5
 63
     7
421
 16777215
176
     1
 74
     1
176
     1
 91
        0
176
     1
 64
     7
176
     1
 65
   257
176
     1
 75
     1
176
     1
175
     1
176
     1
 42
1.0
176
     1
 92
        8
176
     1
 66
     8
424
  7895160
176
     1
 43
1.0
176
     1
 76
     1
176
     1
 77
     6
176
     1
 78
     2
176
     1
 67
     7
176
     1
 79
     5
176
     1
170
     0
176
     1
171
     0
176
     1
290
     0
176
     1
 93
       13
176
     1
 44
0.0
176
     1
173
     0
176
     1
  0
VISUALSTYLE
  5
37
102
{ACAD_REACTORS
330
2A
102
}
330
2A
100
AcDbVisualStyle
  2
Thicken
 70
    13
177
     2
291
     1
 71
     2
176
     1
 72
     2
176
     1
 73
     0
176
     1
 90
        0
176
     1
 40
-0.6
176
     1
 41
-30.0
176
     1
 62
     5
 63
     7
421
 16777215
176
     1
 74
     1
176
     1
 91
        4
176
     1
 64
     7
176
     1
 65
   257
176
     1
 75
     1
176
     1
175
     1
176
     1
 42
1.0
176
     1
 92
       12
176
     1
 66
     7
176
     1
 43
1.0
176
     1
 76
     1
176
     1
 77
     6
176
     1
 78
     2
176
     1
 67
     7
176
     1
 79
     5
176
     1
170
     0
176
     1
171
     0
176
     1
290
     0
176
     1
 93
        1
176
     1
 44
0.0
176
     1
173
     0
176
     1
  0
ENDSEC
  0
EOF
