  0
SECTION
  2
HEADER
  9
$ACADVER
  1
AC1024
  9
$ACADMAINTVER
 70
     6
  9
$DWGCODEPAGE
  3
UNDEFINED
  9
$INSBASE
 10
0.0
 20
0.0
 30
0.0
  9
$EXTMIN
 10
1.000000000000000E+20
 20
1.000000000000000E+20
 30
1.000000000000000E+20
  9
$EXTMAX
 10
-1.000000000000000E+20
 20
-1.000000000000000E+20
 30
-1.000000000000000E+20
  9
$LIMMIN
 10
0.0
 20
0.0
  9
$LIMMAX
 10
12.0
 20
9.0
  9
$ORTHOMODE
 70
     0
  9
$REGENMODE
 70
     1
  9
$FILLMODE
 70
     1
  9
$QTEXTMODE
 70
     0
  9
$MIRRTEXT
 70
     1
  9
$LTSCALE
 40
1.0
  9
$ATTMODE
 70
     1
  9
$TEXTSIZE
 40
0.2
  9
$TRACEWID
 40
0.05
  9
$TEXTSTYLE
  7
Standard
  9
$CLAYER
  8
0
  9
$CELTYPE
  6
ByLayer
  9
$CECOLOR
 62
   256
  9
$CELTSCALE
 40
1.0
  9
$DISPSILH
 70
     0
  9
$DIMSCALE
 40
1.0
  9
$DIMASZ
 40
0.18
  9
$DIMEXO
 40
0.0625
  9
$DIMDLI
 40
0.38
  9
$DIMRND
 40
0.0
  9
$DIMDLE
 40
0.0
  9
$DIMEXE
 40
0.18
  9
$DIMTP
 40
0.0
  9
$DIMTM
 40
0.0
  9
$DIMTXT
 40
0.18
  9
$DIMCEN
 40
0.09
  9
$DIMTSZ
 40
0.0
  9
$DIMTOL
 70
     0
  9
$DIMLIM
 70
     0
  9
$DIMTIH
 70
     1
  9
$DIMTOH
 70
     1
  9
$DIMSE1
 70
     0
  9
$DIMSE2
 70
     0
  9
$DIMTAD
 70
     0
  9
$DIMZIN
 70
     0
  9
$DIMBLK
  1

  9
$DIMASO
 70
     1
  9
$DIMSHO
 70
     1
  9
$DIMPOST
  1

  9
$DIMAPOST
  1

  9
$DIMALT
 70
     0
  9
$DIMALTD
 70
     2
  9
$DIMALTF
 40
25.4
  9
$DIMLFAC
 40
1.0
  9
$DIMTOFL
 70
     0
  9
$DIMTVP
 40
0.0
  9
$DIMTIX
 70
     0
  9
$DIMSOXD
 70
     0
  9
$DIMSAH
 70
     0
  9
$DIMBLK1
  1

  9
$DIMBLK2
  1

  9
$DIMSTYLE
  2
Standard
  9
$DIMCLRD
 70
     0
  9
$DIMCLRE
 70
     0
  9
$DIMCLRT
 70
     0
  9
$DIMTFAC
 40
1.0
  9
$DIMGAP
 40
0.09
  9
$DIMJUST
 70
     0
  9
$DIMSD1
 70
     0
  9
$DIMSD2
 70
     0
  9
$DIMTOLJ
 70
     1
  9
$DIMTZIN
 70
     0
  9
$DIMALTZ
 70
     0
  9
$DIMALTTZ
 70
     0
  9
$DIMUPT
 70
     0
  9
$DIMDEC
 70
     4
  9
$DIMTDEC
 70
     4
  9
$DIMALTU
 70
     2
  9
$DIMALTTD
 70
     2
  9
$DIMTXSTY
  7
Standard
  9
$DIMAUNIT
 70
     0
  9
$DIMADEC
 70
     0
  9
$DIMALTRND
 40
0.0
  9
$DIMAZIN
 70
     0
  9
$DIMDSEP
 70
    46
  9
$DIMATFIT
 70
     3
  9
$DIMFRAC
 70
     0
  9
$DIMLDRBLK
  1

  9
$DIMLUNIT
 70
     2
  9
$DIMLWD
 70
    -2
  9
$DIMLWE
 70
    -2
  9
$DIMTMOVE
 70
     0
  9
$DIMFXL
 40
1.0
  9
$DIMFXLON
 70
     0
  9
$DIMJOGANG
 40
0.7853981633974483
  9
$DIMTFILL
 70
     0
  9
$DIMTFILLCLR
 70
     0
  9
$DIMARCSYM
 70
     0
  9
$DIMLTYPE
  6

  9
$DIMLTEX1
  6

  9
$DIMLTEX2
  6

  9
$DIMTXTDIRECTION
 70
     0
  9
$LUNITS
 70
     2
  9
$LUPREC
 70
     4
  9
$SKETCHINC
 40
0.1
  9
$FILLETRAD
 40
0.5
  9
$AUNITS
 70
     0
  9
$AUPREC
 70
     0
  9
$MENU
  1
.
  9
$ELEVATION
 40
0.0
  9
$PELEVATION
 40
0.0
  9
$THICKNESS
 40
0.0
  9
$LIMCHECK
 70
     0
  9
$CHAMFERA
 40
0.5
  9
$CHAMFERB
 40
0.5
  9
$CHAMFERC
 40
1.0
  9
$CHAMFERD
 40
0.0
  9
$SKPOLY
 70
     0
  9
$TDCREATE
 40
2457917.644895833
  9
$TDUCREATE
 40
2457917.269895833
  9
$TDUPDATE
 40
2457917.644895833
  9
$TDUUPDATE
 40
2457917.269895833
  9
$TDINDWG
 40
0.0000000116
  9
$TDUSRTIMER
 40
0.0000000116
  9
$USRTIMER
 70
     1
  9
$ANGBASE
 50
0.0
  9
$ANGDIR
 70
     0
  9
$PDMODE
 70
     0
  9
$PDSIZE
 40
0.0
  9
$PLINEWID
 40
0.0
  9
$SPLFRAME
 70
     0
  9
$SPLINETYPE
 70
     6
  9
$SPLINESEGS
 70
     8
  9
$HANDSEED
  5
1BB
  9
$SURFTAB1
 70
     6
  9
$SURFTAB2
 70
     6
  9
$SURFTYPE
 70
     6
  9
$SURFU
 70
     6
  9
$SURFV
 70
     6
  9
$UCSBASE
  2

  9
$UCSNAME
  2

  9
$UCSORG
 10
0.0
 20
0.0
 30
0.0
  9
$UCSXDIR
 10
1.0
 20
0.0
 30
0.0
  9
$UCSYDIR
 10
0.0
 20
1.0
 30
0.0
  9
$UCSORTHOREF
  2

  9
$UCSORTHOVIEW
 70
     0
  9
$UCSORGTOP
 10
0.0
 20
0.0
 30
0.0
  9
$UCSORGBOTTOM
 10
0.0
 20
0.0
 30
0.0
  9
$UCSORGLEFT
 10
0.0
 20
0.0
 30
0.0
  9
$UCSORGRIGHT
 10
0.0
 20
0.0
 30
0.0
  9
$UCSORGFRONT
 10
0.0
 20
0.0
 30
0.0
  9
$UCSORGBACK
 10
0.0
 20
0.0
 30
0.0
  9
$PUCSBASE
  2

  9
$PUCSNAME
  2

  9
$PUCSORG
 10
0.0
 20
0.0
 30
0.0
  9
$PUCSXDIR
 10
1.0
 20
0.0
 30
0.0
  9
$PUCSYDIR
 10
0.0
 20
1.0
 30
0.0
  9
$PUCSORTHOREF
  2

  9
$PUCSORTHOVIEW
 70
     0
  9
$PUCSORGTOP
 10
0.0
 20
0.0
 30
0.0
  9
$PUCSORGBOTTOM
 10
0.0
 20
0.0
 30
0.0
  9
$PUCSORGLEFT
 10
0.0
 20
0.0
 30
0.0
  9
$PUCSORGRIGHT
 10
0.0
 20
0.0
 30
0.0
  9
$PUCSORGFRONT
 10
0.0
 20
0.0
 30
0.0
  9
$PUCSORGBACK
 10
0.0
 20
0.0
 30
0.0
  9
$USERI1
 70
     0
  9
$USERI2
 70
     0
  9
$USERI3
 70
     0
  9
$USERI4
 70
     0
  9
$USERI5
 70
     0
  9
$USERR1
 40
0.0
  9
$USERR2
 40
0.0
  9
$USERR3
 40
0.0
  9
$USERR4
 40
0.0
  9
$USERR5
 40
0.0
  9
$WORLDVIEW
 70
     1
  9
$SHADEDGE
 70
     3
  9
$SHADEDIF
 70
    70
  9
$TILEMODE
 70
     1
  9
$MAXACTVP
 70
    64
  9
$PINSBASE
 10
0.0
 20
0.0
 30
0.0
  9
$PLIMCHECK
 70
     0
  9
$PEXTMIN
 10
1.000000000000000E+20
 20
1.000000000000000E+20
 30
1.000000000000000E+20
  9
$PEXTMAX
 10
-1.000000000000000E+20
 20
-1.000000000000000E+20
 30
-1.000000000000000E+20
  9
$PLIMMIN
 10
0.0
 20
0.0
  9
$PLIMMAX
 10
12.0
 20
9.0
  9
$UNITMODE
 70
     0
  9
$VISRETAIN
 70
     1
  9
$PLINEGEN
 70
     0
  9
$PSLTSCALE
 70
     1
  9
$TREEDEPTH
 70
  3020
  9
$CMLSTYLE
  2
Standard
  9
$CMLJUST
 70
     0
  9
$CMLSCALE
 40
1.0
  9
$PROXYGRAPHICS
 70
     1
  9
$MEASUREMENT
 70
     0
  9
$CELWEIGHT
370
    -1
  9
$ENDCAPS
280
     0
  9
$JOINSTYLE
280
     0
  9
$LWDISPLAY
290
     1
  9
$INSUNITS
 70
     1
  9
$HYPERLINKBASE
  1

  9
$STYLESHEET
  1

  9
$XEDIT
290
     1
  9
$CEPSNTYPE
380
     0
  9
$PSTYLEMODE
290
     1
  9
$FINGERPRINTGUID
  2
{9F6E5810-2DF1-EE73-465E-EA34108245D6}
  9
$VERSIONGUID
  2
{FAEB1C32-E019-11D5-929B-00C0DF256EC4}
  9
$EXTNAMES
290
     1
  9
$PSVPSCALE
 40
0.0
  9
$OLESTARTUP
290
     0
  9
$SORTENTS
280
   127
  9
$INDEXCTL
280
     0
  9
$HIDETEXT
280
     1
  9
$XCLIPFRAME
280
     2
  9
$HALOGAP
280
     0
  9
$OBSCOLOR
 70
   257
  9
$OBSLTYPE
280
     0
  9
$INTERSECTIONDISPLAY
280
     0
  9
$INTERSECTIONCOLOR
 70
   257
  9
$DIMASSOC
280
     2
  9
$PROJECTNAME
  1

  9
$CAMERADISPLAY
290
     0
  9
$LENSLENGTH
 40
50.0
  9
$CAMERAHEIGHT
 40
0.0
  9
$STEPSPERSEC
 40
2.0
  9
$STEPSIZE
 40
6.0
  9
$3DDWFPREC
 40
2.0
  9
$PSOLWIDTH
 40
0.25
  9
$PSOLHEIGHT
 40
4.0
  9
$LOFTANG1
 40
1.570796326794897
  9
$LOFTANG2
 40
1.570796326794897
  9
$LOFTMAG1
 40
0.0
  9
$LOFTMAG2
 40
0.0
  9
$LOFTPARAM
 70
     7
  9
$LOFTNORMALS
280
     1
  9
$LATITUDE
 40
37.795
  9
$LONGITUDE
 40
-122.394
  9
$NORTHDIRECTION
 40
0.0
  9
$TIMEZONE
 70
 -8000
  9
$LIGHTGLYPHDISPLAY
280
     1
  9
$TILEMODELIGHTSYNCH
280
     1
  9
$CMATERIAL
347
3C
  9
$SOLIDHIST
280
     1
  9
$SHOWHIST
280
     1
  9
$DWFFRAME
280
     2
  9
$DGNFRAME
280
     2
  9
$REALWORLDSCALE
290
     1
  9
$INTERFERECOLOR
 62
   256
  9
$CSHADOW
280
     0
  9
$SHADOWPLANELOCATION
 40
0.0
  0
ENDSEC
  0
SECTION
  2
CLASSES
  0
CLASS
  1
ACDBDICTIONARYWDFLT
  2
AcDbDictionaryWithDefault
  3
ObjectDBX Classes
 90
        0
 91
        4
280
     0
281
     0
  0
CLASS
  1
VISUALSTYLE
  2
AcDbVisualStyle
  3
ObjectDBX Classes
 90
     4095
 91
        4
280
     0
281
     0
  0
CLASS
  1
MATERIAL
  2
AcDbMaterial
  3
ObjectDBX Classes
 90
     1153
 91
        4
280
     0
281
     0
  0
CLASS
  1
SUN
  2
AcDbSun
  3
SCENEOE
 90
     1024
 91
        4
280
     0
281
     0
  0
ENDSEC
  0
SECTION
  2
TABLES
  0
TABLE
  2
VPORT
  5
8
330
0
100
AcDbSymbolTable
 70
     1
  0
VPORT
  5
29
330
8
100
AcDbSymbolTableRecord
100
AcDbViewportTableRecord
  2
*Active
 70
     0
 10
0.0
 20
0.0
 11
1.0
 21
1.0
 12
0.0
 22
0.0
 13
0.0
 23
0.0
 14
0.5
 24
0.5
 15
0.5
 25
0.5
 16
0.0
 26
0.0
 36
1.0
 17
91.00082462281999
 27
-128.4993055234307
 37
0.0
 40
256.9986110468615
 41
0.7081814508812795
 42
50.0
 43
0.0
 44
0.0
 50
0.0
 51
0.0
 71
     0
 72
   100
 73
     1
 74
     3
 75
     0
 76
     0
 77
     0
 78
     0
281
     0
 65
     1
110
0.0
120
0.0
130
0.0
111
1.0
121
0.0
131
0.0
112
0.0
122
1.0
132
0.0
 79
     0
146
0.0
 60
     3
 61
     5
292
     1
282
     1
141
0.0
142
0.0
 63
   250
361
3F
  0
ENDTAB
  0
TABLE
  2
LTYPE
  5
5
330
0
100
AcDbSymbolTable
 70
     2
  0
LTYPE
  5
14
330
5
100
AcDbSymbolTableRecord
100
AcDbLinetypeTableRecord
  2
ByBlock
 70
     0
  3

 72
    65
 73
     0
 40
0.0
  0
LTYPE
  5
15
330
5
100
AcDbSymbolTableRecord
100
AcDbLinetypeTableRecord
  2
ByLayer
 70
     0
  3

 72
    65
 73
     0
 40
0.0
  0
LTYPE
  5
16
330
5
100
AcDbSymbolTableRecord
100
AcDbLinetypeTableRecord
  2
Continuous
 70
     0
  3
Solid line
 72
    65
 73
     0
 40
0.0
  0
LTYPE
  5
55
330
5
100
AcDbSymbolTableRecord
100
AcDbLinetypeTableRecord
  2
AI-Linetype-1
 70
     0
  3
Adobe Illustrator Linetype No. 1
 72
    65
 73
     4
 40
2.1166666661375
 49
1.05833333306875
 74
     0
 49
-0.3527777776895833
 74
     0
 49
0.3527777776895833
 74
     0
 49
-0.3527777776895833
 74
     0
  0
ENDTAB
  0
TABLE
  2
LAYER
  5
2
330
0
100
AcDbSymbolTable
 70
     2
  0
LAYER
  5
10
330
2
100
AcDbSymbolTableRecord
100
AcDbLayerTableRecord
  2
0
 70
     0
 62
     7
  6
Continuous
370
    -3
390
F
347
3E
  0
LAYER
  5
40
330
2
100
AcDbSymbolTableRecord
100
AcDbLayerTableRecord
  2
_U+30EC_U+30A4_U+30E4_U+30FC 1
 70
     0
 62
     7
  6
Continuous
370
    -3
390
F
347
3E
  0
ENDTAB
  0
TABLE
  2
STYLE
  5
3
330
0
100
AcDbSymbolTable
 70
     1
  0
STYLE
  5
11
330
3
100
AcDbSymbolTableRecord
100
AcDbTextStyleTableRecord
  2
Standard
 70
     0
 40
0.0
 41
1.0
 50
0.0
 71
     0
 42
0.2
  3
txt
  4

  0
ENDTAB
  0
TABLE
  2
VIEW
  5
6
330
0
100
AcDbSymbolTable
 70
     0
  0
ENDTAB
  0
TABLE
  2
UCS
  5
7
330
0
100
AcDbSymbolTable
 70
     0
  0
ENDTAB
  0
TABLE
  2
APPID
  5
9
330
0
100
AcDbSymbolTable
 70
     1
  0
APPID
  5
12
330
9
100
AcDbSymbolTableRecord
100
AcDbRegAppTableRecord
  2
ACAD
 70
     0
  0
ENDTAB
  0
TABLE
  2
DIMSTYLE
  5
A
330
0
100
AcDbSymbolTable
 70
     1
100
AcDbDimStyleTable
  0
DIMSTYLE
105
27
330
A
100
AcDbSymbolTableRecord
100
AcDbDimStyleTableRecord
  2
Standard
 70
     0
178
     0
340
11
  0
ENDTAB
  0
TABLE
  2
BLOCK_RECORD
  5
1
330
0
100
AcDbSymbolTable
 70
    15
  0
BLOCK_RECORD
  5
1F
330
1
100
AcDbSymbolTableRecord
100
AcDbBlockTableRecord
  2
*Model_Space
340
22
 70
     0
280
     1
281
     0
  0
BLOCK_RECORD
  5
1B
330
1
100
AcDbSymbolTableRecord
100
AcDbBlockTableRecord
  2
*Paper_Space
340
1E
 70
     0
280
     1
281
     0
  0
BLOCK_RECORD
  5
23
330
1
100
AcDbSymbolTableRecord
100
AcDbBlockTableRecord
  2
*Paper_Space0
340
26
 70
     0
280
     1
281
     0
  0
BLOCK_RECORD
  5
41
330
1
100
AcDbSymbolTableRecord
100
AcDbBlockTableRecord
  2
block 2
340
0
102
{BLKREFS
331
42
102
}
 70
     0
280
     1
281
     0
  0
BLOCK_RECORD
  5
46
330
1
100
AcDbSymbolTableRecord
100
AcDbBlockTableRecord
  2
block 3
340
0
102
{BLKREFS
331
47
102
}
 70
     0
280
     1
281
     0
  0
BLOCK_RECORD
  5
77
330
1
100
AcDbSymbolTableRecord
100
AcDbBlockTableRecord
  2
block 4
340
0
102
{BLKREFS
331
78
102
}
 70
     0
280
     1
281
     0
  0
BLOCK_RECORD
  5
88
330
1
100
AcDbSymbolTableRecord
100
AcDbBlockTableRecord
  2
block 5
340
0
102
{BLKREFS
331
89
102
}
 70
     0
280
     1
281
     0
  0
BLOCK_RECORD
  5
98
330
1
100
AcDbSymbolTableRecord
100
AcDbBlockTableRecord
  2
block 6
340
0
102
{BLKREFS
331
99
102
}
 70
     0
280
     1
281
     0
  0
BLOCK_RECORD
  5
BB
330
1
100
AcDbSymbolTableRecord
100
AcDbBlockTableRecord
  2
block 7
340
0
102
{BLKREFS
331
BC
102
}
 70
     0
280
     1
281
     0
  0
BLOCK_RECORD
  5
DC
330
1
100
AcDbSymbolTableRecord
100
AcDbBlockTableRecord
  2
block 8
340
0
102
{BLKREFS
331
DD
102
}
 70
     0
280
     1
281
     0
  0
BLOCK_RECORD
  5
FC
330
1
100
AcDbSymbolTableRecord
100
AcDbBlockTableRecord
  2
block 9
340
0
102
{BLKREFS
331
FD
102
}
 70
     0
280
     1
281
     0
  0
BLOCK_RECORD
  5
102
330
1
100
AcDbSymbolTableRecord
100
AcDbBlockTableRecord
  2
block 10
340
0
102
{BLKREFS
331
103
102
}
 70
     0
280
     1
281
     0
  0
BLOCK_RECORD
  5
121
330
1
100
AcDbSymbolTableRecord
100
AcDbBlockTableRecord
  2
block 11
340
0
102
{BLKREFS
331
122
102
}
 70
     0
280
     1
281
     0
  0
BLOCK_RECORD
  5
132
330
1
100
AcDbSymbolTableRecord
100
AcDbBlockTableRecord
  2
block 12
340
0
102
{BLKREFS
331
133
102
}
 70
     0
280
     1
281
     0
  0
BLOCK_RECORD
  5
150
330
1
100
AcDbSymbolTableRecord
100
AcDbBlockTableRecord
  2
block 13
340
0
102
{BLKREFS
331
151
102
}
 70
     0
280
     1
281
     0
  0
BLOCK_RECORD
  5
19A
330
1
100
AcDbSymbolTableRecord
100
AcDbBlockTableRecord
  2
block 14
340
0
102
{BLKREFS
331
19B
102
}
 70
     0
280
     1
281
     0
  0
BLOCK_RECORD
  5
1A0
330
1
100
AcDbSymbolTableRecord
100
AcDbBlockTableRecord
  2
block 15
340
0
102
{BLKREFS
331
1A1
102
}
 70
     0
280
     1
281
     0
  0
ENDTAB
  0
ENDSEC
  0
SECTION
  2
BLOCKS
  0
BLOCK
  5
20
330
1F
100
AcDbEntity
  8
0
100
AcDbBlockBegin
  2
*Model_Space
 70
     0
 10
0.0
 20
0.0
 30
0.0
  3
*Model_Space
  1

  0
ENDBLK
  5
21
330
1F
100
AcDbEntity
  8
0
100
AcDbBlockEnd
  0
BLOCK
  5
1C
330
1B
100
AcDbEntity
 67
     1
  8
0
100
AcDbBlockBegin
  2
*Paper_Space
 70
     0
 10
0.0
 20
0.0
 30
0.0
  3
*Paper_Space
  1

  0
ENDBLK
  5
1D
330
1B
100
AcDbEntity
 67
     1
  8
0
100
AcDbBlockEnd
  0
BLOCK
  5
24
330
23
100
AcDbEntity
  8
0
100
AcDbBlockBegin
  2
*Paper_Space0
 70
     0
 10
0.0
 20
0.0
 30
0.0
  3
*Paper_Space0
  1

  0
ENDBLK
  5
25
330
23
100
AcDbEntity
  8
0
100
AcDbBlockEnd
  0
BLOCK
  5
43
330
41
100
AcDbEntity
  8
0
100
AcDbBlockBegin
  2
block 2
 70
     0
 10
0.0
 20
0.0
 30
0.0
  3
block 2
  1

  0
SPLINE
  5
45
330
41
100
AcDbEntity
  8
_U+30EC_U+30A4_U+30E4_U+30FC 1
 62
     7
420
 16777215
370
    25
100
AcDbSpline
210
0.0
220
0.0
230
1.0
 70
    11
 71
     3
 72
    56
 73
    52
 74
     0
 42
0.0000000001
 43
0.0000000001
 12
1.0
 22
0.0
 32
0.0
 13
1.0
 23
0.0
 33
0.0
 40
0.0
 40
0.0
 40
0.0
 40
0.0
 40
1.0
 40
1.0
 40
1.0
 40
2.0
 40
2.0
 40
2.0
 40
3.0
 40
3.0
 40
3.0
 40
4.0
 40
4.0
 40
4.0
 40
5.0
 40
5.0
 40
5.0
 40
6.0
 40
6.0
 40
6.0
 40
7.0
 40
7.0
 40
7.0
 40
8.0
 40
8.0
 40
8.0
 40
9.0
 40
9.0
 40
9.0
 40
10.0
 40
10.0
 40
10.0
 40
11.0
 40
11.0
 40
11.0
 40
12.0
 40
12.0
 40
12.0
 40
13.0
 40
13.0
 40
13.0
 40
14.0
 40
14.0
 40
14.0
 40
15.0
 40
15.0
 40
15.0
 40
16.0
 40
16.0
 40
16.0
 40
17.0
 40
17.0
 40
17.0
 40
17.0
 10
97.14409668831429
 20
-123.6854763579677
 30
0.0
 10
97.14409668831429
 20
-123.6854763579677
 30
0.0
 10
96.31418698726482
 20
-124.1643369134034
 30
0.0
 10
96.31418698726482
 20
-124.1643369134034
 30
0.0
 10
96.31418698726482
 20
-124.1643369134034
 30
0.0
 10
93.42444317209944
 20
-124.1643369134034
 30
0.0
 10
93.42444317209944
 20
-124.1643369134034
 30
0.0
 10
93.15950706774741
 20
-124.1643369134034
 30
0.0
 10
92.94487707322308
 20
-124.3793196911273
 30
0.0
 10
92.94487707322308
 20
-124.6442558021722
 30
0.0
 10
92.94487707322308
 20
-124.6442558021722
 30
0.0
 10
92.94487707322308
 20
-126.0749813573703
 30
0.0
 10
92.94487707322308
 20
-126.0749813573703
 30
0.0
 10
93.15573234562149
 20
-126.1793683017887
 30
0.0
 10
93.32693539680929
 20
-126.350606635079
 30
0.0
 10
93.43167511635939
 20
-126.5617794128041
 30
0.0
 10
93.69661122071142
 20
-127.0957791348927
 30
0.0
 10
93.47852400405306
 20
-127.7424208013979
 30
0.0
 10
92.94487707322308
 20
-128.0073569124425
 30
0.0
 10
92.41123014239311
 20
-128.2722577457096
 30
0.0
 10
91.76391821446296
 20
-128.0542058013198
 30
0.0
 10
91.49933488787971
 20
-127.5205588570087
 30
0.0
 10
91.23439878352768
 20
-126.9865591349201
 30
0.0
 10
91.45248600018604
 20
-126.3399174684149
 30
0.0
 10
91.98609997700333
 20
-126.0749813573703
 30
0.0
 10
91.98609997700333
 20
-126.0749813573703
 30
0.0
 10
91.98609997700333
 20
-124.6442558021722
 30
0.0
 10
91.98609997700333
 20
-124.6442558021722
 30
0.0
 10
91.98609997700333
 20
-124.3793196911273
 30
0.0
 10
91.77146765871481
 20
-124.1643369134034
 30
0.0
 10
91.50656683213965
 20
-124.1643369134034
 30
0.0
 10
91.50656683213965
 20
-124.1643369134034
 30
0.0
 10
85.91722641918005
 20
-124.1643369134034
 30
0.0
 10
85.91722641918005
 20
-124.1643369134034
 30
0.0
 10
85.91722641918005
 20
-124.1643369134034
 30
0.0
 10
85.91722641918005
 20
-123.3974685802617
 30
0.0
 10
85.91722641918005
 20
-123.3974685802617
 30
0.0
 10
85.91722641918005
 20
-123.3974685802617
 30
0.0
 10
84.95844699919611
 20
-123.3974685802617
 30
0.0
 10
84.95844699919611
 20
-123.3974685802617
 30
0.0
 10
84.95844699919611
 20
-123.3974685802617
 30
0.0
 10
84.95844699919611
 20
-122.726344135985
 30
0.0
 10
84.95844699919611
 20
-122.726344135985
 30
0.0
 10
84.95844699919611
 20
-122.726344135985
 30
0.0
 10
96.31418698726482
 20
-122.726344135985
 30
0.0
 10
96.31418698726482
 20
-122.726344135985
 30
0.0
 10
96.31418698726482
 20
-122.726344135985
 30
0.0
 10
97.14409668831429
 20
-123.2059102469763
 30
0.0
 10
97.14409668831429
 20
-123.2059102469763
 30
0.0
 10
97.14409668831429
 20
-123.2059102469763
 30
0.0
 10
97.14409668831429
 20
-123.6854763579677
 30
0.0
 10
97.14409668831429
 20
-123.6854763579677
 30
0.0
  0
INSERT
  5
47
330
41
100
AcDbEntity
  8
_U+30EC_U+30A4_U+30E4_U+30FC 1
100
AcDbBlockReference
  2
block 3
 10
0.0
 20
0.0
 30
0.0
  0
SPLINE
  5
58
330
41
100
AcDbEntity
  8
_U+30EC_U+30A4_U+30E4_U+30FC 1
 62
     7
420
 16777215
370
    25
100
AcDbSpline
210
0.0
220
0.0
230
1.0
 70
     8
 71
     3
 72
   101
 73
    97
 74
     0
 42
0.0000000001
 43
0.0000000001
 12
1.0
 22
0.0
 32
0.0
 13
1.0
 23
0.0
 33
0.0
 40
0.0
 40
0.0
 40
0.0
 40
0.0
 40
1.0
 40
1.0
 40
1.0
 40
2.0
 40
2.0
 40
2.0
 40
3.0
 40
3.0
 40
3.0
 40
4.0
 40
4.0
 40
4.0
 40
5.0
 40
5.0
 40
5.0
 40
6.0
 40
6.0
 40
6.0
 40
7.0
 40
7.0
 40
7.0
 40
8.0
 40
8.0
 40
8.0
 40
9.0
 40
9.0
 40
9.0
 40
10.0
 40
10.0
 40
10.0
 40
11.0
 40
11.0
 40
11.0
 40
12.0
 40
12.0
 40
12.0
 40
13.0
 40
13.0
 40
13.0
 40
14.0
 40
14.0
 40
14.0
 40
15.0
 40
15.0
 40
15.0
 40
16.0
 40
16.0
 40
16.0
 40
17.0
 40
17.0
 40
17.0
 40
18.0
 40
18.0
 40
18.0
 40
19.0
 40
19.0
 40
19.0
 40
20.0
 40
20.0
 40
20.0
 40
21.0
 40
21.0
 40
21.0
 40
22.0
 40
22.0
 40
22.0
 40
23.0
 40
23.0
 40
23.0
 40
24.0
 40
24.0
 40
24.0
 40
25.0
 40
25.0
 40
25.0
 40
26.0
 40
26.0
 40
26.0
 40
27.0
 40
27.0
 40
27.0
 40
28.0
 40
28.0
 40
28.0
 40
29.0
 40
29.0
 40
29.0
 40
30.0
 40
30.0
 40
30.0
 40
31.0
 40
31.0
 40
31.0
 40
32.0
 40
32.0
 40
32.0
 40
32.0
 10
78.69321965903538
 20
-131.7232358004024
 30
0.0
 10
78.69321965903538
 20
-131.7232358004024
 30
0.0
 10
78.69321965903538
 20
-130.2232246896661
 30
0.0
 10
78.69321965903538
 20
-130.2232246896661
 30
0.0
 10
78.69321965903538
 20
-130.2232246896661
 30
0.0
 10
77.69309468455069
 20
-130.2232246896661
 30
0.0
 10
77.69309468455069
 20
-130.2232246896661
 30
0.0
 10
77.69309468455069
 20
-130.2232246896661
 30
0.0
 10
77.69309468455069
 20
-132.7233255223745
 30
0.0
 10
77.69309468455069
 20
-132.7233255223745
 30
0.0
 10
77.69309468455069
 20
-132.7233255223745
 30
0.0
 10
95.19316507142003
 20
-132.7233255223745
 30
0.0
 10
95.19316507142003
 20
-132.7233255223745
 30
0.0
 10
95.19316507142003
 20
-132.7233255223745
 30
0.0
 10
95.19316507142003
 20
-125.2264802464713
 30
0.0
 10
95.19316507142003
 20
-125.2264802464713
 30
0.0
 10
95.19316507142003
 20
-125.2264802464713
 30
0.0
 10
99.19292413604434
 20
-125.2264802464713
 30
0.0
 10
99.19292413604434
 20
-125.2264802464713
 30
0.0
 10
99.19292413604434
 20
-125.2264802464713
 30
0.0
 10
99.19292413604434
 20
-126.2265699684434
 30
0.0
 10
99.19292413604434
 20
-126.2265699684434
 30
0.0
 10
99.19292413604434
 20
-126.2265699684434
 30
0.0
 10
100.1930138327522
 20
-126.2265699684434
 30
0.0
 10
100.1930138327522
 20
-126.2265699684434
 30
0.0
 10
100.1930138327522
 20
-126.2265699684434
 30
0.0
 10
100.1930138327522
 20
-122.726344135985
 30
0.0
 10
100.1930138327522
 20
-122.726344135985
 30
0.0
 10
100.1930138327522
 20
-122.726344135985
 30
0.0
 10
99.19292413604434
 20
-122.726344135985
 30
0.0
 10
99.19292413604434
 20
-122.726344135985
 30
0.0
 10
99.19292413604434
 20
-122.726344135985
 30
0.0
 10
99.19292413604434
 20
-123.726469135735
 30
0.0
 10
99.19292413604434
 20
-123.726469135735
 30
0.0
 10
99.19292413604434
 20
-123.726469135735
 30
0.0
 10
98.19279916155966
 20
-123.726469135735
 30
0.0
 10
98.19279916155966
 20
-123.726469135735
 30
0.0
 10
98.19279916155966
 20
-123.726469135735
 30
0.0
 10
98.19279916155966
 20
-124.2263552467213
 30
0.0
 10
98.19279916155966
 20
-124.2263552467213
 30
0.0
 10
98.19279916155966
 20
-124.2263552467213
 30
0.0
 10
94.5292749763678
 20
-124.2263552467213
 30
0.0
 10
94.5292749763678
 20
-124.2263552467213
 30
0.0
 10
94.26437176178219
 20
-124.2263552467213
 30
0.0
 10
93.69315399857739
 20
-124.6280633021762
 30
0.0
 10
93.69315399857739
 20
-125.2860644131229
 30
0.0
 10
93.69315399857739
 20
-125.9440655240696
 30
0.0
 10
94.19304009693535
 20
-126.2265699684434
 30
0.0
 10
94.19304009693535
 20
-126.2265699684434
 30
0.0
 10
94.19304009693535
 20
-126.2265699684434
 30
0.0
 10
94.19304009693535
 20
-128.5637227456369
 30
0.0
 10
94.19304009693535
 20
-128.5637227456369
 30
0.0
 10
94.19304009693535
 20
-128.5637227456369
 30
0.0
 10
91.4779565550918
 20
-128.5637227456369
 30
0.0
 10
91.4779565550918
 20
-128.5637227456369
 30
0.0
 10
91.2020137843539
 20
-128.5637227456369
 30
0.0
 10
90.97807045673383
 20
-128.3401321901374
 30
0.0
 10
90.97807045673383
 20
-128.0641894124284
 30
0.0
 10
90.97807045673383
 20
-128.0641894124284
 30
0.0
 10
90.97807045673383
 20
-125.7263310796797
 30
0.0
 10
90.97807045673383
 20
-125.7263310796797
 30
0.0
 10
91.2540485052486
 20
-125.7263310796797
 30
0.0
 10
91.4779565550918
 20
-125.5027758019577
 30
0.0
 10
91.4779565550918
 20
-125.2264802464713
 30
0.0
 10
91.4779565550918
 20
-124.9505021909847
 30
0.0
 10
91.2540485052486
 20
-124.726594135485
 30
0.0
 10
90.97807045673383
 20
-124.726594135485
 30
0.0
 10
90.97807045673383
 20
-124.726594135485
 30
0.0
 10
89.97798076002603
 20
-124.726594135485
 30
0.0
 10
89.97798076002603
 20
-124.726594135485
 30
0.0
 10
89.97798076002603
 20
-124.726594135485
 30
0.0
 10
89.97798076002603
 20
-128.5637227456369
 30
0.0
 10
89.97798076002603
 20
-128.5637227456369
 30
0.0
 10
89.97798076002603
 20
-129.1163138566097
 30
0.0
 10
90.42583213748927
 20
-129.5638477453865
 30
0.0
 10
90.97807045673383
 20
-129.5638477453865
 30
0.0
 10
90.97807045673383
 20
-129.5638477453865
 30
0.0
 10
93.69315399857739
 20
-129.5638477453865
 30
0.0
 10
93.69315399857739
 20
-129.5638477453865
 30
0.0
 10
93.69315399857739
 20
-129.5638477453865
 30
0.0
 10
93.69315399857739
 20
-130.7234635784305
 30
0.0
 10
93.69315399857739
 20
-130.7234635784305
 30
0.0
 10
93.69315399857739
 20
-131.2757019116256
 30
0.0
 10
93.24530262111415
 20
-131.7232358004024
 30
0.0
 10
92.69306664349355
 20
-131.7232358004024
 30
0.0
 10
92.69306664349355
 20
-131.7232358004024
 30
0.0
 10
88.69330523724527
 20
-131.7232358004024
 30
0.0
 10
88.69330523724527
 20
-131.7232358004024
 30
0.0
 10
88.69330523724527
 20
-131.7232358004024
 30
0.0
 10
88.69330523724527
 20
-130.2232246896661
 30
0.0
 10
88.69330523724527
 20
-130.2232246896661
 30
0.0
 10
88.69330523724527
 20
-130.2232246896661
 30
0.0
 10
87.69318026276059
 20
-130.2232246896661
 30
0.0
 10
87.69318026276059
 20
-130.2232246896661
 30
0.0
 10
87.69318026276059
 20
-130.2232246896661
 30
0.0
 10
87.69318026276059
 20
-131.7232358004024
 30
0.0
 10
87.69318026276059
 20
-131.7232358004024
 30
0.0
  0
POLYLINE
  5
59
330
41
100
AcDbEntity
  8
_U+30EC_U+30A4_U+30E4_U+30FC 1
 62
     7
420
 16777215
370
    25
100
AcDb2dPolyline
 66
     1
 10
0.0
 20
0.0
 30
0.0
  0
VERTEX
  5
5A
330
59
100
AcDbEntity
  8
_U+30EC_U+30A4_U+30E4_U+30FC 1
 62
     7
420
 16777215
370
    25
100
AcDbVertex
100
AcDb2dVertex
 10
99.19292413604434
 20
-123.726469135735
 30
0.0
  0
VERTEX
  5
5B
330
59
100
AcDbEntity
  8
_U+30EC_U+30A4_U+30E4_U+30FC 1
 62
     7
420
 16777215
370
    25
100
AcDbVertex
100
AcDb2dVertex
 10
96.19293726813594
 20
-123.726469135735
 30
0.0
  0
VERTEX
  5
5C
330
59
100
AcDbEntity
  8
_U+30EC_U+30A4_U+30E4_U+30FC 1
 62
     7
420
 16777215
370
    25
100
AcDbVertex
100
AcDb2dVertex
 10
96.19293726813594
 20
-123.226583024749
 30
0.0
  0
VERTEX
  5
5D
330
59
100
AcDbEntity
  8
_U+30EC_U+30A4_U+30E4_U+30FC 1
 62
     7
420
 16777215
370
    25
100
AcDbVertex
100
AcDb2dVertex
 10
99.19292413604434
 20
-123.226583024749
 30
0.0
  0
VERTEX
  5
5E
330
59
100
AcDbEntity
  8
_U+30EC_U+30A4_U+30E4_U+30FC 1
 62
     7
420
 16777215
370
    25
100
AcDbVertex
100
AcDb2dVertex
 10
99.19292413604434
 20
-123.726469135735
 30
0.0
  0
SEQEND
  5
5F
330
59
100
AcDbEntity
  8
_U+30EC_U+30A4_U+30E4_U+30FC 1
 62
     7
420
 16777215
370
    25
  0
SPLINE
  5
60
330
41
100
AcDbEntity
  8
_U+30EC_U+30A4_U+30E4_U+30FC 1
 62
     7
420
 16777215
370
     9
100
AcDbSpline
210
0.0
220
0.0
230
1.0
 70
    11
 71
     3
 72
    17
 73
    13
 74
     0
 42
0.0000000001
 43
0.0000000001
 12
1.0
 22
0.0
 32
0.0
 13
1.0
 23
0.0
 33
0.0
 40
0.0
 40
0.0
 40
0.0
 40
0.0
 40
1.0
 40
1.0
 40
1.0
 40
2.0
 40
2.0
 40
2.0
 40
3.0
 40
3.0
 40
3.0
 40
4.0
 40
4.0
 40
4.0
 40
4.0
 10
85.09246942317145
 20
-120.2903430254829
 30
0.0
 10
85.09246942317145
 20
-120.2355566366079
 30
0.0
 10
85.04837220096024
 20
-120.1904363588412
 30
0.0
 10
84.99256060943691
 20
-120.1904363588412
 30
0.0
 10
84.93745672195384
 20
-120.1904363588412
 30
0.0
 10
84.89265394531907
 20
-120.2355566366079
 30
0.0
 10
84.89265394531907
 20
-120.2903430254829
 30
0.0
 10
84.89265394531907
 20
-120.3450941365803
 30
0.0
 10
84.93745672195384
 20
-120.3902496921248
 30
0.0
 10
84.99256060943691
 20
-120.3902496921248
 30
0.0
 10
85.04837220096024
 20
-120.3902496921248
 30
0.0
 10
85.09246942317145
 20
-120.3450941365803
 30
0.0
 10
85.09246942317145
 20
-120.2903430254829
 30
0.0
  0
SPLINE
  5
61
330
41
100
AcDbEntity
  8
_U+30EC_U+30A4_U+30E4_U+30FC 1
 62
     7
420
 16777215
370
     9
100
AcDbSpline
210
0.0
220
0.0
230
1.0
 70
    11
 71
     3
 72
    17
 73
    13
 74
     0
 42
0.0000000001
 43
0.0000000001
 12
1.0
 22
0.0
 32
0.0
 13
1.0
 23
0.0
 33
0.0
 40
0.0
 40
0.0
 40
0.0
 40
0.0
 40
1.0
 40
1.0
 40
1.0
 40
2.0
 40
2.0
 40
2.0
 40
3.0
 40
3.0
 40
3.0
 40
4.0
 40
4.0
 40
4.0
 40
4.0
 10
100.29292049687
 20
-120.2903430254829
 30
0.0
 10
100.29292049687
 20
-120.2355566366079
 30
0.0
 10
100.2481555304934
 20
-120.1904363588412
 30
0.0
 10
100.1930138327522
 20
-120.1904363588412
 30
0.0
 10
100.1379099452691
 20
-120.1904363588412
 30
0.0
 10
100.0931071686343
 20
-120.2355566366079
 30
0.0
 10
100.0931071686343
 20
-120.2903430254829
 30
0.0
 10
100.0931071686343
 20
-120.3450941365803
 30
0.0
 10
100.1379099452691
 20
-120.3902496921248
 30
0.0
 10
100.1930138327522
 20
-120.3902496921248
 30
0.0
 10
100.2481555304934
 20
-120.3902496921248
 30
0.0
 10
100.29292049687
 20
-120.3450941365803
 30
0.0
 10
100.29292049687
 20
-120.2903430254829
 30
0.0
  0
SPLINE
  5
62
330
41
100
AcDbEntity
  8
_U+30EC_U+30A4_U+30E4_U+30FC 1
 62
     7
420
 16777215
370
     9
100
AcDbSpline
210
0.0
220
0.0
230
1.0
 70
    11
 71
     3
 72
    17
 73
    13
 74
     0
 42
0.0000000001
 43
0.0000000001
 12
1.0
 22
0.0
 32
0.0
 13
1.0
 23
0.0
 33
0.0
 40
0.0
 40
0.0
 40
0.0
 40
0.0
 40
1.0
 40
1.0
 40
1.0
 40
2.0
 40
2.0
 40
2.0
 40
3.0
 40
3.0
 40
3.0
 40
4.0
 40
4.0
 40
4.0
 40
4.0
 10
75.20403585916299
 20
-122.726344135985
 30
0.0
 10
75.20403585916299
 20
-122.6712402471101
 30
0.0
 10
75.15923308252822
 20
-122.6264374693434
 30
0.0
 10
75.10412919504515
 20
-122.6264374693434
 30
0.0
 10
75.04934280755397
 20
-122.6264374693434
 30
0.0
 10
75.00454003091922
 20
-122.6712402471101
 30
0.0
 10
75.00454003091922
 20
-122.726344135985
 30
0.0
 10
75.00454003091922
 20
-122.7814833026381
 30
0.0
 10
75.04934280755397
 20
-122.8262508026267
 30
0.0
 10
75.10412919504515
 20
-122.8262508026267
 30
0.0
 10
75.15923308252822
 20
-122.8262508026267
 30
0.0
 10
75.20403585916299
 20
-122.7814833026381
 30
0.0
 10
75.20403585916299
 20
-122.726344135985
 30
0.0
  0
SPLINE
  5
63
330
41
100
AcDbEntity
  8
_U+30EC_U+30A4_U+30E4_U+30FC 1
 62
     7
420
 16777215
370
     9
100
AcDbSpline
210
0.0
220
0.0
230
1.0
 70
    11
 71
     3
 72
    17
 73
    13
 74
     0
 42
0.0000000001
 43
0.0000000001
 12
1.0
 22
0.0
 32
0.0
 13
1.0
 23
0.0
 33
0.0
 40
0.0
 40
0.0
 40
0.0
 40
0.0
 40
1.0
 40
1.0
 40
1.0
 40
2.0
 40
2.0
 40
2.0
 40
3.0
 40
3.0
 40
3.0
 40
4.0
 40
4.0
 40
4.0
 40
4.0
 10
75.20403585916299
 20
-132.7233255223745
 30
0.0
 10
75.20403585916299
 20
-132.6685744112773
 30
0.0
 10
75.15923308252822
 20
-132.6234188557329
 30
0.0
 10
75.10412919504515
 20
-132.6234188557329
 30
0.0
 10
75.04934280755397
 20
-132.6234188557329
 30
0.0
 10
75.00454003091922
 20
-132.6685744112773
 30
0.0
 10
75.00454003091922
 20
-132.7233255223745
 30
0.0
 10
75.00454003091922
 20
-132.7784646890276
 30
0.0
 10
75.04934280755397
 20
-132.8232321890162
 30
0.0
 10
75.10412919504515
 20
-132.8232321890162
 30
0.0
 10
75.15923308252822
 20
-132.8232321890162
 30
0.0
 10
75.20403585916299
 20
-132.7784646890276
 30
0.0
 10
75.20403585916299
 20
-132.7233255223745
 30
0.0
  0
POLYLINE
  5
64
330
41
100
AcDbEntity
  8
_U+30EC_U+30A4_U+30E4_U+30FC 1
 62
     7
420
 16777215
370
     9
100
AcDb2dPolyline
 66
     1
 10
0.0
 20
0.0
 30
0.0
  0
VERTEX
  5
65
330
64
100
AcDbEntity
  8
_U+30EC_U+30A4_U+30E4_U+30FC 1
 62
     7
420
 16777215
370
     9
100
AcDbVertex
100
AcDb2dVertex
 10
76.5641352689084
 20
-132.7233255223745
 30
0.0
  0
VERTEX
  5
66
330
64
100
AcDbEntity
  8
_U+30EC_U+30A4_U+30E4_U+30FC 1
 62
     7
420
 16777215
370
     9
100
AcDbVertex
100
AcDb2dVertex
 10
74.10400422056045
 20
-132.7233255223745
 30
0.0
  0
SEQEND
  5
67
330
64
100
AcDbEntity
  8
_U+30EC_U+30A4_U+30E4_U+30FC 1
 62
     7
420
 16777215
370
     9
  0
SPLINE
  5
68
330
41
100
AcDbEntity
  8
_U+30EC_U+30A4_U+30E4_U+30FC 1
 62
     7
420
 16777215
370
     9
100
AcDbSpline
210
0.0
220
0.0
230
1.0
 70
    11
 71
     3
 72
    17
 73
    13
 74
     0
 42
0.0000000001
 43
0.0000000001
 12
1.0
 22
0.0
 32
0.0
 13
1.0
 23
0.0
 33
0.0
 40
0.0
 40
0.0
 40
0.0
 40
0.0
 40
1.0
 40
1.0
 40
1.0
 40
2.0
 40
2.0
 40
2.0
 40
3.0
 40
3.0
 40
3.0
 40
4.0
 40
4.0
 40
4.0
 40
4.0
 10
75.13993613857608
 20
-132.7233255223745
 30
0.0
 10
75.13993613857608
 20
-132.7429752445921
 30
0.0
 10
75.12409641675796
 20
-132.75881496681
 30
0.0
 10
75.10412919504515
 20
-132.75881496681
 30
0.0
 10
75.08514975108491
 20
-132.75881496681
 30
0.0
 10
75.06895725149802
 20
-132.7429752445921
 30
0.0
 10
75.06895725149802
 20
-132.7233255223745
 30
0.0
 10
75.06895725149802
 20
-132.7033583001573
 30
0.0
 10
75.08514975108491
 20
-132.6881888557168
 30
0.0
 10
75.10412919504515
 20
-132.6881888557168
 30
0.0
 10
75.12409641675796
 20
-132.6881888557168
 30
0.0
 10
75.13993613857608
 20
-132.7033583001573
 30
0.0
 10
75.13993613857608
 20
-132.7233255223745
 30
0.0
  0
SPLINE
  5
69
330
41
100
AcDbEntity
  8
_U+30EC_U+30A4_U+30E4_U+30FC 1
 62
     7
420
 16777215
370
     9
100
AcDbSpline
210
0.0
220
0.0
230
1.0
 70
    11
 71
     3
 72
    17
 73
    13
 74
     0
 42
0.0000000001
 43
0.0000000001
 12
1.0
 22
0.0
 32
0.0
 13
1.0
 23
0.0
 33
0.0
 40
0.0
 40
0.0
 40
0.0
 40
0.0
 40
1.0
 40
1.0
 40
1.0
 40
2.0
 40
2.0
 40
2.0
 40
3.0
 40
3.0
 40
3.0
 40
4.0
 40
4.0
 40
4.0
 40
4.0
 10
75.20403585916299
 20
-130.2232246896661
 30
0.0
 10
75.20403585916299
 20
-130.1687910785692
 30
0.0
 10
75.15923308252822
 20
-130.1233180230245
 30
0.0
 10
75.10412919504515
 20
-130.1233180230245
 30
0.0
 10
75.04934280755397
 20
-130.1233180230245
 30
0.0
 10
75.00454003091922
 20
-130.1687910785692
 30
0.0
 10
75.00454003091922
 20
-130.2232246896661
 30
0.0
 10
75.00454003091922
 20
-130.2783638563192
 30
0.0
 10
75.04934280755397
 20
-130.3231313563084
 30
0.0
 10
75.10412919504515
 20
-130.3231313563084
 30
0.0
 10
75.15923308252822
 20
-130.3231313563084
 30
0.0
 10
75.20403585916299
 20
-130.2783638563192
 30
0.0
 10
75.20403585916299
 20
-130.2232246896661
 30
0.0
  0
POLYLINE
  5
6A
330
41
100
AcDbEntity
  8
_U+30EC_U+30A4_U+30E4_U+30FC 1
 62
     7
420
 16777215
370
     9
100
AcDb2dPolyline
 66
     1
 10
0.0
 20
0.0
 30
0.0
  0
VERTEX
  5
6B
330
6A
100
AcDbEntity
  8
_U+30EC_U+30A4_U+30E4_U+30FC 1
 62
     7
420
 16777215
370
     9
100
AcDbVertex
100
AcDb2dVertex
 10
76.5641352689084
 20
-130.2232246896661
 30
0.0
  0
VERTEX
  5
6C
330
6A
100
AcDbEntity
  8
_U+30EC_U+30A4_U+30E4_U+30FC 1
 62
     7
420
 16777215
370
     9
100
AcDbVertex
100
AcDb2dVertex
 10
74.10400422056045
 20
-130.2232246896661
 30
0.0
  0
SEQEND
  5
6D
330
6A
100
AcDbEntity
  8
_U+30EC_U+30A4_U+30E4_U+30FC 1
 62
     7
420
 16777215
370
     9
  0
SPLINE
  5
6E
330
41
100
AcDbEntity
  8
_U+30EC_U+30A4_U+30E4_U+30FC 1
 62
     7
420
 16777215
370
     9
100
AcDbSpline
210
0.0
220
0.0
230
1.0
 70
    11
 71
     3
 72
    17
 73
    13
 74
     0
 42
0.0000000001
 43
0.0000000001
 12
1.0
 22
0.0
 32
0.0
 13
1.0
 23
0.0
 33
0.0
 40
0.0
 40
0.0
 40
0.0
 40
0.0
 40
1.0
 40
1.0
 40
1.0
 40
2.0
 40
2.0
 40
2.0
 40
3.0
 40
3.0
 40
3.0
 40
4.0
 40
4.0
 40
4.0
 40
4.0
 10
75.13993613857608
 20
-130.2232246896661
 30
0.0
 10
75.13993613857608
 20
-130.2432271896615
 30
0.0
 10
75.12409641675796
 20
-130.25906691188
 30
0.0
 10
75.10412919504515
 20
-130.25906691188
 30
0.0
 10
75.08514975108491
 20
-130.25906691188
 30
0.0
 10
75.06895725149802
 20
-130.2432271896615
 30
0.0
 10
75.06895725149802
 20
-130.2232246896661
 30
0.0
 10
75.06895725149802
 20
-130.2032574674489
 30
0.0
 10
75.08514975108491
 20
-130.1880880230084
 30
0.0
 10
75.10412919504515
 20
-130.1880880230084
 30
0.0
 10
75.12409641675796
 20
-130.1880880230084
 30
0.0
 10
75.13993613857608
 20
-130.2032574674489
 30
0.0
 10
75.13993613857608
 20
-130.2232246896661
 30
0.0
  0
POLYLINE
  5
6F
330
41
100
AcDbEntity
  8
_U+30EC_U+30A4_U+30E4_U+30FC 1
 62
     7
420
 16777215
370
     9
100
AcDb2dPolyline
 66
     1
 10
0.0
 20
0.0
 30
0.0
  0
VERTEX
  5
70
330
6F
100
AcDbEntity
  8
_U+30EC_U+30A4_U+30E4_U+30FC 1
 62
     7
420
 16777215
370
     9
100
AcDbVertex
100
AcDb2dVertex
 10
75.10412919504515
 20
-136.2231985770554
 30
0.0
  0
VERTEX
  5
71
330
6F
100
AcDbEntity
  8
_U+30EC_U+30A4_U+30E4_U+30FC 1
 62
     7
420
 16777215
370
     9
100
AcDbVertex
100
AcDb2dVertex
 10
75.10412919504515
 20
-119.2261535813045
 30
0.0
  0
SEQEND
  5
72
330
6F
100
AcDbEntity
  8
_U+30EC_U+30A4_U+30E4_U+30FC 1
 62
     7
420
 16777215
370
     9
  0
POLYLINE
  5
73
330
41
100
AcDbEntity
  8
_U+30EC_U+30A4_U+30E4_U+30FC 1
 62
     7
420
 16777215
370
     9
100
AcDb2dPolyline
 66
     1
 10
0.0
 20
0.0
 30
0.0
  0
VERTEX
  5
74
330
73
100
AcDbEntity
  8
_U+30EC_U+30A4_U+30E4_U+30FC 1
 62
     7
420
 16777215
370
     9
100
AcDbVertex
100
AcDb2dVertex
 10
82.49281261765523
 20
-122.726344135985
 30
0.0
  0
VERTEX
  5
75
330
73
100
AcDbEntity
  8
_U+30EC_U+30A4_U+30E4_U+30FC 1
 62
     7
420
 16777215
370
     9
100
AcDbVertex
100
AcDb2dVertex
 10
74.10400422056045
 20
-122.726344135985
 30
0.0
  0
SEQEND
  5
76
330
73
100
AcDbEntity
  8
_U+30EC_U+30A4_U+30E4_U+30FC 1
 62
     7
420
 16777215
370
     9
  0
INSERT
  5
78
330
41
100
AcDbEntity
  8
_U+30EC_U+30A4_U+30E4_U+30FC 1
100
AcDbBlockReference
  2
block 4
 10
0.0
 20
0.0
 30
0.0
  0
INSERT
  5
89
330
41
100
AcDbEntity
  8
_U+30EC_U+30A4_U+30E4_U+30FC 1
100
AcDbBlockReference
  2
block 5
 10
0.0
 20
0.0
 30
0.0
  0
INSERT
  5
99
330
41
100
AcDbEntity
  8
_U+30EC_U+30A4_U+30E4_U+30FC 1
100
AcDbBlockReference
  2
block 6
 10
0.0
 20
0.0
 30
0.0
  0
SPLINE
  5
A8
330
41
100
AcDbEntity
  8
_U+30EC_U+30A4_U+30E4_U+30FC 1
 62
     7
420
 16777215
370
     9
100
AcDbSpline
210
0.0
220
0.0
230
1.0
 70
    11
 71
     3
 72
    17
 73
    13
 74
     0
 42
0.0000000001
 43
0.0000000001
 12
1.0
 22
0.0
 32
0.0
 13
1.0
 23
0.0
 33
0.0
 40
0.0
 40
0.0
 40
0.0
 40
0.0
 40
1.0
 40
1.0
 40
1.0
 40
2.0
 40
2.0
 40
2.0
 40
3.0
 40
3.0
 40
3.0
 40
4.0
 40
4.0
 40
4.0
 40
4.0
 10
75.13993613857608
 20
-122.726344135985
 30
0.0
 10
75.13993613857608
 20
-122.74634663598
 30
0.0
 10
75.12409641675796
 20
-122.7615160804206
 30
0.0
 10
75.10412919504515
 20
-122.7615160804206
 30
0.0
 10
75.08514975108491
 20
-122.7615160804206
 30
0.0
 10
75.06895725149802
 20
-122.74634663598
 30
0.0
 10
75.06895725149802
 20
-122.726344135985
 30
0.0
 10
75.06895725149802
 20
-122.7070824693234
 30
0.0
 10
75.08514975108491
 20
-122.6912074693273
 30
0.0
 10
75.10412919504515
 20
-122.6912074693273
 30
0.0
 10
75.12409641675796
 20
-122.6912074693273
 30
0.0
 10
75.13993613857608
 20
-122.7070824693234
 30
0.0
 10
75.13993613857608
 20
-122.726344135985
 30
0.0
  0
SPLINE
  5
A9
330
41
100
AcDbEntity
  8
_U+30EC_U+30A4_U+30E4_U+30FC 1
 62
     7
420
 16777215
370
     9
100
AcDbSpline
210
0.0
220
0.0
230
1.0
 70
    11
 71
     3
 72
    17
 73
    13
 74
     0
 42
0.0000000001
 43
0.0000000001
 12
1.0
 22
0.0
 32
0.0
 13
1.0
 23
0.0
 33
0.0
 40
0.0
 40
0.0
 40
0.0
 40
0.0
 40
1.0
 40
1.0
 40
1.0
 40
2.0
 40
2.0
 40
2.0
 40
3.0
 40
3.0
 40
3.0
 40
4.0
 40
4.0
 40
4.0
 40
4.0
 10
75.20403585916299
 20
-124.2263552467213
 30
0.0
 10
75.20403585916299
 20
-124.1712160800682
 30
0.0
 10
75.15923308252822
 20
-124.1264485800796
 30
0.0
 10
75.10412919504515
 20
-124.1264485800796
 30
0.0
 10
75.04934280755397
 20
-124.1264485800796
 30
0.0
 10
75.00454003091922
 20
-124.1712160800682
 30
0.0
 10
75.00454003091922
 20
-124.2263552467213
 30
0.0
 10
75.00454003091922
 20
-124.2814591355962
 30
0.0
 10
75.04934280755397
 20
-124.3262619133629
 30
0.0
 10
75.10412919504515
 20
-124.3262619133629
 30
0.0
 10
75.15923308252822
 20
-124.3262619133629
 30
0.0
 10
75.20403585916299
 20
-124.2814591355962
 30
0.0
 10
75.20403585916299
 20
-124.2263552467213
 30
0.0
  0
POLYLINE
  5
AA
330
41
100
AcDbEntity
  8
_U+30EC_U+30A4_U+30E4_U+30FC 1
 62
     7
420
 16777215
370
     9
100
AcDb2dPolyline
 66
     1
 10
0.0
 20
0.0
 30
0.0
  0
VERTEX
  5
AB
330
AA
100
AcDbEntity
  8
_U+30EC_U+30A4_U+30E4_U+30FC 1
 62
     7
420
 16777215
370
     9
100
AcDbVertex
100
AcDb2dVertex
 10
83.49293759213992
 20
-124.2263552467213
 30
0.0
  0
VERTEX
  5
AC
330
AA
100
AcDbEntity
  8
_U+30EC_U+30A4_U+30E4_U+30FC 1
 62
     7
420
 16777215
370
     9
100
AcDbVertex
100
AcDb2dVertex
 10
74.10400422056045
 20
-124.2263552467213
 30
0.0
  0
SEQEND
  5
AD
330
AA
100
AcDbEntity
  8
_U+30EC_U+30A4_U+30E4_U+30FC 1
 62
     7
420
 16777215
370
     9
  0
SPLINE
  5
AE
330
41
100
AcDbEntity
  8
_U+30EC_U+30A4_U+30E4_U+30FC 1
 62
     7
420
 16777215
370
     9
100
AcDbSpline
210
0.0
220
0.0
230
1.0
 70
    11
 71
     3
 72
    17
 73
    13
 74
     0
 42
0.0000000001
 43
0.0000000001
 12
1.0
 22
0.0
 32
0.0
 13
1.0
 23
0.0
 33
0.0
 40
0.0
 40
0.0
 40
0.0
 40
0.0
 40
1.0
 40
1.0
 40
1.0
 40
2.0
 40
2.0
 40
2.0
 40
3.0
 40
3.0
 40
3.0
 40
4.0
 40
4.0
 40
4.0
 40
4.0
 10
75.13993613857608
 20
-124.2263552467213
 30
0.0
 10
75.13993613857608
 20
-124.2463224689385
 30
0.0
 10
75.12409641675796
 20
-124.261491913379
 30
0.0
 10
75.10412919504515
 20
-124.261491913379
 30
0.0
 10
75.08514975108491
 20
-124.261491913379
 30
0.0
 10
75.06895725149802
 20
-124.2463224689385
 30
0.0
 10
75.06895725149802
 20
-124.2263552467213
 30
0.0
 10
75.06895725149802
 20
-124.2070583022814
 30
0.0
 10
75.08514975108491
 20
-124.1912185800632
 30
0.0
 10
75.10412919504515
 20
-124.1912185800632
 30
0.0
 10
75.12409641675796
 20
-124.1912185800632
 30
0.0
 10
75.13993613857608
 20
-124.2070583022814
 30
0.0
 10
75.13993613857608
 20
-124.2263552467213
 30
0.0
  0
POLYLINE
  5
AF
330
41
100
AcDbEntity
  8
_U+30EC_U+30A4_U+30E4_U+30FC 1
 62
     7
420
 16777215
370
     9
100
AcDb2dPolyline
 66
     1
 10
0.0
 20
0.0
 30
0.0
  0
VERTEX
  5
B0
330
AF
100
AcDbEntity
  8
_U+30EC_U+30A4_U+30E4_U+30FC 1
 62
     7
420
 16777215
370
     9
100
AcDbVertex
100
AcDb2dVertex
 10
84.99256060943691
 20
-120.2903430254829
 30
0.0
  0
VERTEX
  5
B1
330
AF
100
AcDbEntity
  8
_U+30EC_U+30A4_U+30E4_U+30FC 1
 62
     7
420
 16777215
370
     9
100
AcDbVertex
100
AcDb2dVertex
 10
100.1926610549834
 20
-120.2903430254829
 30
0.0
  0
SEQEND
  5
B2
330
AF
100
AcDbEntity
  8
_U+30EC_U+30A4_U+30E4_U+30FC 1
 62
     7
420
 16777215
370
     9
  0
POLYLINE
  5
B3
330
41
100
AcDbEntity
  8
_U+30EC_U+30A4_U+30E4_U+30FC 1
 62
     7
420
 16777215
370
     9
100
AcDb2dPolyline
 66
     1
 10
0.0
 20
0.0
 30
0.0
  0
VERTEX
  5
B4
330
B3
100
AcDbEntity
  8
_U+30EC_U+30A4_U+30E4_U+30FC 1
 62
     7
420
 16777215
370
     9
100
AcDbVertex
100
AcDb2dVertex
 10
84.99256060943691
 20
-121.750349136229
 30
0.0
  0
VERTEX
  5
B5
330
B3
100
AcDbEntity
  8
_U+30EC_U+30A4_U+30E4_U+30FC 1
 62
     7
420
 16777215
370
     9
100
AcDbVertex
100
AcDb2dVertex
 10
84.99256060943691
 20
-119.2902180257329
 30
0.0
  0
SEQEND
  5
B6
330
B3
100
AcDbEntity
  8
_U+30EC_U+30A4_U+30E4_U+30FC 1
 62
     7
420
 16777215
370
     9
  0
POLYLINE
  5
B7
330
41
100
AcDbEntity
  8
_U+30EC_U+30A4_U+30E4_U+30FC 1
 62
     7
420
 16777215
370
     9
100
AcDb2dPolyline
 66
     1
 10
0.0
 20
0.0
 30
0.0
  0
VERTEX
  5
B8
330
B7
100
AcDbEntity
  8
_U+30EC_U+30A4_U+30E4_U+30FC 1
 62
     7
420
 16777215
370
     9
100
AcDbVertex
100
AcDb2dVertex
 10
100.1930138327522
 20
-121.750349136229
 30
0.0
  0
VERTEX
  5
B9
330
B7
100
AcDbEntity
  8
_U+30EC_U+30A4_U+30E4_U+30FC 1
 62
     7
420
 16777215
370
     9
100
AcDbVertex
100
AcDb2dVertex
 10
100.1930138327522
 20
-119.2902180257329
 30
0.0
  0
SEQEND
  5
BA
330
B7
100
AcDbEntity
  8
_U+30EC_U+30A4_U+30E4_U+30FC 1
 62
     7
420
 16777215
370
     9
  0
INSERT
  5
BC
330
41
100
AcDbEntity
  8
_U+30EC_U+30A4_U+30E4_U+30FC 1
100
AcDbBlockReference
  2
block 7
 10
0.0
 20
0.0
 30
0.0
  0
SPLINE
  5
CD
330
41
100
AcDbEntity
  8
_U+30EC_U+30A4_U+30E4_U+30FC 1
 62
     7
420
 16777215
370
     9
100
AcDbSpline
210
0.0
220
0.0
230
1.0
 70
    11
 71
     3
 72
    17
 73
    13
 74
     0
 42
0.0000000001
 43
0.0000000001
 12
1.0
 22
0.0
 32
0.0
 13
1.0
 23
0.0
 33
0.0
 40
0.0
 40
0.0
 40
0.0
 40
0.0
 40
1.0
 40
1.0
 40
1.0
 40
2.0
 40
2.0
 40
2.0
 40
3.0
 40
3.0
 40
3.0
 40
4.0
 40
4.0
 40
4.0
 40
4.0
 10
100.2281504985224
 20
-120.2903430254829
 30
0.0
 10
100.2281504985224
 20
-120.3099574699226
 30
0.0
 10
100.2130163322418
 20
-120.3258324699187
 30
0.0
 10
100.1930138327522
 20
-120.3258324699187
 30
0.0
 10
100.1737194194011
 20
-120.3258324699187
 30
0.0
 10
100.1578771669819
 20
-120.3099574699226
 30
0.0
 10
100.1578771669819
 20
-120.2903430254829
 30
0.0
 10
100.1578771669819
 20
-120.2706933032656
 30
0.0
 10
100.1737194194011
 20
-120.2548535810474
 30
0.0
 10
100.1930138327522
 20
-120.2548535810474
 30
0.0
 10
100.2130163322418
 20
-120.2548535810474
 30
0.0
 10
100.2281504985224
 20
-120.2706933032656
 30
0.0
 10
100.2281504985224
 20
-120.2903430254829
 30
0.0
  0
SPLINE
  5
CE
330
41
100
AcDbEntity
  8
_U+30EC_U+30A4_U+30E4_U+30FC 1
 62
     7
420
 16777215
370
     9
100
AcDbSpline
210
0.0
220
0.0
230
1.0
 70
    11
 71
     3
 72
    17
 73
    13
 74
     0
 42
0.0000000001
 43
0.0000000001
 12
1.0
 22
0.0
 32
0.0
 13
1.0
 23
0.0
 33
0.0
 40
0.0
 40
0.0
 40
0.0
 40
0.0
 40
1.0
 40
1.0
 40
1.0
 40
2.0
 40
2.0
 40
2.0
 40
3.0
 40
3.0
 40
3.0
 40
4.0
 40
4.0
 40
4.0
 40
4.0
 10
78.79312632315322
 20
-135.6130694105415
 30
0.0
 10
78.79312632315322
 20
-135.5583182994437
 30
0.0
 10
78.749029102056
 20
-135.5131627438992
 30
0.0
 10
78.69321965903538
 20
-135.5131627438992
 30
0.0
 10
78.63808049377543
 20
-135.5131627438992
 30
0.0
 10
78.59331299491754
 20
-135.5583182994437
 30
0.0
 10
78.59331299491754
 20
-135.6130694105415
 30
0.0
 10
78.59331299491754
 20
-135.6682085771939
 30
0.0
 10
78.63808049377543
 20
-135.7129760771831
 30
0.0
 10
78.69321965903538
 20
-135.7129760771831
 30
0.0
 10
78.749029102056
 20
-135.7129760771831
 30
0.0
 10
78.79312632315322
 20
-135.6682085771939
 30
0.0
 10
78.79312632315322
 20
-135.6130694105415
 30
0.0
  0
SPLINE
  5
CF
330
41
100
AcDbEntity
  8
_U+30EC_U+30A4_U+30E4_U+30FC 1
 62
     7
420
 16777215
370
     9
100
AcDbSpline
210
0.0
220
0.0
230
1.0
 70
    11
 71
     3
 72
    17
 73
    13
 74
     0
 42
0.0000000001
 43
0.0000000001
 12
1.0
 22
0.0
 32
0.0
 13
1.0
 23
0.0
 33
0.0
 40
0.0
 40
0.0
 40
0.0
 40
0.0
 40
1.0
 40
1.0
 40
1.0
 40
2.0
 40
2.0
 40
2.0
 40
3.0
 40
3.0
 40
3.0
 40
4.0
 40
4.0
 40
4.0
 40
4.0
 10
87.79308692687842
 20
-135.6130694105415
 30
0.0
 10
87.79308692687842
 20
-135.5583182994437
 30
0.0
 10
87.74831942802054
 20
-135.5131627438992
 30
0.0
 10
87.69318026276059
 20
-135.5131627438992
 30
0.0
 10
87.6380763752775
 20
-135.5131627438992
 30
0.0
 10
87.59327359864275
 20
-135.5583182994437
 30
0.0
 10
87.59327359864275
 20
-135.6130694105415
 30
0.0
 10
87.59327359864275
 20
-135.6682085771939
 30
0.0
 10
87.6380763752775
 20
-135.7129760771831
 30
0.0
 10
87.69318026276059
 20
-135.7129760771831
 30
0.0
 10
87.74831942802054
 20
-135.7129760771831
 30
0.0
 10
87.79308692687842
 20
-135.6682085771939
 30
0.0
 10
87.79308692687842
 20
-135.6130694105415
 30
0.0
  0
POLYLINE
  5
D0
330
41
100
AcDbEntity
  8
_U+30EC_U+30A4_U+30E4_U+30FC 1
 62
     7
420
 16777215
370
     9
100
AcDb2dPolyline
 66
     1
 10
0.0
 20
0.0
 30
0.0
  0
VERTEX
  5
D1
330
D0
100
AcDbEntity
  8
_U+30EC_U+30A4_U+30E4_U+30FC 1
 62
     7
420
 16777215
370
     9
100
AcDbVertex
100
AcDb2dVertex
 10
78.69321965903538
 20
-135.6130694105415
 30
0.0
  0
VERTEX
  5
D2
330
D0
100
AcDbEntity
  8
_U+30EC_U+30A4_U+30E4_U+30FC 1
 62
     7
420
 16777215
370
     9
100
AcDbVertex
100
AcDb2dVertex
 10
87.69282748499181
 20
-135.6130694105415
 30
0.0
  0
SEQEND
  5
D3
330
D0
100
AcDbEntity
  8
_U+30EC_U+30A4_U+30E4_U+30FC 1
 62
     7
420
 16777215
370
     9
  0
POLYLINE
  5
D4
330
41
100
AcDbEntity
  8
_U+30EC_U+30A4_U+30E4_U+30FC 1
 62
     7
420
 16777215
370
     9
100
AcDb2dPolyline
 66
     1
 10
0.0
 20
0.0
 30
0.0
  0
VERTEX
  5
D5
330
D4
100
AcDbEntity
  8
_U+30EC_U+30A4_U+30E4_U+30FC 1
 62
     7
420
 16777215
370
     9
100
AcDbVertex
100
AcDb2dVertex
 10
78.69321965903538
 20
-137.0731107990652
 30
0.0
  0
VERTEX
  5
D6
330
D4
100
AcDbEntity
  8
_U+30EC_U+30A4_U+30E4_U+30FC 1
 62
     7
420
 16777215
370
     9
100
AcDbVertex
100
AcDb2dVertex
 10
78.69321965903538
 20
-134.6133324663465
 30
0.0
  0
SEQEND
  5
D7
330
D4
100
AcDbEntity
  8
_U+30EC_U+30A4_U+30E4_U+30FC 1
 62
     7
420
 16777215
370
     9
  0
POLYLINE
  5
D8
330
41
100
AcDbEntity
  8
_U+30EC_U+30A4_U+30E4_U+30FC 1
 62
     7
420
 16777215
370
     9
100
AcDb2dPolyline
 66
     1
 10
0.0
 20
0.0
 30
0.0
  0
VERTEX
  5
D9
330
D8
100
AcDbEntity
  8
_U+30EC_U+30A4_U+30E4_U+30FC 1
 62
     7
420
 16777215
370
     9
100
AcDbVertex
100
AcDb2dVertex
 10
87.69318026276059
 20
-137.0731107990652
 30
0.0
  0
VERTEX
  5
DA
330
D8
100
AcDbEntity
  8
_U+30EC_U+30A4_U+30E4_U+30FC 1
 62
     7
420
 16777215
370
     9
100
AcDbVertex
100
AcDb2dVertex
 10
87.69318026276059
 20
-134.6133324663465
 30
0.0
  0
SEQEND
  5
DB
330
D8
100
AcDbEntity
  8
_U+30EC_U+30A4_U+30E4_U+30FC 1
 62
     7
420
 16777215
370
     9
  0
INSERT
  5
DD
330
41
100
AcDbEntity
  8
_U+30EC_U+30A4_U+30E4_U+30FC 1
100
AcDbBlockReference
  2
block 8
 10
0.0
 20
0.0
 30
0.0
  0
SPLINE
  5
E3
330
41
100
AcDbEntity
  8
_U+30EC_U+30A4_U+30E4_U+30FC 1
 62
     7
420
 16777215
370
     9
100
AcDbSpline
210
0.0
220
0.0
230
1.0
 70
    11
 71
     3
 72
    17
 73
    13
 74
     0
 42
0.0000000001
 43
0.0000000001
 12
1.0
 22
0.0
 32
0.0
 13
1.0
 23
0.0
 33
0.0
 40
0.0
 40
0.0
 40
0.0
 40
0.0
 40
1.0
 40
1.0
 40
1.0
 40
2.0
 40
2.0
 40
2.0
 40
3.0
 40
3.0
 40
3.0
 40
4.0
 40
4.0
 40
4.0
 40
4.0
 10
87.72831692853084
 20
-135.6130694105415
 30
0.0
 10
87.72831692853084
 20
-135.6327191327584
 30
0.0
 10
87.7131474844734
 20
-135.648558854977
 30
0.0
 10
87.69318026276059
 20
-135.648558854977
 30
0.0
 10
87.67388331880845
 20
-135.648558854977
 30
0.0
 10
87.65804359699032
 20
-135.6327191327584
 30
0.0
 10
87.65804359699032
 20
-135.6130694105415
 30
0.0
 10
87.65804359699032
 20
-135.5938077438792
 30
0.0
 10
87.67388331880845
 20
-135.5779327438831
 30
0.0
 10
87.69318026276059
 20
-135.5779327438831
 30
0.0
 10
87.7131474844734
 20
-135.5779327438831
 30
0.0
 10
87.72831692853084
 20
-135.5938077438792
 30
0.0
 10
87.72831692853084
 20
-135.6130694105415
 30
0.0
  0
SPLINE
  5
E4
330
41
100
AcDbEntity
  8
_U+30EC_U+30A4_U+30E4_U+30FC 1
 62
     7
420
 16777215
370
     9
100
AcDbSpline
210
0.0
220
0.0
230
1.0
 70
    11
 71
     3
 72
    17
 73
    13
 74
     0
 42
0.0000000001
 43
0.0000000001
 12
1.0
 22
0.0
 32
0.0
 13
1.0
 23
0.0
 33
0.0
 40
0.0
 40
0.0
 40
0.0
 40
0.0
 40
1.0
 40
1.0
 40
1.0
 40
2.0
 40
2.0
 40
2.0
 40
3.0
 40
3.0
 40
3.0
 40
4.0
 40
4.0
 40
4.0
 40
4.0
 10
85.09282220094889
 20
-128.3370277456935
 30
0.0
 10
85.09282220094889
 20
-128.282594134596
 30
0.0
 10
85.04805255246563
 20
-128.2371210790519
 30
0.0
 10
84.99291338720569
 20
-128.2371210790519
 30
0.0
 10
84.93812699971451
 20
-128.2371210790519
 30
0.0
 10
84.89335950085663
 20
-128.282594134596
 30
0.0
 10
84.89335950085663
 20
-128.3370277456935
 30
0.0
 10
84.89335950085663
 20
-128.3921669123463
 30
0.0
 10
84.93812699971451
 20
-128.4369344123351
 30
0.0
 10
84.99291338720569
 20
-128.4369344123351
 30
0.0
 10
85.04805255246563
 20
-128.4369344123351
 30
0.0
 10
85.09282220094889
 20
-128.3921669123463
 30
0.0
 10
85.09282220094889
 20
-128.3370277456935
 30
0.0
  0
POLYLINE
  5
E5
330
41
100
AcDbEntity
  8
_U+30EC_U+30A4_U+30E4_U+30FC 1
 62
     7
420
 16777215
370
     9
100
AcDb2dPolyline
 66
     1
 10
0.0
 20
0.0
 30
0.0
  0
VERTEX
  5
E6
330
E5
100
AcDbEntity
  8
_U+30EC_U+30A4_U+30E4_U+30FC 1
 62
     7
420
 16777215
370
     9
100
AcDbVertex
100
AcDb2dVertex
 10
84.99291338720569
 20
-119.575121358995
 30
0.0
  0
VERTEX
  5
E7
330
E5
100
AcDbEntity
  8
_U+30EC_U+30A4_U+30E4_U+30FC 1
 62
     7
420
 16777215
370
     9
100
AcDbVertex
100
AcDb2dVertex
 10
84.99291338720569
 20
-121.5333202473943
 30
0.0
  0
SEQEND
  5
E8
330
E5
100
AcDbEntity
  8
_U+30EC_U+30A4_U+30E4_U+30FC 1
 62
     7
420
 16777215
370
     9
  0
SPLINE
  5
E9
330
41
100
AcDbEntity
  8
_U+30EC_U+30A4_U+30E4_U+30FC 1
 62
     7
420
 16777215
370
     9
100
AcDbSpline
210
0.0
220
0.0
230
1.0
 70
    11
 71
     3
 72
    17
 73
    13
 74
     0
 42
0.0000000001
 43
0.0000000001
 12
1.0
 22
0.0
 32
0.0
 13
1.0
 23
0.0
 33
0.0
 40
0.0
 40
0.0
 40
0.0
 40
0.0
 40
1.0
 40
1.0
 40
1.0
 40
2.0
 40
2.0
 40
2.0
 40
3.0
 40
3.0
 40
3.0
 40
4.0
 40
4.0
 40
4.0
 40
4.0
 10
90.09439742372265
 20
-128.3370277456935
 30
0.0
 10
90.09439742372265
 20
-128.282594134596
 30
0.0
 10
90.04962992486477
 20
-128.2371210790519
 30
0.0
 10
89.99449075960482
 20
-128.2371210790519
 30
0.0
 10
89.93973964989053
 20
-128.2371210790519
 30
0.0
 10
89.89493687325576
 20
-128.282594134596
 30
0.0
 10
89.89493687325576
 20
-128.3370277456935
 30
0.0
 10
89.89493687325576
 20
-128.3921669123463
 30
0.0
 10
89.93973964989053
 20
-128.4369344123351
 30
0.0
 10
89.99449075960482
 20
-128.4369344123351
 30
0.0
 10
90.04962992486477
 20
-128.4369344123351
 30
0.0
 10
90.09439742372265
 20
-128.3921669123463
 30
0.0
 10
90.09439742372265
 20
-128.3370277456935
 30
0.0
  0
POLYLINE
  5
EA
330
41
100
AcDbEntity
  8
_U+30EC_U+30A4_U+30E4_U+30FC 1
 62
     7
420
 16777215
370
     9
100
AcDb2dPolyline
 66
     1
 10
0.0
 20
0.0
 30
0.0
  0
VERTEX
  5
EB
330
EA
100
AcDbEntity
  8
_U+30EC_U+30A4_U+30E4_U+30FC 1
 62
     7
420
 16777215
370
     9
100
AcDbVertex
100
AcDb2dVertex
 10
84.99291338720569
 20
-125.213039413141
 30
0.0
  0
VERTEX
  5
EC
330
EA
100
AcDbEntity
  8
_U+30EC_U+30A4_U+30E4_U+30FC 1
 62
     7
420
 16777215
370
     9
100
AcDbVertex
100
AcDb2dVertex
 10
84.99291338720569
 20
-129.3375055232213
 30
0.0
  0
SEQEND
  5
ED
330
EA
100
AcDbEntity
  8
_U+30EC_U+30A4_U+30E4_U+30FC 1
 62
     7
420
 16777215
370
     9
  0
POLYLINE
  5
EE
330
41
100
AcDbEntity
  8
_U+30EC_U+30A4_U+30E4_U+30FC 1
 62
     7
420
 16777215
370
     9
100
AcDb2dPolyline
 66
     1
 10
0.0
 20
0.0
 30
0.0
  0
VERTEX
  5
EF
330
EE
100
AcDbEntity
  8
_U+30EC_U+30A4_U+30E4_U+30FC 1
 62
     7
420
 16777215
370
     9
100
AcDbVertex
100
AcDb2dVertex
 10
84.99291338720569
 20
-128.3370277456935
 30
0.0
  0
VERTEX
  5
F0
330
EE
100
AcDbEntity
  8
_U+30EC_U+30A4_U+30E4_U+30FC 1
 62
     7
420
 16777215
370
     9
100
AcDbVertex
100
AcDb2dVertex
 10
89.99311492630659
 20
-128.3370277456935
 30
0.0
  0
SEQEND
  5
F1
330
EE
100
AcDbEntity
  8
_U+30EC_U+30A4_U+30E4_U+30FC 1
 62
     7
420
 16777215
370
     9
  0
SPLINE
  5
F2
330
41
100
AcDbEntity
  8
_U+30EC_U+30A4_U+30E4_U+30FC 1
 62
     7
420
 16777215
370
     9
100
AcDbSpline
210
0.0
220
0.0
230
1.0
 70
    11
 71
     3
 72
    17
 73
    13
 74
     0
 42
0.0000000001
 43
0.0000000001
 12
1.0
 22
0.0
 32
0.0
 13
1.0
 23
0.0
 33
0.0
 40
0.0
 40
0.0
 40
0.0
 40
0.0
 40
1.0
 40
1.0
 40
1.0
 40
2.0
 40
2.0
 40
2.0
 40
3.0
 40
3.0
 40
3.0
 40
4.0
 40
4.0
 40
4.0
 40
4.0
 10
84.560196176023
 20
-130.2232246896661
 30
0.0
 10
84.560196176023
 20
-130.1687910785692
 30
0.0
 10
84.51542867716512
 20
-130.1233180230245
 30
0.0
 10
84.46029164555158
 20
-130.1233180230245
 30
0.0
 10
84.40553840219087
 20
-130.1233180230245
 30
0.0
 10
84.3607356255561
 20
-130.1687910785692
 30
0.0
 10
84.3607356255561
 20
-130.2232246896661
 30
0.0
 10
84.3607356255561
 20
-130.2783638563192
 30
0.0
 10
84.40553840219087
 20
-130.3231313563084
 30
0.0
 10
84.46029164555158
 20
-130.3231313563084
 30
0.0
 10
84.51542867716512
 20
-130.3231313563084
 30
0.0
 10
84.560196176023
 20
-130.2783638563192
 30
0.0
 10
84.560196176023
 20
-130.2232246896661
 30
0.0
  0
SPLINE
  5
F3
330
41
100
AcDbEntity
  8
_U+30EC_U+30A4_U+30E4_U+30FC 1
 62
     7
420
 16777215
370
     9
100
AcDbSpline
210
0.0
220
0.0
230
1.0
 70
    11
 71
     3
 72
    17
 73
    13
 74
     0
 42
0.0000000001
 43
0.0000000001
 12
1.0
 22
0.0
 32
0.0
 13
1.0
 23
0.0
 33
0.0
 40
0.0
 40
0.0
 40
0.0
 40
0.0
 40
1.0
 40
1.0
 40
1.0
 40
2.0
 40
2.0
 40
2.0
 40
3.0
 40
3.0
 40
3.0
 40
4.0
 40
4.0
 40
4.0
 40
4.0
 10
84.560196176023
 20
-131.7232358004024
 30
0.0
 10
84.560196176023
 20
-131.6688021893048
 30
0.0
 10
84.51542867716512
 20
-131.6233291337607
 30
0.0
 10
84.46029164555158
 20
-131.6233291337607
 30
0.0
 10
84.40553840219087
 20
-131.6233291337607
 30
0.0
 10
84.3607356255561
 20
-131.6688021893048
 30
0.0
 10
84.3607356255561
 20
-131.7232358004024
 30
0.0
 10
84.3607356255561
 20
-131.7783396892779
 30
0.0
 10
84.40553840219087
 20
-131.823142467044
 30
0.0
 10
84.46029164555158
 20
-131.823142467044
 30
0.0
 10
84.51542867716512
 20
-131.823142467044
 30
0.0
 10
84.560196176023
 20
-131.7783396892779
 30
0.0
 10
84.560196176023
 20
-131.7232358004024
 30
0.0
  0
POLYLINE
  5
F4
330
41
100
AcDbEntity
  8
_U+30EC_U+30A4_U+30E4_U+30FC 1
 62
     7
420
 16777215
370
     9
100
AcDb2dPolyline
 66
     1
 10
0.0
 20
0.0
 30
0.0
  0
VERTEX
  5
F5
330
F4
100
AcDbEntity
  8
_U+30EC_U+30A4_U+30E4_U+30FC 1
 62
     7
420
 16777215
370
     9
100
AcDbVertex
100
AcDb2dVertex
 10
84.46029164555158
 20
-130.2232246896661
 30
0.0
  0
VERTEX
  5
F6
330
F4
100
AcDbEntity
  8
_U+30EC_U+30A4_U+30E4_U+30FC 1
 62
     7
420
 16777215
370
     9
100
AcDbVertex
100
AcDb2dVertex
 10
84.46029164555158
 20
-131.7232358004024
 30
0.0
  0
SEQEND
  5
F7
330
F4
100
AcDbEntity
  8
_U+30EC_U+30A4_U+30E4_U+30FC 1
 62
     7
420
 16777215
370
     9
  0
POLYLINE
  5
F8
330
41
100
AcDbEntity
  8
_U+30EC_U+30A4_U+30E4_U+30FC 1
 62
     7
420
 16777215
370
     9
100
AcDb2dPolyline
 66
     1
 10
0.0
 20
0.0
 30
0.0
  0
VERTEX
  5
F9
330
F8
100
AcDbEntity
  8
_U+30EC_U+30A4_U+30E4_U+30FC 1
 62
     7
420
 16777215
370
     9
100
AcDbVertex
100
AcDb2dVertex
 10
84.46029164555158
 20
-130.2232246896661
 30
0.0
  0
VERTEX
  5
FA
330
F8
100
AcDbEntity
  8
_U+30EC_U+30A4_U+30E4_U+30FC 1
 62
     7
420
 16777215
370
     9
100
AcDbVertex
100
AcDb2dVertex
 10
86.6930552882759
 20
-130.2232246896661
 30
0.0
  0
SEQEND
  5
FB
330
F8
100
AcDbEntity
  8
_U+30EC_U+30A4_U+30E4_U+30FC 1
 62
     7
420
 16777215
370
     9
  0
INSERT
  5
FD
330
41
100
AcDbEntity
  8
_U+30EC_U+30A4_U+30E4_U+30FC 1
100
AcDbBlockReference
  2
block 9
 10
0.0
 20
0.0
 30
0.0
  0
INSERT
  5
103
330
41
100
AcDbEntity
  8
_U+30EC_U+30A4_U+30E4_U+30FC 1
100
AcDbBlockReference
  2
block 10
 10
0.0
 20
0.0
 30
0.0
  0
SPLINE
  5
112
330
41
100
AcDbEntity
  8
_U+30EC_U+30A4_U+30E4_U+30FC 1
 62
     7
420
 16777215
370
     9
100
AcDbSpline
210
0.0
220
0.0
230
1.0
 70
    11
 71
     3
 72
    17
 73
    13
 74
     0
 42
0.0000000001
 43
0.0000000001
 12
1.0
 22
0.0
 32
0.0
 13
1.0
 23
0.0
 33
0.0
 40
0.0
 40
0.0
 40
0.0
 40
0.0
 40
1.0
 40
1.0
 40
1.0
 40
2.0
 40
2.0
 40
2.0
 40
3.0
 40
3.0
 40
3.0
 40
4.0
 40
4.0
 40
4.0
 40
4.0
 10
103.5978131903329
 20
-132.7233255223745
 30
0.0
 10
103.5978131903329
 20
-132.6682216334996
 30
0.0
 10
103.5530104136982
 20
-132.6234188557329
 30
0.0
 10
103.4979065262151
 20
-132.6234188557329
 30
0.0
 10
103.4427673609551
 20
-132.6234188557329
 30
0.0
 10
103.3979998620973
 20
-132.6682216334996
 30
0.0
 10
103.3979998620973
 20
-132.7233255223745
 30
0.0
 10
103.3979998620973
 20
-132.7784646890276
 30
0.0
 10
103.4427673609551
 20
-132.8232321890162
 30
0.0
 10
103.4979065262151
 20
-132.8232321890162
 30
0.0
 10
103.5530104136982
 20
-132.8232321890162
 30
0.0
 10
103.5978131903329
 20
-132.7784646890276
 30
0.0
 10
103.5978131903329
 20
-132.7233255223745
 30
0.0
  0
POLYLINE
  5
113
330
41
100
AcDbEntity
  8
_U+30EC_U+30A4_U+30E4_U+30FC 1
 62
     7
420
 16777215
370
     9
100
AcDb2dPolyline
 66
     1
 10
0.0
 20
0.0
 30
0.0
  0
VERTEX
  5
114
330
113
100
AcDbEntity
  8
_U+30EC_U+30A4_U+30E4_U+30FC 1
 62
     7
420
 16777215
370
     9
100
AcDbVertex
100
AcDb2dVertex
 10
97.69326584097048
 20
-132.7233255223745
 30
0.0
  0
VERTEX
  5
115
330
113
100
AcDbEntity
  8
_U+30EC_U+30A4_U+30E4_U+30FC 1
 62
     7
420
 16777215
370
     9
100
AcDbVertex
100
AcDb2dVertex
 10
104.497678722931
 20
-132.7233255223745
 30
0.0
  0
SEQEND
  5
116
330
113
100
AcDbEntity
  8
_U+30EC_U+30A4_U+30E4_U+30FC 1
 62
     7
420
 16777215
370
     9
  0
SPLINE
  5
117
330
41
100
AcDbEntity
  8
_U+30EC_U+30A4_U+30E4_U+30FC 1
 62
     7
420
 16777215
370
     9
100
AcDbSpline
210
0.0
220
0.0
230
1.0
 70
    11
 71
     3
 72
    17
 73
    13
 74
     0
 42
0.0000000001
 43
0.0000000001
 12
1.0
 22
0.0
 32
0.0
 13
1.0
 23
0.0
 33
0.0
 40
0.0
 40
0.0
 40
0.0
 40
0.0
 40
1.0
 40
1.0
 40
1.0
 40
2.0
 40
2.0
 40
2.0
 40
3.0
 40
3.0
 40
3.0
 40
4.0
 40
4.0
 40
4.0
 40
4.0
 10
103.5978131903329
 20
-126.2265699684434
 30
0.0
 10
103.5978131903329
 20
-126.1714660795682
 30
0.0
 10
103.5530104136982
 20
-126.1266633018018
 30
0.0
 10
103.4979065262151
 20
-126.1266633018018
 30
0.0
 10
103.4427673609551
 20
-126.1266633018018
 30
0.0
 10
103.3979998620973
 20
-126.1714660795682
 30
0.0
 10
103.3979998620973
 20
-126.2265699684434
 30
0.0
 10
103.3979998620973
 20
-126.2817091350962
 30
0.0
 10
103.4427673609551
 20
-126.326476635085
 30
0.0
 10
103.4979065262151
 20
-126.326476635085
 30
0.0
 10
103.5530104136982
 20
-126.326476635085
 30
0.0
 10
103.5978131903329
 20
-126.2817091350962
 30
0.0
 10
103.5978131903329
 20
-126.2265699684434
 30
0.0
  0
POLYLINE
  5
118
330
41
100
AcDbEntity
  8
_U+30EC_U+30A4_U+30E4_U+30FC 1
 62
     7
420
 16777215
370
     9
100
AcDb2dPolyline
 66
     1
 10
0.0
 20
0.0
 30
0.0
  0
VERTEX
  5
119
330
118
100
AcDbEntity
  8
_U+30EC_U+30A4_U+30E4_U+30FC 1
 62
     7
420
 16777215
370
     9
100
AcDbVertex
100
AcDb2dVertex
 10
101.0374227000984
 20
-126.2265699684434
 30
0.0
  0
VERTEX
  5
11A
330
118
100
AcDbEntity
  8
_U+30EC_U+30A4_U+30E4_U+30FC 1
 62
     7
420
 16777215
370
     9
100
AcDbVertex
100
AcDb2dVertex
 10
104.497678722931
 20
-126.2265699684434
 30
0.0
  0
SEQEND
  5
11B
330
118
100
AcDbEntity
  8
_U+30EC_U+30A4_U+30E4_U+30FC 1
 62
     7
420
 16777215
370
     9
  0
SPLINE
  5
11C
330
41
100
AcDbEntity
  8
_U+30EC_U+30A4_U+30E4_U+30FC 1
 62
     7
420
 16777215
370
     9
100
AcDbSpline
210
0.0
220
0.0
230
1.0
 70
    11
 71
     3
 72
    17
 73
    13
 74
     0
 42
0.0000000001
 43
0.0000000001
 12
1.0
 22
0.0
 32
0.0
 13
1.0
 23
0.0
 33
0.0
 40
0.0
 40
0.0
 40
0.0
 40
0.0
 40
1.0
 40
1.0
 40
1.0
 40
2.0
 40
2.0
 40
2.0
 40
3.0
 40
3.0
 40
3.0
 40
4.0
 40
4.0
 40
4.0
 40
4.0
 10
103.5978131903329
 20
-122.726344135985
 30
0.0
 10
103.5978131903329
 20
-122.6712402471101
 30
0.0
 10
103.5530104136982
 20
-122.6264374693434
 30
0.0
 10
103.4979065262151
 20
-122.6264374693434
 30
0.0
 10
103.4427673609551
 20
-122.6264374693434
 30
0.0
 10
103.3979998620973
 20
-122.6712402471101
 30
0.0
 10
103.3979998620973
 20
-122.726344135985
 30
0.0
 10
103.3979998620973
 20
-122.7814833026381
 30
0.0
 10
103.4427673609551
 20
-122.8262508026267
 30
0.0
 10
103.4979065262151
 20
-122.8262508026267
 30
0.0
 10
103.5530104136982
 20
-122.8262508026267
 30
0.0
 10
103.5978131903329
 20
-122.7814833026381
 30
0.0
 10
103.5978131903329
 20
-122.726344135985
 30
0.0
  0
POLYLINE
  5
11D
330
41
100
AcDbEntity
  8
_U+30EC_U+30A4_U+30E4_U+30FC 1
 62
     7
420
 16777215
370
     9
100
AcDb2dPolyline
 66
     1
 10
0.0
 20
0.0
 30
0.0
  0
VERTEX
  5
11E
330
11D
100
AcDbEntity
  8
_U+30EC_U+30A4_U+30E4_U+30FC 1
 62
     7
420
 16777215
370
     9
100
AcDbVertex
100
AcDb2dVertex
 10
101.0374227000984
 20
-122.726344135985
 30
0.0
  0
VERTEX
  5
11F
330
11D
100
AcDbEntity
  8
_U+30EC_U+30A4_U+30E4_U+30FC 1
 62
     7
420
 16777215
370
     9
100
AcDbVertex
100
AcDb2dVertex
 10
104.497678722931
 20
-122.726344135985
 30
0.0
  0
SEQEND
  5
120
330
11D
100
AcDbEntity
  8
_U+30EC_U+30A4_U+30E4_U+30FC 1
 62
     7
420
 16777215
370
     9
  0
INSERT
  5
122
330
41
100
AcDbEntity
  8
_U+30EC_U+30A4_U+30E4_U+30FC 1
100
AcDbBlockReference
  2
block 11
 10
0.0
 20
0.0
 30
0.0
  0
INSERT
  5
133
330
41
100
AcDbEntity
  8
_U+30EC_U+30A4_U+30E4_U+30FC 1
100
AcDbBlockReference
  2
block 12
 10
0.0
 20
0.0
 30
0.0
  0
POLYLINE
  5
142
330
41
100
AcDbEntity
  8
_U+30EC_U+30A4_U+30E4_U+30FC 1
 62
     7
420
 16777215
370
     9
100
AcDb2dPolyline
 66
     1
 10
0.0
 20
0.0
 30
0.0
  0
VERTEX
  5
143
330
142
100
AcDbEntity
  8
_U+30EC_U+30A4_U+30E4_U+30FC 1
 62
     7
420
 16777215
370
     9
100
AcDbVertex
100
AcDb2dVertex
 10
103.4979065262151
 20
-132.7233255223745
 30
0.0
  0
VERTEX
  5
144
330
142
100
AcDbEntity
  8
_U+30EC_U+30A4_U+30E4_U+30FC 1
 62
     7
420
 16777215
370
     9
100
AcDbVertex
100
AcDb2dVertex
 10
103.4979065262151
 20
-119.2261535813045
 30
0.0
  0
SEQEND
  5
145
330
142
100
AcDbEntity
  8
_U+30EC_U+30A4_U+30E4_U+30FC 1
 62
     7
420
 16777215
370
     9
  0
POLYLINE
  5
146
330
41
100
AcDbEntity
  8
_U+30EC_U+30A4_U+30E4_U+30FC 1
 62
     7
420
 16777215
370
     9
100
AcDb2dPolyline
 66
     1
 10
0.0
 20
0.0
 30
0.0
  0
VERTEX
  5
147
330
146
100
AcDbEntity
  8
_U+30EC_U+30A4_U+30E4_U+30FC 1
 62
     7
420
 16777215
370
     9
100
AcDbVertex
100
AcDb2dVertex
 10
108.4932777506548
 20
-118.7600283036434
 30
0.0
  0
VERTEX
  5
148
330
146
100
AcDbEntity
  8
_U+30EC_U+30A4_U+30E4_U+30FC 1
 62
     7
420
 16777215
370
     9
100
AcDbVertex
100
AcDb2dVertex
 10
102.0330321191427
 20
-118.7600283036434
 30
0.0
  0
VERTEX
  5
149
330
146
100
AcDbEntity
  8
_U+30EC_U+30A4_U+30E4_U+30FC 1
 62
     7
420
 16777215
370
     9
100
AcDbVertex
100
AcDb2dVertex
 10
97.2925833090105
 20
-123.4784310802415
 30
0.0
  0
SEQEND
  5
14A
330
146
100
AcDbEntity
  8
_U+30EC_U+30A4_U+30E4_U+30FC 1
 62
     7
420
 16777215
370
     9
  0
POLYLINE
  5
14B
330
41
100
AcDbEntity
  8
_U+30EC_U+30A4_U+30E4_U+30FC 1
 62
     7
420
 16777215
370
     9
100
AcDb2dPolyline
 66
     1
 10
0.0
 20
0.0
 30
0.0
  0
VERTEX
  5
14C
330
14B
100
AcDbEntity
  8
_U+30EC_U+30A4_U+30E4_U+30FC 1
 62
     7
420
 16777215
370
     9
100
AcDbVertex
100
AcDb2dVertex
 10
79.72156685502227
 20
-127.5095169125671
 30
0.0
  0
VERTEX
  5
14D
330
14B
100
AcDbEntity
  8
_U+30EC_U+30A4_U+30E4_U+30FC 1
 62
     7
420
 16777215
370
     9
100
AcDbVertex
100
AcDb2dVertex
 10
83.19043065541308
 20
-127.5095169125671
 30
0.0
  0
VERTEX
  5
14E
330
14B
100
AcDbEntity
  8
_U+30EC_U+30A4_U+30E4_U+30FC 1
 62
     7
420
 16777215
370
     9
100
AcDbVertex
100
AcDb2dVertex
 10
84.46029164555158
 20
-131.1441158005475
 30
0.0
  0
SEQEND
  5
14F
330
14B
100
AcDbEntity
  8
_U+30EC_U+30A4_U+30E4_U+30FC 1
 62
     7
420
 16777215
370
     9
  0
INSERT
  5
151
330
41
100
AcDbEntity
  8
_U+30EC_U+30A4_U+30E4_U+30FC 1
100
AcDbBlockReference
  2
block 13
 10
0.0
 20
0.0
 30
0.0
  0
SPLINE
  5
18C
330
41
100
AcDbEntity
  8
_U+30EC_U+30A4_U+30E4_U+30FC 1
 62
     7
420
 16777215
370
     9
100
AcDbSpline
210
0.0
220
0.0
230
1.0
 70
    11
 71
     3
 72
    17
 73
    13
 74
     0
 42
0.0000000001
 43
0.0000000001
 12
1.0
 22
0.0
 32
0.0
 13
1.0
 23
0.0
 33
0.0
 40
0.0
 40
0.0
 40
0.0
 40
0.0
 40
1.0
 40
1.0
 40
1.0
 40
2.0
 40
2.0
 40
2.0
 40
3.0
 40
3.0
 40
3.0
 40
4.0
 40
4.0
 40
4.0
 40
4.0
 10
77.79335412643731
 20
-140.2222874649443
 30
0.0
 10
77.79335412643731
 20
-140.1678538538468
 30
0.0
 10
77.74855134980254
 20
-140.1223807983027
 30
0.0
 10
77.69344746231947
 20
-140.1223807983027
 30
0.0
 10
77.63866107482829
 20
-140.1223807983027
 30
0.0
 10
77.59389357597041
 20
-140.1678538538468
 30
0.0
 10
77.59389357597041
 20
-140.2222874649443
 30
0.0
 10
77.59389357597041
 20
-140.2773913538192
 30
0.0
 10
77.63866107482829
 20
-140.3221941315859
 30
0.0
 10
77.69344746231947
 20
-140.3221941315859
 30
0.0
 10
77.74855134980254
 20
-140.3221941315859
 30
0.0
 10
77.79335412643731
 20
-140.2773913538192
 30
0.0
 10
77.79335412643731
 20
-140.2222874649443
 30
0.0
  0
SPLINE
  5
18D
330
41
100
AcDbEntity
  8
_U+30EC_U+30A4_U+30E4_U+30FC 1
 62
     7
420
 16777215
370
     9
100
AcDbSpline
210
0.0
220
0.0
230
1.0
 70
    11
 71
     3
 72
    17
 73
    13
 74
     0
 42
0.0000000001
 43
0.0000000001
 12
1.0
 22
0.0
 32
0.0
 13
1.0
 23
0.0
 33
0.0
 40
0.0
 40
0.0
 40
0.0
 40
0.0
 40
1.0
 40
1.0
 40
1.0
 40
2.0
 40
2.0
 40
2.0
 40
3.0
 40
3.0
 40
3.0
 40
4.0
 40
4.0
 40
4.0
 40
4.0
 10
100.2932732746388
 20
-140.2222874649443
 30
0.0
 10
100.2932732746388
 20
-140.1678538538468
 30
0.0
 10
100.248470498004
 20
-140.1223807983027
 30
0.0
 10
100.1933666105209
 20
-140.1223807983027
 30
0.0
 10
100.138227445261
 20
-140.1223807983027
 30
0.0
 10
100.0934599464031
 20
-140.1678538538468
 30
0.0
 10
100.0934599464031
 20
-140.2222874649443
 30
0.0
 10
100.0934599464031
 20
-140.2773913538192
 30
0.0
 10
100.138227445261
 20
-140.3221941315859
 30
0.0
 10
100.1933666105209
 20
-140.3221941315859
 30
0.0
 10
100.248470498004
 20
-140.3221941315859
 30
0.0
 10
100.2932732746388
 20
-140.2773913538192
 30
0.0
 10
100.2932732746388
 20
-140.2222874649443
 30
0.0
  0
POLYLINE
  5
18E
330
41
100
AcDbEntity
  8
_U+30EC_U+30A4_U+30E4_U+30FC 1
 62
     7
420
 16777215
370
     9
100
AcDb2dPolyline
 66
     1
 10
0.0
 20
0.0
 30
0.0
  0
VERTEX
  5
18F
330
18E
100
AcDbEntity
  8
_U+30EC_U+30A4_U+30E4_U+30FC 1
 62
     7
420
 16777215
370
     9
100
AcDbVertex
100
AcDb2dVertex
 10
77.69344746231947
 20
-138.7622460764206
 30
0.0
  0
VERTEX
  5
190
330
18E
100
AcDbEntity
  8
_U+30EC_U+30A4_U+30E4_U+30FC 1
 62
     7
420
 16777215
370
     9
100
AcDbVertex
100
AcDb2dVertex
 10
77.69344746231947
 20
-141.2227299646942
 30
0.0
  0
SEQEND
  5
191
330
18E
100
AcDbEntity
  8
_U+30EC_U+30A4_U+30E4_U+30FC 1
 62
     7
420
 16777215
370
     9
  0
POLYLINE
  5
192
330
41
100
AcDbEntity
  8
_U+30EC_U+30A4_U+30E4_U+30FC 1
 62
     7
420
 16777215
370
     9
100
AcDb2dPolyline
 66
     1
 10
0.0
 20
0.0
 30
0.0
  0
VERTEX
  5
193
330
192
100
AcDbEntity
  8
_U+30EC_U+30A4_U+30E4_U+30FC 1
 62
     7
420
 16777215
370
     9
100
AcDbVertex
100
AcDb2dVertex
 10
77.69344746231947
 20
-140.2222874649443
 30
0.0
  0
VERTEX
  5
194
330
192
100
AcDbEntity
  8
_U+30EC_U+30A4_U+30E4_U+30FC 1
 62
     7
420
 16777215
370
     9
100
AcDbVertex
100
AcDb2dVertex
 10
100.1933666105209
 20
-140.2222874649443
 30
0.0
  0
SEQEND
  5
195
330
192
100
AcDbEntity
  8
_U+30EC_U+30A4_U+30E4_U+30FC 1
 62
     7
420
 16777215
370
     9
  0
POLYLINE
  5
196
330
41
100
AcDbEntity
  8
_U+30EC_U+30A4_U+30E4_U+30FC 1
 62
     7
420
 16777215
370
     9
100
AcDb2dPolyline
 66
     1
 10
0.0
 20
0.0
 30
0.0
  0
VERTEX
  5
197
330
196
100
AcDbEntity
  8
_U+30EC_U+30A4_U+30E4_U+30FC 1
 62
     7
420
 16777215
370
     9
100
AcDbVertex
100
AcDb2dVertex
 10
100.1933666105209
 20
-138.7367402430937
 30
0.0
  0
VERTEX
  5
198
330
196
100
AcDbEntity
  8
_U+30EC_U+30A4_U+30E4_U+30FC 1
 62
     7
420
 16777215
370
     9
100
AcDbVertex
100
AcDb2dVertex
 10
100.1933666105209
 20
-141.2227299646942
 30
0.0
  0
SEQEND
  5
199
330
196
100
AcDbEntity
  8
_U+30EC_U+30A4_U+30E4_U+30FC 1
 62
     7
420
 16777215
370
     9
  0
INSERT
  5
19B
330
41
100
AcDbEntity
  8
_U+30EC_U+30A4_U+30E4_U+30FC 1
100
AcDbBlockReference
  2
block 14
 10
0.0
 20
0.0
 30
0.0
  0
INSERT
  5
1A1
330
41
100
AcDbEntity
  8
_U+30EC_U+30A4_U+30E4_U+30FC 1
100
AcDbBlockReference
  2
block 15
 10
0.0
 20
0.0
 30
0.0
  0
SPLINE
  5
1B2
330
41
100
AcDbEntity
  8
_U+30EC_U+30A4_U+30E4_U+30FC 1
 62
     7
420
 16777215
370
     9
100
AcDbSpline
210
0.0
220
0.0
230
1.0
 70
    11
 71
     3
 72
    17
 73
    13
 74
     0
 42
0.0000000001
 43
0.0000000001
 12
1.0
 22
0.0
 32
0.0
 13
1.0
 23
0.0
 33
0.0
 40
0.0
 40
0.0
 40
0.0
 40
0.0
 40
1.0
 40
1.0
 40
1.0
 40
2.0
 40
2.0
 40
2.0
 40
3.0
 40
3.0
 40
3.0
 40
4.0
 40
4.0
 40
4.0
 40
4.0
 10
100.2285032762912
 20
-140.2222874649443
 30
0.0
 10
100.2285032762912
 20
-140.2422546871615
 30
0.0
 10
100.2133338322337
 20
-140.25809440938
 30
0.0
 10
100.1933666105209
 20
-140.25809440938
 30
0.0
 10
100.1740721971789
 20
-140.25809440938
 30
0.0
 10
100.1582299447507
 20
-140.2422546871615
 30
0.0
 10
100.1582299447507
 20
-140.2222874649443
 30
0.0
 10
100.1582299447507
 20
-140.2029905205051
 30
0.0
 10
100.1740721971789
 20
-140.1871507982866
 30
0.0
 10
100.1933666105209
 20
-140.1871507982866
 30
0.0
 10
100.2133338322337
 20
-140.1871507982866
 30
0.0
 10
100.2285032762912
 20
-140.2029905205051
 30
0.0
 10
100.2285032762912
 20
-140.2222874649443
 30
0.0
  0
SPLINE
  5
1B3
330
41
100
AcDbEntity
  8
_U+30EC_U+30A4_U+30E4_U+30FC 1
 62
     7
420
 16777215
370
     9
100
AcDbSpline
210
0.0
220
0.0
230
1.0
 70
    11
 71
     3
 72
    17
 73
    13
 74
     0
 42
0.0000000001
 43
0.0000000001
 12
1.0
 22
0.0
 32
0.0
 13
1.0
 23
0.0
 33
0.0
 40
0.0
 40
0.0
 40
0.0
 40
0.0
 40
1.0
 40
1.0
 40
1.0
 40
2.0
 40
2.0
 40
2.0
 40
3.0
 40
3.0
 40
3.0
 40
4.0
 40
4.0
 40
4.0
 40
4.0
 10
95.29339164284318
 20
-140.2222874649443
 30
0.0
 10
95.29339164284318
 20
-140.1678538538468
 30
0.0
 10
95.24862173667188
 20
-140.1223807983027
 30
0.0
 10
95.19348257141193
 20
-140.1223807983027
 30
0.0
 10
95.13837868392886
 20
-140.1223807983027
 30
0.0
 10
95.0935759072941
 20
-140.1678538538468
 30
0.0
 10
95.0935759072941
 20
-140.2222874649443
 30
0.0
 10
95.0935759072941
 20
-140.2773913538192
 30
0.0
 10
95.13837868392886
 20
-140.3221941315859
 30
0.0
 10
95.19348257141193
 20
-140.3221941315859
 30
0.0
 10
95.24862173667188
 20
-140.3221941315859
 30
0.0
 10
95.29339164284318
 20
-140.2773913538192
 30
0.0
 10
95.29339164284318
 20
-140.2222874649443
 30
0.0
  0
POLYLINE
  5
1B4
330
41
100
AcDbEntity
  8
_U+30EC_U+30A4_U+30E4_U+30FC 1
 62
     7
420
 16777215
370
     9
100
AcDb2dPolyline
 66
     1
 10
0.0
 20
0.0
 30
0.0
  0
VERTEX
  5
1B5
330
1B4
100
AcDbEntity
  8
_U+30EC_U+30A4_U+30E4_U+30FC 1
 62
     7
420
 16777215
370
     9
100
AcDbVertex
100
AcDb2dVertex
 10
95.19348257141193
 20
-138.7622460764206
 30
0.0
  0
VERTEX
  5
1B6
330
1B4
100
AcDbEntity
  8
_U+30EC_U+30A4_U+30E4_U+30FC 1
 62
     7
420
 16777215
370
     9
100
AcDbVertex
100
AcDb2dVertex
 10
95.19348257141193
 20
-141.2227299646942
 30
0.0
  0
SEQEND
  5
1B7
330
1B4
100
AcDbEntity
  8
_U+30EC_U+30A4_U+30E4_U+30FC 1
 62
     7
420
 16777215
370
     9
  0
SPLINE
  5
1B8
330
41
100
AcDbEntity
  8
_U+30EC_U+30A4_U+30E4_U+30FC 1
 62
     7
420
 16777215
370
     9
100
AcDbSpline
210
0.0
220
0.0
230
1.0
 70
    11
 71
     3
 72
    17
 73
    13
 74
     0
 42
0.0000000001
 43
0.0000000001
 12
1.0
 22
0.0
 32
0.0
 13
1.0
 23
0.0
 33
0.0
 40
0.0
 40
0.0
 40
0.0
 40
0.0
 40
1.0
 40
1.0
 40
1.0
 40
2.0
 40
2.0
 40
2.0
 40
3.0
 40
3.0
 40
3.0
 40
4.0
 40
4.0
 40
4.0
 40
4.0
 10
95.22865451495906
 20
-140.2222874649443
 30
0.0
 10
95.22865451495906
 20
-140.2422546871615
 30
0.0
 10
95.21348507090163
 20
-140.25809440938
 30
0.0
 10
95.19348257141193
 20
-140.25809440938
 30
0.0
 10
95.17422090523667
 20
-140.25809440938
 30
0.0
 10
95.15834590564168
 20
-140.2422546871615
 30
0.0
 10
95.15834590564168
 20
-140.2222874649443
 30
0.0
 10
95.15834590564168
 20
-140.2029905205051
 30
0.0
 10
95.17422090523667
 20
-140.1871507982866
 30
0.0
 10
95.19348257141193
 20
-140.1871507982866
 30
0.0
 10
95.21348507090163
 20
-140.1871507982866
 30
0.0
 10
95.22865451495906
 20
-140.2029905205051
 30
0.0
 10
95.22865451495906
 20
-140.2222874649443
 30
0.0
  0
ENDBLK
  5
44
330
41
100
AcDbEntity
  8
0
100
AcDbBlockEnd
  0
BLOCK
  5
48
330
46
100
AcDbEntity
  8
0
100
AcDbBlockBegin
  2
block 3
 70
     0
 10
0.0
 20
0.0
 30
0.0
  3
block 3
  1

  0
POLYLINE
  5
4A
330
46
100
AcDbEntity
  8
_U+30EC_U+30A4_U+30E4_U+30FC 1
 62
     7
420
 16777215
370
    25
100
AcDb2dPolyline
 66
     1
 10
0.0
 20
0.0
 30
0.0
  0
VERTEX
  5
4B
330
4A
100
AcDbEntity
  8
_U+30EC_U+30A4_U+30E4_U+30FC 1
 62
     7
420
 16777215
370
    25
100
AcDbVertex
100
AcDb2dVertex
 10
78.69321965903538
 20
-131.7232358004024
 30
0.0
  0
VERTEX
  5
4C
330
4A
100
AcDbEntity
  8
_U+30EC_U+30A4_U+30E4_U+30FC 1
 62
     7
420
 16777215
370
    25
100
AcDbVertex
100
AcDb2dVertex
 10
82.81835594268327
 20
-131.7232358004024
 30
0.0
  0
SEQEND
  5
4D
330
4A
100
AcDbEntity
  8
_U+30EC_U+30A4_U+30E4_U+30FC 1
 62
     7
420
 16777215
370
    25
  0
POLYLINE
  5
4E
330
46
100
AcDbEntity
  8
_U+30EC_U+30A4_U+30E4_U+30FC 1
 62
     7
420
 16777215
370
    25
100
AcDb2dPolyline
 66
     1
 10
0.0
 20
0.0
 30
0.0
  0
VERTEX
  5
4F
330
4E
100
AcDbEntity
  8
_U+30EC_U+30A4_U+30E4_U+30FC 1
 62
     7
420
 16777215
370
    25
100
AcDbVertex
100
AcDb2dVertex
 10
83.5683614791046
 20
-131.7232358004024
 30
0.0
  0
VERTEX
  5
50
330
4E
100
AcDbEntity
  8
_U+30EC_U+30A4_U+30E4_U+30FC 1
 62
     7
420
 16777215
370
    25
100
AcDbVertex
100
AcDb2dVertex
 10
87.69353304052936
 20
-131.7232358004024
 30
0.0
  0
SEQEND
  5
51
330
4E
100
AcDbEntity
  8
_U+30EC_U+30A4_U+30E4_U+30FC 1
 62
     7
420
 16777215
370
    25
  0
POLYLINE
  5
52
330
46
100
AcDbEntity
  8
_U+30EC_U+30A4_U+30E4_U+30FC 1
  6
AI-Linetype-1
 62
     7
420
 16777215
370
     9
100
AcDb2dPolyline
 66
     1
 10
0.0
 20
0.0
 30
0.0
  0
VERTEX
  5
53
330
52
100
AcDbEntity
  8
_U+30EC_U+30A4_U+30E4_U+30FC 1
  6
AI-Linetype-1
 62
     7
420
 16777215
370
     9
100
AcDbVertex
100
AcDb2dVertex
 10
83.19353509977832
 20
-128.9109971899943
 30
0.0
  0
VERTEX
  5
54
330
52
100
AcDbEntity
  8
_U+30EC_U+30A4_U+30E4_U+30FC 1
  6
AI-Linetype-1
 62
     7
420
 16777215
370
     9
100
AcDbVertex
100
AcDb2dVertex
 10
83.19353509977832
 20
-132.1807180225102
 30
0.0
  0
SEQEND
  5
56
330
52
100
AcDbEntity
  8
_U+30EC_U+30A4_U+30E4_U+30FC 1
  6
AI-Linetype-1
 62
     7
420
 16777215
370
     9
  0
SPLINE
  5
57
330
46
100
AcDbEntity
  8
_U+30EC_U+30A4_U+30E4_U+30FC 1
 62
     7
420
 16777215
370
    25
100
AcDbSpline
210
0.0
220
0.0
230
1.0
 70
     8
 71
     3
 72
    11
 73
     7
 74
     0
 42
0.0000000001
 43
0.0000000001
 12
1.0
 22
0.0
 32
0.0
 13
1.0
 23
0.0
 33
0.0
 40
0.0
 40
0.0
 40
0.0
 40
0.0
 40
1.0
 40
1.0
 40
1.0
 40
2.0
 40
2.0
 40
2.0
 40
2.0
 10
82.81835594268327
 20
-131.7232358004024
 30
0.0
 10
82.90485705158756
 20
-131.9299283003507
 30
0.0
 10
83.14255871218995
 20
-132.0277888558821
 30
0.0
 10
83.34960398468556
 20
-131.9416405225699
 30
0.0
 10
83.44848759327394
 20
-131.9002949670252
 30
0.0
 10
83.52701592460384
 20
-131.8217666337111
 30
0.0
 10
83.5683614791046
 20
-131.7232358004024
 30
0.0
  0
ENDBLK
  5
49
330
46
100
AcDbEntity
  8
0
100
AcDbBlockEnd
  0
BLOCK
  5
79
330
77
100
AcDbEntity
  8
0
100
AcDbBlockBegin
  2
block 4
 70
     0
 10
0.0
 20
0.0
 30
0.0
  3
block 4
  1

  0
SPLINE
  5
7B
330
77
100
AcDbEntity
  8
_U+30EC_U+30A4_U+30E4_U+30FC 1
370
     0
100
AcDbSpline
210
0.0
220
0.0
230
1.0
 70
    11
 71
     3
 72
    32
 73
    28
 74
     0
 42
0.0000000001
 43
0.0000000001
 12
1.0
 22
0.0
 32
0.0
 13
1.0
 23
0.0
 33
0.0
 40
0.0
 40
0.0
 40
0.0
 40
0.0
 40
1.0
 40
1.0
 40
1.0
 40
2.0
 40
2.0
 40
2.0
 40
3.0
 40
3.0
 40
3.0
 40
4.0
 40
4.0
 40
4.0
 40
5.0
 40
5.0
 40
5.0
 40
6.0
 40
6.0
 40
6.0
 40
7.0
 40
7.0
 40
7.0
 40
8.0
 40
8.0
 40
8.0
 40
9.0
 40
9.0
 40
9.0
 40
9.0
 10
74.78268769831823
 20
-128.0819322053927
 30
0.0
 10
74.78268769831823
 20
-128.5981797638574
 30
0.0
 10
74.22837183474152
 20
-128.6066202477963
 30
0.0
 10
74.01477591465603
 20
-128.6066202477963
 30
0.0
 10
73.78412677191855
 20
-128.6066202477963
 30
0.0
 10
73.13679333024011
 20
-128.5874999678531
 30
0.0
 10
73.13679333024011
 20
-128.0438639002807
 30
0.0
 10
73.13679333024011
 20
-127.8704033425984
 30
0.0
 10
73.20655651381642
 20
-127.6249402892743
 30
0.0
 10
73.5386637185945
 20
-127.5868719841623
 30
0.0
 10
73.5386637185945
 20
-127.5868719841623
 30
0.0
 10
73.5386637185945
 20
-127.8006401590221
 30
0.0
 10
73.5386637185945
 20
-127.8006401590221
 30
0.0
 10
73.48164738831362
 20
-127.8111477002521
 30
0.0
 10
73.33350828244788
 20
-127.8428425787164
 30
0.0
 10
73.33350828244788
 20
-128.0459309575719
 30
0.0
 10
73.33350828244788
 20
-128.3379027999468
 30
0.0
 10
73.66148137264366
 20
-128.3782104171242
 30
0.0
 10
73.86663680879029
 20
-128.3907850156454
 30
0.0
 10
73.78843314127512
 20
-128.2977674375436
 30
0.0
 10
73.72917749892882
 20
-128.2300713112585
 30
0.0
 10
73.72917749892882
 20
-128.0481702696373
 30
0.0
 10
73.72917749892882
 20
-127.8683362853072
 30
0.0
 10
73.83700898761714
 20
-127.5658569017023
 30
0.0
 10
74.24318574532809
 20
-127.5658569017023
 30
0.0
 10
74.56271835158502
 20
-127.5658569017023
 30
0.0
 10
74.78268769831823
 20
-127.7646389112012
 30
0.0
 10
74.78268769831823
 20
-128.0819322053927
 30
0.0
  0
SPLINE
  5
7C
330
77
100
AcDbEntity
  8
_U+30EC_U+30A4_U+30E4_U+30FC 1
370
     0
100
AcDbSpline
210
0.0
220
0.0
230
1.0
 70
    11
 71
     3
 72
    17
 73
    13
 74
     0
 42
0.0000000001
 43
0.0000000001
 12
1.0
 22
0.0
 32
0.0
 13
1.0
 23
0.0
 33
0.0
 40
0.0
 40
0.0
 40
0.0
 40
0.0
 40
1.0
 40
1.0
 40
1.0
 40
2.0
 40
2.0
 40
2.0
 40
3.0
 40
3.0
 40
3.0
 40
4.0
 40
4.0
 40
4.0
 40
4.0
 10
73.92382539384543
 20
-128.065051237515
 30
0.0
 10
73.92382539384543
 20
-128.3273952587168
 30
0.0
 10
74.13535425663977
 20
-128.3654635638288
 30
0.0
 10
74.25162622926696
 20
-128.3654635638288
 30
0.0
 10
74.4273260990147
 20
-128.3654635638288
 30
0.0
 10
74.59010686069276
 20
-128.2702066736616
 30
0.0
 10
74.59010686069276
 20
-128.0862385747493
 30
0.0
 10
74.59010686069276
 20
-127.9656602327655
 30
0.0
 10
74.53085121834646
 20
-127.7899603630178
 30
0.0
 10
74.24525280261925
 20
-127.7899603630178
 30
0.0
 10
74.02114934130374
 20
-127.7899603630178
 30
0.0
 10
73.92382539384543
 20
-127.9296589849447
 30
0.0
 10
73.92382539384543
 20
-128.065051237515
 30
0.0
  0
HATCH
  5
7D
330
77
100
AcDbEntity
  8
_U+30EC_U+30A4_U+30E4_U+30FC 1
 62
     7
420
 16777215
100
AcDbHatch
 10
0.0
 20
0.0
 30
0.0
210
0.0
220
0.0
230
1.0
  2
SOLID
 70
     1
 71
     0
 91
        2
 92
        1
 93
        1
 72
     4
 94
        3
 73
     0
 74
     1
 95
       32
 96
       28
 40
0.0
 40
0.0
 40
0.0
 40
0.0
 40
1.0
 40
1.0
 40
1.0
 40
2.0
 40
2.0
 40
2.0
 40
3.0
 40
3.0
 40
3.0
 40
4.0
 40
4.0
 40
4.0
 40
5.0
 40
5.0
 40
5.0
 40
6.0
 40
6.0
 40
6.0
 40
7.0
 40
7.0
 40
7.0
 40
8.0
 40
8.0
 40
8.0
 40
9.0
 40
9.0
 40
9.0
 40
9.0
 10
74.78268769831823
 20
-128.0819322053927
 10
74.78268769831823
 20
-128.5981797638574
 10
74.22837183474152
 20
-128.6066202477963
 10
74.01477591465603
 20
-128.6066202477963
 10
73.78412677191855
 20
-128.6066202477963
 10
73.13679333024011
 20
-128.5874999678531
 10
73.13679333024011
 20
-128.0438639002807
 10
73.13679333024011
 20
-127.8704033425984
 10
73.20655651381642
 20
-127.6249402892743
 10
73.5386637185945
 20
-127.5868719841623
 10
73.5386637185945
 20
-127.5868719841623
 10
73.5386637185945
 20
-127.8006401590221
 10
73.5386637185945
 20
-127.8006401590221
 10
73.48164738831362
 20
-127.8111477002521
 10
73.33350828244788
 20
-127.8428425787164
 10
73.33350828244788
 20
-128.0459309575719
 10
73.33350828244788
 20
-128.3379027999468
 10
73.66148137264366
 20
-128.3782104171242
 10
73.86663680879029
 20
-128.3907850156454
 10
73.78843314127512
 20
-128.2977674375436
 10
73.72917749892882
 20
-128.2300713112585
 10
73.72917749892882
 20
-128.0481702696373
 10
73.72917749892882
 20
-127.8683362853072
 10
73.83700898761714
 20
-127.5658569017023
 10
74.24318574532809
 20
-127.5658569017023
 10
74.56271835158502
 20
-127.5658569017023
 10
74.78268769831823
 20
-127.7646389112012
 10
74.78268769831823
 20
-128.0819322053927
 97
        0
 97
        0
 92
        1
 93
        1
 72
     4
 94
        3
 73
     0
 74
     1
 95
       17
 96
       13
 40
0.0
 40
0.0
 40
0.0
 40
0.0
 40
1.0
 40
1.0
 40
1.0
 40
2.0
 40
2.0
 40
2.0
 40
3.0
 40
3.0
 40
3.0
 40
4.0
 40
4.0
 40
4.0
 40
4.0
 10
73.92382539384543
 20
-128.065051237515
 10
73.92382539384543
 20
-128.3273952587168
 10
74.13535425663977
 20
-128.3654635638288
 10
74.25162622926696
 20
-128.3654635638288
 10
74.4273260990147
 20
-128.3654635638288
 10
74.59010686069276
 20
-128.2702066736616
 10
74.59010686069276
 20
-128.0862385747493
 10
74.59010686069276
 20
-127.9656602327655
 10
74.53085121834646
 20
-127.7899603630178
 10
74.24525280261925
 20
-127.7899603630178
 10
74.02114934130374
 20
-127.7899603630178
 10
73.92382539384543
 20
-127.9296589849447
 10
73.92382539384543
 20
-128.065051237515
 97
        0
 97
        0
 75
     2
 76
     1
 98
        0
  0
POLYLINE
  5
7E
330
77
100
AcDbEntity
  8
_U+30EC_U+30A4_U+30E4_U+30FC 1
370
     0
100
AcDb2dPolyline
 66
     1
 10
0.0
 20
0.0
 30
0.0
  0
VERTEX
  5
7F
330
7E
100
AcDbEntity
  8
_U+30EC_U+30A4_U+30E4_U+30FC 1
370
     0
100
AcDbVertex
100
AcDb2dVertex
 10
74.73187253991078
 20
-127.3493326504543
 30
0.0
  0
VERTEX
  5
80
330
7E
100
AcDbEntity
  8
_U+30EC_U+30A4_U+30E4_U+30FC 1
370
     0
100
AcDbVertex
100
AcDb2dVertex
 10
74.48020831471328
 20
-127.3493326504543
 30
0.0
  0
VERTEX
  5
81
330
7E
100
AcDbEntity
  8
_U+30EC_U+30A4_U+30E4_U+30FC 1
370
     0
100
AcDbVertex
100
AcDb2dVertex
 10
74.48020831471328
 20
-127.0976684252568
 30
0.0
  0
VERTEX
  5
82
330
7E
100
AcDbEntity
  8
_U+30EC_U+30A4_U+30E4_U+30FC 1
370
     0
100
AcDbVertex
100
AcDb2dVertex
 10
74.73187253991078
 20
-127.0976684252568
 30
0.0
  0
VERTEX
  5
83
330
7E
100
AcDbEntity
  8
_U+30EC_U+30A4_U+30E4_U+30FC 1
370
     0
100
AcDbVertex
100
AcDb2dVertex
 10
74.73187253991078
 20
-127.3493326504543
 30
0.0
  0
SEQEND
  5
84
330
7E
100
AcDbEntity
  8
_U+30EC_U+30A4_U+30E4_U+30FC 1
370
     0
  0
HATCH
  5
85
330
77
100
AcDbEntity
  8
_U+30EC_U+30A4_U+30E4_U+30FC 1
 62
     7
420
 16777215
100
AcDbHatch
 10
0.0
 20
0.0
 30
0.0
210
0.0
220
0.0
230
1.0
  2
SOLID
 70
     1
 71
     0
 91
        1
 92
        1
 93
        4
 72
     1
 10
74.73187253991078
 20
-127.3493326504543
 11
74.48020831471328
 21
-127.3493326504543
 72
     1
 10
74.48020831471328
 20
-127.3493326504543
 11
74.48020831471328
 21
-127.0976684252568
 72
     1
 10
74.48020831471328
 20
-127.0976684252568
 11
74.73187253991078
 21
-127.0976684252568
 72
     1
 10
74.73187253991078
 20
-127.0976684252568
 11
74.73187253991078
 21
-127.3493326504543
 97
        0
 75
     2
 76
     1
 98
        0
  0
SPLINE
  5
86
330
77
100
AcDbEntity
  8
_U+30EC_U+30A4_U+30E4_U+30FC 1
370
     0
100
AcDbSpline
210
0.0
220
0.0
230
1.0
 70
    11
 71
     3
 72
    53
 73
    49
 74
     0
 42
0.0000000001
 43
0.0000000001
 12
1.0
 22
0.0
 32
0.0
 13
1.0
 23
0.0
 33
0.0
 40
0.0
 40
0.0
 40
0.0
 40
0.0
 40
1.0
 40
1.0
 40
1.0
 40
2.0
 40
2.0
 40
2.0
 40
3.0
 40
3.0
 40
3.0
 40
4.0
 40
4.0
 40
4.0
 40
5.0
 40
5.0
 40
5.0
 40
6.0
 40
6.0
 40
6.0
 40
7.0
 40
7.0
 40
7.0
 40
8.0
 40
8.0
 40
8.0
 40
9.0
 40
9.0
 40
9.0
 40
10.0
 40
10.0
 40
10.0
 40
11.0
 40
11.0
 40
11.0
 40
12.0
 40
12.0
 40
12.0
 40
13.0
 40
13.0
 40
13.0
 40
14.0
 40
14.0
 40
14.0
 40
15.0
 40
15.0
 40
15.0
 40
16.0
 40
16.0
 40
16.0
 40
16.0
 10
74.78268769831823
 20
-126.3800550356793
 30
0.0
 10
74.78268769831823
 20
-126.4584309579687
 30
0.0
 10
74.76563447566623
 20
-126.5598890200093
 30
0.0
 10
74.70224471873763
 20
-126.6615193368242
 30
0.0
 10
74.5921739179839
 20
-126.8349798945065
 30
0.0
 10
74.46108803477014
 20
-126.8561672317408
 30
0.0
 10
74.35325654608182
 20
-126.8751152569097
 30
0.0
 10
74.35325654608182
 20
-126.8751152569097
 30
0.0
 10
74.35325654608182
 20
-126.6530788528853
 30
0.0
 10
74.35325654608182
 20
-126.6530788528853
 30
0.0
 10
74.55203855558075
 20
-126.5979573251214
 30
0.0
 10
74.58166637675389
 20
-126.4710055564899
 30
0.0
 10
74.58166637675389
 20
-126.3779879783881
 30
0.0
 10
74.58166637675389
 20
-126.2382893564613
 30
0.0
 10
74.48227537200444
 20
-126.0860161360132
 30
0.0
 10
74.2495591719758
 20
-126.0860161360132
 30
0.0
 10
73.99358857742175
 20
-126.0860161360132
 30
0.0
 10
73.92382539384543
 20
-126.2658501203433
 30
0.0
 10
73.92382539384543
 20
-126.386428462327
 30
0.0
 10
73.92382539384543
 20
-126.4181233407913
 30
0.0
 10
73.92382539384543
 20
-126.5598890200093
 30
0.0
 10
74.05284421976805
 20
-126.6487724835288
 30
0.0
 10
74.05284421976805
 20
-126.6487724835288
 30
0.0
 10
74.03372393982491
 20
-126.8243000985023
 30
0.0
 10
74.03372393982491
 20
-126.8243000985023
 30
0.0
 10
74.03372393982491
 20
-126.8243000985023
 30
0.0
 10
73.18760848864754
 20
-126.7037217565185
 30
0.0
 10
73.18760848864754
 20
-126.7037217565185
 30
0.0
 10
73.18760848864754
 20
-126.7037217565185
 30
0.0
 10
73.18760848864754
 20
-125.9253024316263
 30
0.0
 10
73.18760848864754
 20
-125.9253024316263
 30
0.0
 10
73.18760848864754
 20
-125.9253024316263
 30
0.0
 10
73.38225638356415
 20
-125.9253024316263
 30
0.0
 10
73.38225638356415
 20
-125.9253024316263
 30
0.0
 10
73.38225638356415
 20
-125.9253024316263
 30
0.0
 10
73.38225638356415
 20
-126.5409409948405
 30
0.0
 10
73.38225638356415
 20
-126.5409409948405
 30
0.0
 10
73.38225638356415
 20
-126.5409409948405
 30
0.0
 10
73.80531410915285
 20
-126.6063978090602
 30
0.0
 10
73.80531410915285
 20
-126.6063978090602
 30
0.0
 10
73.77137991862313
 20
-126.5450751094228
 30
0.0
 10
73.73124455621998
 20
-126.462565072551
 30
0.0
 10
73.73124455621998
 20
-126.3442260426327
 30
0.0
 10
73.73124455621998
 20
-126.0903225053698
 30
0.0
 10
73.91745196719772
 20
-125.8532999359846
 30
0.0
 10
74.23043889203267
 20
-125.8532999359846
 30
0.0
 10
74.54790444099845
 20
-125.8532999359846
 30
0.0
 10
74.78268769831823
 20
-126.0775756520744
 30
0.0
 10
74.78268769831823
 20
-126.3800550356793
 30
0.0
  0
HATCH
  5
87
330
77
100
AcDbEntity
  8
_U+30EC_U+30A4_U+30E4_U+30FC 1
 62
     7
420
 16777215
100
AcDbHatch
 10
0.0
 20
0.0
 30
0.0
210
0.0
220
0.0
230
1.0
  2
SOLID
 70
     1
 71
     0
 91
        1
 92
        1
 93
        1
 72
     4
 94
        3
 73
     0
 74
     1
 95
       53
 96
       49
 40
0.0
 40
0.0
 40
0.0
 40
0.0
 40
1.0
 40
1.0
 40
1.0
 40
2.0
 40
2.0
 40
2.0
 40
3.0
 40
3.0
 40
3.0
 40
4.0
 40
4.0
 40
4.0
 40
5.0
 40
5.0
 40
5.0
 40
6.0
 40
6.0
 40
6.0
 40
7.0
 40
7.0
 40
7.0
 40
8.0
 40
8.0
 40
8.0
 40
9.0
 40
9.0
 40
9.0
 40
10.0
 40
10.0
 40
10.0
 40
11.0
 40
11.0
 40
11.0
 40
12.0
 40
12.0
 40
12.0
 40
13.0
 40
13.0
 40
13.0
 40
14.0
 40
14.0
 40
14.0
 40
15.0
 40
15.0
 40
15.0
 40
16.0
 40
16.0
 40
16.0
 40
16.0
 10
74.78268769831823
 20
-126.3800550356793
 10
74.78268769831823
 20
-126.4584309579687
 10
74.76563447566623
 20
-126.5598890200093
 10
74.70224471873763
 20
-126.6615193368242
 10
74.5921739179839
 20
-126.8349798945065
 10
74.46108803477014
 20
-126.8561672317408
 10
74.35325654608182
 20
-126.8751152569097
 10
74.35325654608182
 20
-126.8751152569097
 10
74.35325654608182
 20
-126.6530788528853
 10
74.35325654608182
 20
-126.6530788528853
 10
74.55203855558075
 20
-126.5979573251214
 10
74.58166637675389
 20
-126.4710055564899
 10
74.58166637675389
 20
-126.3779879783881
 10
74.58166637675389
 20
-126.2382893564613
 10
74.48227537200444
 20
-126.0860161360132
 10
74.2495591719758
 20
-126.0860161360132
 10
73.99358857742175
 20
-126.0860161360132
 10
73.92382539384543
 20
-126.2658501203433
 10
73.92382539384543
 20
-126.386428462327
 10
73.92382539384543
 20
-126.4181233407913
 10
73.92382539384543
 20
-126.5598890200093
 10
74.05284421976805
 20
-126.6487724835288
 10
74.05284421976805
 20
-126.6487724835288
 10
74.03372393982491
 20
-126.8243000985023
 10
74.03372393982491
 20
-126.8243000985023
 10
74.03372393982491
 20
-126.8243000985023
 10
73.18760848864754
 20
-126.7037217565185
 10
73.18760848864754
 20
-126.7037217565185
 10
73.18760848864754
 20
-126.7037217565185
 10
73.18760848864754
 20
-125.9253024316263
 10
73.18760848864754
 20
-125.9253024316263
 10
73.18760848864754
 20
-125.9253024316263
 10
73.38225638356415
 20
-125.9253024316263
 10
73.38225638356415
 20
-125.9253024316263
 10
73.38225638356415
 20
-125.9253024316263
 10
73.38225638356415
 20
-126.5409409948405
 10
73.38225638356415
 20
-126.5409409948405
 10
73.38225638356415
 20
-126.5409409948405
 10
73.80531410915285
 20
-126.6063978090602
 10
73.80531410915285
 20
-126.6063978090602
 10
73.77137991862313
 20
-126.5450751094228
 10
73.73124455621998
 20
-126.462565072551
 10
73.73124455621998
 20
-126.3442260426327
 10
73.73124455621998
 20
-126.0903225053698
 10
73.91745196719772
 20
-125.8532999359846
 10
74.23043889203267
 20
-125.8532999359846
 10
74.54790444099845
 20
-125.8532999359846
 10
74.78268769831823
 20
-126.0775756520744
 10
74.78268769831823
 20
-126.3800550356793
 97
        0
 97
        0
 75
     2
 76
     1
 98
        0
  0
ENDBLK
  5
7A
330
77
100
AcDbEntity
  8
0
100
AcDbBlockEnd
  0
BLOCK
  5
8A
330
88
100
AcDbEntity
  8
0
100
AcDbBlockBegin
  2
block 5
 70
     0
 10
0.0
 20
0.0
 30
0.0
  3
block 5
  1

  0
SPLINE
  5
8C
330
88
100
AcDbEntity
  8
_U+30EC_U+30A4_U+30E4_U+30FC 1
370
     0
100
AcDbSpline
210
0.0
220
0.0
230
1.0
 70
    11
 71
     3
 72
    26
 73
    22
 74
     0
 42
0.0000000001
 43
0.0000000001
 12
1.0
 22
0.0
 32
0.0
 13
1.0
 23
0.0
 33
0.0
 40
0.0
 40
0.0
 40
0.0
 40
0.0
 40
1.0
 40
1.0
 40
1.0
 40
2.0
 40
2.0
 40
2.0
 40
3.0
 40
3.0
 40
3.0
 40
4.0
 40
4.0
 40
4.0
 40
5.0
 40
5.0
 40
5.0
 40
6.0
 40
6.0
 40
6.0
 40
7.0
 40
7.0
 40
7.0
 40
7.0
 10
74.73187253991078
 20
-121.9660264452029
 30
0.0
 10
74.73187253991078
 20
-121.9660264452029
 30
0.0
 10
73.62754718211394
 20
-121.9660264452029
 30
0.0
 10
73.62754718211394
 20
-121.9660264452029
 30
0.0
 10
73.62754718211394
 20
-121.9660264452029
 30
0.0
 10
73.62754718211394
 20
-122.2960665926899
 30
0.0
 10
73.62754718211394
 20
-122.2960665926899
 30
0.0
 10
73.62754718211394
 20
-122.2960665926899
 30
0.0
 10
73.47958033102248
 20
-122.2960665926899
 30
0.0
 10
73.47958033102248
 20
-122.2960665926899
 30
0.0
 10
73.4647664204359
 20
-121.9639593879118
 30
0.0
 10
73.30181340398357
 20
-121.9174505988609
 30
0.0
 10
73.18760848864754
 20
-121.8878227776878
 30
0.0
 10
73.18760848864754
 20
-121.8878227776878
 30
0.0
 10
73.18760848864754
 20
-121.7417507291132
 30
0.0
 10
73.18760848864754
 20
-121.7417507291132
 30
0.0
 10
73.18760848864754
 20
-121.7417507291132
 30
0.0
 10
74.73187253991078
 20
-121.7417507291132
 30
0.0
 10
74.73187253991078
 20
-121.7417507291132
 30
0.0
 10
74.73187253991078
 20
-121.7417507291132
 30
0.0
 10
74.73187253991078
 20
-121.9660264452029
 30
0.0
 10
74.73187253991078
 20
-121.9660264452029
 30
0.0
  0
HATCH
  5
8D
330
88
100
AcDbEntity
  8
_U+30EC_U+30A4_U+30E4_U+30FC 1
 62
     7
420
 16777215
100
AcDbHatch
 10
0.0
 20
0.0
 30
0.0
210
0.0
220
0.0
230
1.0
  2
SOLID
 70
     1
 71
     0
 91
        1
 92
        1
 93
        1
 72
     4
 94
        3
 73
     0
 74
     1
 95
       26
 96
       22
 40
0.0
 40
0.0
 40
0.0
 40
0.0
 40
1.0
 40
1.0
 40
1.0
 40
2.0
 40
2.0
 40
2.0
 40
3.0
 40
3.0
 40
3.0
 40
4.0
 40
4.0
 40
4.0
 40
5.0
 40
5.0
 40
5.0
 40
6.0
 40
6.0
 40
6.0
 40
7.0
 40
7.0
 40
7.0
 40
7.0
 10
74.73187253991078
 20
-121.9660264452029
 10
74.73187253991078
 20
-121.9660264452029
 10
73.62754718211394
 20
-121.9660264452029
 10
73.62754718211394
 20
-121.9660264452029
 10
73.62754718211394
 20
-121.9660264452029
 10
73.62754718211394
 20
-122.2960665926899
 10
73.62754718211394
 20
-122.2960665926899
 10
73.62754718211394
 20
-122.2960665926899
 10
73.47958033102248
 20
-122.2960665926899
 10
73.47958033102248
 20
-122.2960665926899
 10
73.4647664204359
 20
-121.9639593879118
 10
73.30181340398357
 20
-121.9174505988609
 10
73.18760848864754
 20
-121.8878227776878
 10
73.18760848864754
 20
-121.8878227776878
 10
73.18760848864754
 20
-121.7417507291132
 10
73.18760848864754
 20
-121.7417507291132
 10
73.18760848864754
 20
-121.7417507291132
 10
74.73187253991078
 20
-121.7417507291132
 10
74.73187253991078
 20
-121.7417507291132
 10
74.73187253991078
 20
-121.7417507291132
 10
74.73187253991078
 20
-121.9660264452029
 10
74.73187253991078
 20
-121.9660264452029
 97
        0
 97
        0
 75
     2
 76
     1
 98
        0
  0
POLYLINE
  5
8E
330
88
100
AcDbEntity
  8
_U+30EC_U+30A4_U+30E4_U+30FC 1
370
     0
100
AcDb2dPolyline
 66
     1
 10
0.0
 20
0.0
 30
0.0
  0
VERTEX
  5
8F
330
8E
100
AcDbEntity
  8
_U+30EC_U+30A4_U+30E4_U+30FC 1
370
     0
100
AcDbVertex
100
AcDb2dVertex
 10
74.73187253991078
 20
-121.180544674566
 30
0.0
  0
VERTEX
  5
90
330
8E
100
AcDbEntity
  8
_U+30EC_U+30A4_U+30E4_U+30FC 1
370
     0
100
AcDbVertex
100
AcDb2dVertex
 10
74.48020831471328
 20
-121.180544674566
 30
0.0
  0
VERTEX
  5
91
330
8E
100
AcDbEntity
  8
_U+30EC_U+30A4_U+30E4_U+30FC 1
370
     0
100
AcDbVertex
100
AcDb2dVertex
 10
74.48020831471328
 20
-120.9288804493685
 30
0.0
  0
VERTEX
  5
92
330
8E
100
AcDbEntity
  8
_U+30EC_U+30A4_U+30E4_U+30FC 1
370
     0
100
AcDbVertex
100
AcDb2dVertex
 10
74.73187253991078
 20
-120.9288804493685
 30
0.0
  0
VERTEX
  5
93
330
8E
100
AcDbEntity
  8
_U+30EC_U+30A4_U+30E4_U+30FC 1
370
     0
100
AcDbVertex
100
AcDb2dVertex
 10
74.73187253991078
 20
-121.180544674566
 30
0.0
  0
SEQEND
  5
94
330
8E
100
AcDbEntity
  8
_U+30EC_U+30A4_U+30E4_U+30FC 1
370
     0
  0
HATCH
  5
95
330
88
100
AcDbEntity
  8
_U+30EC_U+30A4_U+30E4_U+30FC 1
 62
     7
420
 16777215
100
AcDbHatch
 10
0.0
 20
0.0
 30
0.0
210
0.0
220
0.0
230
1.0
  2
SOLID
 70
     1
 71
     0
 91
        1
 92
        1
 93
        4
 72
     1
 10
74.73187253991078
 20
-121.180544674566
 11
74.48020831471328
 21
-121.180544674566
 72
     1
 10
74.48020831471328
 20
-121.180544674566
 11
74.48020831471328
 21
-120.9288804493685
 72
     1
 10
74.48020831471328
 20
-120.9288804493685
 11
74.73187253991078
 21
-120.9288804493685
 72
     1
 10
74.73187253991078
 20
-120.9288804493685
 11
74.73187253991078
 21
-121.180544674566
 97
        0
 75
     2
 76
     1
 98
        0
  0
SPLINE
  5
96
330
88
100
AcDbEntity
  8
_U+30EC_U+30A4_U+30E4_U+30FC 1
370
     0
100
AcDbSpline
210
0.0
220
0.0
230
1.0
 70
    11
 71
     3
 72
    53
 73
    49
 74
     0
 42
0.0000000001
 43
0.0000000001
 12
1.0
 22
0.0
 32
0.0
 13
1.0
 23
0.0
 33
0.0
 40
0.0
 40
0.0
 40
0.0
 40
0.0
 40
1.0
 40
1.0
 40
1.0
 40
2.0
 40
2.0
 40
2.0
 40
3.0
 40
3.0
 40
3.0
 40
4.0
 40
4.0
 40
4.0
 40
5.0
 40
5.0
 40
5.0
 40
6.0
 40
6.0
 40
6.0
 40
7.0
 40
7.0
 40
7.0
 40
8.0
 40
8.0
 40
8.0
 40
9.0
 40
9.0
 40
9.0
 40
10.0
 40
10.0
 40
10.0
 40
11.0
 40
11.0
 40
11.0
 40
12.0
 40
12.0
 40
12.0
 40
13.0
 40
13.0
 40
13.0
 40
14.0
 40
14.0
 40
14.0
 40
15.0
 40
15.0
 40
15.0
 40
16.0
 40
16.0
 40
16.0
 40
16.0
 10
74.78268769831823
 20
-120.2112670597909
 30
0.0
 10
74.78268769831823
 20
-120.2896429820804
 30
0.0
 10
74.76563447566623
 20
-120.391101044121
 30
0.0
 10
74.70224471873763
 20
-120.4927313609358
 30
0.0
 10
74.5921739179839
 20
-120.6661919186182
 30
0.0
 10
74.46108803477014
 20
-120.6873792558525
 30
0.0
 10
74.35325654608182
 20
-120.7063272810213
 30
0.0
 10
74.35325654608182
 20
-120.7063272810213
 30
0.0
 10
74.35325654608182
 20
-120.484290876997
 30
0.0
 10
74.35325654608182
 20
-120.484290876997
 30
0.0
 10
74.55203855558075
 20
-120.429169349233
 30
0.0
 10
74.58166637675389
 20
-120.3022175806015
 30
0.0
 10
74.58166637675389
 20
-120.2092000024998
 30
0.0
 10
74.58166637675389
 20
-120.0695013805729
 30
0.0
 10
74.48227537200444
 20
-119.9172281601249
 30
0.0
 10
74.2495591719758
 20
-119.9172281601249
 30
0.0
 10
73.99358857742175
 20
-119.9172281601249
 30
0.0
 10
73.92382539384543
 20
-120.0970621444549
 30
0.0
 10
73.92382539384543
 20
-120.2176404864387
 30
0.0
 10
73.92382539384543
 20
-120.2493353649029
 30
0.0
 10
73.92382539384543
 20
-120.391101044121
 30
0.0
 10
74.05284421976805
 20
-120.4799845076404
 30
0.0
 10
74.05284421976805
 20
-120.4799845076404
 30
0.0
 10
74.03372393982491
 20
-120.6555121226139
 30
0.0
 10
74.03372393982491
 20
-120.6555121226139
 30
0.0
 10
74.03372393982491
 20
-120.6555121226139
 30
0.0
 10
73.18760848864754
 20
-120.5349337806302
 30
0.0
 10
73.18760848864754
 20
-120.5349337806302
 30
0.0
 10
73.18760848864754
 20
-120.5349337806302
 30
0.0
 10
73.18760848864754
 20
-119.756514455738
 30
0.0
 10
73.18760848864754
 20
-119.756514455738
 30
0.0
 10
73.18760848864754
 20
-119.756514455738
 30
0.0
 10
73.38225638356415
 20
-119.756514455738
 30
0.0
 10
73.38225638356415
 20
-119.756514455738
 30
0.0
 10
73.38225638356415
 20
-119.756514455738
 30
0.0
 10
73.38225638356415
 20
-120.3721530189521
 30
0.0
 10
73.38225638356415
 20
-120.3721530189521
 30
0.0
 10
73.38225638356415
 20
-120.3721530189521
 30
0.0
 10
73.80531410915285
 20
-120.4376098331718
 30
0.0
 10
73.80531410915285
 20
-120.4376098331718
 30
0.0
 10
73.77137991862313
 20
-120.3762871335344
 30
0.0
 10
73.73124455621998
 20
-120.2937770966627
 30
0.0
 10
73.73124455621998
 20
-120.1754380667443
 30
0.0
 10
73.73124455621998
 20
-119.9215345294814
 30
0.0
 10
73.91745196719772
 20
-119.6845119600962
 30
0.0
 10
74.23043889203267
 20
-119.6845119600962
 30
0.0
 10
74.54790444099845
 20
-119.6845119600962
 30
0.0
 10
74.78268769831823
 20
-119.908787676186
 30
0.0
 10
74.78268769831823
 20
-120.2112670597909
 30
0.0
  0
HATCH
  5
97
330
88
100
AcDbEntity
  8
_U+30EC_U+30A4_U+30E4_U+30FC 1
 62
     7
420
 16777215
100
AcDbHatch
 10
0.0
 20
0.0
 30
0.0
210
0.0
220
0.0
230
1.0
  2
SOLID
 70
     1
 71
     0
 91
        1
 92
        1
 93
        1
 72
     4
 94
        3
 73
     0
 74
     1
 95
       53
 96
       49
 40
0.0
 40
0.0
 40
0.0
 40
0.0
 40
1.0
 40
1.0
 40
1.0
 40
2.0
 40
2.0
 40
2.0
 40
3.0
 40
3.0
 40
3.0
 40
4.0
 40
4.0
 40
4.0
 40
5.0
 40
5.0
 40
5.0
 40
6.0
 40
6.0
 40
6.0
 40
7.0
 40
7.0
 40
7.0
 40
8.0
 40
8.0
 40
8.0
 40
9.0
 40
9.0
 40
9.0
 40
10.0
 40
10.0
 40
10.0
 40
11.0
 40
11.0
 40
11.0
 40
12.0
 40
12.0
 40
12.0
 40
13.0
 40
13.0
 40
13.0
 40
14.0
 40
14.0
 40
14.0
 40
15.0
 40
15.0
 40
15.0
 40
16.0
 40
16.0
 40
16.0
 40
16.0
 10
74.78268769831823
 20
-120.2112670597909
 10
74.78268769831823
 20
-120.2896429820804
 10
74.76563447566623
 20
-120.391101044121
 10
74.70224471873763
 20
-120.4927313609358
 10
74.5921739179839
 20
-120.6661919186182
 10
74.46108803477014
 20
-120.6873792558525
 10
74.35325654608182
 20
-120.7063272810213
 10
74.35325654608182
 20
-120.7063272810213
 10
74.35325654608182
 20
-120.484290876997
 10
74.35325654608182
 20
-120.484290876997
 10
74.55203855558075
 20
-120.429169349233
 10
74.58166637675389
 20
-120.3022175806015
 10
74.58166637675389
 20
-120.2092000024998
 10
74.58166637675389
 20
-120.0695013805729
 10
74.48227537200444
 20
-119.9172281601249
 10
74.2495591719758
 20
-119.9172281601249
 10
73.99358857742175
 20
-119.9172281601249
 10
73.92382539384543
 20
-120.0970621444549
 10
73.92382539384543
 20
-120.2176404864387
 10
73.92382539384543
 20
-120.2493353649029
 10
73.92382539384543
 20
-120.391101044121
 10
74.05284421976805
 20
-120.4799845076404
 10
74.05284421976805
 20
-120.4799845076404
 10
74.03372393982491
 20
-120.6555121226139
 10
74.03372393982491
 20
-120.6555121226139
 10
74.03372393982491
 20
-120.6555121226139
 10
73.18760848864754
 20
-120.5349337806302
 10
73.18760848864754
 20
-120.5349337806302
 10
73.18760848864754
 20
-120.5349337806302
 10
73.18760848864754
 20
-119.756514455738
 10
73.18760848864754
 20
-119.756514455738
 10
73.18760848864754
 20
-119.756514455738
 10
73.38225638356415
 20
-119.756514455738
 10
73.38225638356415
 20
-119.756514455738
 10
73.38225638356415
 20
-119.756514455738
 10
73.38225638356415
 20
-120.3721530189521
 10
73.38225638356415
 20
-120.3721530189521
 10
73.38225638356415
 20
-120.3721530189521
 10
73.80531410915285
 20
-120.4376098331718
 10
73.80531410915285
 20
-120.4376098331718
 10
73.77137991862313
 20
-120.3762871335344
 10
73.73124455621998
 20
-120.2937770966627
 10
73.73124455621998
 20
-120.1754380667443
 10
73.73124455621998
 20
-119.9215345294814
 10
73.91745196719772
 20
-119.6845119600962
 10
74.23043889203267
 20
-119.6845119600962
 10
74.54790444099845
 20
-119.6845119600962
 10
74.78268769831823
 20
-119.908787676186
 10
74.78268769831823
 20
-120.2112670597909
 97
        0
 97
        0
 75
     2
 76
     1
 98
        0
  0
ENDBLK
  5
8B
330
88
100
AcDbEntity
  8
0
100
AcDbBlockEnd
  0
BLOCK
  5
9A
330
98
100
AcDbEntity
  8
0
100
AcDbBlockBegin
  2
block 6
 70
     0
 10
0.0
 20
0.0
 30
0.0
  3
block 6
  1

  0
SPLINE
  5
9C
330
98
100
AcDbEntity
  8
_U+30EC_U+30A4_U+30E4_U+30FC 1
370
     0
100
AcDbSpline
210
0.0
220
0.0
230
1.0
 70
    11
 71
     3
 72
    44
 73
    40
 74
     0
 42
0.0000000001
 43
0.0000000001
 12
1.0
 22
0.0
 32
0.0
 13
1.0
 23
0.0
 33
0.0
 40
0.0
 40
0.0
 40
0.0
 40
0.0
 40
1.0
 40
1.0
 40
1.0
 40
2.0
 40
2.0
 40
2.0
 40
3.0
 40
3.0
 40
3.0
 40
4.0
 40
4.0
 40
4.0
 40
5.0
 40
5.0
 40
5.0
 40
6.0
 40
6.0
 40
6.0
 40
7.0
 40
7.0
 40
7.0
 40
8.0
 40
8.0
 40
8.0
 40
9.0
 40
9.0
 40
9.0
 40
10.0
 40
10.0
 40
10.0
 40
11.0
 40
11.0
 40
11.0
 40
12.0
 40
12.0
 40
12.0
 40
13.0
 40
13.0
 40
13.0
 40
13.0
 10
74.15016816722635
 20
-135.3109483168667
 30
0.0
 10
74.3088148143221
 20
-135.529022861083
 30
0.0
 10
74.38288436725497
 20
-135.6223849487333
 30
0.0
 10
74.52671710376416
 20
-135.6706162855268
 30
0.0
 10
74.52671710376416
 20
-135.6706162855268
 30
0.0
 10
74.52671710376416
 20
-134.8923692154088
 30
0.0
 10
74.52671710376416
 20
-134.8923692154088
 30
0.0
 10
74.52671710376416
 20
-134.8923692154088
 30
0.0
 10
74.73187253991078
 20
-134.8923692154088
 30
0.0
 10
74.73187253991078
 20
-134.8923692154088
 30
0.0
 10
74.73187253991078
 20
-134.8923692154088
 30
0.0
 10
74.73187253991078
 20
-135.9203857082074
 30
0.0
 10
74.73187253991078
 20
-135.9203857082074
 30
0.0
 10
74.37427162854185
 20
-135.8886908297431
 30
0.0
 10
74.29606796102668
 20
-135.8232340155234
 30
0.0
 10
73.99772269200405
 20
-135.4380723402724
 30
0.0
 10
73.79894068250513
 20
-135.1821017457184
 30
0.0
 10
73.73124455621998
 20
-135.1166449314986
 30
0.0
 10
73.59378524635851
 20
-135.1166449314986
 30
0.0
 10
73.4752739616659
 20
-135.1166449314986
 30
0.0
 10
73.34418807845215
 20
-135.1883029175918
 30
0.0
 10
73.34418807845215
 20
-135.3853623793481
 30
0.0
 10
73.34418807845215
 20
-135.6454670884845
 30
0.0
 10
73.57466496641537
 20
-135.6540798271976
 30
0.0
 10
73.69110919381681
 20
-135.6582139417799
 30
0.0
 10
73.69110919381681
 20
-135.6582139417799
 30
0.0
 10
73.69110919381681
 20
-135.8821451483211
 30
0.0
 10
73.69110919381681
 20
-135.8821451483211
 30
0.0
 10
73.56415742518536
 20
-135.8738769191565
 30
0.0
 10
73.45201956714047
 20
-135.8635416327008
 30
0.0
 10
73.33350828244788
 20
-135.7829263983459
 30
0.0
 10
73.17279457806097
 20
-135.6730278523665
 30
0.0
 10
73.13886038753127
 20
-135.4866481866144
 30
0.0
 10
73.13886038753127
 20
-135.370203959213
 30
0.0
 10
73.13886038753127
 20
-135.0932182821989
 30
0.0
 10
73.32300074121787
 20
-134.8858235339869
 30
0.0
 10
73.59585230364965
 20
-134.8858235339869
 30
0.0
 10
73.82426213432171
 20
-134.8858235339869
 30
0.0
 10
73.92382539384543
 20
-135.0022677613883
 30
0.0
 10
74.15016816722635
 20
-135.3109483168667
 30
0.0
  0
HATCH
  5
9D
330
98
100
AcDbEntity
  8
_U+30EC_U+30A4_U+30E4_U+30FC 1
 62
     7
420
 16777215
100
AcDbHatch
 10
0.0
 20
0.0
 30
0.0
210
0.0
220
0.0
230
1.0
  2
SOLID
 70
     1
 71
     0
 91
        1
 92
        1
 93
        1
 72
     4
 94
        3
 73
     0
 74
     1
 95
       44
 96
       40
 40
0.0
 40
0.0
 40
0.0
 40
0.0
 40
1.0
 40
1.0
 40
1.0
 40
2.0
 40
2.0
 40
2.0
 40
3.0
 40
3.0
 40
3.0
 40
4.0
 40
4.0
 40
4.0
 40
5.0
 40
5.0
 40
5.0
 40
6.0
 40
6.0
 40
6.0
 40
7.0
 40
7.0
 40
7.0
 40
8.0
 40
8.0
 40
8.0
 40
9.0
 40
9.0
 40
9.0
 40
10.0
 40
10.0
 40
10.0
 40
11.0
 40
11.0
 40
11.0
 40
12.0
 40
12.0
 40
12.0
 40
13.0
 40
13.0
 40
13.0
 40
13.0
 10
74.15016816722635
 20
-135.3109483168667
 10
74.3088148143221
 20
-135.529022861083
 10
74.38288436725497
 20
-135.6223849487333
 10
74.52671710376416
 20
-135.6706162855268
 10
74.52671710376416
 20
-135.6706162855268
 10
74.52671710376416
 20
-134.8923692154088
 10
74.52671710376416
 20
-134.8923692154088
 10
74.52671710376416
 20
-134.8923692154088
 10
74.73187253991078
 20
-134.8923692154088
 10
74.73187253991078
 20
-134.8923692154088
 10
74.73187253991078
 20
-134.8923692154088
 10
74.73187253991078
 20
-135.9203857082074
 10
74.73187253991078
 20
-135.9203857082074
 10
74.37427162854185
 20
-135.8886908297431
 10
74.29606796102668
 20
-135.8232340155234
 10
73.99772269200405
 20
-135.4380723402724
 10
73.79894068250513
 20
-135.1821017457184
 10
73.73124455621998
 20
-135.1166449314986
 10
73.59378524635851
 20
-135.1166449314986
 10
73.4752739616659
 20
-135.1166449314986
 10
73.34418807845215
 20
-135.1883029175918
 10
73.34418807845215
 20
-135.3853623793481
 10
73.34418807845215
 20
-135.6454670884845
 10
73.57466496641537
 20
-135.6540798271976
 10
73.69110919381681
 20
-135.6582139417799
 10
73.69110919381681
 20
-135.6582139417799
 10
73.69110919381681
 20
-135.8821451483211
 10
73.69110919381681
 20
-135.8821451483211
 10
73.56415742518536
 20
-135.8738769191565
 10
73.45201956714047
 20
-135.8635416327008
 10
73.33350828244788
 20
-135.7829263983459
 10
73.17279457806097
 20
-135.6730278523665
 10
73.13886038753127
 20
-135.4866481866144
 10
73.13886038753127
 20
-135.370203959213
 10
73.13886038753127
 20
-135.0932182821989
 10
73.32300074121787
 20
-134.8858235339869
 10
73.59585230364965
 20
-134.8858235339869
 10
73.82426213432171
 20
-134.8858235339869
 10
73.92382539384543
 20
-135.0022677613883
 10
74.15016816722635
 20
-135.3109483168667
 97
        0
 97
        0
 75
     2
 76
     1
 98
        0
  0
POLYLINE
  5
9E
330
98
100
AcDbEntity
  8
_U+30EC_U+30A4_U+30E4_U+30FC 1
370
     0
100
AcDb2dPolyline
 66
     1
 10
0.0
 20
0.0
 30
0.0
  0
VERTEX
  5
9F
330
9E
100
AcDbEntity
  8
_U+30EC_U+30A4_U+30E4_U+30FC 1
370
     0
100
AcDbVertex
100
AcDb2dVertex
 10
74.73187253991078
 20
-134.667404480222
 30
0.0
  0
VERTEX
  5
A0
330
9E
100
AcDbEntity
  8
_U+30EC_U+30A4_U+30E4_U+30FC 1
370
     0
100
AcDbVertex
100
AcDb2dVertex
 10
74.48020831471328
 20
-134.667404480222
 30
0.0
  0
VERTEX
  5
A1
330
9E
100
AcDbEntity
  8
_U+30EC_U+30A4_U+30E4_U+30FC 1
370
     0
100
AcDbVertex
100
AcDb2dVertex
 10
74.48020831471328
 20
-134.4159125097988
 30
0.0
  0
VERTEX
  5
A2
330
9E
100
AcDbEntity
  8
_U+30EC_U+30A4_U+30E4_U+30FC 1
370
     0
100
AcDbVertex
100
AcDb2dVertex
 10
74.73187253991078
 20
-134.4159125097988
 30
0.0
  0
VERTEX
  5
A3
330
9E
100
AcDbEntity
  8
_U+30EC_U+30A4_U+30E4_U+30FC 1
370
     0
100
AcDbVertex
100
AcDb2dVertex
 10
74.73187253991078
 20
-134.667404480222
 30
0.0
  0
SEQEND
  5
A4
330
9E
100
AcDbEntity
  8
_U+30EC_U+30A4_U+30E4_U+30FC 1
370
     0
  0
HATCH
  5
A5
330
98
100
AcDbEntity
  8
_U+30EC_U+30A4_U+30E4_U+30FC 1
 62
     7
420
 16777215
100
AcDbHatch
 10
0.0
 20
0.0
 30
0.0
210
0.0
220
0.0
230
1.0
  2
SOLID
 70
     1
 71
     0
 91
        1
 92
        1
 93
        4
 72
     1
 10
74.73187253991078
 20
-134.667404480222
 11
74.48020831471328
 21
-134.667404480222
 72
     1
 10
74.48020831471328
 20
-134.667404480222
 11
74.48020831471328
 21
-134.4159125097988
 72
     1
 10
74.48020831471328
 20
-134.4159125097988
 11
74.73187253991078
 21
-134.4159125097988
 72
     1
 10
74.73187253991078
 20
-134.4159125097988
 11
74.73187253991078
 21
-134.667404480222
 97
        0
 75
     2
 76
     1
 98
        0
  0
SPLINE
  5
A6
330
98
100
AcDbEntity
  8
_U+30EC_U+30A4_U+30E4_U+30FC 1
370
     0
100
AcDbSpline
210
0.0
220
0.0
230
1.0
 70
    11
 71
     3
 72
    53
 73
    49
 74
     0
 42
0.0000000001
 43
0.0000000001
 12
1.0
 22
0.0
 32
0.0
 13
1.0
 23
0.0
 33
0.0
 40
0.0
 40
0.0
 40
0.0
 40
0.0
 40
1.0
 40
1.0
 40
1.0
 40
2.0
 40
2.0
 40
2.0
 40
3.0
 40
3.0
 40
3.0
 40
4.0
 40
4.0
 40
4.0
 40
5.0
 40
5.0
 40
5.0
 40
6.0
 40
6.0
 40
6.0
 40
7.0
 40
7.0
 40
7.0
 40
8.0
 40
8.0
 40
8.0
 40
9.0
 40
9.0
 40
9.0
 40
10.0
 40
10.0
 40
10.0
 40
11.0
 40
11.0
 40
11.0
 40
12.0
 40
12.0
 40
12.0
 40
13.0
 40
13.0
 40
13.0
 40
14.0
 40
14.0
 40
14.0
 40
15.0
 40
15.0
 40
15.0
 40
16.0
 40
16.0
 40
16.0
 40
16.0
 10
74.78268769831823
 20
-133.6979546106728
 30
0.0
 10
74.78268769831823
 20
-133.7765027877364
 30
0.0
 10
74.76563447566623
 20
-133.8777885950028
 30
0.0
 10
74.70224471873763
 20
-133.9797634213662
 30
0.0
 10
74.5921739179839
 20
-134.1530517242742
 30
0.0
 10
74.46108803477014
 20
-134.1740668067343
 30
0.0
 10
74.35325654608182
 20
-134.1933593414517
 30
0.0
 10
74.35325654608182
 20
-134.1933593414517
 30
0.0
 10
74.35325654608182
 20
-133.971150682653
 30
0.0
 10
74.35325654608182
 20
-133.971150682653
 30
0.0
 10
74.55203855558075
 20
-133.9160291548891
 30
0.0
 10
74.58166637675389
 20
-133.7889051314833
 30
0.0
 10
74.58166637675389
 20
-133.6958875533816
 30
0.0
 10
74.58166637675389
 20
-133.556361186229
 30
0.0
 10
74.48227537200444
 20
-133.4040879657809
 30
0.0
 10
74.2495591719758
 20
-133.4040879657809
 30
0.0
 10
73.99358857742175
 20
-133.4040879657809
 30
0.0
 10
73.92382539384543
 20
-133.583921950111
 30
0.0
 10
73.92382539384543
 20
-133.7045002920947
 30
0.0
 10
73.92382539384543
 20
-133.736195170559
 30
0.0
 10
73.92382539384543
 20
-133.8777885950028
 30
0.0
 10
74.05284421976805
 20
-133.9666720585222
 30
0.0
 10
74.05284421976805
 20
-133.9666720585222
 30
0.0
 10
74.03372393982491
 20
-134.14237192827
 30
0.0
 10
74.03372393982491
 20
-134.14237192827
 30
0.0
 10
74.03372393982491
 20
-134.14237192827
 30
0.0
 10
73.18760848864754
 20
-134.0217935862862
 30
0.0
 10
73.18760848864754
 20
-134.0217935862862
 30
0.0
 10
73.18760848864754
 20
-134.0217935862862
 30
0.0
 10
73.18760848864754
 20
-133.2432020066198
 30
0.0
 10
73.18760848864754
 20
-133.2432020066198
 30
0.0
 10
73.18760848864754
 20
-133.2432020066198
 30
0.0
 10
73.38225638356415
 20
-133.2432020066198
 30
0.0
 10
73.38225638356415
 20
-133.2432020066198
 30
0.0
 10
73.38225638356415
 20
-133.2432020066198
 30
0.0
 10
73.38225638356415
 20
-133.8591850793824
 30
0.0
 10
73.38225638356415
 20
-133.8591850793824
 30
0.0
 10
73.38225638356415
 20
-133.8591850793824
 30
0.0
 10
73.80531410915285
 20
-133.9246418936022
 30
0.0
 10
73.80531410915285
 20
-133.9246418936022
 30
0.0
 10
73.77137991862313
 20
-133.8633191939647
 30
0.0
 10
73.73124455621998
 20
-133.7806369023187
 30
0.0
 10
73.73124455621998
 20
-133.6621256176261
 30
0.0
 10
73.73124455621998
 20
-133.4085665899117
 30
0.0
 10
73.91745196719772
 20
-133.1715440205266
 30
0.0
 10
74.23043889203267
 20
-133.1715440205266
 30
0.0
 10
74.54790444099845
 20
-133.1715440205266
 30
0.0
 10
74.78268769831823
 20
-133.3954752270678
 30
0.0
 10
74.78268769831823
 20
-133.6979546106728
 30
0.0
  0
HATCH
  5
A7
330
98
100
AcDbEntity
  8
_U+30EC_U+30A4_U+30E4_U+30FC 1
 62
     7
420
 16777215
100
AcDbHatch
 10
0.0
 20
0.0
 30
0.0
210
0.0
220
0.0
230
1.0
  2
SOLID
 70
     1
 71
     0
 91
        1
 92
        1
 93
        1
 72
     4
 94
        3
 73
     0
 74
     1
 95
       53
 96
       49
 40
0.0
 40
0.0
 40
0.0
 40
0.0
 40
1.0
 40
1.0
 40
1.0
 40
2.0
 40
2.0
 40
2.0
 40
3.0
 40
3.0
 40
3.0
 40
4.0
 40
4.0
 40
4.0
 40
5.0
 40
5.0
 40
5.0
 40
6.0
 40
6.0
 40
6.0
 40
7.0
 40
7.0
 40
7.0
 40
8.0
 40
8.0
 40
8.0
 40
9.0
 40
9.0
 40
9.0
 40
10.0
 40
10.0
 40
10.0
 40
11.0
 40
11.0
 40
11.0
 40
12.0
 40
12.0
 40
12.0
 40
13.0
 40
13.0
 40
13.0
 40
14.0
 40
14.0
 40
14.0
 40
15.0
 40
15.0
 40
15.0
 40
16.0
 40
16.0
 40
16.0
 40
16.0
 10
74.78268769831823
 20
-133.6979546106728
 10
74.78268769831823
 20
-133.7765027877364
 10
74.76563447566623
 20
-133.8777885950028
 10
74.70224471873763
 20
-133.9797634213662
 10
74.5921739179839
 20
-134.1530517242742
 10
74.46108803477014
 20
-134.1740668067343
 10
74.35325654608182
 20
-134.1933593414517
 10
74.35325654608182
 20
-134.1933593414517
 10
74.35325654608182
 20
-133.971150682653
 10
74.35325654608182
 20
-133.971150682653
 10
74.55203855558075
 20
-133.9160291548891
 10
74.58166637675389
 20
-133.7889051314833
 10
74.58166637675389
 20
-133.6958875533816
 10
74.58166637675389
 20
-133.556361186229
 10
74.48227537200444
 20
-133.4040879657809
 10
74.2495591719758
 20
-133.4040879657809
 10
73.99358857742175
 20
-133.4040879657809
 10
73.92382539384543
 20
-133.583921950111
 10
73.92382539384543
 20
-133.7045002920947
 10
73.92382539384543
 20
-133.736195170559
 10
73.92382539384543
 20
-133.8777885950028
 10
74.05284421976805
 20
-133.9666720585222
 10
74.05284421976805
 20
-133.9666720585222
 10
74.03372393982491
 20
-134.14237192827
 10
74.03372393982491
 20
-134.14237192827
 10
74.03372393982491
 20
-134.14237192827
 10
73.18760848864754
 20
-134.0217935862862
 10
73.18760848864754
 20
-134.0217935862862
 10
73.18760848864754
 20
-134.0217935862862
 10
73.18760848864754
 20
-133.2432020066198
 10
73.18760848864754
 20
-133.2432020066198
 10
73.18760848864754
 20
-133.2432020066198
 10
73.38225638356415
 20
-133.2432020066198
 10
73.38225638356415
 20
-133.2432020066198
 10
73.38225638356415
 20
-133.2432020066198
 10
73.38225638356415
 20
-133.8591850793824
 10
73.38225638356415
 20
-133.8591850793824
 10
73.38225638356415
 20
-133.8591850793824
 10
73.80531410915285
 20
-133.9246418936022
 10
73.80531410915285
 20
-133.9246418936022
 10
73.77137991862313
 20
-133.8633191939647
 10
73.73124455621998
 20
-133.7806369023187
 10
73.73124455621998
 20
-133.6621256176261
 10
73.73124455621998
 20
-133.4085665899117
 10
73.91745196719772
 20
-133.1715440205266
 10
74.23043889203267
 20
-133.1715440205266
 10
74.54790444099845
 20
-133.1715440205266
 10
74.78268769831823
 20
-133.3954752270678
 10
74.78268769831823
 20
-133.6979546106728
 97
        0
 97
        0
 75
     2
 76
     1
 98
        0
  0
ENDBLK
  5
9B
330
98
100
AcDbEntity
  8
0
100
AcDbBlockEnd
  0
BLOCK
  5
BD
330
BB
100
AcDbEntity
  8
0
100
AcDbBlockBegin
  2
block 7
 70
     0
 10
0.0
 20
0.0
 30
0.0
  3
block 7
  1

  0
SPLINE
  5
BF
330
BB
100
AcDbEntity
  8
_U+30EC_U+30A4_U+30E4_U+30FC 1
370
     0
100
AcDbSpline
210
0.0
220
0.0
230
1.0
 70
    11
 71
     3
 72
    26
 73
    22
 74
     0
 42
0.0000000001
 43
0.0000000001
 12
1.0
 22
0.0
 32
0.0
 13
1.0
 23
0.0
 33
0.0
 40
0.0
 40
0.0
 40
0.0
 40
0.0
 40
1.0
 40
1.0
 40
1.0
 40
2.0
 40
2.0
 40
2.0
 40
3.0
 40
3.0
 40
3.0
 40
4.0
 40
4.0
 40
4.0
 40
5.0
 40
5.0
 40
5.0
 40
6.0
 40
6.0
 40
6.0
 40
7.0
 40
7.0
 40
7.0
 40
7.0
 10
91.41560870110443
 20
-119.9144720837367
 30
0.0
 10
91.41560870110443
 20
-119.9144720837367
 30
0.0
 10
91.41560870110443
 20
-118.8101467259398
 30
0.0
 10
91.41560870110443
 20
-118.8101467259398
 30
0.0
 10
91.41560870110443
 20
-118.8101467259398
 30
0.0
 10
91.08539629884324
 20
-118.8101467259398
 30
0.0
 10
91.08539629884324
 20
-118.8101467259398
 30
0.0
 10
91.08539629884324
 20
-118.8101467259398
 30
0.0
 10
91.08539629884324
 20
-118.6621798748483
 30
0.0
 10
91.08539629884324
 20
-118.6621798748483
 30
0.0
 10
91.41767575839559
 20
-118.6473659642618
 30
0.0
 10
91.46418454744646
 20
-118.4844129478095
 30
0.0
 10
91.4938123686196
 20
-118.3702080324734
 30
0.0
 10
91.4938123686196
 20
-118.3702080324734
 30
0.0
 10
91.6398844171942
 20
-118.3702080324734
 30
0.0
 10
91.6398844171942
 20
-118.3702080324734
 30
0.0
 10
91.6398844171942
 20
-118.3702080324734
 30
0.0
 10
91.6398844171942
 20
-119.9144720837367
 30
0.0
 10
91.6398844171942
 20
-119.9144720837367
 30
0.0
 10
91.6398844171942
 20
-119.9144720837367
 30
0.0
 10
91.41560870110443
 20
-119.9144720837367
 30
0.0
 10
91.41560870110443
 20
-119.9144720837367
 30
0.0
  0
HATCH
  5
C0
330
BB
100
AcDbEntity
  8
_U+30EC_U+30A4_U+30E4_U+30FC 1
 62
     7
420
 16777215
100
AcDbHatch
 10
0.0
 20
0.0
 30
0.0
210
0.0
220
0.0
230
1.0
  2
SOLID
 70
     1
 71
     0
 91
        1
 92
        1
 93
        1
 72
     4
 94
        3
 73
     0
 74
     1
 95
       26
 96
       22
 40
0.0
 40
0.0
 40
0.0
 40
0.0
 40
1.0
 40
1.0
 40
1.0
 40
2.0
 40
2.0
 40
2.0
 40
3.0
 40
3.0
 40
3.0
 40
4.0
 40
4.0
 40
4.0
 40
5.0
 40
5.0
 40
5.0
 40
6.0
 40
6.0
 40
6.0
 40
7.0
 40
7.0
 40
7.0
 40
7.0
 10
91.41560870110443
 20
-119.9144720837367
 10
91.41560870110443
 20
-119.9144720837367
 10
91.41560870110443
 20
-118.8101467259398
 10
91.41560870110443
 20
-118.8101467259398
 10
91.41560870110443
 20
-118.8101467259398
 10
91.08539629884324
 20
-118.8101467259398
 10
91.08539629884324
 20
-118.8101467259398
 10
91.08539629884324
 20
-118.8101467259398
 10
91.08539629884324
 20
-118.6621798748483
 10
91.08539629884324
 20
-118.6621798748483
 10
91.41767575839559
 20
-118.6473659642618
 10
91.46418454744646
 20
-118.4844129478095
 10
91.4938123686196
 20
-118.3702080324734
 10
91.4938123686196
 20
-118.3702080324734
 10
91.6398844171942
 20
-118.3702080324734
 10
91.6398844171942
 20
-118.3702080324734
 10
91.6398844171942
 20
-118.3702080324734
 10
91.6398844171942
 20
-119.9144720837367
 10
91.6398844171942
 20
-119.9144720837367
 10
91.6398844171942
 20
-119.9144720837367
 10
91.41560870110443
 20
-119.9144720837367
 10
91.41560870110443
 20
-119.9144720837367
 97
        0
 97
        0
 75
     2
 76
     1
 98
        0
  0
SPLINE
  5
C1
330
BB
100
AcDbEntity
  8
_U+30EC_U+30A4_U+30E4_U+30FC 1
370
     0
100
AcDbSpline
210
0.0
220
0.0
230
1.0
 70
    11
 71
     3
 72
    53
 73
    49
 74
     0
 42
0.0000000001
 43
0.0000000001
 12
1.0
 22
0.0
 32
0.0
 13
1.0
 23
0.0
 33
0.0
 40
0.0
 40
0.0
 40
0.0
 40
0.0
 40
1.0
 40
1.0
 40
1.0
 40
2.0
 40
2.0
 40
2.0
 40
3.0
 40
3.0
 40
3.0
 40
4.0
 40
4.0
 40
4.0
 40
5.0
 40
5.0
 40
5.0
 40
6.0
 40
6.0
 40
6.0
 40
7.0
 40
7.0
 40
7.0
 40
8.0
 40
8.0
 40
8.0
 40
9.0
 40
9.0
 40
9.0
 40
10.0
 40
10.0
 40
10.0
 40
11.0
 40
11.0
 40
11.0
 40
12.0
 40
12.0
 40
12.0
 40
13.0
 40
13.0
 40
13.0
 40
14.0
 40
14.0
 40
14.0
 40
15.0
 40
15.0
 40
15.0
 40
16.0
 40
16.0
 40
16.0
 40
16.0
 10
92.62208114003893
 20
-119.9652872421441
 30
0.0
 10
92.54387747252376
 20
-119.9652872421441
 30
0.0
 10
92.44224715570888
 20
-119.9482340194921
 30
0.0
 10
92.34061683889402
 20
-119.8848442625635
 30
0.0
 10
92.16732853598594
 20
-119.7747734618098
 30
0.0
 10
92.1459689439774
 20
-119.643687578596
 30
0.0
 10
92.12702091880853
 20
-119.5358560899077
 30
0.0
 10
92.12702091880853
 20
-119.5358560899077
 30
0.0
 10
92.34922957760715
 20
-119.5358560899077
 30
0.0
 10
92.34922957760715
 20
-119.5358560899077
 30
0.0
 10
92.40400659582261
 20
-119.7346380994066
 30
0.0
 10
92.53113061922834
 20
-119.7642659205798
 30
0.0
 10
92.62414819733007
 20
-119.7642659205798
 30
0.0
 10
92.7636745644827
 20
-119.7642659205798
 30
0.0
 10
92.91594778493074
 20
-119.6648749158303
 30
0.0
 10
92.91594778493074
 20
-119.4321587158017
 30
0.0
 10
92.91594778493074
 20
-119.1761881212476
 30
0.0
 10
92.73611380060069
 20
-119.1064249376713
 30
0.0
 10
92.61553545861696
 20
-119.1064249376713
 30
0.0
 10
92.58384058015265
 20
-119.1064249376713
 30
0.0
 10
92.44224715570888
 20
-119.1064249376713
 30
0.0
 10
92.35336369218945
 20
-119.2354437635939
 30
0.0
 10
92.35336369218945
 20
-119.2354437635939
 30
0.0
 10
92.1776638224417
 20
-119.2163234836508
 30
0.0
 10
92.1776638224417
 20
-119.2163234836508
 30
0.0
 10
92.1776638224417
 20
-119.2163234836508
 30
0.0
 10
92.29824216442545
 20
-118.3702080324734
 30
0.0
 10
92.29824216442545
 20
-118.3702080324734
 30
0.0
 10
92.29824216442545
 20
-118.3702080324734
 30
0.0
 10
93.07683374409191
 20
-118.3702080324734
 30
0.0
 10
93.07683374409191
 20
-118.3702080324734
 30
0.0
 10
93.07683374409191
 20
-118.3702080324734
 30
0.0
 10
93.07683374409191
 20
-118.56485592739
 30
0.0
 10
93.07683374409191
 20
-118.56485592739
 30
0.0
 10
93.07683374409191
 20
-118.56485592739
 30
0.0
 10
92.46119518087777
 20
-118.56485592739
 30
0.0
 10
92.46119518087777
 20
-118.56485592739
 30
0.0
 10
92.46119518087777
 20
-118.56485592739
 30
0.0
 10
92.39573836665801
 20
-118.9879136529787
 30
0.0
 10
92.39573836665801
 20
-118.9879136529787
 30
0.0
 10
92.45706106629547
 20
-118.953979462449
 30
0.0
 10
92.53939884839293
 20
-118.9138441000458
 30
0.0
 10
92.65791013308552
 20
-118.9138441000458
 30
0.0
 10
92.91181367034844
 20
-118.9138441000458
 30
0.0
 10
93.14883623973363
 20
-119.1000515110236
 30
0.0
 10
93.14883623973363
 20
-119.4130384358586
 30
0.0
 10
93.14883623973363
 20
-119.7305039848243
 30
0.0
 10
92.92456052364386
 20
-119.9652872421441
 30
0.0
 10
92.62208114003893
 20
-119.9652872421441
 30
0.0
  0
HATCH
  5
C2
330
BB
100
AcDbEntity
  8
_U+30EC_U+30A4_U+30E4_U+30FC 1
 62
     7
420
 16777215
100
AcDbHatch
 10
0.0
 20
0.0
 30
0.0
210
0.0
220
0.0
230
1.0
  2
SOLID
 70
     1
 71
     0
 91
        1
 92
        1
 93
        1
 72
     4
 94
        3
 73
     0
 74
     1
 95
       53
 96
       49
 40
0.0
 40
0.0
 40
0.0
 40
0.0
 40
1.0
 40
1.0
 40
1.0
 40
2.0
 40
2.0
 40
2.0
 40
3.0
 40
3.0
 40
3.0
 40
4.0
 40
4.0
 40
4.0
 40
5.0
 40
5.0
 40
5.0
 40
6.0
 40
6.0
 40
6.0
 40
7.0
 40
7.0
 40
7.0
 40
8.0
 40
8.0
 40
8.0
 40
9.0
 40
9.0
 40
9.0
 40
10.0
 40
10.0
 40
10.0
 40
11.0
 40
11.0
 40
11.0
 40
12.0
 40
12.0
 40
12.0
 40
13.0
 40
13.0
 40
13.0
 40
14.0
 40
14.0
 40
14.0
 40
15.0
 40
15.0
 40
15.0
 40
16.0
 40
16.0
 40
16.0
 40
16.0
 10
92.62208114003893
 20
-119.9652872421441
 10
92.54387747252376
 20
-119.9652872421441
 10
92.44224715570888
 20
-119.9482340194921
 10
92.34061683889402
 20
-119.8848442625635
 10
92.16732853598594
 20
-119.7747734618098
 10
92.1459689439774
 20
-119.643687578596
 10
92.12702091880853
 20
-119.5358560899077
 10
92.12702091880853
 20
-119.5358560899077
 10
92.34922957760715
 20
-119.5358560899077
 10
92.34922957760715
 20
-119.5358560899077
 10
92.40400659582261
 20
-119.7346380994066
 10
92.53113061922834
 20
-119.7642659205798
 10
92.62414819733007
 20
-119.7642659205798
 10
92.7636745644827
 20
-119.7642659205798
 10
92.91594778493074
 20
-119.6648749158303
 10
92.91594778493074
 20
-119.4321587158017
 10
92.91594778493074
 20
-119.1761881212476
 10
92.73611380060069
 20
-119.1064249376713
 10
92.61553545861696
 20
-119.1064249376713
 10
92.58384058015265
 20
-119.1064249376713
 10
92.44224715570888
 20
-119.1064249376713
 10
92.35336369218945
 20
-119.2354437635939
 10
92.35336369218945
 20
-119.2354437635939
 10
92.1776638224417
 20
-119.2163234836508
 10
92.1776638224417
 20
-119.2163234836508
 10
92.1776638224417
 20
-119.2163234836508
 10
92.29824216442545
 20
-118.3702080324734
 10
92.29824216442545
 20
-118.3702080324734
 10
92.29824216442545
 20
-118.3702080324734
 10
93.07683374409191
 20
-118.3702080324734
 10
93.07683374409191
 20
-118.3702080324734
 10
93.07683374409191
 20
-118.3702080324734
 10
93.07683374409191
 20
-118.56485592739
 10
93.07683374409191
 20
-118.56485592739
 10
93.07683374409191
 20
-118.56485592739
 10
92.46119518087777
 20
-118.56485592739
 10
92.46119518087777
 20
-118.56485592739
 10
92.46119518087777
 20
-118.56485592739
 10
92.39573836665801
 20
-118.9879136529787
 10
92.39573836665801
 20
-118.9879136529787
 10
92.45706106629547
 20
-118.953979462449
 10
92.53939884839293
 20
-118.9138441000458
 10
92.65791013308552
 20
-118.9138441000458
 10
92.91181367034844
 20
-118.9138441000458
 10
93.14883623973363
 20
-119.1000515110236
 10
93.14883623973363
 20
-119.4130384358586
 10
93.14883623973363
 20
-119.7305039848243
 10
92.92456052364386
 20
-119.9652872421441
 10
92.62208114003893
 20
-119.9652872421441
 97
        0
 97
        0
 75
     2
 76
     1
 98
        0
  0
POLYLINE
  5
C3
330
BB
100
AcDbEntity
  8
_U+30EC_U+30A4_U+30E4_U+30FC 1
370
     0
100
AcDb2dPolyline
 66
     1
 10
0.0
 20
0.0
 30
0.0
  0
VERTEX
  5
C4
330
C3
100
AcDbEntity
  8
_U+30EC_U+30A4_U+30E4_U+30FC 1
370
     0
100
AcDbVertex
100
AcDb2dVertex
 10
93.37793508950274
 20
-119.9144720837367
 30
0.0
  0
VERTEX
  5
C5
330
C3
100
AcDbEntity
  8
_U+30EC_U+30A4_U+30E4_U+30FC 1
370
     0
100
AcDbVertex
100
AcDb2dVertex
 10
93.37793508950274
 20
-119.6628078585392
 30
0.0
  0
VERTEX
  5
C6
330
C3
100
AcDbEntity
  8
_U+30EC_U+30A4_U+30E4_U+30FC 1
370
     0
100
AcDbVertex
100
AcDb2dVertex
 10
93.6297715694745
 20
-119.6628078585392
 30
0.0
  0
VERTEX
  5
C7
330
C3
100
AcDbEntity
  8
_U+30EC_U+30A4_U+30E4_U+30FC 1
370
     0
100
AcDbVertex
100
AcDb2dVertex
 10
93.6297715694745
 20
-119.9144720837367
 30
0.0
  0
VERTEX
  5
C8
330
C3
100
AcDbEntity
  8
_U+30EC_U+30A4_U+30E4_U+30FC 1
370
     0
100
AcDbVertex
100
AcDb2dVertex
 10
93.37793508950274
 20
-119.9144720837367
 30
0.0
  0
SEQEND
  5
C9
330
C3
100
AcDbEntity
  8
_U+30EC_U+30A4_U+30E4_U+30FC 1
370
     0
  0
HATCH
  5
CA
330
BB
100
AcDbEntity
  8
_U+30EC_U+30A4_U+30E4_U+30FC 1
 62
     7
420
 16777215
100
AcDbHatch
 10
0.0
 20
0.0
 30
0.0
210
0.0
220
0.0
230
1.0
  2
SOLID
 70
     1
 71
     0
 91
        1
 92
        1
 93
        4
 72
     1
 10
93.37793508950274
 20
-119.9144720837367
 11
93.37793508950274
 21
-119.6628078585392
 72
     1
 10
93.37793508950274
 20
-119.6628078585392
 11
93.6297715694745
 21
-119.6628078585392
 72
     1
 10
93.6297715694745
 20
-119.6628078585392
 11
93.6297715694745
 21
-119.9144720837367
 72
     1
 10
93.6297715694745
 20
-119.9144720837367
 11
93.37793508950274
 21
-119.9144720837367
 97
        0
 75
     2
 76
     1
 98
        0
  0
SPLINE
  5
CB
330
BB
100
AcDbEntity
  8
_U+30EC_U+30A4_U+30E4_U+30FC 1
370
     0
100
AcDbSpline
210
0.0
220
0.0
230
1.0
 70
    11
 71
     3
 72
    44
 73
    40
 74
     0
 42
0.0000000001
 43
0.0000000001
 12
1.0
 22
0.0
 32
0.0
 13
1.0
 23
0.0
 33
0.0
 40
0.0
 40
0.0
 40
0.0
 40
0.0
 40
1.0
 40
1.0
 40
1.0
 40
2.0
 40
2.0
 40
2.0
 40
3.0
 40
3.0
 40
3.0
 40
4.0
 40
4.0
 40
4.0
 40
5.0
 40
5.0
 40
5.0
 40
6.0
 40
6.0
 40
6.0
 40
7.0
 40
7.0
 40
7.0
 40
8.0
 40
8.0
 40
8.0
 40
9.0
 40
9.0
 40
9.0
 40
10.0
 40
10.0
 40
10.0
 40
11.0
 40
11.0
 40
11.0
 40
12.0
 40
12.0
 40
12.0
 40
13.0
 40
13.0
 40
13.0
 40
13.0
 10
94.45900605277414
 20
-119.3327677110522
 30
0.0
 10
94.24127601810635
 20
-119.491414358148
 30
0.0
 10
94.14825844000461
 20
-119.5654839110809
 30
0.0
 10
94.09933808411405
 20
-119.70931664759
 30
0.0
 10
94.09933808411405
 20
-119.70931664759
 30
0.0
 10
94.87792966378052
 20
-119.70931664759
 30
0.0
 10
94.87792966378052
 20
-119.70931664759
 30
0.0
 10
94.87792966378052
 20
-119.70931664759
 30
0.0
 10
94.87792966378052
 20
-119.9144720837367
 30
0.0
 10
94.87792966378052
 20
-119.9144720837367
 30
0.0
 10
94.87792966378052
 20
-119.9144720837367
 30
0.0
 10
93.84991317098196
 20
-119.9144720837367
 30
0.0
 10
93.84991317098196
 20
-119.9144720837367
 30
0.0
 10
93.88160804944627
 20
-119.5568711723677
 30
0.0
 10
93.94706486366601
 20
-119.4786675048526
 30
0.0
 10
94.33222653891694
 20
-119.1803222358299
 30
0.0
 10
94.58819713347101
 20
-118.981540226331
 30
0.0
 10
94.65365394769076
 20
-118.9138441000458
 30
0.0
 10
94.65365394769076
 20
-118.7763847901844
 30
0.0
 10
94.65365394769076
 20
-118.6578735054918
 30
0.0
 10
94.58165145204903
 20
-118.526787622278
 30
0.0
 10
94.38493649984127
 20
-118.526787622278
 30
0.0
 10
94.1248317907049
 20
-118.526787622278
 30
0.0
 10
94.11621905199178
 20
-118.7572645102412
 30
0.0
 10
94.11208493740948
 20
-118.8737087376427
 30
0.0
 10
94.11208493740948
 20
-118.8737087376427
 30
0.0
 10
93.88780922131971
 20
-118.8737087376427
 30
0.0
 10
93.88780922131971
 20
-118.8737087376427
 30
0.0
 10
93.89642196003284
 20
-118.7467569690112
 30
0.0
 10
93.90710175603712
 20
-118.6346191109664
 30
0.0
 10
93.98737248084343
 20
-118.5161078262738
 30
0.0
 10
94.09727102682291
 20
-118.3553941218868
 30
0.0
 10
94.28365069257492
 20
-118.3214599313571
 30
0.0
 10
94.39975041042784
 20
-118.3214599313571
 30
0.0
 10
94.67708059699045
 20
-118.3214599313571
 30
0.0
 10
94.8844753452025
 20
-118.5056002850437
 30
0.0
 10
94.8844753452025
 20
-118.7784518474755
 30
0.0
 10
94.8844753452025
 20
-119.0068616781476
 30
0.0
 10
94.76803111780106
 20
-119.1064249376713
 30
0.0
 10
94.45900605277414
 20
-119.3327677110522
 30
0.0
  0
HATCH
  5
CC
330
BB
100
AcDbEntity
  8
_U+30EC_U+30A4_U+30E4_U+30FC 1
 62
     7
420
 16777215
100
AcDbHatch
 10
0.0
 20
0.0
 30
0.0
210
0.0
220
0.0
230
1.0
  2
SOLID
 70
     1
 71
     0
 91
        1
 92
        1
 93
        1
 72
     4
 94
        3
 73
     0
 74
     1
 95
       44
 96
       40
 40
0.0
 40
0.0
 40
0.0
 40
0.0
 40
1.0
 40
1.0
 40
1.0
 40
2.0
 40
2.0
 40
2.0
 40
3.0
 40
3.0
 40
3.0
 40
4.0
 40
4.0
 40
4.0
 40
5.0
 40
5.0
 40
5.0
 40
6.0
 40
6.0
 40
6.0
 40
7.0
 40
7.0
 40
7.0
 40
8.0
 40
8.0
 40
8.0
 40
9.0
 40
9.0
 40
9.0
 40
10.0
 40
10.0
 40
10.0
 40
11.0
 40
11.0
 40
11.0
 40
12.0
 40
12.0
 40
12.0
 40
13.0
 40
13.0
 40
13.0
 40
13.0
 10
94.45900605277414
 20
-119.3327677110522
 10
94.24127601810635
 20
-119.491414358148
 10
94.14825844000461
 20
-119.5654839110809
 10
94.09933808411405
 20
-119.70931664759
 10
94.09933808411405
 20
-119.70931664759
 10
94.87792966378052
 20
-119.70931664759
 10
94.87792966378052
 20
-119.70931664759
 10
94.87792966378052
 20
-119.70931664759
 10
94.87792966378052
 20
-119.9144720837367
 10
94.87792966378052
 20
-119.9144720837367
 10
94.87792966378052
 20
-119.9144720837367
 10
93.84991317098196
 20
-119.9144720837367
 10
93.84991317098196
 20
-119.9144720837367
 10
93.88160804944627
 20
-119.5568711723677
 10
93.94706486366601
 20
-119.4786675048526
 10
94.33222653891694
 20
-119.1803222358299
 10
94.58819713347101
 20
-118.981540226331
 10
94.65365394769076
 20
-118.9138441000458
 10
94.65365394769076
 20
-118.7763847901844
 10
94.65365394769076
 20
-118.6578735054918
 10
94.58165145204903
 20
-118.526787622278
 10
94.38493649984127
 20
-118.526787622278
 10
94.1248317907049
 20
-118.526787622278
 10
94.11621905199178
 20
-118.7572645102412
 10
94.11208493740948
 20
-118.8737087376427
 10
94.11208493740948
 20
-118.8737087376427
 10
93.88780922131971
 20
-118.8737087376427
 10
93.88780922131971
 20
-118.8737087376427
 10
93.89642196003284
 20
-118.7467569690112
 10
93.90710175603712
 20
-118.6346191109664
 10
93.98737248084343
 20
-118.5161078262738
 10
94.09727102682291
 20
-118.3553941218868
 10
94.28365069257492
 20
-118.3214599313571
 10
94.39975041042784
 20
-118.3214599313571
 10
94.67708059699045
 20
-118.3214599313571
 10
94.8844753452025
 20
-118.5056002850437
 10
94.8844753452025
 20
-118.7784518474755
 10
94.8844753452025
 20
-119.0068616781476
 10
94.76803111780106
 20
-119.1064249376713
 10
94.45900605277414
 20
-119.3327677110522
 97
        0
 97
        0
 75
     2
 76
     1
 98
        0
  0
ENDBLK
  5
BE
330
BB
100
AcDbEntity
  8
0
100
AcDbBlockEnd
  0
BLOCK
  5
DE
330
DC
100
AcDbEntity
  8
0
100
AcDbBlockBegin
  2
block 8
 70
     0
 10
0.0
 20
0.0
 30
0.0
  3
block 8
  1

  0
SPLINE
  5
E0
330
DC
100
AcDbEntity
  8
_U+30EC_U+30A4_U+30E4_U+30FC 1
370
     0
100
AcDbSpline
210
0.0
220
0.0
230
1.0
 70
    11
 71
     3
 72
    32
 73
    28
 74
     0
 42
0.0000000001
 43
0.0000000001
 12
1.0
 22
0.0
 32
0.0
 13
1.0
 23
0.0
 33
0.0
 40
0.0
 40
0.0
 40
0.0
 40
0.0
 40
1.0
 40
1.0
 40
1.0
 40
2.0
 40
2.0
 40
2.0
 40
3.0
 40
3.0
 40
3.0
 40
4.0
 40
4.0
 40
4.0
 40
5.0
 40
5.0
 40
5.0
 40
6.0
 40
6.0
 40
6.0
 40
7.0
 40
7.0
 40
7.0
 40
8.0
 40
8.0
 40
8.0
 40
9.0
 40
9.0
 40
9.0
 40
9.0
 10
83.31429441276518
 20
-135.2916557821493
 30
0.0
 10
83.14100610985712
 20
-135.2916557821493
 30
0.0
 10
82.8953708017588
 20
-135.2213758342502
 30
0.0
 10
82.85747475142105
 20
-134.8892686294721
 30
0.0
 10
82.85747475142105
 20
-134.8892686294721
 30
0.0
 10
83.07107067150655
 20
-134.8892686294721
 30
0.0
 10
83.07107067150655
 20
-134.8892686294721
 30
0.0
 10
83.08175046751082
 20
-134.9485242718184
 30
0.0
 10
83.11344534597511
 20
-135.0966633776842
 30
0.0
 10
83.31636147005634
 20
-135.0966633776842
 30
0.0
 10
83.60850556720551
 20
-135.0966633776842
 30
0.0
 10
83.64640161754326
 20
-134.7666232301972
 30
0.0
 10
83.65914847083869
 20
-134.5616400488249
 30
0.0
 10
83.5681979500281
 20
-134.6419107736312
 30
0.0
 10
83.50067407851719
 20
-134.6990993586863
 30
0.0
 10
83.318773036896
 20
-134.6990993586863
 30
0.0
 10
83.13893905256596
 20
-134.6990993586863
 30
0.0
 10
82.83645966896103
 20
-134.5933349272892
 30
0.0
 10
82.83645966896103
 20
-134.1871581695782
 30
0.0
 10
82.83645966896103
 20
-133.867453308547
 30
0.0
 10
83.03524167845994
 20
-133.6476562165881
 30
0.0
 10
83.35253497265145
 20
-133.6476562165881
 30
0.0
 10
83.86654321905073
 20
-133.6476562165881
 30
0.0
 10
83.87722301505501
 20
-134.2019720801648
 30
0.0
 10
83.87722301505501
 20
-134.4155680002503
 30
0.0
 10
83.87722301505501
 20
-134.6460448882135
 30
0.0
 10
83.8579304803376
 20
-135.2916557821493
 30
0.0
 10
83.31429441276518
 20
-135.2916557821493
 30
0.0
  0
SPLINE
  5
E1
330
DC
100
AcDbEntity
  8
_U+30EC_U+30A4_U+30E4_U+30FC 1
370
     0
100
AcDbSpline
210
0.0
220
0.0
230
1.0
 70
    11
 71
     3
 72
    17
 73
    13
 74
     0
 42
0.0000000001
 43
0.0000000001
 12
1.0
 22
0.0
 32
0.0
 13
1.0
 23
0.0
 33
0.0
 40
0.0
 40
0.0
 40
0.0
 40
0.0
 40
1.0
 40
1.0
 40
1.0
 40
2.0
 40
2.0
 40
2.0
 40
3.0
 40
3.0
 40
3.0
 40
4.0
 40
4.0
 40
4.0
 40
4.0
 10
83.3546020299426
 20
-133.8402370542136
 30
0.0
 10
83.23609074525001
 20
-133.8402370542136
 30
0.0
 10
83.06039087550226
 20
-133.8970811297202
 30
0.0
 10
83.06039087550226
 20
-134.1830240549959
 30
0.0
 10
83.06039087550226
 20
-134.4090223188283
 30
0.0
 10
83.20026175220342
 20
-134.5044514637697
 30
0.0
 10
83.33565400477373
 20
-134.5044514637697
 30
0.0
 10
83.59782577120124
 20
-134.5044514637697
 30
0.0
 10
83.63606633108752
 20
-134.2949896582665
 30
0.0
 10
83.63606633108752
 20
-134.1788899404136
 30
0.0
 10
83.63606633108752
 20
-134.0031900706659
 30
0.0
 10
83.5406371861461
 20
-133.8402370542136
 30
0.0
 10
83.3546020299426
 20
-133.8402370542136
 30
0.0
  0
HATCH
  5
E2
330
DC
100
AcDbEntity
  8
_U+30EC_U+30A4_U+30E4_U+30FC 1
 62
     7
420
 16777215
100
AcDbHatch
 10
0.0
 20
0.0
 30
0.0
210
0.0
220
0.0
230
1.0
  2
SOLID
 70
     1
 71
     0
 91
        2
 92
        1
 93
        1
 72
     4
 94
        3
 73
     0
 74
     1
 95
       32
 96
       28
 40
0.0
 40
0.0
 40
0.0
 40
0.0
 40
1.0
 40
1.0
 40
1.0
 40
2.0
 40
2.0
 40
2.0
 40
3.0
 40
3.0
 40
3.0
 40
4.0
 40
4.0
 40
4.0
 40
5.0
 40
5.0
 40
5.0
 40
6.0
 40
6.0
 40
6.0
 40
7.0
 40
7.0
 40
7.0
 40
8.0
 40
8.0
 40
8.0
 40
9.0
 40
9.0
 40
9.0
 40
9.0
 10
83.31429441276518
 20
-135.2916557821493
 10
83.14100610985712
 20
-135.2916557821493
 10
82.8953708017588
 20
-135.2213758342502
 10
82.85747475142105
 20
-134.8892686294721
 10
82.85747475142105
 20
-134.8892686294721
 10
83.07107067150655
 20
-134.8892686294721
 10
83.07107067150655
 20
-134.8892686294721
 10
83.08175046751082
 20
-134.9485242718184
 10
83.11344534597511
 20
-135.0966633776842
 10
83.31636147005634
 20
-135.0966633776842
 10
83.60850556720551
 20
-135.0966633776842
 10
83.64640161754326
 20
-134.7666232301972
 10
83.65914847083869
 20
-134.5616400488249
 10
83.5681979500281
 20
-134.6419107736312
 10
83.50067407851719
 20
-134.6990993586863
 10
83.318773036896
 20
-134.6990993586863
 10
83.13893905256596
 20
-134.6990993586863
 10
82.83645966896103
 20
-134.5933349272892
 10
82.83645966896103
 20
-134.1871581695782
 10
82.83645966896103
 20
-133.867453308547
 10
83.03524167845994
 20
-133.6476562165881
 10
83.35253497265145
 20
-133.6476562165881
 10
83.86654321905073
 20
-133.6476562165881
 10
83.87722301505501
 20
-134.2019720801648
 10
83.87722301505501
 20
-134.4155680002503
 10
83.87722301505501
 20
-134.6460448882135
 10
83.8579304803376
 20
-135.2916557821493
 10
83.31429441276518
 20
-135.2916557821493
 97
        0
 97
        0
 92
        1
 93
        1
 72
     4
 94
        3
 73
     0
 74
     1
 95
       17
 96
       13
 40
0.0
 40
0.0
 40
0.0
 40
0.0
 40
1.0
 40
1.0
 40
1.0
 40
2.0
 40
2.0
 40
2.0
 40
3.0
 40
3.0
 40
3.0
 40
4.0
 40
4.0
 40
4.0
 40
4.0
 10
83.3546020299426
 20
-133.8402370542136
 10
83.23609074525001
 20
-133.8402370542136
 10
83.06039087550226
 20
-133.8970811297202
 10
83.06039087550226
 20
-134.1830240549959
 10
83.06039087550226
 20
-134.4090223188283
 10
83.20026175220342
 20
-134.5044514637697
 10
83.33565400477373
 20
-134.5044514637697
 10
83.59782577120124
 20
-134.5044514637697
 10
83.63606633108752
 20
-134.2949896582665
 10
83.63606633108752
 20
-134.1788899404136
 10
83.63606633108752
 20
-134.0031900706659
 10
83.5406371861461
 20
-133.8402370542136
 10
83.3546020299426
 20
-133.8402370542136
 97
        0
 97
        0
 75
     2
 76
     1
 98
        0
  0
ENDBLK
  5
DF
330
DC
100
AcDbEntity
  8
0
100
AcDbBlockEnd
  0
BLOCK
  5
FE
330
FC
100
AcDbEntity
  8
0
100
AcDbBlockBegin
  2
block 9
 70
     0
 10
0.0
 20
0.0
 30
0.0
  3
block 9
  1

  0
SPLINE
  5
100
330
FC
100
AcDbEntity
  8
_U+30EC_U+30A4_U+30E4_U+30FC 1
370
     0
100
AcDbSpline
210
0.0
220
0.0
230
1.0
 70
    11
 71
     3
 72
    53
 73
    49
 74
     0
 42
0.0000000001
 43
0.0000000001
 12
1.0
 22
0.0
 32
0.0
 13
1.0
 23
0.0
 33
0.0
 40
0.0
 40
0.0
 40
0.0
 40
0.0
 40
1.0
 40
1.0
 40
1.0
 40
2.0
 40
2.0
 40
2.0
 40
3.0
 40
3.0
 40
3.0
 40
4.0
 40
4.0
 40
4.0
 40
5.0
 40
5.0
 40
5.0
 40
6.0
 40
6.0
 40
6.0
 40
7.0
 40
7.0
 40
7.0
 40
8.0
 40
8.0
 40
8.0
 40
9.0
 40
9.0
 40
9.0
 40
10.0
 40
10.0
 40
10.0
 40
11.0
 40
11.0
 40
11.0
 40
12.0
 40
12.0
 40
12.0
 40
13.0
 40
13.0
 40
13.0
 40
14.0
 40
14.0
 40
14.0
 40
15.0
 40
15.0
 40
15.0
 40
16.0
 40
16.0
 40
16.0
 40
16.0
 10
87.47459172075288
 20
-128.0123412765907
 30
0.0
 10
87.39638805323771
 20
-128.0123412765907
 30
0.0
 10
87.29475773642284
 20
-127.9952880539387
 30
0.0
 10
87.19312741960798
 20
-127.9318982970101
 30
0.0
 10
87.0198391166999
 20
-127.8218274962564
 30
0.0
 10
86.99847952469136
 20
-127.6907416130426
 30
0.0
 10
86.97953149952248
 20
-127.5829101243543
 30
0.0
 10
86.97953149952248
 20
-127.5829101243543
 30
0.0
 10
87.2017401583211
 20
-127.5829101243543
 30
0.0
 10
87.2017401583211
 20
-127.5829101243543
 30
0.0
 10
87.25651717653658
 20
-127.7816921338532
 30
0.0
 10
87.38364119994229
 20
-127.8113199550263
 30
0.0
 10
87.47665877804404
 20
-127.8113199550263
 30
0.0
 10
87.61618514519665
 20
-127.8113199550263
 30
0.0
 10
87.76845836564469
 20
-127.7119289502769
 30
0.0
 10
87.76845836564469
 20
-127.4792127502483
 30
0.0
 10
87.76845836564469
 20
-127.2232421556942
 30
0.0
 10
87.58862438131466
 20
-127.1534789721179
 30
0.0
 10
87.46804603933091
 20
-127.1534789721179
 30
0.0
 10
87.43635116086661
 20
-127.1534789721179
 30
0.0
 10
87.29475773642284
 20
-127.1534789721179
 30
0.0
 10
87.2058742729034
 20
-127.2824977980405
 30
0.0
 10
87.2058742729034
 20
-127.2824977980405
 30
0.0
 10
87.03017440315566
 20
-127.2633775180974
 30
0.0
 10
87.03017440315566
 20
-127.2633775180974
 30
0.0
 10
87.03017440315566
 20
-127.2633775180974
 30
0.0
 10
87.1507527451394
 20
-126.41726206692
 30
0.0
 10
87.1507527451394
 20
-126.41726206692
 30
0.0
 10
87.1507527451394
 20
-126.41726206692
 30
0.0
 10
87.92934432480587
 20
-126.41726206692
 30
0.0
 10
87.92934432480587
 20
-126.41726206692
 30
0.0
 10
87.92934432480587
 20
-126.41726206692
 30
0.0
 10
87.92934432480587
 20
-126.6119099618366
 30
0.0
 10
87.92934432480587
 20
-126.6119099618366
 30
0.0
 10
87.92934432480587
 20
-126.6119099618366
 30
0.0
 10
87.31370576159172
 20
-126.6119099618366
 30
0.0
 10
87.31370576159172
 20
-126.6119099618366
 30
0.0
 10
87.31370576159172
 20
-126.6119099618366
 30
0.0
 10
87.24824894737196
 20
-127.0349676874253
 30
0.0
 10
87.24824894737196
 20
-127.0349676874253
 30
0.0
 10
87.30957164700942
 20
-127.0010334968956
 30
0.0
 10
87.39190942910689
 20
-126.9608981344924
 30
0.0
 10
87.51042071379948
 20
-126.9608981344924
 30
0.0
 10
87.76432425106239
 20
-126.9608981344924
 30
0.0
 10
88.00134682044758
 20
-127.1471055454702
 30
0.0
 10
88.00134682044758
 20
-127.4600924703051
 30
0.0
 10
88.00134682044758
 20
-127.7775580192709
 30
0.0
 10
87.77707110435782
 20
-128.0123412765907
 30
0.0
 10
87.47459172075288
 20
-128.0123412765907
 30
0.0
  0
HATCH
  5
101
330
FC
100
AcDbEntity
  8
_U+30EC_U+30A4_U+30E4_U+30FC 1
 62
     7
420
 16777215
100
AcDbHatch
 10
0.0
 20
0.0
 30
0.0
210
0.0
220
0.0
230
1.0
  2
SOLID
 70
     1
 71
     0
 91
        1
 92
        1
 93
        1
 72
     4
 94
        3
 73
     0
 74
     1
 95
       53
 96
       49
 40
0.0
 40
0.0
 40
0.0
 40
0.0
 40
1.0
 40
1.0
 40
1.0
 40
2.0
 40
2.0
 40
2.0
 40
3.0
 40
3.0
 40
3.0
 40
4.0
 40
4.0
 40
4.0
 40
5.0
 40
5.0
 40
5.0
 40
6.0
 40
6.0
 40
6.0
 40
7.0
 40
7.0
 40
7.0
 40
8.0
 40
8.0
 40
8.0
 40
9.0
 40
9.0
 40
9.0
 40
10.0
 40
10.0
 40
10.0
 40
11.0
 40
11.0
 40
11.0
 40
12.0
 40
12.0
 40
12.0
 40
13.0
 40
13.0
 40
13.0
 40
14.0
 40
14.0
 40
14.0
 40
15.0
 40
15.0
 40
15.0
 40
16.0
 40
16.0
 40
16.0
 40
16.0
 10
87.47459172075288
 20
-128.0123412765907
 10
87.39638805323771
 20
-128.0123412765907
 10
87.29475773642284
 20
-127.9952880539387
 10
87.19312741960798
 20
-127.9318982970101
 10
87.0198391166999
 20
-127.8218274962564
 10
86.99847952469136
 20
-127.6907416130426
 10
86.97953149952248
 20
-127.5829101243543
 10
86.97953149952248
 20
-127.5829101243543
 10
87.2017401583211
 20
-127.5829101243543
 10
87.2017401583211
 20
-127.5829101243543
 10
87.25651717653658
 20
-127.7816921338532
 10
87.38364119994229
 20
-127.8113199550263
 10
87.47665877804404
 20
-127.8113199550263
 10
87.61618514519665
 20
-127.8113199550263
 10
87.76845836564469
 20
-127.7119289502769
 10
87.76845836564469
 20
-127.4792127502483
 10
87.76845836564469
 20
-127.2232421556942
 10
87.58862438131466
 20
-127.1534789721179
 10
87.46804603933091
 20
-127.1534789721179
 10
87.43635116086661
 20
-127.1534789721179
 10
87.29475773642284
 20
-127.1534789721179
 10
87.2058742729034
 20
-127.2824977980405
 10
87.2058742729034
 20
-127.2824977980405
 10
87.03017440315566
 20
-127.2633775180974
 10
87.03017440315566
 20
-127.2633775180974
 10
87.03017440315566
 20
-127.2633775180974
 10
87.1507527451394
 20
-126.41726206692
 10
87.1507527451394
 20
-126.41726206692
 10
87.1507527451394
 20
-126.41726206692
 10
87.92934432480587
 20
-126.41726206692
 10
87.92934432480587
 20
-126.41726206692
 10
87.92934432480587
 20
-126.41726206692
 10
87.92934432480587
 20
-126.6119099618366
 10
87.92934432480587
 20
-126.6119099618366
 10
87.92934432480587
 20
-126.6119099618366
 10
87.31370576159172
 20
-126.6119099618366
 10
87.31370576159172
 20
-126.6119099618366
 10
87.31370576159172
 20
-126.6119099618366
 10
87.24824894737196
 20
-127.0349676874253
 10
87.24824894737196
 20
-127.0349676874253
 10
87.30957164700942
 20
-127.0010334968956
 10
87.39190942910689
 20
-126.9608981344924
 10
87.51042071379948
 20
-126.9608981344924
 10
87.76432425106239
 20
-126.9608981344924
 10
88.00134682044758
 20
-127.1471055454702
 10
88.00134682044758
 20
-127.4600924703051
 10
88.00134682044758
 20
-127.7775580192709
 10
87.77707110435782
 20
-128.0123412765907
 10
87.47459172075288
 20
-128.0123412765907
 97
        0
 97
        0
 75
     2
 76
     1
 98
        0
  0
ENDBLK
  5
FF
330
FC
100
AcDbEntity
  8
0
100
AcDbBlockEnd
  0
BLOCK
  5
104
330
102
100
AcDbEntity
  8
0
100
AcDbBlockBegin
  2
block 10
 70
     0
 10
0.0
 20
0.0
 30
0.0
  3
block 10
  1

  0
SPLINE
  5
106
330
102
100
AcDbEntity
  8
_U+30EC_U+30A4_U+30E4_U+30FC 1
370
     0
100
AcDbSpline
210
0.0
220
0.0
230
1.0
 70
    11
 71
     3
 72
    26
 73
    22
 74
     0
 42
0.0000000001
 43
0.0000000001
 12
1.0
 22
0.0
 32
0.0
 13
1.0
 23
0.0
 33
0.0
 40
0.0
 40
0.0
 40
0.0
 40
0.0
 40
1.0
 40
1.0
 40
1.0
 40
2.0
 40
2.0
 40
2.0
 40
3.0
 40
3.0
 40
3.0
 40
4.0
 40
4.0
 40
4.0
 40
5.0
 40
5.0
 40
5.0
 40
6.0
 40
6.0
 40
6.0
 40
7.0
 40
7.0
 40
7.0
 40
7.0
 10
80.39492049856447
 20
-127.0926730368032
 30
0.0
 10
80.39492049856447
 20
-127.0926730368032
 30
0.0
 10
80.39492049856447
 20
-125.9883476790064
 30
0.0
 10
80.39492049856447
 20
-125.9883476790064
 30
0.0
 10
80.39492049856447
 20
-125.9883476790064
 30
0.0
 10
80.06488035107753
 20
-125.9883476790064
 30
0.0
 10
80.06488035107753
 20
-125.9883476790064
 30
0.0
 10
80.06488035107753
 20
-125.9883476790064
 30
0.0
 10
80.06488035107753
 20
-125.8403808279149
 30
0.0
 10
80.06488035107753
 20
-125.8403808279149
 30
0.0
 10
80.39698755585562
 20
-125.8255669173283
 30
0.0
 10
80.44349634490649
 20
-125.662613900876
 30
0.0
 10
80.47312416607964
 20
-125.54840898554
 30
0.0
 10
80.47312416607964
 20
-125.54840898554
 30
0.0
 10
80.61919621465424
 20
-125.54840898554
 30
0.0
 10
80.61919621465424
 20
-125.54840898554
 30
0.0
 10
80.61919621465424
 20
-125.54840898554
 30
0.0
 10
80.61919621465424
 20
-127.0926730368032
 30
0.0
 10
80.61919621465424
 20
-127.0926730368032
 30
0.0
 10
80.61919621465424
 20
-127.0926730368032
 30
0.0
 10
80.39492049856447
 20
-127.0926730368032
 30
0.0
 10
80.39492049856447
 20
-127.0926730368032
 30
0.0
  0
HATCH
  5
107
330
102
100
AcDbEntity
  8
_U+30EC_U+30A4_U+30E4_U+30FC 1
 62
     7
420
 16777215
100
AcDbHatch
 10
0.0
 20
0.0
 30
0.0
210
0.0
220
0.0
230
1.0
  2
SOLID
 70
     1
 71
     0
 91
        1
 92
        1
 93
        1
 72
     4
 94
        3
 73
     0
 74
     1
 95
       26
 96
       22
 40
0.0
 40
0.0
 40
0.0
 40
0.0
 40
1.0
 40
1.0
 40
1.0
 40
2.0
 40
2.0
 40
2.0
 40
3.0
 40
3.0
 40
3.0
 40
4.0
 40
4.0
 40
4.0
 40
5.0
 40
5.0
 40
5.0
 40
6.0
 40
6.0
 40
6.0
 40
7.0
 40
7.0
 40
7.0
 40
7.0
 10
80.39492049856447
 20
-127.0926730368032
 10
80.39492049856447
 20
-127.0926730368032
 10
80.39492049856447
 20
-125.9883476790064
 10
80.39492049856447
 20
-125.9883476790064
 10
80.39492049856447
 20
-125.9883476790064
 10
80.06488035107753
 20
-125.9883476790064
 10
80.06488035107753
 20
-125.9883476790064
 10
80.06488035107753
 20
-125.9883476790064
 10
80.06488035107753
 20
-125.8403808279149
 10
80.06488035107753
 20
-125.8403808279149
 10
80.39698755585562
 20
-125.8255669173283
 10
80.44349634490649
 20
-125.662613900876
 10
80.47312416607964
 20
-125.54840898554
 10
80.47312416607964
 20
-125.54840898554
 10
80.61919621465424
 20
-125.54840898554
 10
80.61919621465424
 20
-125.54840898554
 10
80.61919621465424
 20
-125.54840898554
 10
80.61919621465424
 20
-127.0926730368032
 10
80.61919621465424
 20
-127.0926730368032
 10
80.61919621465424
 20
-127.0926730368032
 10
80.39492049856447
 20
-127.0926730368032
 10
80.39492049856447
 20
-127.0926730368032
 97
        0
 97
        0
 75
     2
 76
     1
 98
        0
  0
POLYLINE
  5
108
330
102
100
AcDbEntity
  8
_U+30EC_U+30A4_U+30E4_U+30FC 1
370
     0
100
AcDb2dPolyline
 66
     1
 10
0.0
 20
0.0
 30
0.0
  0
VERTEX
  5
109
330
108
100
AcDbEntity
  8
_U+30EC_U+30A4_U+30E4_U+30FC 1
370
     0
100
AcDbVertex
100
AcDb2dVertex
 10
81.18040226920144
 20
-127.0926730368032
 30
0.0
  0
VERTEX
  5
10A
330
108
100
AcDbEntity
  8
_U+30EC_U+30A4_U+30E4_U+30FC 1
370
     0
100
AcDbVertex
100
AcDb2dVertex
 10
81.18040226920144
 20
-126.8410088116057
 30
0.0
  0
VERTEX
  5
10B
330
108
100
AcDbEntity
  8
_U+30EC_U+30A4_U+30E4_U+30FC 1
370
     0
100
AcDbVertex
100
AcDb2dVertex
 10
81.4322387491732
 20
-126.8410088116057
 30
0.0
  0
VERTEX
  5
10C
330
108
100
AcDbEntity
  8
_U+30EC_U+30A4_U+30E4_U+30FC 1
370
     0
100
AcDbVertex
100
AcDb2dVertex
 10
81.4322387491732
 20
-127.0926730368032
 30
0.0
  0
VERTEX
  5
10D
330
108
100
AcDbEntity
  8
_U+30EC_U+30A4_U+30E4_U+30FC 1
370
     0
100
AcDbVertex
100
AcDb2dVertex
 10
81.18040226920144
 20
-127.0926730368032
 30
0.0
  0
SEQEND
  5
10E
330
108
100
AcDbEntity
  8
_U+30EC_U+30A4_U+30E4_U+30FC 1
370
     0
  0
HATCH
  5
10F
330
102
100
AcDbEntity
  8
_U+30EC_U+30A4_U+30E4_U+30FC 1
 62
     7
420
 16777215
100
AcDbHatch
 10
0.0
 20
0.0
 30
0.0
210
0.0
220
0.0
230
1.0
  2
SOLID
 70
     1
 71
     0
 91
        1
 92
        1
 93
        4
 72
     1
 10
81.18040226920144
 20
-127.0926730368032
 11
81.18040226920144
 21
-126.8410088116057
 72
     1
 10
81.18040226920144
 20
-126.8410088116057
 11
81.4322387491732
 21
-126.8410088116057
 72
     1
 10
81.4322387491732
 20
-126.8410088116057
 11
81.4322387491732
 21
-127.0926730368032
 72
     1
 10
81.4322387491732
 20
-127.0926730368032
 11
81.18040226920144
 21
-127.0926730368032
 97
        0
 75
     2
 76
     1
 98
        0
  0
SPLINE
  5
110
330
102
100
AcDbEntity
  8
_U+30EC_U+30A4_U+30E4_U+30FC 1
370
     0
100
AcDbSpline
210
0.0
220
0.0
230
1.0
 70
    11
 71
     3
 72
    53
 73
    49
 74
     0
 42
0.0000000001
 43
0.0000000001
 12
1.0
 22
0.0
 32
0.0
 13
1.0
 23
0.0
 33
0.0
 40
0.0
 40
0.0
 40
0.0
 40
0.0
 40
1.0
 40
1.0
 40
1.0
 40
2.0
 40
2.0
 40
2.0
 40
3.0
 40
3.0
 40
3.0
 40
4.0
 40
4.0
 40
4.0
 40
5.0
 40
5.0
 40
5.0
 40
6.0
 40
6.0
 40
6.0
 40
7.0
 40
7.0
 40
7.0
 40
8.0
 40
8.0
 40
8.0
 40
9.0
 40
9.0
 40
9.0
 40
10.0
 40
10.0
 40
10.0
 40
11.0
 40
11.0
 40
11.0
 40
12.0
 40
12.0
 40
12.0
 40
13.0
 40
13.0
 40
13.0
 40
14.0
 40
14.0
 40
14.0
 40
15.0
 40
15.0
 40
15.0
 40
16.0
 40
16.0
 40
16.0
 40
16.0
 10
82.1495076292022
 20
-127.1434881952107
 30
0.0
 10
82.07130396168704
 20
-127.1434881952107
 30
0.0
 10
81.96967364487217
 20
-127.1264349725587
 30
0.0
 10
81.8680433280573
 20
-127.0630452156301
 30
0.0
 10
81.69475502514923
 20
-126.9529744148764
 30
0.0
 10
81.67339543314068
 20
-126.8218885316626
 30
0.0
 10
81.6544474079718
 20
-126.7140570429743
 30
0.0
 10
81.6544474079718
 20
-126.7140570429743
 30
0.0
 10
81.87665606677042
 20
-126.7140570429743
 30
0.0
 10
81.87665606677042
 20
-126.7140570429743
 30
0.0
 10
81.9314330849859
 20
-126.9128390524732
 30
0.0
 10
82.05855710839161
 20
-126.9424668736463
 30
0.0
 10
82.15157468649336
 20
-126.9424668736463
 30
0.0
 10
82.29110105364597
 20
-126.9424668736463
 30
0.0
 10
82.44337427409403
 20
-126.8430758688969
 30
0.0
 10
82.44337427409403
 20
-126.6103596688683
 30
0.0
 10
82.44337427409403
 20
-126.3543890743142
 30
0.0
 10
82.26354028976398
 20
-126.2846258907379
 30
0.0
 10
82.14296194778024
 20
-126.2846258907379
 30
0.0
 10
82.11126706931594
 20
-126.2846258907379
 30
0.0
 10
81.96967364487217
 20
-126.2846258907379
 30
0.0
 10
81.88079018135272
 20
-126.4136447166605
 30
0.0
 10
81.88079018135272
 20
-126.4136447166605
 30
0.0
 10
81.70509031160498
 20
-126.3945244367173
 30
0.0
 10
81.70509031160498
 20
-126.3945244367173
 30
0.0
 10
81.70509031160498
 20
-126.3945244367173
 30
0.0
 10
81.82566865358872
 20
-125.54840898554
 30
0.0
 10
81.82566865358872
 20
-125.54840898554
 30
0.0
 10
81.82566865358872
 20
-125.54840898554
 30
0.0
 10
82.60426023325519
 20
-125.54840898554
 30
0.0
 10
82.60426023325519
 20
-125.54840898554
 30
0.0
 10
82.60426023325519
 20
-125.54840898554
 30
0.0
 10
82.60426023325519
 20
-125.7430568804566
 30
0.0
 10
82.60426023325519
 20
-125.7430568804566
 30
0.0
 10
82.60426023325519
 20
-125.7430568804566
 30
0.0
 10
81.98862167004104
 20
-125.7430568804566
 30
0.0
 10
81.98862167004104
 20
-125.7430568804566
 30
0.0
 10
81.98862167004104
 20
-125.7430568804566
 30
0.0
 10
81.9231648558213
 20
-126.1661146060453
 30
0.0
 10
81.9231648558213
 20
-126.1661146060453
 30
0.0
 10
81.98448755545874
 20
-126.1321804155156
 30
0.0
 10
82.06682533755621
 20
-126.0920450531124
 30
0.0
 10
82.18533662224881
 20
-126.0920450531124
 30
0.0
 10
82.43924015951173
 20
-126.0920450531124
 30
0.0
 10
82.67626272889692
 20
-126.2782524640902
 30
0.0
 10
82.67626272889692
 20
-126.5912393889251
 30
0.0
 10
82.67626272889692
 20
-126.9087049378909
 30
0.0
 10
82.45198701280715
 20
-127.1434881952107
 30
0.0
 10
82.1495076292022
 20
-127.1434881952107
 30
0.0
  0
HATCH
  5
111
330
102
100
AcDbEntity
  8
_U+30EC_U+30A4_U+30E4_U+30FC 1
 62
     7
420
 16777215
100
AcDbHatch
 10
0.0
 20
0.0
 30
0.0
210
0.0
220
0.0
230
1.0
  2
SOLID
 70
     1
 71
     0
 91
        1
 92
        1
 93
        1
 72
     4
 94
        3
 73
     0
 74
     1
 95
       53
 96
       49
 40
0.0
 40
0.0
 40
0.0
 40
0.0
 40
1.0
 40
1.0
 40
1.0
 40
2.0
 40
2.0
 40
2.0
 40
3.0
 40
3.0
 40
3.0
 40
4.0
 40
4.0
 40
4.0
 40
5.0
 40
5.0
 40
5.0
 40
6.0
 40
6.0
 40
6.0
 40
7.0
 40
7.0
 40
7.0
 40
8.0
 40
8.0
 40
8.0
 40
9.0
 40
9.0
 40
9.0
 40
10.0
 40
10.0
 40
10.0
 40
11.0
 40
11.0
 40
11.0
 40
12.0
 40
12.0
 40
12.0
 40
13.0
 40
13.0
 40
13.0
 40
14.0
 40
14.0
 40
14.0
 40
15.0
 40
15.0
 40
15.0
 40
16.0
 40
16.0
 40
16.0
 40
16.0
 10
82.1495076292022
 20
-127.1434881952107
 10
82.07130396168704
 20
-127.1434881952107
 10
81.96967364487217
 20
-127.1264349725587
 10
81.8680433280573
 20
-127.0630452156301
 10
81.69475502514923
 20
-126.9529744148764
 10
81.67339543314068
 20
-126.8218885316626
 10
81.6544474079718
 20
-126.7140570429743
 10
81.6544474079718
 20
-126.7140570429743
 10
81.87665606677042
 20
-126.7140570429743
 10
81.87665606677042
 20
-126.7140570429743
 10
81.9314330849859
 20
-126.9128390524732
 10
82.05855710839161
 20
-126.9424668736463
 10
82.15157468649336
 20
-126.9424668736463
 10
82.29110105364597
 20
-126.9424668736463
 10
82.44337427409403
 20
-126.8430758688969
 10
82.44337427409403
 20
-126.6103596688683
 10
82.44337427409403
 20
-126.3543890743142
 10
82.26354028976398
 20
-126.2846258907379
 10
82.14296194778024
 20
-126.2846258907379
 10
82.11126706931594
 20
-126.2846258907379
 10
81.96967364487217
 20
-126.2846258907379
 10
81.88079018135272
 20
-126.4136447166605
 10
81.88079018135272
 20
-126.4136447166605
 10
81.70509031160498
 20
-126.3945244367173
 10
81.70509031160498
 20
-126.3945244367173
 10
81.70509031160498
 20
-126.3945244367173
 10
81.82566865358872
 20
-125.54840898554
 10
81.82566865358872
 20
-125.54840898554
 10
81.82566865358872
 20
-125.54840898554
 10
82.60426023325519
 20
-125.54840898554
 10
82.60426023325519
 20
-125.54840898554
 10
82.60426023325519
 20
-125.54840898554
 10
82.60426023325519
 20
-125.7430568804566
 10
82.60426023325519
 20
-125.7430568804566
 10
82.60426023325519
 20
-125.7430568804566
 10
81.98862167004104
 20
-125.7430568804566
 10
81.98862167004104
 20
-125.7430568804566
 10
81.98862167004104
 20
-125.7430568804566
 10
81.9231648558213
 20
-126.1661146060453
 10
81.9231648558213
 20
-126.1661146060453
 10
81.98448755545874
 20
-126.1321804155156
 10
82.06682533755621
 20
-126.0920450531124
 10
82.18533662224881
 20
-126.0920450531124
 10
82.43924015951173
 20
-126.0920450531124
 10
82.67626272889692
 20
-126.2782524640902
 10
82.67626272889692
 20
-126.5912393889251
 10
82.67626272889692
 20
-126.9087049378909
 10
82.45198701280715
 20
-127.1434881952107
 10
82.1495076292022
 20
-127.1434881952107
 97
        0
 97
        0
 75
     2
 76
     1
 98
        0
  0
ENDBLK
  5
105
330
102
100
AcDbEntity
  8
0
100
AcDbBlockEnd
  0
BLOCK
  5
123
330
121
100
AcDbEntity
  8
0
100
AcDbBlockBegin
  2
block 11
 70
     0
 10
0.0
 20
0.0
 30
0.0
  3
block 11
  1

  0
SPLINE
  5
125
330
121
100
AcDbEntity
  8
_U+30EC_U+30A4_U+30E4_U+30FC 1
370
     0
100
AcDbSpline
210
0.0
220
0.0
230
1.0
 70
    11
 71
     3
 72
    32
 73
    28
 74
     0
 42
0.0000000001
 43
0.0000000001
 12
1.0
 22
0.0
 32
0.0
 13
1.0
 23
0.0
 33
0.0
 40
0.0
 40
0.0
 40
0.0
 40
0.0
 40
1.0
 40
1.0
 40
1.0
 40
2.0
 40
2.0
 40
2.0
 40
3.0
 40
3.0
 40
3.0
 40
4.0
 40
4.0
 40
4.0
 40
5.0
 40
5.0
 40
5.0
 40
6.0
 40
6.0
 40
6.0
 40
7.0
 40
7.0
 40
7.0
 40
8.0
 40
8.0
 40
8.0
 40
9.0
 40
9.0
 40
9.0
 40
9.0
 10
102.9663248440501
 20
-130.3324408311322
 30
0.0
 10
102.9663248440501
 20
-130.8485161348226
 30
0.0
 10
102.4123534900219
 20
-130.8571288735357
 30
0.0
 10
102.1984130603879
 20
-130.8571288735357
 30
0.0
 10
101.9679361724247
 20
-130.8571288735357
 30
0.0
 10
101.3206027307462
 20
-130.8378363388183
 30
0.0
 10
101.3206027307462
 20
-130.2942002712459
 30
0.0
 10
101.3206027307462
 20
-130.1209119683378
 30
0.0
 10
101.3905381690968
 20
-129.8752766602395
 30
0.0
 10
101.7226453738749
 20
-129.8373806099018
 30
0.0
 10
101.7226453738749
 20
-129.8373806099018
 30
0.0
 10
101.7226453738749
 20
-130.0509765299873
 30
0.0
 10
101.7226453738749
 20
-130.0509765299873
 30
0.0
 10
101.6654567888198
 20
-130.0616563259915
 30
0.0
 10
101.517317682954
 20
-130.0933512044558
 30
0.0
 10
101.517317682954
 20
-130.2962673285371
 30
0.0
 10
101.517317682954
 20
-130.5884114256862
 30
0.0
 10
101.8452907731498
 20
-130.6283745333151
 30
0.0
 10
102.0502739545222
 20
-130.6411213866106
 30
0.0
 10
101.972070287007
 20
-130.5481038085088
 30
0.0
 10
101.9128146446607
 20
-130.4802354274494
 30
0.0
 10
101.9128146446607
 20
-130.2983343858282
 30
0.0
 10
101.9128146446607
 20
-130.1185004014982
 30
0.0
 10
102.0209906428975
 20
-129.8160210178932
 30
0.0
 10
102.4271674006085
 20
-129.8160210178932
 30
0.0
 10
102.7465277520912
 20
-129.8160210178932
 30
0.0
 10
102.9663248440501
 20
-130.0151475369407
 30
0.0
 10
102.9663248440501
 20
-130.3324408311322
 30
0.0
  0
SPLINE
  5
126
330
121
100
AcDbEntity
  8
_U+30EC_U+30A4_U+30E4_U+30FC 1
370
     0
100
AcDbSpline
210
0.0
220
0.0
230
1.0
 70
    11
 71
     3
 72
    17
 73
    13
 74
     0
 42
0.0000000001
 43
0.0000000001
 12
1.0
 22
0.0
 32
0.0
 13
1.0
 23
0.0
 33
0.0
 40
0.0
 40
0.0
 40
0.0
 40
0.0
 40
1.0
 40
1.0
 40
1.0
 40
2.0
 40
2.0
 40
2.0
 40
3.0
 40
3.0
 40
3.0
 40
4.0
 40
4.0
 40
4.0
 40
4.0
 10
102.1074625395773
 20
-130.3155598632544
 30
0.0
 10
102.1074625395773
 20
-130.5777316296819
 30
0.0
 10
102.3189914023717
 20
-130.6156276800197
 30
0.0
 10
102.4354356297731
 20
-130.6156276800197
 30
0.0
 10
102.6111354995208
 20
-130.6156276800197
 30
0.0
 10
102.7740885159731
 20
-130.5205430446268
 30
0.0
 10
102.7740885159731
 20
-130.3365749457145
 30
0.0
 10
102.7740885159731
 20
-130.2159966037307
 30
0.0
 10
102.7148328736268
 20
-130.040296733983
 30
0.0
 10
102.4292344578996
 20
-130.040296733983
 30
0.0
 10
102.2049587418099
 20
-130.040296733983
 30
0.0
 10
102.1074625395773
 20
-130.1798231011356
 30
0.0
 10
102.1074625395773
 20
-130.3155598632544
 30
0.0
  0
HATCH
  5
127
330
121
100
AcDbEntity
  8
_U+30EC_U+30A4_U+30E4_U+30FC 1
 62
     7
420
 16777215
100
AcDbHatch
 10
0.0
 20
0.0
 30
0.0
210
0.0
220
0.0
230
1.0
  2
SOLID
 70
     1
 71
     0
 91
        2
 92
        1
 93
        1
 72
     4
 94
        3
 73
     0
 74
     1
 95
       32
 96
       28
 40
0.0
 40
0.0
 40
0.0
 40
0.0
 40
1.0
 40
1.0
 40
1.0
 40
2.0
 40
2.0
 40
2.0
 40
3.0
 40
3.0
 40
3.0
 40
4.0
 40
4.0
 40
4.0
 40
5.0
 40
5.0
 40
5.0
 40
6.0
 40
6.0
 40
6.0
 40
7.0
 40
7.0
 40
7.0
 40
8.0
 40
8.0
 40
8.0
 40
9.0
 40
9.0
 40
9.0
 40
9.0
 10
102.9663248440501
 20
-130.3324408311322
 10
102.9663248440501
 20
-130.8485161348226
 10
102.4123534900219
 20
-130.8571288735357
 10
102.1984130603879
 20
-130.8571288735357
 10
101.9679361724247
 20
-130.8571288735357
 10
101.3206027307462
 20
-130.8378363388183
 10
101.3206027307462
 20
-130.2942002712459
 10
101.3206027307462
 20
-130.1209119683378
 10
101.3905381690968
 20
-129.8752766602395
 10
101.7226453738749
 20
-129.8373806099018
 10
101.7226453738749
 20
-129.8373806099018
 10
101.7226453738749
 20
-130.0509765299873
 10
101.7226453738749
 20
-130.0509765299873
 10
101.6654567888198
 20
-130.0616563259915
 10
101.517317682954
 20
-130.0933512044558
 10
101.517317682954
 20
-130.2962673285371
 10
101.517317682954
 20
-130.5884114256862
 10
101.8452907731498
 20
-130.6283745333151
 10
102.0502739545222
 20
-130.6411213866106
 10
101.972070287007
 20
-130.5481038085088
 10
101.9128146446607
 20
-130.4802354274494
 10
101.9128146446607
 20
-130.2983343858282
 10
101.9128146446607
 20
-130.1185004014982
 10
102.0209906428975
 20
-129.8160210178932
 10
102.4271674006085
 20
-129.8160210178932
 10
102.7465277520912
 20
-129.8160210178932
 10
102.9663248440501
 20
-130.0151475369407
 10
102.9663248440501
 20
-130.3324408311322
 97
        0
 97
        0
 92
        1
 93
        1
 72
     4
 94
        3
 73
     0
 74
     1
 95
       17
 96
       13
 40
0.0
 40
0.0
 40
0.0
 40
0.0
 40
1.0
 40
1.0
 40
1.0
 40
2.0
 40
2.0
 40
2.0
 40
3.0
 40
3.0
 40
3.0
 40
4.0
 40
4.0
 40
4.0
 40
4.0
 10
102.1074625395773
 20
-130.3155598632544
 10
102.1074625395773
 20
-130.5777316296819
 10
102.3189914023717
 20
-130.6156276800197
 10
102.4354356297731
 20
-130.6156276800197
 10
102.6111354995208
 20
-130.6156276800197
 10
102.7740885159731
 20
-130.5205430446268
 10
102.7740885159731
 20
-130.3365749457145
 10
102.7740885159731
 20
-130.2159966037307
 10
102.7148328736268
 20
-130.040296733983
 10
102.4292344578996
 20
-130.040296733983
 10
102.2049587418099
 20
-130.040296733983
 10
102.1074625395773
 20
-130.1798231011356
 10
102.1074625395773
 20
-130.3155598632544
 97
        0
 97
        0
 75
     2
 76
     1
 98
        0
  0
POLYLINE
  5
128
330
121
100
AcDbEntity
  8
_U+30EC_U+30A4_U+30E4_U+30FC 1
370
     0
100
AcDb2dPolyline
 66
     1
 10
0.0
 20
0.0
 30
0.0
  0
VERTEX
  5
129
330
128
100
AcDbEntity
  8
_U+30EC_U+30A4_U+30E4_U+30FC 1
370
     0
100
AcDbVertex
100
AcDb2dVertex
 10
102.9156819404169
 20
-129.5996690214195
 30
0.0
  0
VERTEX
  5
12A
330
128
100
AcDbEntity
  8
_U+30EC_U+30A4_U+30E4_U+30FC 1
370
     0
100
AcDbVertex
100
AcDb2dVertex
 10
102.6638454604452
 20
-129.5996690214195
 30
0.0
  0
VERTEX
  5
12B
330
128
100
AcDbEntity
  8
_U+30EC_U+30A4_U+30E4_U+30FC 1
370
     0
100
AcDbVertex
100
AcDb2dVertex
 10
102.6638454604452
 20
-129.3478325414478
 30
0.0
  0
VERTEX
  5
12C
330
128
100
AcDbEntity
  8
_U+30EC_U+30A4_U+30E4_U+30FC 1
370
     0
100
AcDbVertex
100
AcDb2dVertex
 10
102.9156819404169
 20
-129.3478325414478
 30
0.0
  0
VERTEX
  5
12D
330
128
100
AcDbEntity
  8
_U+30EC_U+30A4_U+30E4_U+30FC 1
370
     0
100
AcDbVertex
100
AcDb2dVertex
 10
102.9156819404169
 20
-129.5996690214195
 30
0.0
  0
SEQEND
  5
12E
330
128
100
AcDbEntity
  8
_U+30EC_U+30A4_U+30E4_U+30FC 1
370
     0
  0
HATCH
  5
12F
330
121
100
AcDbEntity
  8
_U+30EC_U+30A4_U+30E4_U+30FC 1
 62
     7
420
 16777215
100
AcDbHatch
 10
0.0
 20
0.0
 30
0.0
210
0.0
220
0.0
230
1.0
  2
SOLID
 70
     1
 71
     0
 91
        1
 92
        1
 93
        4
 72
     1
 10
102.9156819404169
 20
-129.5996690214195
 11
102.6638454604452
 21
-129.5996690214195
 72
     1
 10
102.6638454604452
 20
-129.5996690214195
 11
102.6638454604452
 21
-129.3478325414478
 72
     1
 10
102.6638454604452
 20
-129.3478325414478
 11
102.9156819404169
 21
-129.3478325414478
 72
     1
 10
102.9156819404169
 20
-129.3478325414478
 11
102.9156819404169
 21
-129.5996690214195
 97
        0
 75
     2
 76
     1
 98
        0
  0
SPLINE
  5
130
330
121
100
AcDbEntity
  8
_U+30EC_U+30A4_U+30E4_U+30FC 1
370
     0
100
AcDbSpline
210
0.0
220
0.0
230
1.0
 70
    11
 71
     3
 72
    53
 73
    49
 74
     0
 42
0.0000000001
 43
0.0000000001
 12
1.0
 22
0.0
 32
0.0
 13
1.0
 23
0.0
 33
0.0
 40
0.0
 40
0.0
 40
0.0
 40
0.0
 40
1.0
 40
1.0
 40
1.0
 40
2.0
 40
2.0
 40
2.0
 40
3.0
 40
3.0
 40
3.0
 40
4.0
 40
4.0
 40
4.0
 40
5.0
 40
5.0
 40
5.0
 40
6.0
 40
6.0
 40
6.0
 40
7.0
 40
7.0
 40
7.0
 40
8.0
 40
8.0
 40
8.0
 40
9.0
 40
9.0
 40
9.0
 40
10.0
 40
10.0
 40
10.0
 40
11.0
 40
11.0
 40
11.0
 40
12.0
 40
12.0
 40
12.0
 40
13.0
 40
13.0
 40
13.0
 40
14.0
 40
14.0
 40
14.0
 40
15.0
 40
15.0
 40
15.0
 40
16.0
 40
16.0
 40
16.0
 40
16.0
 10
102.9663248440501
 20
-128.6305636614188
 30
0.0
 10
102.9663248440501
 20
-128.7087673289339
 30
0.0
 10
102.9494438761724
 20
-128.8103976457488
 30
0.0
 10
102.8860541192438
 20
-128.9120279625637
 30
0.0
 10
102.7761555732643
 20
-129.0853162654717
 30
0.0
 10
102.6448974352763
 20
-129.1066758574803
 30
0.0
 10
102.537065946588
 20
-129.1256238826492
 30
0.0
 10
102.537065946588
 20
-129.1256238826492
 30
0.0
 10
102.537065946588
 20
-128.9034152238505
 30
0.0
 10
102.537065946588
 20
-128.9034152238505
 30
0.0
 10
102.7358479560869
 20
-128.8486382056351
 30
0.0
 10
102.76547577726
 20
-128.7215141822294
 30
0.0
 10
102.76547577726
 20
-128.6284966041276
 30
0.0
 10
102.76547577726
 20
-128.488970236975
 30
0.0
 10
102.6659125177363
 20
-128.336697016527
 30
0.0
 10
102.4333685724819
 20
-128.336697016527
 30
0.0
 10
102.1773979779279
 20
-128.336697016527
 30
0.0
 10
102.1074625395773
 20
-128.516531000857
 30
0.0
 10
102.1074625395773
 20
-128.6371093428407
 30
0.0
 10
102.1074625395773
 20
-128.668804221305
 30
0.0
 10
102.1074625395773
 20
-128.8103976457488
 30
0.0
 10
102.2366536202742
 20
-128.8992811092682
 30
0.0
 10
102.2366536202742
 20
-128.8992811092682
 30
0.0
 10
102.2177055951053
 20
-129.074980979016
 30
0.0
 10
102.2177055951053
 20
-129.074980979016
 30
0.0
 10
102.2177055951053
 20
-129.074980979016
 30
0.0
 10
101.3712456343794
 20
-128.9544026370322
 30
0.0
 10
101.3712456343794
 20
-128.9544026370322
 30
0.0
 10
101.3712456343794
 20
-128.9544026370322
 30
0.0
 10
101.3712456343794
 20
-128.1758110573658
 30
0.0
 10
101.3712456343794
 20
-128.1758110573658
 30
0.0
 10
101.3712456343794
 20
-128.1758110573658
 30
0.0
 10
101.565893529296
 20
-128.1758110573658
 30
0.0
 10
101.565893529296
 20
-128.1758110573658
 30
0.0
 10
101.565893529296
 20
-128.1758110573658
 30
0.0
 10
101.565893529296
 20
-128.7914496205799
 30
0.0
 10
101.565893529296
 20
-128.7914496205799
 30
0.0
 10
101.565893529296
 20
-128.7914496205799
 30
0.0
 10
101.9889512548847
 20
-128.8569064347997
 30
0.0
 10
101.9889512548847
 20
-128.8569064347997
 30
0.0
 10
101.9551893191293
 20
-128.7955837351622
 30
0.0
 10
101.9148817019518
 20
-128.7132459530648
 30
0.0
 10
101.9148817019518
 20
-128.5947346683722
 30
0.0
 10
101.9148817019518
 20
-128.3408311311092
 30
0.0
 10
102.1012613677039
 20
-128.1038085617241
 30
0.0
 10
102.4144205473131
 20
-128.1038085617241
 30
0.0
 10
102.7317138415046
 20
-128.1038085617241
 30
0.0
 10
102.9663248440501
 20
-128.3280842778138
 30
0.0
 10
102.9663248440501
 20
-128.6305636614188
 30
0.0
  0
HATCH
  5
131
330
121
100
AcDbEntity
  8
_U+30EC_U+30A4_U+30E4_U+30FC 1
 62
     7
420
 16777215
100
AcDbHatch
 10
0.0
 20
0.0
 30
0.0
210
0.0
220
0.0
230
1.0
  2
SOLID
 70
     1
 71
     0
 91
        1
 92
        1
 93
        1
 72
     4
 94
        3
 73
     0
 74
     1
 95
       53
 96
       49
 40
0.0
 40
0.0
 40
0.0
 40
0.0
 40
1.0
 40
1.0
 40
1.0
 40
2.0
 40
2.0
 40
2.0
 40
3.0
 40
3.0
 40
3.0
 40
4.0
 40
4.0
 40
4.0
 40
5.0
 40
5.0
 40
5.0
 40
6.0
 40
6.0
 40
6.0
 40
7.0
 40
7.0
 40
7.0
 40
8.0
 40
8.0
 40
8.0
 40
9.0
 40
9.0
 40
9.0
 40
10.0
 40
10.0
 40
10.0
 40
11.0
 40
11.0
 40
11.0
 40
12.0
 40
12.0
 40
12.0
 40
13.0
 40
13.0
 40
13.0
 40
14.0
 40
14.0
 40
14.0
 40
15.0
 40
15.0
 40
15.0
 40
16.0
 40
16.0
 40
16.0
 40
16.0
 10
102.9663248440501
 20
-128.6305636614188
 10
102.9663248440501
 20
-128.7087673289339
 10
102.9494438761724
 20
-128.8103976457488
 10
102.8860541192438
 20
-128.9120279625637
 10
102.7761555732643
 20
-129.0853162654717
 10
102.6448974352763
 20
-129.1066758574803
 10
102.537065946588
 20
-129.1256238826492
 10
102.537065946588
 20
-129.1256238826492
 10
102.537065946588
 20
-128.9034152238505
 10
102.537065946588
 20
-128.9034152238505
 10
102.7358479560869
 20
-128.8486382056351
 10
102.76547577726
 20
-128.7215141822294
 10
102.76547577726
 20
-128.6284966041276
 10
102.76547577726
 20
-128.488970236975
 10
102.6659125177363
 20
-128.336697016527
 10
102.4333685724819
 20
-128.336697016527
 10
102.1773979779279
 20
-128.336697016527
 10
102.1074625395773
 20
-128.516531000857
 10
102.1074625395773
 20
-128.6371093428407
 10
102.1074625395773
 20
-128.668804221305
 10
102.1074625395773
 20
-128.8103976457488
 10
102.2366536202742
 20
-128.8992811092682
 10
102.2366536202742
 20
-128.8992811092682
 10
102.2177055951053
 20
-129.074980979016
 10
102.2177055951053
 20
-129.074980979016
 10
102.2177055951053
 20
-129.074980979016
 10
101.3712456343794
 20
-128.9544026370322
 10
101.3712456343794
 20
-128.9544026370322
 10
101.3712456343794
 20
-128.9544026370322
 10
101.3712456343794
 20
-128.1758110573658
 10
101.3712456343794
 20
-128.1758110573658
 10
101.3712456343794
 20
-128.1758110573658
 10
101.565893529296
 20
-128.1758110573658
 10
101.565893529296
 20
-128.1758110573658
 10
101.565893529296
 20
-128.1758110573658
 10
101.565893529296
 20
-128.7914496205799
 10
101.565893529296
 20
-128.7914496205799
 10
101.565893529296
 20
-128.7914496205799
 10
101.9889512548847
 20
-128.8569064347997
 10
101.9889512548847
 20
-128.8569064347997
 10
101.9551893191293
 20
-128.7955837351622
 10
101.9148817019518
 20
-128.7132459530648
 10
101.9148817019518
 20
-128.5947346683722
 10
101.9148817019518
 20
-128.3408311311092
 10
102.1012613677039
 20
-128.1038085617241
 10
102.4144205473131
 20
-128.1038085617241
 10
102.7317138415046
 20
-128.1038085617241
 10
102.9663248440501
 20
-128.3280842778138
 10
102.9663248440501
 20
-128.6305636614188
 97
        0
 97
        0
 75
     2
 76
     1
 98
        0
  0
ENDBLK
  5
124
330
121
100
AcDbEntity
  8
0
100
AcDbBlockEnd
  0
BLOCK
  5
134
330
132
100
AcDbEntity
  8
0
100
AcDbBlockBegin
  2
block 12
 70
     0
 10
0.0
 20
0.0
 30
0.0
  3
block 12
  1

  0
SPLINE
  5
136
330
132
100
AcDbEntity
  8
_U+30EC_U+30A4_U+30E4_U+30FC 1
370
     0
100
AcDbSpline
210
0.0
220
0.0
230
1.0
 70
    11
 71
     3
 72
    62
 73
    58
 74
     0
 42
0.0000000001
 43
0.0000000001
 12
1.0
 22
0.0
 32
0.0
 13
1.0
 23
0.0
 33
0.0
 40
0.0
 40
0.0
 40
0.0
 40
0.0
 40
1.0
 40
1.0
 40
1.0
 40
2.0
 40
2.0
 40
2.0
 40
3.0
 40
3.0
 40
3.0
 40
4.0
 40
4.0
 40
4.0
 40
5.0
 40
5.0
 40
5.0
 40
6.0
 40
6.0
 40
6.0
 40
7.0
 40
7.0
 40
7.0
 40
8.0
 40
8.0
 40
8.0
 40
9.0
 40
9.0
 40
9.0
 40
10.0
 40
10.0
 40
10.0
 40
11.0
 40
11.0
 40
11.0
 40
12.0
 40
12.0
 40
12.0
 40
13.0
 40
13.0
 40
13.0
 40
14.0
 40
14.0
 40
14.0
 40
15.0
 40
15.0
 40
15.0
 40
16.0
 40
16.0
 40
16.0
 40
17.0
 40
17.0
 40
17.0
 40
18.0
 40
18.0
 40
18.0
 40
19.0
 40
19.0
 40
19.0
 40
19.0
 10
102.9663248440501
 20
-125.3480766830727
 30
0.0
 10
102.9663248440501
 20
-125.4435058280141
 30
0.0
 10
102.9453097615901
 20
-125.6612358626819
 30
0.0
 10
102.7592746053866
 20
-125.7862928287965
 30
0.0
 10
102.6469644925674
 20
-125.8603623817294
 30
0.0
 10
102.5477457425922
 20
-125.8644964963117
 30
0.0
 10
102.4629963936551
 20
-125.868630610894
 30
0.0
 10
102.4629963936551
 20
-125.868630610894
 30
0.0
 10
102.4629963936551
 20
-125.6484890093865
 30
0.0
 10
102.4629963936551
 20
-125.6484890093865
 30
0.0
 10
102.537065946588
 20
-125.6464219520953
 30
0.0
 10
102.7716769491335
 20
-125.6360866656396
 30
0.0
 10
102.7716769491335
 20
-125.3525553072035
 30
0.0
 10
102.7716769491335
 20
-125.2150959973421
 30
0.0
 10
102.7020860203314
 20
-125.0624782673455
 30
0.0
 10
102.4736761896594
 20
-125.0624782673455
 30
0.0
 10
102.3572319622579
 20
-125.0624782673455
 30
0.0
 10
102.3086561159159
 20
-125.1007188272318
 30
0.0
 10
102.2769612374516
 20
-125.1324137056961
 30
0.0
 10
102.2028916845187
 20
-125.2064832586289
 30
0.0
 10
102.1901448312233
 20
-125.3229274860304
 30
0.0
 10
102.1901448312233
 20
-125.3777045042459
 30
0.0
 10
102.1901448312233
 20
-125.3969970389633
 30
0.0
 10
102.1922118885144
 20
-125.4328260320099
 30
0.0
 10
102.1963460030967
 20
-125.4603867958918
 30
0.0
 10
102.1963460030967
 20
-125.4603867958918
 30
0.0
 10
102.0016981081801
 20
-125.4603867958918
 30
0.0
 10
102.0016981081801
 20
-125.4603867958918
 30
0.0
 10
102.0082437896021
 20
-125.4221462360056
 30
0.0
 10
102.0103108468933
 20
-125.3801160710855
 30
0.0
 10
102.0103108468933
 20
-125.3735703896636
 30
0.0
 10
102.0103108468933
 20
-125.3081135754438
 30
0.0
 10
101.9889512548847
 20
-125.1093315659449
 30
0.0
 10
101.752273195048
 20
-125.1093315659449
 30
0.0
 10
101.5745062680092
 20
-125.1093315659449
 30
0.0
 10
101.5193847402452
 20
-125.2402451943844
 30
0.0
 10
101.5193847402452
 20
-125.3504882499124
 30
0.0
 10
101.5193847402452
 20
-125.614727073631
 30
0.0
 10
101.752273195048
 20
-125.6233398123442
 30
0.0
 10
101.8239311811412
 20
-125.6274739269265
 30
0.0
 10
101.8239311811412
 20
-125.6274739269265
 30
0.0
 10
101.8239311811412
 20
-125.8307345605562
 30
0.0
 10
101.8239311811412
 20
-125.8307345605562
 30
0.0
 10
101.6992187245752
 20
-125.8221218218431
 30
0.0
 10
101.3226697880374
 20
-125.7945610579611
 30
0.0
 10
101.3226697880374
 20
-125.337741396617
 30
0.0
 10
101.3226697880374
 20
-125.1134656805272
 30
0.0
 10
101.4497938114431
 20
-124.8723089965597
 30
0.0
 10
101.7457275136261
 20
-124.8723089965597
 30
0.0
 10
101.9321071793781
 20
-124.8723089965597
 30
0.0
 10
102.0144449614756
 20
-124.9673936319526
 30
0.0
 10
102.075767661113
 20
-125.0669568914763
 30
0.0
 10
102.103328424995
 20
-125.0056341918389
 30
0.0
 10
102.1835991498013
 20
-124.8237331502177
 30
0.0
 10
102.4609293363639
 20
-124.8237331502177
 30
0.0
 10
102.7992377130155
 20
-124.8237331502177
 30
0.0
 10
102.9663248440501
 20
-125.0710910060586
 30
0.0
 10
102.9663248440501
 20
-125.3480766830727
 30
0.0
  0
HATCH
  5
137
330
132
100
AcDbEntity
  8
_U+30EC_U+30A4_U+30E4_U+30FC 1
 62
     7
420
 16777215
100
AcDbHatch
 10
0.0
 20
0.0
 30
0.0
210
0.0
220
0.0
230
1.0
  2
SOLID
 70
     1
 71
     0
 91
        1
 92
        1
 93
        1
 72
     4
 94
        3
 73
     0
 74
     1
 95
       62
 96
       58
 40
0.0
 40
0.0
 40
0.0
 40
0.0
 40
1.0
 40
1.0
 40
1.0
 40
2.0
 40
2.0
 40
2.0
 40
3.0
 40
3.0
 40
3.0
 40
4.0
 40
4.0
 40
4.0
 40
5.0
 40
5.0
 40
5.0
 40
6.0
 40
6.0
 40
6.0
 40
7.0
 40
7.0
 40
7.0
 40
8.0
 40
8.0
 40
8.0
 40
9.0
 40
9.0
 40
9.0
 40
10.0
 40
10.0
 40
10.0
 40
11.0
 40
11.0
 40
11.0
 40
12.0
 40
12.0
 40
12.0
 40
13.0
 40
13.0
 40
13.0
 40
14.0
 40
14.0
 40
14.0
 40
15.0
 40
15.0
 40
15.0
 40
16.0
 40
16.0
 40
16.0
 40
17.0
 40
17.0
 40
17.0
 40
18.0
 40
18.0
 40
18.0
 40
19.0
 40
19.0
 40
19.0
 40
19.0
 10
102.9663248440501
 20
-125.3480766830727
 10
102.9663248440501
 20
-125.4435058280141
 10
102.9453097615901
 20
-125.6612358626819
 10
102.7592746053866
 20
-125.7862928287965
 10
102.6469644925674
 20
-125.8603623817294
 10
102.5477457425922
 20
-125.8644964963117
 10
102.4629963936551
 20
-125.868630610894
 10
102.4629963936551
 20
-125.868630610894
 10
102.4629963936551
 20
-125.6484890093865
 10
102.4629963936551
 20
-125.6484890093865
 10
102.537065946588
 20
-125.6464219520953
 10
102.7716769491335
 20
-125.6360866656396
 10
102.7716769491335
 20
-125.3525553072035
 10
102.7716769491335
 20
-125.2150959973421
 10
102.7020860203314
 20
-125.0624782673455
 10
102.4736761896594
 20
-125.0624782673455
 10
102.3572319622579
 20
-125.0624782673455
 10
102.3086561159159
 20
-125.1007188272318
 10
102.2769612374516
 20
-125.1324137056961
 10
102.2028916845187
 20
-125.2064832586289
 10
102.1901448312233
 20
-125.3229274860304
 10
102.1901448312233
 20
-125.3777045042459
 10
102.1901448312233
 20
-125.3969970389633
 10
102.1922118885144
 20
-125.4328260320099
 10
102.1963460030967
 20
-125.4603867958918
 10
102.1963460030967
 20
-125.4603867958918
 10
102.0016981081801
 20
-125.4603867958918
 10
102.0016981081801
 20
-125.4603867958918
 10
102.0082437896021
 20
-125.4221462360056
 10
102.0103108468933
 20
-125.3801160710855
 10
102.0103108468933
 20
-125.3735703896636
 10
102.0103108468933
 20
-125.3081135754438
 10
101.9889512548847
 20
-125.1093315659449
 10
101.752273195048
 20
-125.1093315659449
 10
101.5745062680092
 20
-125.1093315659449
 10
101.5193847402452
 20
-125.2402451943844
 10
101.5193847402452
 20
-125.3504882499124
 10
101.5193847402452
 20
-125.614727073631
 10
101.752273195048
 20
-125.6233398123442
 10
101.8239311811412
 20
-125.6274739269265
 10
101.8239311811412
 20
-125.6274739269265
 10
101.8239311811412
 20
-125.8307345605562
 10
101.8239311811412
 20
-125.8307345605562
 10
101.6992187245752
 20
-125.8221218218431
 10
101.3226697880374
 20
-125.7945610579611
 10
101.3226697880374
 20
-125.337741396617
 10
101.3226697880374
 20
-125.1134656805272
 10
101.4497938114431
 20
-124.8723089965597
 10
101.7457275136261
 20
-124.8723089965597
 10
101.9321071793781
 20
-124.8723089965597
 10
102.0144449614756
 20
-124.9673936319526
 10
102.075767661113
 20
-125.0669568914763
 10
102.103328424995
 20
-125.0056341918389
 10
102.1835991498013
 20
-124.8237331502177
 10
102.4609293363639
 20
-124.8237331502177
 10
102.7992377130155
 20
-124.8237331502177
 10
102.9663248440501
 20
-125.0710910060586
 10
102.9663248440501
 20
-125.3480766830727
 97
        0
 97
        0
 75
     2
 76
     1
 98
        0
  0
POLYLINE
  5
138
330
132
100
AcDbEntity
  8
_U+30EC_U+30A4_U+30E4_U+30FC 1
370
     0
100
AcDb2dPolyline
 66
     1
 10
0.0
 20
0.0
 30
0.0
  0
VERTEX
  5
139
330
138
100
AcDbEntity
  8
_U+30EC_U+30A4_U+30E4_U+30FC 1
370
     0
100
AcDbVertex
100
AcDb2dVertex
 10
102.9156819404169
 20
-124.6029025296132
 30
0.0
  0
VERTEX
  5
13A
330
138
100
AcDbEntity
  8
_U+30EC_U+30A4_U+30E4_U+30FC 1
370
     0
100
AcDbVertex
100
AcDb2dVertex
 10
102.6638454604452
 20
-124.6029025296132
 30
0.0
  0
VERTEX
  5
13B
330
138
100
AcDbEntity
  8
_U+30EC_U+30A4_U+30E4_U+30FC 1
370
     0
100
AcDbVertex
100
AcDb2dVertex
 10
102.6638454604452
 20
-124.3510660496414
 30
0.0
  0
VERTEX
  5
13C
330
138
100
AcDbEntity
  8
_U+30EC_U+30A4_U+30E4_U+30FC 1
370
     0
100
AcDbVertex
100
AcDb2dVertex
 10
102.9156819404169
 20
-124.3510660496414
 30
0.0
  0
VERTEX
  5
13D
330
138
100
AcDbEntity
  8
_U+30EC_U+30A4_U+30E4_U+30FC 1
370
     0
100
AcDbVertex
100
AcDb2dVertex
 10
102.9156819404169
 20
-124.6029025296132
 30
0.0
  0
SEQEND
  5
13E
330
138
100
AcDbEntity
  8
_U+30EC_U+30A4_U+30E4_U+30FC 1
370
     0
  0
HATCH
  5
13F
330
132
100
AcDbEntity
  8
_U+30EC_U+30A4_U+30E4_U+30FC 1
 62
     7
420
 16777215
100
AcDbHatch
 10
0.0
 20
0.0
 30
0.0
210
0.0
220
0.0
230
1.0
  2
SOLID
 70
     1
 71
     0
 91
        1
 92
        1
 93
        4
 72
     1
 10
102.9156819404169
 20
-124.6029025296132
 11
102.6638454604452
 21
-124.6029025296132
 72
     1
 10
102.6638454604452
 20
-124.6029025296132
 11
102.6638454604452
 21
-124.3510660496414
 72
     1
 10
102.6638454604452
 20
-124.3510660496414
 11
102.9156819404169
 21
-124.3510660496414
 72
     1
 10
102.9156819404169
 20
-124.3510660496414
 11
102.9156819404169
 21
-124.6029025296132
 97
        0
 75
     2
 76
     1
 98
        0
  0
SPLINE
  5
140
330
132
100
AcDbEntity
  8
_U+30EC_U+30A4_U+30E4_U+30FC 1
370
     0
100
AcDbSpline
210
0.0
220
0.0
230
1.0
 70
    11
 71
     3
 72
    53
 73
    49
 74
     0
 42
0.0000000001
 43
0.0000000001
 12
1.0
 22
0.0
 32
0.0
 13
1.0
 23
0.0
 33
0.0
 40
0.0
 40
0.0
 40
0.0
 40
0.0
 40
1.0
 40
1.0
 40
1.0
 40
2.0
 40
2.0
 40
2.0
 40
3.0
 40
3.0
 40
3.0
 40
4.0
 40
4.0
 40
4.0
 40
5.0
 40
5.0
 40
5.0
 40
6.0
 40
6.0
 40
6.0
 40
7.0
 40
7.0
 40
7.0
 40
8.0
 40
8.0
 40
8.0
 40
9.0
 40
9.0
 40
9.0
 40
10.0
 40
10.0
 40
10.0
 40
11.0
 40
11.0
 40
11.0
 40
12.0
 40
12.0
 40
12.0
 40
13.0
 40
13.0
 40
13.0
 40
14.0
 40
14.0
 40
14.0
 40
15.0
 40
15.0
 40
15.0
 40
16.0
 40
16.0
 40
16.0
 40
16.0
 10
102.9663248440501
 20
-123.6337971696124
 30
0.0
 10
102.9663248440501
 20
-123.7120008371276
 30
0.0
 10
102.9494438761724
 20
-123.8136311539424
 30
0.0
 10
102.8860541192438
 20
-123.9152614707573
 30
0.0
 10
102.7761555732643
 20
-124.0885497736654
 30
0.0
 10
102.6448974352763
 20
-124.1099093656739
 30
0.0
 10
102.537065946588
 20
-124.1288573908428
 30
0.0
 10
102.537065946588
 20
-124.1288573908428
 30
0.0
 10
102.537065946588
 20
-123.9066487320442
 30
0.0
 10
102.537065946588
 20
-123.9066487320442
 30
0.0
 10
102.7358479560869
 20
-123.8518717138287
 30
0.0
 10
102.76547577726
 20
-123.724747690423
 30
0.0
 10
102.76547577726
 20
-123.6317301123212
 30
0.0
 10
102.76547577726
 20
-123.4922037451686
 30
0.0
 10
102.6659125177363
 20
-123.3399305247206
 30
0.0
 10
102.4333685724819
 20
-123.3399305247206
 30
0.0
 10
102.1773979779279
 20
-123.3399305247206
 30
0.0
 10
102.1074625395773
 20
-123.5197645090506
 30
0.0
 10
102.1074625395773
 20
-123.6403428510344
 30
0.0
 10
102.1074625395773
 20
-123.6720377294987
 30
0.0
 10
102.1074625395773
 20
-123.8136311539424
 30
0.0
 10
102.2366536202742
 20
-123.9025146174619
 30
0.0
 10
102.2366536202742
 20
-123.9025146174619
 30
0.0
 10
102.2177055951053
 20
-124.0782144872096
 30
0.0
 10
102.2177055951053
 20
-124.0782144872096
 30
0.0
 10
102.2177055951053
 20
-124.0782144872096
 30
0.0
 10
101.3712456343794
 20
-123.9576361452259
 30
0.0
 10
101.3712456343794
 20
-123.9576361452259
 30
0.0
 10
101.3712456343794
 20
-123.9576361452259
 30
0.0
 10
101.3712456343794
 20
-123.1790445655594
 30
0.0
 10
101.3712456343794
 20
-123.1790445655594
 30
0.0
 10
101.3712456343794
 20
-123.1790445655594
 30
0.0
 10
101.565893529296
 20
-123.1790445655594
 30
0.0
 10
101.565893529296
 20
-123.1790445655594
 30
0.0
 10
101.565893529296
 20
-123.1790445655594
 30
0.0
 10
101.565893529296
 20
-123.7946831287736
 30
0.0
 10
101.565893529296
 20
-123.7946831287736
 30
0.0
 10
101.565893529296
 20
-123.7946831287736
 30
0.0
 10
101.9889512548847
 20
-123.8601399429933
 30
0.0
 10
101.9889512548847
 20
-123.8601399429933
 30
0.0
 10
101.9551893191293
 20
-123.7988172433559
 30
0.0
 10
101.9148817019518
 20
-123.7164794612584
 30
0.0
 10
101.9148817019518
 20
-123.5979681765658
 30
0.0
 10
101.9148817019518
 20
-123.3440646393029
 30
0.0
 10
102.1012613677039
 20
-123.1070420699177
 30
0.0
 10
102.4144205473131
 20
-123.1070420699177
 30
0.0
 10
102.7317138415046
 20
-123.1070420699177
 30
0.0
 10
102.9663248440501
 20
-123.3313177860075
 30
0.0
 10
102.9663248440501
 20
-123.6337971696124
 30
0.0
  0
HATCH
  5
141
330
132
100
AcDbEntity
  8
_U+30EC_U+30A4_U+30E4_U+30FC 1
 62
     7
420
 16777215
100
AcDbHatch
 10
0.0
 20
0.0
 30
0.0
210
0.0
220
0.0
230
1.0
  2
SOLID
 70
     1
 71
     0
 91
        1
 92
        1
 93
        1
 72
     4
 94
        3
 73
     0
 74
     1
 95
       53
 96
       49
 40
0.0
 40
0.0
 40
0.0
 40
0.0
 40
1.0
 40
1.0
 40
1.0
 40
2.0
 40
2.0
 40
2.0
 40
3.0
 40
3.0
 40
3.0
 40
4.0
 40
4.0
 40
4.0
 40
5.0
 40
5.0
 40
5.0
 40
6.0
 40
6.0
 40
6.0
 40
7.0
 40
7.0
 40
7.0
 40
8.0
 40
8.0
 40
8.0
 40
9.0
 40
9.0
 40
9.0
 40
10.0
 40
10.0
 40
10.0
 40
11.0
 40
11.0
 40
11.0
 40
12.0
 40
12.0
 40
12.0
 40
13.0
 40
13.0
 40
13.0
 40
14.0
 40
14.0
 40
14.0
 40
15.0
 40
15.0
 40
15.0
 40
16.0
 40
16.0
 40
16.0
 40
16.0
 10
102.9663248440501
 20
-123.6337971696124
 10
102.9663248440501
 20
-123.7120008371276
 10
102.9494438761724
 20
-123.8136311539424
 10
102.8860541192438
 20
-123.9152614707573
 10
102.7761555732643
 20
-124.0885497736654
 10
102.6448974352763
 20
-124.1099093656739
 10
102.537065946588
 20
-124.1288573908428
 10
102.537065946588
 20
-124.1288573908428
 10
102.537065946588
 20
-123.9066487320442
 10
102.537065946588
 20
-123.9066487320442
 10
102.7358479560869
 20
-123.8518717138287
 10
102.76547577726
 20
-123.724747690423
 10
102.76547577726
 20
-123.6317301123212
 10
102.76547577726
 20
-123.4922037451686
 10
102.6659125177363
 20
-123.3399305247206
 10
102.4333685724819
 20
-123.3399305247206
 10
102.1773979779279
 20
-123.3399305247206
 10
102.1074625395773
 20
-123.5197645090506
 10
102.1074625395773
 20
-123.6403428510344
 10
102.1074625395773
 20
-123.6720377294987
 10
102.1074625395773
 20
-123.8136311539424
 10
102.2366536202742
 20
-123.9025146174619
 10
102.2366536202742
 20
-123.9025146174619
 10
102.2177055951053
 20
-124.0782144872096
 10
102.2177055951053
 20
-124.0782144872096
 10
102.2177055951053
 20
-124.0782144872096
 10
101.3712456343794
 20
-123.9576361452259
 10
101.3712456343794
 20
-123.9576361452259
 10
101.3712456343794
 20
-123.9576361452259
 10
101.3712456343794
 20
-123.1790445655594
 10
101.3712456343794
 20
-123.1790445655594
 10
101.3712456343794
 20
-123.1790445655594
 10
101.565893529296
 20
-123.1790445655594
 10
101.565893529296
 20
-123.1790445655594
 10
101.565893529296
 20
-123.1790445655594
 10
101.565893529296
 20
-123.7946831287736
 10
101.565893529296
 20
-123.7946831287736
 10
101.565893529296
 20
-123.7946831287736
 10
101.9889512548847
 20
-123.8601399429933
 10
101.9889512548847
 20
-123.8601399429933
 10
101.9551893191293
 20
-123.7988172433559
 10
101.9148817019518
 20
-123.7164794612584
 10
101.9148817019518
 20
-123.5979681765658
 10
101.9148817019518
 20
-123.3440646393029
 10
102.1012613677039
 20
-123.1070420699177
 10
102.4144205473131
 20
-123.1070420699177
 10
102.7317138415046
 20
-123.1070420699177
 10
102.9663248440501
 20
-123.3313177860075
 10
102.9663248440501
 20
-123.6337971696124
 97
        0
 97
        0
 75
     2
 76
     1
 98
        0
  0
ENDBLK
  5
135
330
132
100
AcDbEntity
  8
0
100
AcDbBlockEnd
  0
BLOCK
  5
152
330
150
100
AcDbEntity
  8
0
100
AcDbBlockBegin
  2
block 13
 70
     0
 10
0.0
 20
0.0
 30
0.0
  3
block 13
  1

  0
SPLINE
  5
154
330
150
100
AcDbEntity
  8
_U+30EC_U+30A4_U+30E4_U+30FC 1
370
     0
100
AcDbSpline
210
0.0
220
0.0
230
1.0
 70
    11
 71
     3
 72
   197
 73
   193
 74
     0
 42
0.0000000001
 43
0.0000000001
 12
1.0
 22
0.0
 32
0.0
 13
1.0
 23
0.0
 33
0.0
 40
0.0
 40
0.0
 40
0.0
 40
0.0
 40
1.0
 40
1.0
 40
1.0
 40
2.0
 40
2.0
 40
2.0
 40
3.0
 40
3.0
 40
3.0
 40
4.0
 40
4.0
 40
4.0
 40
5.0
 40
5.0
 40
5.0
 40
6.0
 40
6.0
 40
6.0
 40
7.0
 40
7.0
 40
7.0
 40
8.0
 40
8.0
 40
8.0
 40
9.0
 40
9.0
 40
9.0
 40
10.0
 40
10.0
 40
10.0
 40
11.0
 40
11.0
 40
11.0
 40
12.0
 40
12.0
 40
12.0
 40
13.0
 40
13.0
 40
13.0
 40
14.0
 40
14.0
 40
14.0
 40
15.0
 40
15.0
 40
15.0
 40
16.0
 40
16.0
 40
16.0
 40
17.0
 40
17.0
 40
17.0
 40
18.0
 40
18.0
 40
18.0
 40
19.0
 40
19.0
 40
19.0
 40
20.0
 40
20.0
 40
20.0
 40
21.0
 40
21.0
 40
21.0
 40
22.0
 40
22.0
 40
22.0
 40
23.0
 40
23.0
 40
23.0
 40
24.0
 40
24.0
 40
24.0
 40
25.0
 40
25.0
 40
25.0
 40
26.0
 40
26.0
 40
26.0
 40
27.0
 40
27.0
 40
27.0
 40
28.0
 40
28.0
 40
28.0
 40
29.0
 40
29.0
 40
29.0
 40
30.0
 40
30.0
 40
30.0
 40
31.0
 40
31.0
 40
31.0
 40
32.0
 40
32.0
 40
32.0
 40
33.0
 40
33.0
 40
33.0
 40
34.0
 40
34.0
 40
34.0
 40
35.0
 40
35.0
 40
35.0
 40
36.0
 40
36.0
 40
36.0
 40
37.0
 40
37.0
 40
37.0
 40
38.0
 40
38.0
 40
38.0
 40
39.0
 40
39.0
 40
39.0
 40
40.0
 40
40.0
 40
40.0
 40
41.0
 40
41.0
 40
41.0
 40
42.0
 40
42.0
 40
42.0
 40
43.0
 40
43.0
 40
43.0
 40
44.0
 40
44.0
 40
44.0
 40
45.0
 40
45.0
 40
45.0
 40
46.0
 40
46.0
 40
46.0
 40
47.0
 40
47.0
 40
47.0
 40
48.0
 40
48.0
 40
48.0
 40
49.0
 40
49.0
 40
49.0
 40
50.0
 40
50.0
 40
50.0
 40
51.0
 40
51.0
 40
51.0
 40
52.0
 40
52.0
 40
52.0
 40
53.0
 40
53.0
 40
53.0
 40
54.0
 40
54.0
 40
54.0
 40
55.0
 40
55.0
 40
55.0
 40
56.0
 40
56.0
 40
56.0
 40
57.0
 40
57.0
 40
57.0
 40
58.0
 40
58.0
 40
58.0
 40
59.0
 40
59.0
 40
59.0
 40
60.0
 40
60.0
 40
60.0
 40
61.0
 40
61.0
 40
61.0
 40
62.0
 40
62.0
 40
62.0
 40
63.0
 40
63.0
 40
63.0
 40
64.0
 40
64.0
 40
64.0
 40
64.0
 10
105.9115369743902
 20
-116.6647135125005
 30
0.0
 10
105.9008571783859
 20
-116.6943413336736
 30
0.0
 10
105.8777750386347
 20
-116.7408501227245
 30
0.0
 10
105.8670952426305
 20
-116.7684108866065
 30
0.0
 10
105.8670952426305
 20
-116.7684108866065
 30
0.0
 10
105.805772542993
 20
-116.9206841070546
 30
0.0
 10
105.805772542993
 20
-116.9206841070546
 30
0.0
 10
105.7954372565373
 20
-116.9461778136454
 30
0.0
 10
105.7465169006467
 20
-117.058143416916
 30
0.0
 10
105.7341145568998
 20
-117.0815700662157
 30
0.0
 10
105.7317029900601
 20
-117.0877712380892
 30
0.0
 10
105.7275688754778
 20
-117.0963839768023
 30
0.0
 10
105.7251573086382
 20
-117.1025851486757
 30
0.0
 10
105.7251573086382
 20
-117.1025851486757
 30
0.0
 10
105.5160400126835
 20
-117.0498751877514
 30
0.0
 10
105.5160400126835
 20
-117.0498751877514
 30
0.0
 10
105.5942436801987
 20
-116.9399766417719
 30
0.0
 10
105.6555663798361
 20
-116.8045843892016
 30
0.0
 10
105.6872612583004
 20
-116.6943413336736
 30
0.0
 10
105.6872612583004
 20
-116.6943413336736
 30
0.0
 10
105.2221733677917
 20
-116.6943413336736
 30
0.0
 10
105.2221733677917
 20
-116.6943413336736
 30
0.0
 10
105.1415581334368
 20
-116.8593614074171
 30
0.0
 10
105.0740342619259
 20
-116.9375650749323
 30
0.0
 10
105.039927816622
 20
-116.9778726921097
 30
0.0
 10
105.039927816622
 20
-116.9778726921097
 30
0.0
 10
104.9172824173471
 20
-116.91241587789
 30
0.0
 10
104.9172824173471
 20
-116.91241587789
 30
0.0
 10
104.9172824173471
 20
-116.91241587789
 30
0.0
 10
104.9172824173471
 20
-117.0836371235069
 30
0.0
 10
104.9172824173471
 20
-117.0836371235069
 30
0.0
 10
104.9172824173471
 20
-117.1914686121952
 30
0.0
 10
104.9193494746382
 20
-117.2403889680857
 30
0.0
 10
104.9300292706425
 20
-117.3461533994829
 30
0.0
 10
104.8580267750008
 20
-117.3437418326432
 30
0.0
 10
104.8370116925408
 20
-117.3437418326432
 30
0.0
 10
104.6316840016199
 20
-117.3437418326432
 30
0.0
 10
104.6316840016199
 20
-117.3437418326432
 30
0.0
 10
104.5765624738559
 20
-117.3437418326432
 30
0.0
 10
104.5765624738559
 20
-117.3437418326432
 30
0.0
 10
104.5765624738559
 20
-117.3437418326432
 30
0.0
 10
104.5765624738559
 20
-117.4791340852136
 30
0.0
 10
104.5765624738559
 20
-117.4791340852136
 30
0.0
 10
104.5765624738559
 20
-117.4791340852136
 30
0.0
 10
104.6485649694976
 20
-117.4791340852136
 30
0.0
 10
104.6485649694976
 20
-117.4791340852136
 30
0.0
 10
104.7143662932659
 20
-117.4791340852136
 30
0.0
 10
104.8600938322919
 20
-117.4749999706313
 30
0.0
 10
104.9658582636891
 20
-117.4667317414667
 30
0.0
 10
104.9658582636891
 20
-117.4667317414667
 30
0.0
 10
104.9658582636891
 20
-117.644154158957
 30
0.0
 10
104.9658582636891
 20
-117.644154158957
 30
0.0
 10
104.868706571005
 20
-117.6379529870836
 30
0.0
 10
104.709887669135
 20
-117.6338188725013
 30
0.0
 10
104.6485649694976
 20
-117.6338188725013
 30
0.0
 10
104.6485649694976
 20
-117.6338188725013
 30
0.0
 10
104.5765624738559
 20
-117.6338188725013
 30
0.0
 10
104.5765624738559
 20
-117.6338188725013
 30
0.0
 10
104.578629531147
 20
-117.7227023360207
 30
0.0
 10
104.5831081552778
 20
-117.9614474531485
 30
0.0
 10
104.585175212569
 20
-118.0355170060814
 30
0.0
 10
104.585175212569
 20
-118.0355170060814
 30
0.0
 10
104.3843261457789
 20
-118.0355170060814
 30
0.0
 10
104.3843261457789
 20
-118.0355170060814
 30
0.0
 10
104.3967284895258
 20
-117.8219210859959
 30
0.0
 10
104.3967284895258
 20
-117.7922932648228
 30
0.0
 10
104.4008626041081
 20
-117.6338188725013
 30
0.0
 10
104.4008626041081
 20
-117.6338188725013
 30
0.0
 10
104.3312716753061
 20
-117.6338188725013
 30
0.0
 10
104.3312716753061
 20
-117.6338188725013
 30
0.0
 10
104.2740830902509
 20
-117.6338188725013
 30
0.0
 10
104.1218098698029
 20
-117.6379529870836
 30
0.0
 10
104.0119113238234
 20
-117.644154158957
 30
0.0
 10
104.0119113238234
 20
-117.644154158957
 30
0.0
 10
104.0119113238234
 20
-117.4667317414667
 30
0.0
 10
104.0119113238234
 20
-117.4667317414667
 30
0.0
 10
104.1176757552206
 20
-117.4749999706313
 30
0.0
 10
104.261680746504
 20
-117.4791340852136
 30
0.0
 10
104.3312716753061
 20
-117.4791340852136
 30
0.0
 10
104.3312716753061
 20
-117.4791340852136
 30
0.0
 10
104.405341228239
 20
-117.4791340852136
 30
0.0
 10
104.405341228239
 20
-117.4791340852136
 30
0.0
 10
104.405341228239
 20
-117.4791340852136
 30
0.0
 10
104.405341228239
 20
-117.3437418326432
 30
0.0
 10
104.405341228239
 20
-117.3437418326432
 30
0.0
 10
104.405341228239
 20
-117.3437418326432
 30
0.0
 10
104.3608994964792
 20
-117.3437418326432
 30
0.0
 10
104.3608994964792
 20
-117.3437418326432
 30
0.0
 10
104.2847628862552
 20
-117.3437418326432
 30
0.0
 10
104.0921820486297
 20
-117.3461533994829
 30
0.0
 10
104.0584201128743
 20
-117.3461533994829
 30
0.0
 10
104.0646212847477
 20
-117.2741509038412
 30
0.0
 10
104.0732340234609
 20
-117.1935356694863
 30
0.0
 10
104.0732340234609
 20
-117.0729573275026
 30
0.0
 10
104.0732340234609
 20
-117.0729573275026
 30
0.0
 10
104.0732340234609
 20
-116.8996690245945
 30
0.0
 10
104.0732340234609
 20
-116.8996690245945
 30
0.0
 10
104.0732340234609
 20
-116.8276665289528
 30
0.0
 10
104.0646212847477
 20
-116.7070881869691
 30
0.0
 10
104.0584201128743
 20
-116.6268174621627
 30
0.0
 10
104.1366237803895
 20
-116.630951576745
 30
0.0
 10
104.1748643402757
 20
-116.6330186340362
 30
0.0
 10
104.3016438541329
 20
-116.6330186340362
 30
0.0
 10
104.3016438541329
 20
-116.6330186340362
 30
0.0
 10
104.405341228239
 20
-116.6330186340362
 30
0.0
 10
104.405341228239
 20
-116.6330186340362
 30
0.0
 10
104.405341228239
 20
-116.6330186340362
 30
0.0
 10
104.405341228239
 20
-116.4869465854616
 30
0.0
 10
104.405341228239
 20
-116.4869465854616
 30
0.0
 10
104.405341228239
 20
-116.4869465854616
 30
0.0
 10
104.3271375607238
 20
-116.4869465854616
 30
0.0
 10
104.3271375607238
 20
-116.4869465854616
 30
0.0
 10
104.2720160329598
 20
-116.4869465854616
 30
0.0
 10
104.1004502777943
 20
-116.4914252095924
 30
0.0
 10
104.0160454384057
 20
-116.4976263814659
 30
0.0
 10
104.0160454384057
 20
-116.4976263814659
 30
0.0
 10
104.0160454384057
 20
-116.319859454427
 30
0.0
 10
104.0160454384057
 20
-116.319859454427
 30
0.0
 10
104.0983832205032
 20
-116.326405135849
 30
0.0
 10
104.261680746504
 20
-116.3305392504313
 30
0.0
 10
104.3271375607238
 20
-116.3305392504313
 30
0.0
 10
104.3271375607238
 20
-116.3305392504313
 30
0.0
 10
104.405341228239
 20
-116.3305392504313
 30
0.0
 10
104.405341228239
 20
-116.3305392504313
 30
0.0
 10
104.405341228239
 20
-116.2967773146758
 30
0.0
 10
104.4008626041081
 20
-116.1424370369366
 30
0.0
 10
104.4008626041081
 20
-116.1103976489238
 30
0.0
 10
104.4008626041081
 20
-116.1103976489238
 30
0.0
 10
104.5979220658644
 20
-116.12762312635
 30
0.0
 10
104.5979220658644
 20
-116.12762312635
 30
0.0
 10
104.6148030337421
 20
-116.1296901836412
 30
0.0
 10
104.6358181162022
 20
-116.1317572409323
 30
0.0
 10
104.6358181162022
 20
-116.1527723233924
 30
0.0
 10
104.6358181162022
 20
-116.1761989726921
 30
0.0
 10
104.6148030337421
 20
-116.1844672018567
 30
0.0
 10
104.5872422698601
 20
-116.1972140551521
 30
0.0
 10
104.5872422698601
 20
-116.2185736471606
 30
0.0
 10
104.585175212569
 20
-116.3136582825535
 30
0.0
 10
104.585175212569
 20
-116.3305392504313
 30
0.0
 10
104.585175212569
 20
-116.3305392504313
 30
0.0
 10
104.6444308549153
 20
-116.3305392504313
 30
0.0
 10
104.6444308549153
 20
-116.3305392504313
 30
0.0
 10
104.7122992359747
 20
-116.3305392504313
 30
0.0
 10
104.8559597177096
 20
-116.326405135849
 30
0.0
 10
104.9617241491068
 20
-116.319859454427
 30
0.0
 10
104.9617241491068
 20
-116.319859454427
 30
0.0
 10
104.9617241491068
 20
-116.4976263814659
 30
0.0
 10
104.9617241491068
 20
-116.4976263814659
 30
0.0
 10
104.8645724564227
 20
-116.4914252095924
 30
0.0
 10
104.7078206118439
 20
-116.4869465854616
 30
0.0
 10
104.6444308549153
 20
-116.4869465854616
 30
0.0
 10
104.6444308549153
 20
-116.4869465854616
 30
0.0
 10
104.5765624738559
 20
-116.4869465854616
 30
0.0
 10
104.5765624738559
 20
-116.4869465854616
 30
0.0
 10
104.5765624738559
 20
-116.4869465854616
 30
0.0
 10
104.5765624738559
 20
-116.6330186340362
 30
0.0
 10
104.5765624738559
 20
-116.6330186340362
 30
0.0
 10
104.5765624738559
 20
-116.6330186340362
 30
0.0
 10
104.6464979122064
 20
-116.6330186340362
 30
0.0
 10
104.6464979122064
 20
-116.6330186340362
 30
0.0
 10
104.7967040753633
 20
-116.6330186340362
 30
0.0
 10
104.868706571005
 20
-116.6288845194539
 30
0.0
 10
104.9300292706425
 20
-116.6268174621627
 30
0.0
 10
104.9217610414779
 20
-116.7219020975556
 30
0.0
 10
104.9193494746382
 20
-116.8001057650708
 30
0.0
 10
104.9172824173471
 20
-116.8383463249571
 30
0.0
 10
105.0719672046348
 20
-116.6268174621627
 30
0.0
 10
105.1773871264834
 20
-116.3791150967733
 30
0.0
 10
105.1946126039097
 20
-116.1169433303458
 30
0.0
 10
105.1946126039097
 20
-116.1169433303458
 30
0.0
 10
105.4102755812863
 20
-116.1675862339789
 30
0.0
 10
105.4102755812863
 20
-116.1675862339789
 30
0.0
 10
105.4250894918729
 20
-116.1720648581098
 30
0.0
 10
105.4399034024595
 20
-116.1782660299832
 30
0.0
 10
105.4399034024595
 20
-116.1951469978609
 30
0.0
 10
105.4399034024595
 20
-116.2120279657387
 30
0.0
 10
105.4357692878772
 20
-116.2140950230298
 30
0.0
 10
105.3847818746955
 20
-116.2354546150384
 30
0.0
 10
105.3679009068178
 20
-116.3115912252624
 30
0.0
 10
105.3427517097754
 20
-116.402541746073
 30
0.0
 10
105.2938313538849
 20
-116.5293212599302
 30
0.0
 10
105.2938313538849
 20
-116.5293212599302
 30
0.0
 10
105.6321397305364
 20
-116.5293212599302
 30
0.0
 10
105.6321397305364
 20
-116.5293212599302
 30
0.0
 10
105.6703802904227
 20
-116.5293212599302
 30
0.0
 10
105.7995713711196
 20
-116.5251871453479
 30
0.0
 10
105.8481472174616
 20
-116.5189859734744
 30
0.0
 10
105.8481472174616
 20
-116.5189859734744
 30
0.0
 10
105.9411647955633
 20
-116.5885769022765
 30
0.0
 10
105.9411647955633
 20
-116.5885769022765
 30
0.0
 10
105.9325520568502
 20
-116.609936494285
 30
0.0
 10
105.9263508849768
 20
-116.6288845194539
 30
0.0
 10
105.9115369743902
 20
-116.6647135125005
 30
0.0
  0
POLYLINE
  5
155
330
150
100
AcDbEntity
  8
_U+30EC_U+30A4_U+30E4_U+30FC 1
370
     0
100
AcDb2dPolyline
 66
     1
 10
0.0
 20
0.0
 30
0.0
  0
VERTEX
  5
156
330
155
100
AcDbEntity
  8
_U+30EC_U+30A4_U+30E4_U+30FC 1
370
     0
100
AcDbVertex
100
AcDb2dVertex
 10
104.405341228239
 20
-116.7897704786151
 30
0.0
  0
VERTEX
  5
157
330
155
100
AcDbEntity
  8
_U+30EC_U+30A4_U+30E4_U+30FC 1
370
     0
100
AcDbVertex
100
AcDb2dVertex
 10
104.2465223263689
 20
-116.7897704786151
 30
0.0
  0
VERTEX
  5
158
330
155
100
AcDbEntity
  8
_U+30EC_U+30A4_U+30E4_U+30FC 1
370
     0
100
AcDbVertex
100
AcDb2dVertex
 10
104.2465223263689
 20
-116.9186170497634
 30
0.0
  0
VERTEX
  5
159
330
155
100
AcDbEntity
  8
_U+30EC_U+30A4_U+30E4_U+30FC 1
370
     0
100
AcDbVertex
100
AcDb2dVertex
 10
104.405341228239
 20
-116.9186170497634
 30
0.0
  0
VERTEX
  5
15A
330
155
100
AcDbEntity
  8
_U+30EC_U+30A4_U+30E4_U+30FC 1
370
     0
100
AcDbVertex
100
AcDb2dVertex
 10
104.405341228239
 20
-116.7897704786151
 30
0.0
  0
SEQEND
  5
15B
330
155
100
AcDbEntity
  8
_U+30EC_U+30A4_U+30E4_U+30FC 1
370
     0
  0
POLYLINE
  5
15C
330
150
100
AcDbEntity
  8
_U+30EC_U+30A4_U+30E4_U+30FC 1
370
     0
100
AcDb2dPolyline
 66
     1
 10
0.0
 20
0.0
 30
0.0
  0
VERTEX
  5
15D
330
15C
100
AcDbEntity
  8
_U+30EC_U+30A4_U+30E4_U+30FC 1
370
     0
100
AcDbVertex
100
AcDb2dVertex
 10
104.405341228239
 20
-117.0626220410469
 30
0.0
  0
VERTEX
  5
15E
330
15C
100
AcDbEntity
  8
_U+30EC_U+30A4_U+30E4_U+30FC 1
370
     0
100
AcDbVertex
100
AcDb2dVertex
 10
104.2465223263689
 20
-117.0626220410469
 30
0.0
  0
VERTEX
  5
15F
330
15C
100
AcDbEntity
  8
_U+30EC_U+30A4_U+30E4_U+30FC 1
370
     0
100
AcDbVertex
100
AcDb2dVertex
 10
104.2465223263689
 20
-117.1914686121952
 30
0.0
  0
VERTEX
  5
160
330
15C
100
AcDbEntity
  8
_U+30EC_U+30A4_U+30E4_U+30FC 1
370
     0
100
AcDbVertex
100
AcDb2dVertex
 10
104.405341228239
 20
-117.1914686121952
 30
0.0
  0
VERTEX
  5
161
330
15C
100
AcDbEntity
  8
_U+30EC_U+30A4_U+30E4_U+30FC 1
370
     0
100
AcDbVertex
100
AcDb2dVertex
 10
104.405341228239
 20
-117.0626220410469
 30
0.0
  0
SEQEND
  5
162
330
15C
100
AcDbEntity
  8
_U+30EC_U+30A4_U+30E4_U+30FC 1
370
     0
  0
POLYLINE
  5
163
330
150
100
AcDbEntity
  8
_U+30EC_U+30A4_U+30E4_U+30FC 1
370
     0
100
AcDb2dPolyline
 66
     1
 10
0.0
 20
0.0
 30
0.0
  0
VERTEX
  5
164
330
163
100
AcDbEntity
  8
_U+30EC_U+30A4_U+30E4_U+30FC 1
370
     0
100
AcDbVertex
100
AcDb2dVertex
 10
104.737448433017
 20
-116.7897704786151
 30
0.0
  0
VERTEX
  5
165
330
163
100
AcDbEntity
  8
_U+30EC_U+30A4_U+30E4_U+30FC 1
370
     0
100
AcDbVertex
100
AcDb2dVertex
 10
104.5765624738559
 20
-116.7897704786151
 30
0.0
  0
VERTEX
  5
166
330
163
100
AcDbEntity
  8
_U+30EC_U+30A4_U+30E4_U+30FC 1
370
     0
100
AcDbVertex
100
AcDb2dVertex
 10
104.5765624738559
 20
-116.9186170497634
 30
0.0
  0
VERTEX
  5
167
330
163
100
AcDbEntity
  8
_U+30EC_U+30A4_U+30E4_U+30FC 1
370
     0
100
AcDbVertex
100
AcDb2dVertex
 10
104.737448433017
 20
-116.9186170497634
 30
0.0
  0
VERTEX
  5
168
330
163
100
AcDbEntity
  8
_U+30EC_U+30A4_U+30E4_U+30FC 1
370
     0
100
AcDbVertex
100
AcDb2dVertex
 10
104.737448433017
 20
-116.7897704786151
 30
0.0
  0
SEQEND
  5
169
330
163
100
AcDbEntity
  8
_U+30EC_U+30A4_U+30E4_U+30FC 1
370
     0
  0
POLYLINE
  5
16A
330
150
100
AcDbEntity
  8
_U+30EC_U+30A4_U+30E4_U+30FC 1
370
     0
100
AcDb2dPolyline
 66
     1
 10
0.0
 20
0.0
 30
0.0
  0
VERTEX
  5
16B
330
16A
100
AcDbEntity
  8
_U+30EC_U+30A4_U+30E4_U+30FC 1
370
     0
100
AcDbVertex
100
AcDb2dVertex
 10
104.737448433017
 20
-117.0626220410469
 30
0.0
  0
VERTEX
  5
16C
330
16A
100
AcDbEntity
  8
_U+30EC_U+30A4_U+30E4_U+30FC 1
370
     0
100
AcDbVertex
100
AcDb2dVertex
 10
104.5765624738559
 20
-117.0626220410469
 30
0.0
  0
VERTEX
  5
16D
330
16A
100
AcDbEntity
  8
_U+30EC_U+30A4_U+30E4_U+30FC 1
370
     0
100
AcDbVertex
100
AcDb2dVertex
 10
104.5765624738559
 20
-117.1914686121952
 30
0.0
  0
VERTEX
  5
16E
330
16A
100
AcDbEntity
  8
_U+30EC_U+30A4_U+30E4_U+30FC 1
370
     0
100
AcDbVertex
100
AcDb2dVertex
 10
104.737448433017
 20
-117.1914686121952
 30
0.0
  0
VERTEX
  5
16F
330
16A
100
AcDbEntity
  8
_U+30EC_U+30A4_U+30E4_U+30FC 1
370
     0
100
AcDbVertex
100
AcDb2dVertex
 10
104.737448433017
 20
-117.0626220410469
 30
0.0
  0
SEQEND
  5
170
330
16A
100
AcDbEntity
  8
_U+30EC_U+30A4_U+30E4_U+30FC 1
370
     0
  0
SPLINE
  5
171
330
150
100
AcDbEntity
  8
_U+30EC_U+30A4_U+30E4_U+30FC 1
370
     0
100
AcDbSpline
210
0.0
220
0.0
230
1.0
 70
    11
 71
     3
 72
    41
 73
    37
 74
     0
 42
0.0000000001
 43
0.0000000001
 12
1.0
 22
0.0
 32
0.0
 13
1.0
 23
0.0
 33
0.0
 40
0.0
 40
0.0
 40
0.0
 40
0.0
 40
1.0
 40
1.0
 40
1.0
 40
2.0
 40
2.0
 40
2.0
 40
3.0
 40
3.0
 40
3.0
 40
4.0
 40
4.0
 40
4.0
 40
5.0
 40
5.0
 40
5.0
 40
6.0
 40
6.0
 40
6.0
 40
7.0
 40
7.0
 40
7.0
 40
8.0
 40
8.0
 40
8.0
 40
9.0
 40
9.0
 40
9.0
 40
10.0
 40
10.0
 40
10.0
 40
11.0
 40
11.0
 40
11.0
 40
12.0
 40
12.0
 40
12.0
 40
12.0
 10
105.8271321350015
 20
-118.0207030954948
 30
0.0
 10
105.5859754510341
 20
-117.8853108429245
 30
0.0
 10
105.4082085239952
 20
-117.5893771407415
 30
0.0
 10
105.3679009068178
 20
-117.4601860600447
 30
0.0
 10
105.247322564834
 20
-117.7247693933119
 30
0.0
 10
105.0843695483817
 20
-117.9025363203508
 30
0.0
 10
104.9024685067605
 20
-118.0165689809125
 30
0.0
 10
104.9024685067605
 20
-118.0165689809125
 30
0.0
 10
104.7057535545527
 20
-117.8791096710511
 30
0.0
 10
104.7057535545527
 20
-117.8791096710511
 30
0.0
 10
104.7756889929033
 20
-117.8536159644602
 30
0.0
 10
104.9217610414779
 20
-117.7922932648228
 30
0.0
 10
105.0444064407528
 20
-117.6379529870836
 30
0.0
 10
105.1691188973188
 20
-117.4815456520532
 30
0.0
 10
105.2580023608383
 20
-117.2486571972503
 30
0.0
 10
105.2580023608383
 20
-116.988552488114
 30
0.0
 10
105.2580023608383
 20
-116.8869221712991
 30
0.0
 10
105.2452555075429
 20
-116.8149196756574
 30
0.0
 10
105.2345757115386
 20
-116.7684108866065
 30
0.0
 10
105.2345757115386
 20
-116.7684108866065
 30
0.0
 10
105.4399034024595
 20
-116.7897704786151
 30
0.0
 10
105.4399034024595
 20
-116.7897704786151
 30
0.0
 10
105.4609184849195
 20
-116.7918375359062
 30
0.0
 10
105.4819335673795
 20
-116.7939045931974
 30
0.0
 10
105.4819335673795
 20
-116.8149196756574
 30
0.0
 10
105.4819335673795
 20
-116.8342122103748
 30
0.0
 10
105.4715982809238
 20
-116.8424804395394
 30
0.0
 10
105.4378363451683
 20
-116.8638400315479
 30
0.0
 10
105.4292236064552
 20
-117.064689098338
 30
0.0
 10
105.4864121915103
 20
-117.3079128395966
 30
0.0
 10
105.5477348911478
 20
-117.4284911815804
 30
0.0
 10
105.6386854119584
 20
-117.6041910513281
 30
0.0
 10
105.833333306875
 20
-117.7840250356582
 30
0.0
 10
105.9687255594453
 20
-117.8408691111648
 30
0.0
 10
105.9687255594453
 20
-117.8408691111648
 30
0.0
 10
105.8271321350015
 20
-118.0207030954948
 30
0.0
 10
105.8271321350015
 20
-118.0207030954948
 30
0.0
  0
HATCH
  5
172
330
150
100
AcDbEntity
  8
_U+30EC_U+30A4_U+30E4_U+30FC 1
 62
     7
420
 16777215
100
AcDbHatch
 10
0.0
 20
0.0
 30
0.0
210
0.0
220
0.0
230
1.0
  2
SOLID
 70
     1
 71
     0
 91
        6
 92
        1
 93
        1
 72
     4
 94
        3
 73
     0
 74
     1
 95
      197
 96
      193
 40
0.0
 40
0.0
 40
0.0
 40
0.0
 40
1.0
 40
1.0
 40
1.0
 40
2.0
 40
2.0
 40
2.0
 40
3.0
 40
3.0
 40
3.0
 40
4.0
 40
4.0
 40
4.0
 40
5.0
 40
5.0
 40
5.0
 40
6.0
 40
6.0
 40
6.0
 40
7.0
 40
7.0
 40
7.0
 40
8.0
 40
8.0
 40
8.0
 40
9.0
 40
9.0
 40
9.0
 40
10.0
 40
10.0
 40
10.0
 40
11.0
 40
11.0
 40
11.0
 40
12.0
 40
12.0
 40
12.0
 40
13.0
 40
13.0
 40
13.0
 40
14.0
 40
14.0
 40
14.0
 40
15.0
 40
15.0
 40
15.0
 40
16.0
 40
16.0
 40
16.0
 40
17.0
 40
17.0
 40
17.0
 40
18.0
 40
18.0
 40
18.0
 40
19.0
 40
19.0
 40
19.0
 40
20.0
 40
20.0
 40
20.0
 40
21.0
 40
21.0
 40
21.0
 40
22.0
 40
22.0
 40
22.0
 40
23.0
 40
23.0
 40
23.0
 40
24.0
 40
24.0
 40
24.0
 40
25.0
 40
25.0
 40
25.0
 40
26.0
 40
26.0
 40
26.0
 40
27.0
 40
27.0
 40
27.0
 40
28.0
 40
28.0
 40
28.0
 40
29.0
 40
29.0
 40
29.0
 40
30.0
 40
30.0
 40
30.0
 40
31.0
 40
31.0
 40
31.0
 40
32.0
 40
32.0
 40
32.0
 40
33.0
 40
33.0
 40
33.0
 40
34.0
 40
34.0
 40
34.0
 40
35.0
 40
35.0
 40
35.0
 40
36.0
 40
36.0
 40
36.0
 40
37.0
 40
37.0
 40
37.0
 40
38.0
 40
38.0
 40
38.0
 40
39.0
 40
39.0
 40
39.0
 40
40.0
 40
40.0
 40
40.0
 40
41.0
 40
41.0
 40
41.0
 40
42.0
 40
42.0
 40
42.0
 40
43.0
 40
43.0
 40
43.0
 40
44.0
 40
44.0
 40
44.0
 40
45.0
 40
45.0
 40
45.0
 40
46.0
 40
46.0
 40
46.0
 40
47.0
 40
47.0
 40
47.0
 40
48.0
 40
48.0
 40
48.0
 40
49.0
 40
49.0
 40
49.0
 40
50.0
 40
50.0
 40
50.0
 40
51.0
 40
51.0
 40
51.0
 40
52.0
 40
52.0
 40
52.0
 40
53.0
 40
53.0
 40
53.0
 40
54.0
 40
54.0
 40
54.0
 40
55.0
 40
55.0
 40
55.0
 40
56.0
 40
56.0
 40
56.0
 40
57.0
 40
57.0
 40
57.0
 40
58.0
 40
58.0
 40
58.0
 40
59.0
 40
59.0
 40
59.0
 40
60.0
 40
60.0
 40
60.0
 40
61.0
 40
61.0
 40
61.0
 40
62.0
 40
62.0
 40
62.0
 40
63.0
 40
63.0
 40
63.0
 40
64.0
 40
64.0
 40
64.0
 40
64.0
 10
105.9115369743902
 20
-116.6647135125005
 10
105.9008571783859
 20
-116.6943413336736
 10
105.8777750386347
 20
-116.7408501227245
 10
105.8670952426305
 20
-116.7684108866065
 10
105.8670952426305
 20
-116.7684108866065
 10
105.805772542993
 20
-116.9206841070546
 10
105.805772542993
 20
-116.9206841070546
 10
105.7954372565373
 20
-116.9461778136454
 10
105.7465169006467
 20
-117.058143416916
 10
105.7341145568998
 20
-117.0815700662157
 10
105.7317029900601
 20
-117.0877712380892
 10
105.7275688754778
 20
-117.0963839768023
 10
105.7251573086382
 20
-117.1025851486757
 10
105.7251573086382
 20
-117.1025851486757
 10
105.5160400126835
 20
-117.0498751877514
 10
105.5160400126835
 20
-117.0498751877514
 10
105.5942436801987
 20
-116.9399766417719
 10
105.6555663798361
 20
-116.8045843892016
 10
105.6872612583004
 20
-116.6943413336736
 10
105.6872612583004
 20
-116.6943413336736
 10
105.2221733677917
 20
-116.6943413336736
 10
105.2221733677917
 20
-116.6943413336736
 10
105.1415581334368
 20
-116.8593614074171
 10
105.0740342619259
 20
-116.9375650749323
 10
105.039927816622
 20
-116.9778726921097
 10
105.039927816622
 20
-116.9778726921097
 10
104.9172824173471
 20
-116.91241587789
 10
104.9172824173471
 20
-116.91241587789
 10
104.9172824173471
 20
-116.91241587789
 10
104.9172824173471
 20
-117.0836371235069
 10
104.9172824173471
 20
-117.0836371235069
 10
104.9172824173471
 20
-117.1914686121952
 10
104.9193494746382
 20
-117.2403889680857
 10
104.9300292706425
 20
-117.3461533994829
 10
104.8580267750008
 20
-117.3437418326432
 10
104.8370116925408
 20
-117.3437418326432
 10
104.6316840016199
 20
-117.3437418326432
 10
104.6316840016199
 20
-117.3437418326432
 10
104.5765624738559
 20
-117.3437418326432
 10
104.5765624738559
 20
-117.3437418326432
 10
104.5765624738559
 20
-117.3437418326432
 10
104.5765624738559
 20
-117.4791340852136
 10
104.5765624738559
 20
-117.4791340852136
 10
104.5765624738559
 20
-117.4791340852136
 10
104.6485649694976
 20
-117.4791340852136
 10
104.6485649694976
 20
-117.4791340852136
 10
104.7143662932659
 20
-117.4791340852136
 10
104.8600938322919
 20
-117.4749999706313
 10
104.9658582636891
 20
-117.4667317414667
 10
104.9658582636891
 20
-117.4667317414667
 10
104.9658582636891
 20
-117.644154158957
 10
104.9658582636891
 20
-117.644154158957
 10
104.868706571005
 20
-117.6379529870836
 10
104.709887669135
 20
-117.6338188725013
 10
104.6485649694976
 20
-117.6338188725013
 10
104.6485649694976
 20
-117.6338188725013
 10
104.5765624738559
 20
-117.6338188725013
 10
104.5765624738559
 20
-117.6338188725013
 10
104.578629531147
 20
-117.7227023360207
 10
104.5831081552778
 20
-117.9614474531485
 10
104.585175212569
 20
-118.0355170060814
 10
104.585175212569
 20
-118.0355170060814
 10
104.3843261457789
 20
-118.0355170060814
 10
104.3843261457789
 20
-118.0355170060814
 10
104.3967284895258
 20
-117.8219210859959
 10
104.3967284895258
 20
-117.7922932648228
 10
104.4008626041081
 20
-117.6338188725013
 10
104.4008626041081
 20
-117.6338188725013
 10
104.3312716753061
 20
-117.6338188725013
 10
104.3312716753061
 20
-117.6338188725013
 10
104.2740830902509
 20
-117.6338188725013
 10
104.1218098698029
 20
-117.6379529870836
 10
104.0119113238234
 20
-117.644154158957
 10
104.0119113238234
 20
-117.644154158957
 10
104.0119113238234
 20
-117.4667317414667
 10
104.0119113238234
 20
-117.4667317414667
 10
104.1176757552206
 20
-117.4749999706313
 10
104.261680746504
 20
-117.4791340852136
 10
104.3312716753061
 20
-117.4791340852136
 10
104.3312716753061
 20
-117.4791340852136
 10
104.405341228239
 20
-117.4791340852136
 10
104.405341228239
 20
-117.4791340852136
 10
104.405341228239
 20
-117.4791340852136
 10
104.405341228239
 20
-117.3437418326432
 10
104.405341228239
 20
-117.3437418326432
 10
104.405341228239
 20
-117.3437418326432
 10
104.3608994964792
 20
-117.3437418326432
 10
104.3608994964792
 20
-117.3437418326432
 10
104.2847628862552
 20
-117.3437418326432
 10
104.0921820486297
 20
-117.3461533994829
 10
104.0584201128743
 20
-117.3461533994829
 10
104.0646212847477
 20
-117.2741509038412
 10
104.0732340234609
 20
-117.1935356694863
 10
104.0732340234609
 20
-117.0729573275026
 10
104.0732340234609
 20
-117.0729573275026
 10
104.0732340234609
 20
-116.8996690245945
 10
104.0732340234609
 20
-116.8996690245945
 10
104.0732340234609
 20
-116.8276665289528
 10
104.0646212847477
 20
-116.7070881869691
 10
104.0584201128743
 20
-116.6268174621627
 10
104.1366237803895
 20
-116.630951576745
 10
104.1748643402757
 20
-116.6330186340362
 10
104.3016438541329
 20
-116.6330186340362
 10
104.3016438541329
 20
-116.6330186340362
 10
104.405341228239
 20
-116.6330186340362
 10
104.405341228239
 20
-116.6330186340362
 10
104.405341228239
 20
-116.6330186340362
 10
104.405341228239
 20
-116.4869465854616
 10
104.405341228239
 20
-116.4869465854616
 10
104.405341228239
 20
-116.4869465854616
 10
104.3271375607238
 20
-116.4869465854616
 10
104.3271375607238
 20
-116.4869465854616
 10
104.2720160329598
 20
-116.4869465854616
 10
104.1004502777943
 20
-116.4914252095924
 10
104.0160454384057
 20
-116.4976263814659
 10
104.0160454384057
 20
-116.4976263814659
 10
104.0160454384057
 20
-116.319859454427
 10
104.0160454384057
 20
-116.319859454427
 10
104.0983832205032
 20
-116.326405135849
 10
104.261680746504
 20
-116.3305392504313
 10
104.3271375607238
 20
-116.3305392504313
 10
104.3271375607238
 20
-116.3305392504313
 10
104.405341228239
 20
-116.3305392504313
 10
104.405341228239
 20
-116.3305392504313
 10
104.405341228239
 20
-116.2967773146758
 10
104.4008626041081
 20
-116.1424370369366
 10
104.4008626041081
 20
-116.1103976489238
 10
104.4008626041081
 20
-116.1103976489238
 10
104.5979220658644
 20
-116.12762312635
 10
104.5979220658644
 20
-116.12762312635
 10
104.6148030337421
 20
-116.1296901836412
 10
104.6358181162022
 20
-116.1317572409323
 10
104.6358181162022
 20
-116.1527723233924
 10
104.6358181162022
 20
-116.1761989726921
 10
104.6148030337421
 20
-116.1844672018567
 10
104.5872422698601
 20
-116.1972140551521
 10
104.5872422698601
 20
-116.2185736471606
 10
104.585175212569
 20
-116.3136582825535
 10
104.585175212569
 20
-116.3305392504313
 10
104.585175212569
 20
-116.3305392504313
 10
104.6444308549153
 20
-116.3305392504313
 10
104.6444308549153
 20
-116.3305392504313
 10
104.7122992359747
 20
-116.3305392504313
 10
104.8559597177096
 20
-116.326405135849
 10
104.9617241491068
 20
-116.319859454427
 10
104.9617241491068
 20
-116.319859454427
 10
104.9617241491068
 20
-116.4976263814659
 10
104.9617241491068
 20
-116.4976263814659
 10
104.8645724564227
 20
-116.4914252095924
 10
104.7078206118439
 20
-116.4869465854616
 10
104.6444308549153
 20
-116.4869465854616
 10
104.6444308549153
 20
-116.4869465854616
 10
104.5765624738559
 20
-116.4869465854616
 10
104.5765624738559
 20
-116.4869465854616
 10
104.5765624738559
 20
-116.4869465854616
 10
104.5765624738559
 20
-116.6330186340362
 10
104.5765624738559
 20
-116.6330186340362
 10
104.5765624738559
 20
-116.6330186340362
 10
104.6464979122064
 20
-116.6330186340362
 10
104.6464979122064
 20
-116.6330186340362
 10
104.7967040753633
 20
-116.6330186340362
 10
104.868706571005
 20
-116.6288845194539
 10
104.9300292706425
 20
-116.6268174621627
 10
104.9217610414779
 20
-116.7219020975556
 10
104.9193494746382
 20
-116.8001057650708
 10
104.9172824173471
 20
-116.8383463249571
 10
105.0719672046348
 20
-116.6268174621627
 10
105.1773871264834
 20
-116.3791150967733
 10
105.1946126039097
 20
-116.1169433303458
 10
105.1946126039097
 20
-116.1169433303458
 10
105.4102755812863
 20
-116.1675862339789
 10
105.4102755812863
 20
-116.1675862339789
 10
105.4250894918729
 20
-116.1720648581098
 10
105.4399034024595
 20
-116.1782660299832
 10
105.4399034024595
 20
-116.1951469978609
 10
105.4399034024595
 20
-116.2120279657387
 10
105.4357692878772
 20
-116.2140950230298
 10
105.3847818746955
 20
-116.2354546150384
 10
105.3679009068178
 20
-116.3115912252624
 10
105.3427517097754
 20
-116.402541746073
 10
105.2938313538849
 20
-116.5293212599302
 10
105.2938313538849
 20
-116.5293212599302
 10
105.6321397305364
 20
-116.5293212599302
 10
105.6321397305364
 20
-116.5293212599302
 10
105.6703802904227
 20
-116.5293212599302
 10
105.7995713711196
 20
-116.5251871453479
 10
105.8481472174616
 20
-116.5189859734744
 10
105.8481472174616
 20
-116.5189859734744
 10
105.9411647955633
 20
-116.5885769022765
 10
105.9411647955633
 20
-116.5885769022765
 10
105.9325520568502
 20
-116.609936494285
 10
105.9263508849768
 20
-116.6288845194539
 10
105.9115369743902
 20
-116.6647135125005
 97
        0
 97
        0
 92
        1
 93
        4
 72
     1
 10
104.405341228239
 20
-116.7897704786151
 11
104.2465223263689
 21
-116.7897704786151
 72
     1
 10
104.2465223263689
 20
-116.7897704786151
 11
104.2465223263689
 21
-116.9186170497634
 72
     1
 10
104.2465223263689
 20
-116.9186170497634
 11
104.405341228239
 21
-116.9186170497634
 72
     1
 10
104.405341228239
 20
-116.9186170497634
 11
104.405341228239
 21
-116.7897704786151
 97
        0
 92
        1
 93
        4
 72
     1
 10
104.405341228239
 20
-117.0626220410469
 11
104.2465223263689
 21
-117.0626220410469
 72
     1
 10
104.2465223263689
 20
-117.0626220410469
 11
104.2465223263689
 21
-117.1914686121952
 72
     1
 10
104.2465223263689
 20
-117.1914686121952
 11
104.405341228239
 21
-117.1914686121952
 72
     1
 10
104.405341228239
 20
-117.1914686121952
 11
104.405341228239
 21
-117.0626220410469
 97
        0
 92
        1
 93
        4
 72
     1
 10
104.737448433017
 20
-116.7897704786151
 11
104.5765624738559
 21
-116.7897704786151
 72
     1
 10
104.5765624738559
 20
-116.7897704786151
 11
104.5765624738559
 21
-116.9186170497634
 72
     1
 10
104.5765624738559
 20
-116.9186170497634
 11
104.737448433017
 21
-116.9186170497634
 72
     1
 10
104.737448433017
 20
-116.9186170497634
 11
104.737448433017
 21
-116.7897704786151
 97
        0
 92
        1
 93
        4
 72
     1
 10
104.737448433017
 20
-117.0626220410469
 11
104.5765624738559
 21
-117.0626220410469
 72
     1
 10
104.5765624738559
 20
-117.0626220410469
 11
104.5765624738559
 21
-117.1914686121952
 72
     1
 10
104.5765624738559
 20
-117.1914686121952
 11
104.737448433017
 21
-117.1914686121952
 72
     1
 10
104.737448433017
 20
-117.1914686121952
 11
104.737448433017
 21
-117.0626220410469
 97
        0
 92
        1
 93
        1
 72
     4
 94
        3
 73
     0
 74
     1
 95
       41
 96
       37
 40
0.0
 40
0.0
 40
0.0
 40
0.0
 40
1.0
 40
1.0
 40
1.0
 40
2.0
 40
2.0
 40
2.0
 40
3.0
 40
3.0
 40
3.0
 40
4.0
 40
4.0
 40
4.0
 40
5.0
 40
5.0
 40
5.0
 40
6.0
 40
6.0
 40
6.0
 40
7.0
 40
7.0
 40
7.0
 40
8.0
 40
8.0
 40
8.0
 40
9.0
 40
9.0
 40
9.0
 40
10.0
 40
10.0
 40
10.0
 40
11.0
 40
11.0
 40
11.0
 40
12.0
 40
12.0
 40
12.0
 40
12.0
 10
105.8271321350015
 20
-118.0207030954948
 10
105.5859754510341
 20
-117.8853108429245
 10
105.4082085239952
 20
-117.5893771407415
 10
105.3679009068178
 20
-117.4601860600447
 10
105.247322564834
 20
-117.7247693933119
 10
105.0843695483817
 20
-117.9025363203508
 10
104.9024685067605
 20
-118.0165689809125
 10
104.9024685067605
 20
-118.0165689809125
 10
104.7057535545527
 20
-117.8791096710511
 10
104.7057535545527
 20
-117.8791096710511
 10
104.7756889929033
 20
-117.8536159644602
 10
104.9217610414779
 20
-117.7922932648228
 10
105.0444064407528
 20
-117.6379529870836
 10
105.1691188973188
 20
-117.4815456520532
 10
105.2580023608383
 20
-117.2486571972503
 10
105.2580023608383
 20
-116.988552488114
 10
105.2580023608383
 20
-116.8869221712991
 10
105.2452555075429
 20
-116.8149196756574
 10
105.2345757115386
 20
-116.7684108866065
 10
105.2345757115386
 20
-116.7684108866065
 10
105.4399034024595
 20
-116.7897704786151
 10
105.4399034024595
 20
-116.7897704786151
 10
105.4609184849195
 20
-116.7918375359062
 10
105.4819335673795
 20
-116.7939045931974
 10
105.4819335673795
 20
-116.8149196756574
 10
105.4819335673795
 20
-116.8342122103748
 10
105.4715982809238
 20
-116.8424804395394
 10
105.4378363451683
 20
-116.8638400315479
 10
105.4292236064552
 20
-117.064689098338
 10
105.4864121915103
 20
-117.3079128395966
 10
105.5477348911478
 20
-117.4284911815804
 10
105.6386854119584
 20
-117.6041910513281
 10
105.833333306875
 20
-117.7840250356582
 10
105.9687255594453
 20
-117.8408691111648
 10
105.9687255594453
 20
-117.8408691111648
 10
105.8271321350015
 20
-118.0207030954948
 10
105.8271321350015
 20
-118.0207030954948
 97
        0
 97
        0
 75
     2
 76
     1
 98
        0
  0
SPLINE
  5
173
330
150
100
AcDbEntity
  8
_U+30EC_U+30A4_U+30E4_U+30FC 1
370
     0
100
AcDbSpline
210
0.0
220
0.0
230
1.0
 70
    11
 71
     3
 72
    71
 73
    67
 74
     0
 42
0.0000000001
 43
0.0000000001
 12
1.0
 22
0.0
 32
0.0
 13
1.0
 23
0.0
 33
0.0
 40
0.0
 40
0.0
 40
0.0
 40
0.0
 40
1.0
 40
1.0
 40
1.0
 40
2.0
 40
2.0
 40
2.0
 40
3.0
 40
3.0
 40
3.0
 40
4.0
 40
4.0
 40
4.0
 40
5.0
 40
5.0
 40
5.0
 40
6.0
 40
6.0
 40
6.0
 40
7.0
 40
7.0
 40
7.0
 40
8.0
 40
8.0
 40
8.0
 40
9.0
 40
9.0
 40
9.0
 40
10.0
 40
10.0
 40
10.0
 40
11.0
 40
11.0
 40
11.0
 40
12.0
 40
12.0
 40
12.0
 40
13.0
 40
13.0
 40
13.0
 40
14.0
 40
14.0
 40
14.0
 40
15.0
 40
15.0
 40
15.0
 40
16.0
 40
16.0
 40
16.0
 40
17.0
 40
17.0
 40
17.0
 40
18.0
 40
18.0
 40
18.0
 40
19.0
 40
19.0
 40
19.0
 40
20.0
 40
20.0
 40
20.0
 40
21.0
 40
21.0
 40
21.0
 40
22.0
 40
22.0
 40
22.0
 40
22.0
 10
107.0212022301891
 20
-116.2881645759627
 30
0.0
 10
107.0063883196026
 20
-116.2881645759627
 30
0.0
 10
106.9936414663072
 20
-116.2840304613804
 30
0.0
 10
106.9681477597163
 20
-116.2754177226673
 30
0.0
 10
106.8265543352725
 20
-116.3222710212667
 30
0.0
 10
106.6532660323645
 20
-116.3391519891444
 30
0.0
 10
106.5133951556633
 20
-116.3432861037267
 30
0.0
 10
106.5133951556633
 20
-116.3432861037267
 30
0.0
 10
106.5113280983722
 20
-116.4321695672461
 30
0.0
 10
106.5113280983722
 20
-116.4321695672461
 30
0.0
 10
106.5113280983722
 20
-116.4321695672461
 30
0.0
 10
106.7717773170571
 20
-116.4321695672461
 30
0.0
 10
106.7717773170571
 20
-116.4321695672461
 30
0.0
 10
106.8244872779814
 20
-116.4321695672461
 30
0.0
 10
107.0063883196026
 20
-116.423556828533
 30
0.0
 10
107.0508300513623
 20
-116.4173556566596
 30
0.0
 10
107.0508300513623
 20
-116.4173556566596
 30
0.0
 10
107.0508300513623
 20
-116.5782416158207
 30
0.0
 10
107.0508300513623
 20
-116.5782416158207
 30
0.0
 10
106.9957085235983
 20
-116.5716959343987
 30
0.0
 10
106.8709960670323
 20
-116.5696288771076
 30
0.0
 10
106.8331000166945
 20
-116.5716959343987
 30
0.0
 10
106.8331000166945
 20
-116.5716959343987
 30
0.0
 10
106.8331000166945
 20
-116.6815944803782
 30
0.0
 10
106.8331000166945
 20
-116.6815944803782
 30
0.0
 10
106.8331000166945
 20
-116.7281032694291
 30
0.0
 10
106.8351670739857
 20
-116.7918375359062
 30
0.0
 10
106.8413682458591
 20
-116.829733586244
 30
0.0
 10
106.8413682458591
 20
-116.829733586244
 30
0.0
 10
106.6491319177822
 20
-116.829733586244
 30
0.0
 10
106.6491319177822
 20
-116.829733586244
 30
0.0
 10
106.6553330896556
 20
-116.7897704786151
 30
0.0
 10
106.6615342615291
 20
-116.7070881869691
 30
0.0
 10
106.6615342615291
 20
-116.6922742763825
 30
0.0
 10
106.6615342615291
 20
-116.6922742763825
 30
0.0
 10
106.6615342615291
 20
-116.5716959343987
 30
0.0
 10
106.6615342615291
 20
-116.5716959343987
 30
0.0
 10
106.6615342615291
 20
-116.5716959343987
 30
0.0
 10
106.4968586973341
 20
-116.5716959343987
 30
0.0
 10
106.4968586973341
 20
-116.5716959343987
 30
0.0
 10
106.454139513317
 20
-116.7918375359062
 30
0.0
 10
106.3993624951016
 20
-116.8721082607125
 30
0.0
 10
106.2935980637044
 20
-116.9716715202363
 30
0.0
 10
106.2935980637044
 20
-116.9716715202363
 30
0.0
 10
106.1261664231212
 20
-116.857294350126
 30
0.0
 10
106.1261664231212
 20
-116.857294350126
 30
0.0
 10
106.1899006895984
 20
-116.8087185037839
 30
0.0
 10
106.3401068527553
 20
-116.6964083909648
 30
0.0
 10
106.3401068527553
 20
-116.347420218309
 30
0.0
 10
106.3401068527553
 20
-116.2650824362115
 30
0.0
 10
106.3314941140421
 20
-116.2185736471606
 30
0.0
 10
106.3232258848775
 20
-116.1696532912701
 30
0.0
 10
106.4692979334521
 20
-116.1844672018567
 30
0.0
 10
106.4837673344902
 20
-116.1844672018567
 30
0.0
 10
106.5199408370853
 20
-116.1844672018567
 30
0.0
 10
106.6277723257736
 20
-116.1844672018567
 30
0.0
 10
106.7697102597659
 20
-116.1675862339789
 30
0.0
 10
106.9302517093786
 20
-116.1062635343415
 30
0.0
 10
106.9302517093786
 20
-116.1062635343415
 30
0.0
 10
107.0446288794889
 20
-116.2375216723295
 30
0.0
 10
107.0446288794889
 20
-116.2375216723295
 30
0.0
 10
107.0508300513623
 20
-116.243722844203
 30
0.0
 10
107.0549641659446
 20
-116.2523355829161
 30
0.0
 10
107.0549641659446
 20
-116.2606038120807
 30
0.0
 10
107.0549641659446
 20
-116.2840304613804
 30
0.0
 10
107.0360161407757
 20
-116.2881645759627
 30
0.0
 10
107.0212022301891
 20
-116.2881645759627
 30
0.0
  0
SPLINE
  5
174
330
150
100
AcDbEntity
  8
_U+30EC_U+30A4_U+30E4_U+30FC 1
370
     0
100
AcDbSpline
210
0.0
220
0.0
230
1.0
 70
    11
 71
     3
 72
    74
 73
    70
 74
     0
 42
0.0000000001
 43
0.0000000001
 12
1.0
 22
0.0
 32
0.0
 13
1.0
 23
0.0
 33
0.0
 40
0.0
 40
0.0
 40
0.0
 40
0.0
 40
1.0
 40
1.0
 40
1.0
 40
2.0
 40
2.0
 40
2.0
 40
3.0
 40
3.0
 40
3.0
 40
4.0
 40
4.0
 40
4.0
 40
5.0
 40
5.0
 40
5.0
 40
6.0
 40
6.0
 40
6.0
 40
7.0
 40
7.0
 40
7.0
 40
8.0
 40
8.0
 40
8.0
 40
9.0
 40
9.0
 40
9.0
 40
10.0
 40
10.0
 40
10.0
 40
11.0
 40
11.0
 40
11.0
 40
12.0
 40
12.0
 40
12.0
 40
13.0
 40
13.0
 40
13.0
 40
14.0
 40
14.0
 40
14.0
 40
15.0
 40
15.0
 40
15.0
 40
16.0
 40
16.0
 40
16.0
 40
17.0
 40
17.0
 40
17.0
 40
18.0
 40
18.0
 40
18.0
 40
19.0
 40
19.0
 40
19.0
 40
20.0
 40
20.0
 40
20.0
 40
21.0
 40
21.0
 40
21.0
 40
22.0
 40
22.0
 40
22.0
 40
23.0
 40
23.0
 40
23.0
 40
23.0
 10
107.8590494522019
 20
-118.0548095407988
 30
0.0
 10
107.6454535321164
 20
-118.0441297447945
 30
0.0
 10
107.4442599557778
 20
-117.9573133385662
 30
0.0
 10
107.2685600860301
 20
-117.8367349965825
 30
0.0
 10
107.2685600860301
 20
-117.8367349965825
 30
0.0
 10
107.3660562882627
 20
-117.7499185903542
 30
0.0
 10
107.3660562882627
 20
-117.7499185903542
 30
0.0
 10
107.3660562882627
 20
-117.7499185903542
 30
0.0
 10
106.8138074819771
 20
-117.7499185903542
 30
0.0
 10
106.8138074819771
 20
-117.7499185903542
 30
0.0
 10
106.8138074819771
 20
-117.7499185903542
 30
0.0
 10
106.894422716332
 20
-117.8136528568313
 30
0.0
 10
106.894422716332
 20
-117.8136528568313
 30
0.0
 10
106.9006238882054
 20
-117.8177869714136
 30
0.0
 10
106.9113036842097
 20
-117.8284667674179
 30
0.0
 10
106.9113036842097
 20
-117.8432806780045
 30
0.0
 10
106.9113036842097
 20
-117.8832437856334
 30
0.0
 10
106.8372341312768
 20
-117.8770426137599
 30
0.0
 10
106.8224202206902
 20
-117.8749755564688
 30
0.0
 10
106.591943332727
 20
-118.0145019236214
 30
0.0
 10
106.4479383414436
 20
-118.0461968020857
 30
0.0
 10
106.3442409673376
 20
-118.0630777699634
 30
0.0
 10
106.3442409673376
 20
-118.0630777699634
 30
0.0
 10
106.2150498866407
 20
-117.8853108429245
 30
0.0
 10
106.2150498866407
 20
-117.8853108429245
 30
0.0
 10
106.4627522520302
 20
-117.8536159644602
 30
0.0
 10
106.564382568845
 20
-117.8071071754093
 30
0.0
 10
106.6532660323645
 20
-117.754397214485
 30
0.0
 10
106.5791964794316
 20
-117.7564642717762
 30
0.0
 10
106.4648193093213
 20
-117.7585313290673
 30
0.0
 10
106.433124430857
 20
-117.7605983863585
 30
0.0
 10
106.4479383414436
 20
-117.671714922839
 30
0.0
 10
106.4500053987347
 20
-117.5428683516907
 30
0.0
 10
106.4500053987347
 20
-117.4687987987578
 30
0.0
 10
106.4500053987347
 20
-117.4687987987578
 30
0.0
 10
106.4500053987347
 20
-117.168386472444
 30
0.0
 10
106.4500053987347
 20
-117.168386472444
 30
0.0
 10
106.4500053987347
 20
-117.0688232129203
 30
0.0
 10
106.4438042268613
 20
-116.9696044629451
 30
0.0
 10
106.433124430857
 20
-116.8721082607125
 30
0.0
 10
106.5347547476719
 20
-116.878309432586
 30
0.0
 10
106.7652316356351
 20
-116.884855114008
 30
0.0
 10
106.8730631243234
 20
-116.884855114008
 30
0.0
 10
106.8730631243234
 20
-116.884855114008
 30
0.0
 10
107.2961208499121
 20
-116.884855114008
 30
0.0
 10
107.2961208499121
 20
-116.884855114008
 30
0.0
 10
107.4146321346047
 20
-116.884855114008
 30
0.0
 10
107.4570068090732
 20
-116.884855114008
 30
0.0
 10
107.5393445911707
 20
-116.8807209994257
 30
0.0
 10
107.6874836970365
 20
-116.8741753180037
 30
0.0
 10
107.7047091744627
 20
-116.8741753180037
 30
0.0
 10
107.7508734539651
 20
-116.8721082607125
 30
0.0
 10
107.7426052248005
 20
-116.9523789855188
 30
0.0
 10
107.7384711102182
 20
-117.1111978873889
 30
0.0
 10
107.7384711102182
 20
-117.1935356694863
 30
0.0
 10
107.7384711102182
 20
-117.1935356694863
 30
0.0
 10
107.7384711102182
 20
-117.4791340852136
 30
0.0
 10
107.7384711102182
 20
-117.4791340852136
 30
0.0
 10
107.7384711102182
 20
-117.5511365808553
 30
0.0
 10
107.7405381675093
 20
-117.6823947188433
 30
0.0
 10
107.7508734539651
 20
-117.7605983863585
 30
0.0
 10
107.6792154678719
 20
-117.7564642717762
 30
0.0
 10
107.556570068597
 20
-117.754397214485
 30
0.0
 10
107.4780218915333
 20
-117.7523301571939
 30
0.0
 10
107.5882649470613
 20
-117.8198540287048
 30
0.0
 10
107.7405381675093
 20
-117.8704969323379
 30
0.0
 10
107.9520670303037
 20
-117.8749755564688
 30
0.0
 10
107.9520670303037
 20
-117.8749755564688
 30
0.0
 10
107.8590494522019
 20
-118.0548095407988
 30
0.0
 10
107.8590494522019
 20
-118.0548095407988
 30
0.0
  0
POLYLINE
  5
175
330
150
100
AcDbEntity
  8
_U+30EC_U+30A4_U+30E4_U+30FC 1
370
     0
100
AcDb2dPolyline
 66
     1
 10
0.0
 20
0.0
 30
0.0
  0
VERTEX
  5
176
330
175
100
AcDbEntity
  8
_U+30EC_U+30A4_U+30E4_U+30FC 1
370
     0
100
AcDbVertex
100
AcDb2dVertex
 10
107.5545030113058
 20
-117.0202473665783
 30
0.0
  0
VERTEX
  5
177
330
175
100
AcDbEntity
  8
_U+30EC_U+30A4_U+30E4_U+30FC 1
370
     0
100
AcDbVertex
100
AcDb2dVertex
 10
106.6425862363602
 20
-117.0202473665783
 30
0.0
  0
VERTEX
  5
178
330
175
100
AcDbEntity
  8
_U+30EC_U+30A4_U+30E4_U+30FC 1
370
     0
100
AcDbVertex
100
AcDb2dVertex
 10
106.6425862363602
 20
-117.1322129698489
 30
0.0
  0
VERTEX
  5
179
330
175
100
AcDbEntity
  8
_U+30EC_U+30A4_U+30E4_U+30FC 1
370
     0
100
AcDbVertex
100
AcDb2dVertex
 10
107.5545030113058
 20
-117.1322129698489
 30
0.0
  0
VERTEX
  5
17A
330
175
100
AcDbEntity
  8
_U+30EC_U+30A4_U+30E4_U+30FC 1
370
     0
100
AcDbVertex
100
AcDb2dVertex
 10
107.5545030113058
 20
-117.0202473665783
 30
0.0
  0
SEQEND
  5
17B
330
175
100
AcDbEntity
  8
_U+30EC_U+30A4_U+30E4_U+30FC 1
370
     0
  0
POLYLINE
  5
17C
330
150
100
AcDbEntity
  8
_U+30EC_U+30A4_U+30E4_U+30FC 1
370
     0
100
AcDb2dPolyline
 66
     1
 10
0.0
 20
0.0
 30
0.0
  0
VERTEX
  5
17D
330
17C
100
AcDbEntity
  8
_U+30EC_U+30A4_U+30E4_U+30FC 1
370
     0
100
AcDbVertex
100
AcDb2dVertex
 10
107.5545030113058
 20
-117.2655381651281
 30
0.0
  0
VERTEX
  5
17E
330
17C
100
AcDbEntity
  8
_U+30EC_U+30A4_U+30E4_U+30FC 1
370
     0
100
AcDbVertex
100
AcDb2dVertex
 10
106.6425862363602
 20
-117.2655381651281
 30
0.0
  0
VERTEX
  5
17F
330
17C
100
AcDbEntity
  8
_U+30EC_U+30A4_U+30E4_U+30FC 1
370
     0
100
AcDbVertex
100
AcDb2dVertex
 10
106.6425862363602
 20
-117.3757812206561
 30
0.0
  0
VERTEX
  5
180
330
17C
100
AcDbEntity
  8
_U+30EC_U+30A4_U+30E4_U+30FC 1
370
     0
100
AcDbVertex
100
AcDb2dVertex
 10
107.5545030113058
 20
-117.3757812206561
 30
0.0
  0
VERTEX
  5
181
330
17C
100
AcDbEntity
  8
_U+30EC_U+30A4_U+30E4_U+30FC 1
370
     0
100
AcDbVertex
100
AcDb2dVertex
 10
107.5545030113058
 20
-117.2655381651281
 30
0.0
  0
SEQEND
  5
182
330
17C
100
AcDbEntity
  8
_U+30EC_U+30A4_U+30E4_U+30FC 1
370
     0
  0
POLYLINE
  5
183
330
150
100
AcDbEntity
  8
_U+30EC_U+30A4_U+30E4_U+30FC 1
370
     0
100
AcDb2dPolyline
 66
     1
 10
0.0
 20
0.0
 30
0.0
  0
VERTEX
  5
184
330
183
100
AcDbEntity
  8
_U+30EC_U+30A4_U+30E4_U+30FC 1
370
     0
100
AcDbVertex
100
AcDb2dVertex
 10
107.5545030113058
 20
-117.5111734732264
 30
0.0
  0
VERTEX
  5
185
330
183
100
AcDbEntity
  8
_U+30EC_U+30A4_U+30E4_U+30FC 1
370
     0
100
AcDbVertex
100
AcDb2dVertex
 10
106.6425862363602
 20
-117.5111734732264
 30
0.0
  0
VERTEX
  5
186
330
183
100
AcDbEntity
  8
_U+30EC_U+30A4_U+30E4_U+30FC 1
370
     0
100
AcDbVertex
100
AcDb2dVertex
 10
106.6425862363602
 20
-117.6190049619147
 30
0.0
  0
VERTEX
  5
187
330
183
100
AcDbEntity
  8
_U+30EC_U+30A4_U+30E4_U+30FC 1
370
     0
100
AcDbVertex
100
AcDb2dVertex
 10
107.5545030113058
 20
-117.6190049619147
 30
0.0
  0
VERTEX
  5
188
330
183
100
AcDbEntity
  8
_U+30EC_U+30A4_U+30E4_U+30FC 1
370
     0
100
AcDbVertex
100
AcDb2dVertex
 10
107.5545030113058
 20
-117.5111734732264
 30
0.0
  0
SEQEND
  5
189
330
183
100
AcDbEntity
  8
_U+30EC_U+30A4_U+30E4_U+30FC 1
370
     0
  0
SPLINE
  5
18A
330
150
100
AcDbEntity
  8
_U+30EC_U+30A4_U+30E4_U+30FC 1
370
     0
100
AcDbSpline
210
0.0
220
0.0
230
1.0
 70
    11
 71
     3
 72
    74
 73
    70
 74
     0
 42
0.0000000001
 43
0.0000000001
 12
1.0
 22
0.0
 32
0.0
 13
1.0
 23
0.0
 33
0.0
 40
0.0
 40
0.0
 40
0.0
 40
0.0
 40
1.0
 40
1.0
 40
1.0
 40
2.0
 40
2.0
 40
2.0
 40
3.0
 40
3.0
 40
3.0
 40
4.0
 40
4.0
 40
4.0
 40
5.0
 40
5.0
 40
5.0
 40
6.0
 40
6.0
 40
6.0
 40
7.0
 40
7.0
 40
7.0
 40
8.0
 40
8.0
 40
8.0
 40
9.0
 40
9.0
 40
9.0
 40
10.0
 40
10.0
 40
10.0
 40
11.0
 40
11.0
 40
11.0
 40
12.0
 40
12.0
 40
12.0
 40
13.0
 40
13.0
 40
13.0
 40
14.0
 40
14.0
 40
14.0
 40
15.0
 40
15.0
 40
15.0
 40
16.0
 40
16.0
 40
16.0
 40
17.0
 40
17.0
 40
17.0
 40
18.0
 40
18.0
 40
18.0
 40
19.0
 40
19.0
 40
19.0
 40
20.0
 40
20.0
 40
20.0
 40
21.0
 40
21.0
 40
21.0
 40
22.0
 40
22.0
 40
22.0
 40
23.0
 40
23.0
 40
23.0
 40
23.0
 10
107.8714517959488
 20
-116.5675618198164
 30
0.0
 10
107.8714517959488
 20
-116.5675618198164
 30
0.0
 10
107.7109103463362
 20
-116.5675618198164
 30
0.0
 10
107.7109103463362
 20
-116.5675618198164
 30
0.0
 10
107.7109103463362
 20
-116.5675618198164
 30
0.0
 10
107.7109103463362
 20
-116.6815944803782
 30
0.0
 10
107.7109103463362
 20
-116.6815944803782
 30
0.0
 10
107.7109103463362
 20
-116.7219020975556
 30
0.0
 10
107.7171115182096
 20
-116.7959716504885
 30
0.0
 10
107.7212456327919
 20
-116.8214653570794
 30
0.0
 10
107.7212456327919
 20
-116.8214653570794
 30
0.0
 10
107.5097167699976
 20
-116.8214653570794
 30
0.0
 10
107.5097167699976
 20
-116.8214653570794
 30
0.0
 10
107.5207410755504
 20
-116.7556640333111
 30
0.0
 10
107.5228081328415
 20
-116.6964083909648
 30
0.0
 10
107.5228081328415
 20
-116.6943413336736
 30
0.0
 10
107.5228081328415
 20
-116.6943413336736
 30
0.0
 10
107.5228081328415
 20
-116.5716959343987
 30
0.0
 10
107.5228081328415
 20
-116.5716959343987
 30
0.0
 10
107.5228081328415
 20
-116.5716959343987
 30
0.0
 10
107.3429741485115
 20
-116.5716959343987
 30
0.0
 10
107.3429741485115
 20
-116.5716959343987
 30
0.0
 10
107.3236816137941
 20
-116.630951576745
 30
0.0
 10
107.2771728247432
 20
-116.7770236253196
 30
0.0
 10
107.1631401641814
 20
-116.8593614074171
 30
0.0
 10
107.1631401641814
 20
-116.8593614074171
 30
0.0
 10
107.0063883196026
 20
-116.7535969760199
 30
0.0
 10
107.0063883196026
 20
-116.7535969760199
 30
0.0
 10
107.0804578725354
 20
-116.7070881869691
 30
0.0
 10
107.1969020999369
 20
-116.6330186340362
 30
0.0
 10
107.1969020999369
 20
-116.3115912252624
 30
0.0
 10
107.1969020999369
 20
-116.2564696974984
 30
0.0
 10
107.1927679853546
 20
-116.2120279657387
 30
0.0
 10
107.1907009280634
 20
-116.1741319154009
 30
0.0
 10
107.2664930287389
 20
-116.1824001445655
 30
0.0
 10
107.3409070912203
 20
-116.1889458259875
 30
0.0
 10
107.4042968481489
 20
-116.1889458259875
 30
0.0
 10
107.5820637751878
 20
-116.1889458259875
 30
0.0
 10
107.7805012751382
 20
-116.1296901836412
 30
0.0
 10
107.8418239747757
 20
-116.1000623624681
 30
0.0
 10
107.8418239747757
 20
-116.1000623624681
 30
0.0
 10
107.9689479981814
 20
-116.2354546150384
 30
0.0
 10
107.9689479981814
 20
-116.2354546150384
 30
0.0
 10
107.9734266223122
 20
-116.2395887296207
 30
0.0
 10
107.9754936796034
 20
-116.2482014683338
 30
0.0
 10
107.9754936796034
 20
-116.2544026402072
 30
0.0
 10
107.9754936796034
 20
-116.2754177226673
 30
0.0
 10
107.9603352594683
 20
-116.2819634040892
 30
0.0
 10
107.9437988011391
 20
-116.2819634040892
 30
0.0
 10
107.9224392091305
 20
-116.2819634040892
 30
0.0
 10
107.9076252985439
 20
-116.2733506653761
 30
0.0
 10
107.8886772733751
 20
-116.2630153789204
 30
0.0
 10
107.7150444609185
 20
-116.319859454427
 30
0.0
 10
107.4973144262507
 20
-116.3453531610178
 30
0.0
 10
107.3639892309715
 20
-116.347420218309
 30
0.0
 10
107.3639892309715
 20
-116.347420218309
 30
0.0
 10
107.3595106068407
 20
-116.430102509955
 30
0.0
 10
107.3595106068407
 20
-116.430102509955
 30
0.0
 10
107.3595106068407
 20
-116.430102509955
 30
0.0
 10
107.632706678821
 20
-116.430102509955
 30
0.0
 10
107.632706678821
 20
-116.430102509955
 30
0.0
 10
107.6895507543276
 20
-116.430102509955
 30
0.0
 10
107.9520670303037
 20
-116.4108099752376
 30
0.0
 10
107.9965087620634
 20
-116.4046088033641
 30
0.0
 10
107.9965087620634
 20
-116.4046088033641
 30
0.0
 10
107.9965087620634
 20
-116.5737629916899
 30
0.0
 10
107.9965087620634
 20
-116.5737629916899
 30
0.0
 10
107.9627468263079
 20
-116.5696288771076
 30
0.0
 10
107.9499999730125
 20
-116.5675618198164
 30
0.0
 10
107.8714517959488
 20
-116.5675618198164
 30
0.0
  0
HATCH
  5
18B
330
150
100
AcDbEntity
  8
_U+30EC_U+30A4_U+30E4_U+30FC 1
 62
     7
420
 16777215
100
AcDbHatch
 10
0.0
 20
0.0
 30
0.0
210
0.0
220
0.0
230
1.0
  2
SOLID
 70
     1
 71
     0
 91
        6
 92
        1
 93
        1
 72
     4
 94
        3
 73
     0
 74
     1
 95
       71
 96
       67
 40
0.0
 40
0.0
 40
0.0
 40
0.0
 40
1.0
 40
1.0
 40
1.0
 40
2.0
 40
2.0
 40
2.0
 40
3.0
 40
3.0
 40
3.0
 40
4.0
 40
4.0
 40
4.0
 40
5.0
 40
5.0
 40
5.0
 40
6.0
 40
6.0
 40
6.0
 40
7.0
 40
7.0
 40
7.0
 40
8.0
 40
8.0
 40
8.0
 40
9.0
 40
9.0
 40
9.0
 40
10.0
 40
10.0
 40
10.0
 40
11.0
 40
11.0
 40
11.0
 40
12.0
 40
12.0
 40
12.0
 40
13.0
 40
13.0
 40
13.0
 40
14.0
 40
14.0
 40
14.0
 40
15.0
 40
15.0
 40
15.0
 40
16.0
 40
16.0
 40
16.0
 40
17.0
 40
17.0
 40
17.0
 40
18.0
 40
18.0
 40
18.0
 40
19.0
 40
19.0
 40
19.0
 40
20.0
 40
20.0
 40
20.0
 40
21.0
 40
21.0
 40
21.0
 40
22.0
 40
22.0
 40
22.0
 40
22.0
 10
107.0212022301891
 20
-116.2881645759627
 10
107.0063883196026
 20
-116.2881645759627
 10
106.9936414663072
 20
-116.2840304613804
 10
106.9681477597163
 20
-116.2754177226673
 10
106.8265543352725
 20
-116.3222710212667
 10
106.6532660323645
 20
-116.3391519891444
 10
106.5133951556633
 20
-116.3432861037267
 10
106.5133951556633
 20
-116.3432861037267
 10
106.5113280983722
 20
-116.4321695672461
 10
106.5113280983722
 20
-116.4321695672461
 10
106.5113280983722
 20
-116.4321695672461
 10
106.7717773170571
 20
-116.4321695672461
 10
106.7717773170571
 20
-116.4321695672461
 10
106.8244872779814
 20
-116.4321695672461
 10
107.0063883196026
 20
-116.423556828533
 10
107.0508300513623
 20
-116.4173556566596
 10
107.0508300513623
 20
-116.4173556566596
 10
107.0508300513623
 20
-116.5782416158207
 10
107.0508300513623
 20
-116.5782416158207
 10
106.9957085235983
 20
-116.5716959343987
 10
106.8709960670323
 20
-116.5696288771076
 10
106.8331000166945
 20
-116.5716959343987
 10
106.8331000166945
 20
-116.5716959343987
 10
106.8331000166945
 20
-116.6815944803782
 10
106.8331000166945
 20
-116.6815944803782
 10
106.8331000166945
 20
-116.7281032694291
 10
106.8351670739857
 20
-116.7918375359062
 10
106.8413682458591
 20
-116.829733586244
 10
106.8413682458591
 20
-116.829733586244
 10
106.6491319177822
 20
-116.829733586244
 10
106.6491319177822
 20
-116.829733586244
 10
106.6553330896556
 20
-116.7897704786151
 10
106.6615342615291
 20
-116.7070881869691
 10
106.6615342615291
 20
-116.6922742763825
 10
106.6615342615291
 20
-116.6922742763825
 10
106.6615342615291
 20
-116.5716959343987
 10
106.6615342615291
 20
-116.5716959343987
 10
106.6615342615291
 20
-116.5716959343987
 10
106.4968586973341
 20
-116.5716959343987
 10
106.4968586973341
 20
-116.5716959343987
 10
106.454139513317
 20
-116.7918375359062
 10
106.3993624951016
 20
-116.8721082607125
 10
106.2935980637044
 20
-116.9716715202363
 10
106.2935980637044
 20
-116.9716715202363
 10
106.1261664231212
 20
-116.857294350126
 10
106.1261664231212
 20
-116.857294350126
 10
106.1899006895984
 20
-116.8087185037839
 10
106.3401068527553
 20
-116.6964083909648
 10
106.3401068527553
 20
-116.347420218309
 10
106.3401068527553
 20
-116.2650824362115
 10
106.3314941140421
 20
-116.2185736471606
 10
106.3232258848775
 20
-116.1696532912701
 10
106.4692979334521
 20
-116.1844672018567
 10
106.4837673344902
 20
-116.1844672018567
 10
106.5199408370853
 20
-116.1844672018567
 10
106.6277723257736
 20
-116.1844672018567
 10
106.7697102597659
 20
-116.1675862339789
 10
106.9302517093786
 20
-116.1062635343415
 10
106.9302517093786
 20
-116.1062635343415
 10
107.0446288794889
 20
-116.2375216723295
 10
107.0446288794889
 20
-116.2375216723295
 10
107.0508300513623
 20
-116.243722844203
 10
107.0549641659446
 20
-116.2523355829161
 10
107.0549641659446
 20
-116.2606038120807
 10
107.0549641659446
 20
-116.2840304613804
 10
107.0360161407757
 20
-116.2881645759627
 10
107.0212022301891
 20
-116.2881645759627
 97
        0
 97
        0
 92
        1
 93
        1
 72
     4
 94
        3
 73
     0
 74
     1
 95
       74
 96
       70
 40
0.0
 40
0.0
 40
0.0
 40
0.0
 40
1.0
 40
1.0
 40
1.0
 40
2.0
 40
2.0
 40
2.0
 40
3.0
 40
3.0
 40
3.0
 40
4.0
 40
4.0
 40
4.0
 40
5.0
 40
5.0
 40
5.0
 40
6.0
 40
6.0
 40
6.0
 40
7.0
 40
7.0
 40
7.0
 40
8.0
 40
8.0
 40
8.0
 40
9.0
 40
9.0
 40
9.0
 40
10.0
 40
10.0
 40
10.0
 40
11.0
 40
11.0
 40
11.0
 40
12.0
 40
12.0
 40
12.0
 40
13.0
 40
13.0
 40
13.0
 40
14.0
 40
14.0
 40
14.0
 40
15.0
 40
15.0
 40
15.0
 40
16.0
 40
16.0
 40
16.0
 40
17.0
 40
17.0
 40
17.0
 40
18.0
 40
18.0
 40
18.0
 40
19.0
 40
19.0
 40
19.0
 40
20.0
 40
20.0
 40
20.0
 40
21.0
 40
21.0
 40
21.0
 40
22.0
 40
22.0
 40
22.0
 40
23.0
 40
23.0
 40
23.0
 40
23.0
 10
107.8590494522019
 20
-118.0548095407988
 10
107.6454535321164
 20
-118.0441297447945
 10
107.4442599557778
 20
-117.9573133385662
 10
107.2685600860301
 20
-117.8367349965825
 10
107.2685600860301
 20
-117.8367349965825
 10
107.3660562882627
 20
-117.7499185903542
 10
107.3660562882627
 20
-117.7499185903542
 10
107.3660562882627
 20
-117.7499185903542
 10
106.8138074819771
 20
-117.7499185903542
 10
106.8138074819771
 20
-117.7499185903542
 10
106.8138074819771
 20
-117.7499185903542
 10
106.894422716332
 20
-117.8136528568313
 10
106.894422716332
 20
-117.8136528568313
 10
106.9006238882054
 20
-117.8177869714136
 10
106.9113036842097
 20
-117.8284667674179
 10
106.9113036842097
 20
-117.8432806780045
 10
106.9113036842097
 20
-117.8832437856334
 10
106.8372341312768
 20
-117.8770426137599
 10
106.8224202206902
 20
-117.8749755564688
 10
106.591943332727
 20
-118.0145019236214
 10
106.4479383414436
 20
-118.0461968020857
 10
106.3442409673376
 20
-118.0630777699634
 10
106.3442409673376
 20
-118.0630777699634
 10
106.2150498866407
 20
-117.8853108429245
 10
106.2150498866407
 20
-117.8853108429245
 10
106.4627522520302
 20
-117.8536159644602
 10
106.564382568845
 20
-117.8071071754093
 10
106.6532660323645
 20
-117.754397214485
 10
106.5791964794316
 20
-117.7564642717762
 10
106.4648193093213
 20
-117.7585313290673
 10
106.433124430857
 20
-117.7605983863585
 10
106.4479383414436
 20
-117.671714922839
 10
106.4500053987347
 20
-117.5428683516907
 10
106.4500053987347
 20
-117.4687987987578
 10
106.4500053987347
 20
-117.4687987987578
 10
106.4500053987347
 20
-117.168386472444
 10
106.4500053987347
 20
-117.168386472444
 10
106.4500053987347
 20
-117.0688232129203
 10
106.4438042268613
 20
-116.9696044629451
 10
106.433124430857
 20
-116.8721082607125
 10
106.5347547476719
 20
-116.878309432586
 10
106.7652316356351
 20
-116.884855114008
 10
106.8730631243234
 20
-116.884855114008
 10
106.8730631243234
 20
-116.884855114008
 10
107.2961208499121
 20
-116.884855114008
 10
107.2961208499121
 20
-116.884855114008
 10
107.4146321346047
 20
-116.884855114008
 10
107.4570068090732
 20
-116.884855114008
 10
107.5393445911707
 20
-116.8807209994257
 10
107.6874836970365
 20
-116.8741753180037
 10
107.7047091744627
 20
-116.8741753180037
 10
107.7508734539651
 20
-116.8721082607125
 10
107.7426052248005
 20
-116.9523789855188
 10
107.7384711102182
 20
-117.1111978873889
 10
107.7384711102182
 20
-117.1935356694863
 10
107.7384711102182
 20
-117.1935356694863
 10
107.7384711102182
 20
-117.4791340852136
 10
107.7384711102182
 20
-117.4791340852136
 10
107.7384711102182
 20
-117.5511365808553
 10
107.7405381675093
 20
-117.6823947188433
 10
107.7508734539651
 20
-117.7605983863585
 10
107.6792154678719
 20
-117.7564642717762
 10
107.556570068597
 20
-117.754397214485
 10
107.4780218915333
 20
-117.7523301571939
 10
107.5882649470613
 20
-117.8198540287048
 10
107.7405381675093
 20
-117.8704969323379
 10
107.9520670303037
 20
-117.8749755564688
 10
107.9520670303037
 20
-117.8749755564688
 10
107.8590494522019
 20
-118.0548095407988
 10
107.8590494522019
 20
-118.0548095407988
 97
        0
 97
        0
 92
        1
 93
        4
 72
     1
 10
107.5545030113058
 20
-117.0202473665783
 11
106.6425862363602
 21
-117.0202473665783
 72
     1
 10
106.6425862363602
 20
-117.0202473665783
 11
106.6425862363602
 21
-117.1322129698489
 72
     1
 10
106.6425862363602
 20
-117.1322129698489
 11
107.5545030113058
 21
-117.1322129698489
 72
     1
 10
107.5545030113058
 20
-117.1322129698489
 11
107.5545030113058
 21
-117.0202473665783
 97
        0
 92
        1
 93
        4
 72
     1
 10
107.5545030113058
 20
-117.2655381651281
 11
106.6425862363602
 21
-117.2655381651281
 72
     1
 10
106.6425862363602
 20
-117.2655381651281
 11
106.6425862363602
 21
-117.3757812206561
 72
     1
 10
106.6425862363602
 20
-117.3757812206561
 11
107.5545030113058
 21
-117.3757812206561
 72
     1
 10
107.5545030113058
 20
-117.3757812206561
 11
107.5545030113058
 21
-117.2655381651281
 97
        0
 92
        1
 93
        4
 72
     1
 10
107.5545030113058
 20
-117.5111734732264
 11
106.6425862363602
 21
-117.5111734732264
 72
     1
 10
106.6425862363602
 20
-117.5111734732264
 11
106.6425862363602
 21
-117.6190049619147
 72
     1
 10
106.6425862363602
 20
-117.6190049619147
 11
107.5545030113058
 21
-117.6190049619147
 72
     1
 10
107.5545030113058
 20
-117.6190049619147
 11
107.5545030113058
 21
-117.5111734732264
 97
        0
 92
        1
 93
        1
 72
     4
 94
        3
 73
     0
 74
     1
 95
       74
 96
       70
 40
0.0
 40
0.0
 40
0.0
 40
0.0
 40
1.0
 40
1.0
 40
1.0
 40
2.0
 40
2.0
 40
2.0
 40
3.0
 40
3.0
 40
3.0
 40
4.0
 40
4.0
 40
4.0
 40
5.0
 40
5.0
 40
5.0
 40
6.0
 40
6.0
 40
6.0
 40
7.0
 40
7.0
 40
7.0
 40
8.0
 40
8.0
 40
8.0
 40
9.0
 40
9.0
 40
9.0
 40
10.0
 40
10.0
 40
10.0
 40
11.0
 40
11.0
 40
11.0
 40
12.0
 40
12.0
 40
12.0
 40
13.0
 40
13.0
 40
13.0
 40
14.0
 40
14.0
 40
14.0
 40
15.0
 40
15.0
 40
15.0
 40
16.0
 40
16.0
 40
16.0
 40
17.0
 40
17.0
 40
17.0
 40
18.0
 40
18.0
 40
18.0
 40
19.0
 40
19.0
 40
19.0
 40
20.0
 40
20.0
 40
20.0
 40
21.0
 40
21.0
 40
21.0
 40
22.0
 40
22.0
 40
22.0
 40
23.0
 40
23.0
 40
23.0
 40
23.0
 10
107.8714517959488
 20
-116.5675618198164
 10
107.8714517959488
 20
-116.5675618198164
 10
107.7109103463362
 20
-116.5675618198164
 10
107.7109103463362
 20
-116.5675618198164
 10
107.7109103463362
 20
-116.5675618198164
 10
107.7109103463362
 20
-116.6815944803782
 10
107.7109103463362
 20
-116.6815944803782
 10
107.7109103463362
 20
-116.7219020975556
 10
107.7171115182096
 20
-116.7959716504885
 10
107.7212456327919
 20
-116.8214653570794
 10
107.7212456327919
 20
-116.8214653570794
 10
107.5097167699976
 20
-116.8214653570794
 10
107.5097167699976
 20
-116.8214653570794
 10
107.5207410755504
 20
-116.7556640333111
 10
107.5228081328415
 20
-116.6964083909648
 10
107.5228081328415
 20
-116.6943413336736
 10
107.5228081328415
 20
-116.6943413336736
 10
107.5228081328415
 20
-116.5716959343987
 10
107.5228081328415
 20
-116.5716959343987
 10
107.5228081328415
 20
-116.5716959343987
 10
107.3429741485115
 20
-116.5716959343987
 10
107.3429741485115
 20
-116.5716959343987
 10
107.3236816137941
 20
-116.630951576745
 10
107.2771728247432
 20
-116.7770236253196
 10
107.1631401641814
 20
-116.8593614074171
 10
107.1631401641814
 20
-116.8593614074171
 10
107.0063883196026
 20
-116.7535969760199
 10
107.0063883196026
 20
-116.7535969760199
 10
107.0804578725354
 20
-116.7070881869691
 10
107.1969020999369
 20
-116.6330186340362
 10
107.1969020999369
 20
-116.3115912252624
 10
107.1969020999369
 20
-116.2564696974984
 10
107.1927679853546
 20
-116.2120279657387
 10
107.1907009280634
 20
-116.1741319154009
 10
107.2664930287389
 20
-116.1824001445655
 10
107.3409070912203
 20
-116.1889458259875
 10
107.4042968481489
 20
-116.1889458259875
 10
107.5820637751878
 20
-116.1889458259875
 10
107.7805012751382
 20
-116.1296901836412
 10
107.8418239747757
 20
-116.1000623624681
 10
107.8418239747757
 20
-116.1000623624681
 10
107.9689479981814
 20
-116.2354546150384
 10
107.9689479981814
 20
-116.2354546150384
 10
107.9734266223122
 20
-116.2395887296207
 10
107.9754936796034
 20
-116.2482014683338
 10
107.9754936796034
 20
-116.2544026402072
 10
107.9754936796034
 20
-116.2754177226673
 10
107.9603352594683
 20
-116.2819634040892
 10
107.9437988011391
 20
-116.2819634040892
 10
107.9224392091305
 20
-116.2819634040892
 10
107.9076252985439
 20
-116.2733506653761
 10
107.8886772733751
 20
-116.2630153789204
 10
107.7150444609185
 20
-116.319859454427
 10
107.4973144262507
 20
-116.3453531610178
 10
107.3639892309715
 20
-116.347420218309
 10
107.3639892309715
 20
-116.347420218309
 10
107.3595106068407
 20
-116.430102509955
 10
107.3595106068407
 20
-116.430102509955
 10
107.3595106068407
 20
-116.430102509955
 10
107.632706678821
 20
-116.430102509955
 10
107.632706678821
 20
-116.430102509955
 10
107.6895507543276
 20
-116.430102509955
 10
107.9520670303037
 20
-116.4108099752376
 10
107.9965087620634
 20
-116.4046088033641
 10
107.9965087620634
 20
-116.4046088033641
 10
107.9965087620634
 20
-116.5737629916899
 10
107.9965087620634
 20
-116.5737629916899
 10
107.9627468263079
 20
-116.5696288771076
 10
107.9499999730125
 20
-116.5675618198164
 10
107.8714517959488
 20
-116.5675618198164
 97
        0
 97
        0
 75
     2
 76
     1
 98
        0
  0
ENDBLK
  5
153
330
150
100
AcDbEntity
  8
0
100
AcDbBlockEnd
  0
BLOCK
  5
19C
330
19A
100
AcDbEntity
  8
0
100
AcDbBlockBegin
  2
block 14
 70
     0
 10
0.0
 20
0.0
 30
0.0
  3
block 14
  1

  0
SPLINE
  5
19E
330
19A
100
AcDbEntity
  8
_U+30EC_U+30A4_U+30E4_U+30FC 1
370
     0
100
AcDbSpline
210
0.0
220
0.0
230
1.0
 70
    11
 71
     3
 72
    53
 73
    49
 74
     0
 42
0.0000000001
 43
0.0000000001
 12
1.0
 22
0.0
 32
0.0
 13
1.0
 23
0.0
 33
0.0
 40
0.0
 40
0.0
 40
0.0
 40
0.0
 40
1.0
 40
1.0
 40
1.0
 40
2.0
 40
2.0
 40
2.0
 40
3.0
 40
3.0
 40
3.0
 40
4.0
 40
4.0
 40
4.0
 40
5.0
 40
5.0
 40
5.0
 40
6.0
 40
6.0
 40
6.0
 40
7.0
 40
7.0
 40
7.0
 40
8.0
 40
8.0
 40
8.0
 40
9.0
 40
9.0
 40
9.0
 40
10.0
 40
10.0
 40
10.0
 40
11.0
 40
11.0
 40
11.0
 40
12.0
 40
12.0
 40
12.0
 40
13.0
 40
13.0
 40
13.0
 40
14.0
 40
14.0
 40
14.0
 40
15.0
 40
15.0
 40
15.0
 40
16.0
 40
16.0
 40
16.0
 40
16.0
 10
97.73356931150411
 20
-139.9005045223165
 30
0.0
 10
97.65536564398894
 20
-139.9005045223165
 30
0.0
 10
97.55373532717407
 20
-139.8836235544388
 30
0.0
 10
97.4521050103592
 20
-139.8202337975102
 30
0.0
 10
97.27881670745113
 20
-139.7103352515308
 30
0.0
 10
97.25745711544259
 20
-139.5790771135427
 30
0.0
 10
97.23850909027371
 20
-139.4712456248544
 30
0.0
 10
97.23850909027371
 20
-139.4712456248544
 30
0.0
 10
97.46071774907233
 20
-139.4712456248544
 30
0.0
 10
97.46071774907233
 20
-139.4712456248544
 30
0.0
 10
97.51549476728779
 20
-139.6700276343533
 30
0.0
 10
97.64261879069352
 20
-139.6996554555265
 30
0.0
 10
97.73563636879526
 20
-139.6996554555265
 30
0.0
 10
97.87516273594788
 20
-139.6996554555265
 30
0.0
 10
98.02743595639592
 20
-139.6000921960027
 30
0.0
 10
98.02743595639592
 20
-139.3675482507484
 30
0.0
 10
98.02743595639592
 20
-139.1115776561943
 30
0.0
 10
97.84760197206589
 20
-139.0419867273923
 30
0.0
 10
97.72702363008214
 20
-139.0419867273923
 30
0.0
 10
97.69532875161784
 20
-139.0419867273923
 30
0.0
 10
97.55373532717407
 20
-139.0419867273923
 30
0.0
 10
97.46485186365463
 20
-139.1708332985406
 30
0.0
 10
97.46485186365463
 20
-139.1708332985406
 30
0.0
 10
97.28915199390688
 20
-139.1515407638232
 30
0.0
 10
97.28915199390688
 20
-139.1515407638232
 30
0.0
 10
97.28915199390688
 20
-139.1515407638232
 30
0.0
 10
97.40973033589063
 20
-138.3054253126459
 30
0.0
 10
97.40973033589063
 20
-138.3054253126459
 30
0.0
 10
97.40973033589063
 20
-138.3054253126459
 30
0.0
 10
98.1883219155571
 20
-138.3054253126459
 30
0.0
 10
98.1883219155571
 20
-138.3054253126459
 30
0.0
 10
98.1883219155571
 20
-138.3054253126459
 30
0.0
 10
98.1883219155571
 20
-138.500417717111
 30
0.0
 10
98.1883219155571
 20
-138.500417717111
 30
0.0
 10
98.1883219155571
 20
-138.500417717111
 30
0.0
 10
97.57268335234295
 20
-138.500417717111
 30
0.0
 10
97.57268335234295
 20
-138.500417717111
 30
0.0
 10
97.57268335234295
 20
-138.500417717111
 30
0.0
 10
97.50722653812319
 20
-138.9234754426997
 30
0.0
 10
97.50722653812319
 20
-138.9234754426997
 30
0.0
 10
97.56854923776065
 20
-138.8893689973957
 30
0.0
 10
97.65088701985812
 20
-138.8490613802183
 30
0.0
 10
97.7693983045507
 20
-138.8490613802183
 30
0.0
 10
98.02330184181362
 20
-138.8490613802183
 30
0.0
 10
98.26032441119881
 20
-139.0354410459703
 30
0.0
 10
98.26032441119881
 20
-139.3486002255795
 30
0.0
 10
98.26032441119881
 20
-139.665893519771
 30
0.0
 10
98.03604869510905
 20
-139.9005045223165
 30
0.0
 10
97.73356931150411
 20
-139.9005045223165
 30
0.0
  0
HATCH
  5
19F
330
19A
100
AcDbEntity
  8
_U+30EC_U+30A4_U+30E4_U+30FC 1
 62
     7
420
 16777215
100
AcDbHatch
 10
0.0
 20
0.0
 30
0.0
210
0.0
220
0.0
230
1.0
  2
SOLID
 70
     1
 71
     0
 91
        1
 92
        1
 93
        1
 72
     4
 94
        3
 73
     0
 74
     1
 95
       53
 96
       49
 40
0.0
 40
0.0
 40
0.0
 40
0.0
 40
1.0
 40
1.0
 40
1.0
 40
2.0
 40
2.0
 40
2.0
 40
3.0
 40
3.0
 40
3.0
 40
4.0
 40
4.0
 40
4.0
 40
5.0
 40
5.0
 40
5.0
 40
6.0
 40
6.0
 40
6.0
 40
7.0
 40
7.0
 40
7.0
 40
8.0
 40
8.0
 40
8.0
 40
9.0
 40
9.0
 40
9.0
 40
10.0
 40
10.0
 40
10.0
 40
11.0
 40
11.0
 40
11.0
 40
12.0
 40
12.0
 40
12.0
 40
13.0
 40
13.0
 40
13.0
 40
14.0
 40
14.0
 40
14.0
 40
15.0
 40
15.0
 40
15.0
 40
16.0
 40
16.0
 40
16.0
 40
16.0
 10
97.73356931150411
 20
-139.9005045223165
 10
97.65536564398894
 20
-139.9005045223165
 10
97.55373532717407
 20
-139.8836235544388
 10
97.4521050103592
 20
-139.8202337975102
 10
97.27881670745113
 20
-139.7103352515308
 10
97.25745711544259
 20
-139.5790771135427
 10
97.23850909027371
 20
-139.4712456248544
 10
97.23850909027371
 20
-139.4712456248544
 10
97.46071774907233
 20
-139.4712456248544
 10
97.46071774907233
 20
-139.4712456248544
 10
97.51549476728779
 20
-139.6700276343533
 10
97.64261879069352
 20
-139.6996554555265
 10
97.73563636879526
 20
-139.6996554555265
 10
97.87516273594788
 20
-139.6996554555265
 10
98.02743595639592
 20
-139.6000921960027
 10
98.02743595639592
 20
-139.3675482507484
 10
98.02743595639592
 20
-139.1115776561943
 10
97.84760197206589
 20
-139.0419867273923
 10
97.72702363008214
 20
-139.0419867273923
 10
97.69532875161784
 20
-139.0419867273923
 10
97.55373532717407
 20
-139.0419867273923
 10
97.46485186365463
 20
-139.1708332985406
 10
97.46485186365463
 20
-139.1708332985406
 10
97.28915199390688
 20
-139.1515407638232
 10
97.28915199390688
 20
-139.1515407638232
 10
97.28915199390688
 20
-139.1515407638232
 10
97.40973033589063
 20
-138.3054253126459
 10
97.40973033589063
 20
-138.3054253126459
 10
97.40973033589063
 20
-138.3054253126459
 10
98.1883219155571
 20
-138.3054253126459
 10
98.1883219155571
 20
-138.3054253126459
 10
98.1883219155571
 20
-138.3054253126459
 10
98.1883219155571
 20
-138.500417717111
 10
98.1883219155571
 20
-138.500417717111
 10
98.1883219155571
 20
-138.500417717111
 10
97.57268335234295
 20
-138.500417717111
 10
97.57268335234295
 20
-138.500417717111
 10
97.57268335234295
 20
-138.500417717111
 10
97.50722653812319
 20
-138.9234754426997
 10
97.50722653812319
 20
-138.9234754426997
 10
97.56854923776065
 20
-138.8893689973957
 10
97.65088701985812
 20
-138.8490613802183
 10
97.7693983045507
 20
-138.8490613802183
 10
98.02330184181362
 20
-138.8490613802183
 10
98.26032441119881
 20
-139.0354410459703
 10
98.26032441119881
 20
-139.3486002255795
 10
98.26032441119881
 20
-139.665893519771
 10
98.03604869510905
 20
-139.9005045223165
 10
97.73356931150411
 20
-139.9005045223165
 97
        0
 97
        0
 75
     2
 76
     1
 98
        0
  0
ENDBLK
  5
19D
330
19A
100
AcDbEntity
  8
0
100
AcDbBlockEnd
  0
BLOCK
  5
1A2
330
1A0
100
AcDbEntity
  8
0
100
AcDbBlockBegin
  2
block 15
 70
     0
 10
0.0
 20
0.0
 30
0.0
  3
block 15
  1

  0
SPLINE
  5
1A4
330
1A0
100
AcDbEntity
  8
_U+30EC_U+30A4_U+30E4_U+30FC 1
370
     0
100
AcDbSpline
210
0.0
220
0.0
230
1.0
 70
    11
 71
     3
 72
    26
 73
    22
 74
     0
 42
0.0000000001
 43
0.0000000001
 12
1.0
 22
0.0
 32
0.0
 13
1.0
 23
0.0
 33
0.0
 40
0.0
 40
0.0
 40
0.0
 40
0.0
 40
1.0
 40
1.0
 40
1.0
 40
2.0
 40
2.0
 40
2.0
 40
3.0
 40
3.0
 40
3.0
 40
4.0
 40
4.0
 40
4.0
 40
5.0
 40
5.0
 40
5.0
 40
6.0
 40
6.0
 40
6.0
 40
7.0
 40
7.0
 40
7.0
 40
7.0
 10
85.44284665832679
 20
-139.8498616186834
 30
0.0
 10
85.44284665832679
 20
-139.8498616186834
 30
0.0
 10
85.44284665832679
 20
-138.7457085156608
 30
0.0
 10
85.44284665832679
 20
-138.7457085156608
 30
0.0
 10
85.44284665832679
 20
-138.7457085156608
 30
0.0
 10
85.11280651083986
 20
-138.7457085156608
 30
0.0
 10
85.11280651083986
 20
-138.7457085156608
 30
0.0
 10
85.11280651083986
 20
-138.7457085156608
 30
0.0
 10
85.11280651083986
 20
-138.5975694097951
 30
0.0
 10
85.11280651083986
 20
-138.5975694097951
 30
0.0
 10
85.44491371561794
 20
-138.5827554992085
 30
0.0
 10
85.49142250466882
 20
-138.4198024827562
 30
0.0
 10
85.52105032584197
 20
-138.3054253126459
 30
0.0
 10
85.52105032584197
 20
-138.3054253126459
 30
0.0
 10
85.66712237441655
 20
-138.3054253126459
 30
0.0
 10
85.66712237441655
 20
-138.3054253126459
 30
0.0
 10
85.66712237441655
 20
-138.3054253126459
 30
0.0
 10
85.66712237441655
 20
-139.8498616186834
 30
0.0
 10
85.66712237441655
 20
-139.8498616186834
 30
0.0
 10
85.66712237441655
 20
-139.8498616186834
 30
0.0
 10
85.44284665832679
 20
-139.8498616186834
 30
0.0
 10
85.44284665832679
 20
-139.8498616186834
 30
0.0
  0
HATCH
  5
1A5
330
1A0
100
AcDbEntity
  8
_U+30EC_U+30A4_U+30E4_U+30FC 1
 62
     7
420
 16777215
100
AcDbHatch
 10
0.0
 20
0.0
 30
0.0
210
0.0
220
0.0
230
1.0
  2
SOLID
 70
     1
 71
     0
 91
        1
 92
        1
 93
        1
 72
     4
 94
        3
 73
     0
 74
     1
 95
       26
 96
       22
 40
0.0
 40
0.0
 40
0.0
 40
0.0
 40
1.0
 40
1.0
 40
1.0
 40
2.0
 40
2.0
 40
2.0
 40
3.0
 40
3.0
 40
3.0
 40
4.0
 40
4.0
 40
4.0
 40
5.0
 40
5.0
 40
5.0
 40
6.0
 40
6.0
 40
6.0
 40
7.0
 40
7.0
 40
7.0
 40
7.0
 10
85.44284665832679
 20
-139.8498616186834
 10
85.44284665832679
 20
-139.8498616186834
 10
85.44284665832679
 20
-138.7457085156608
 10
85.44284665832679
 20
-138.7457085156608
 10
85.44284665832679
 20
-138.7457085156608
 10
85.11280651083986
 20
-138.7457085156608
 10
85.11280651083986
 20
-138.7457085156608
 10
85.11280651083986
 20
-138.7457085156608
 10
85.11280651083986
 20
-138.5975694097951
 10
85.11280651083986
 20
-138.5975694097951
 10
85.44491371561794
 20
-138.5827554992085
 10
85.49142250466882
 20
-138.4198024827562
 10
85.52105032584197
 20
-138.3054253126459
 10
85.52105032584197
 20
-138.3054253126459
 10
85.66712237441655
 20
-138.3054253126459
 10
85.66712237441655
 20
-138.3054253126459
 10
85.66712237441655
 20
-138.3054253126459
 10
85.66712237441655
 20
-139.8498616186834
 10
85.66712237441655
 20
-139.8498616186834
 10
85.66712237441655
 20
-139.8498616186834
 10
85.44284665832679
 20
-139.8498616186834
 10
85.44284665832679
 20
-139.8498616186834
 97
        0
 97
        0
 75
     2
 76
     1
 98
        0
  0
SPLINE
  5
1A6
330
1A0
100
AcDbEntity
  8
_U+30EC_U+30A4_U+30E4_U+30FC 1
370
     0
100
AcDbSpline
210
0.0
220
0.0
230
1.0
 70
    11
 71
     3
 72
    26
 73
    22
 74
     0
 42
0.0000000001
 43
0.0000000001
 12
1.0
 22
0.0
 32
0.0
 13
1.0
 23
0.0
 33
0.0
 40
0.0
 40
0.0
 40
0.0
 40
0.0
 40
1.0
 40
1.0
 40
1.0
 40
2.0
 40
2.0
 40
2.0
 40
3.0
 40
3.0
 40
3.0
 40
4.0
 40
4.0
 40
4.0
 40
5.0
 40
5.0
 40
5.0
 40
6.0
 40
6.0
 40
6.0
 40
7.0
 40
7.0
 40
7.0
 40
7.0
 10
86.57938365891071
 20
-139.8498616186834
 30
0.0
 10
86.57938365891071
 20
-139.8498616186834
 30
0.0
 10
86.34236108952553
 20
-139.8498616186834
 30
0.0
 10
86.34236108952553
 20
-139.8498616186834
 30
0.0
 10
86.36785479611638
 20
-139.5408365536565
 30
0.0
 10
86.56043563374185
 20
-139.0226941926749
 30
0.0
 10
86.9666123914528
 20
-138.5169541754402
 30
0.0
 10
86.9666123914528
 20
-138.5169541754402
 30
0.0
 10
86.12876516944003
 20
-138.5169541754402
 30
0.0
 10
86.12876516944003
 20
-138.5169541754402
 30
0.0
 10
86.12876516944003
 20
-138.5169541754402
 30
0.0
 10
86.12876516944003
 20
-138.3054253126459
 30
0.0
 10
86.12876516944003
 20
-138.3054253126459
 30
0.0
 10
86.12876516944003
 20
-138.3054253126459
 30
0.0
 10
87.20363496083799
 20
-138.3054253126459
 30
0.0
 10
87.20363496083799
 20
-138.3054253126459
 30
0.0
 10
87.20363496083799
 20
-138.3054253126459
 30
0.0
 10
87.20363496083799
 20
-138.5169541754402
 30
0.0
 10
87.20363496083799
 20
-138.5169541754402
 30
0.0
 10
86.8797959852245
 20
-138.8070312152983
 30
0.0
 10
86.61314559466616
 20
-139.3992431292127
 30
0.0
 10
86.57938365891071
 20
-139.8498616186834
 30
0.0
  0
HATCH
  5
1A7
330
1A0
100
AcDbEntity
  8
_U+30EC_U+30A4_U+30E4_U+30FC 1
 62
     7
420
 16777215
100
AcDbHatch
 10
0.0
 20
0.0
 30
0.0
210
0.0
220
0.0
230
1.0
  2
SOLID
 70
     1
 71
     0
 91
        1
 92
        1
 93
        1
 72
     4
 94
        3
 73
     0
 74
     1
 95
       26
 96
       22
 40
0.0
 40
0.0
 40
0.0
 40
0.0
 40
1.0
 40
1.0
 40
1.0
 40
2.0
 40
2.0
 40
2.0
 40
3.0
 40
3.0
 40
3.0
 40
4.0
 40
4.0
 40
4.0
 40
5.0
 40
5.0
 40
5.0
 40
6.0
 40
6.0
 40
6.0
 40
7.0
 40
7.0
 40
7.0
 40
7.0
 10
86.57938365891071
 20
-139.8498616186834
 10
86.57938365891071
 20
-139.8498616186834
 10
86.34236108952553
 20
-139.8498616186834
 10
86.34236108952553
 20
-139.8498616186834
 10
86.36785479611638
 20
-139.5408365536565
 10
86.56043563374185
 20
-139.0226941926749
 10
86.9666123914528
 20
-138.5169541754402
 10
86.9666123914528
 20
-138.5169541754402
 10
86.12876516944003
 20
-138.5169541754402
 10
86.12876516944003
 20
-138.5169541754402
 10
86.12876516944003
 20
-138.5169541754402
 10
86.12876516944003
 20
-138.3054253126459
 10
86.12876516944003
 20
-138.3054253126459
 10
86.12876516944003
 20
-138.3054253126459
 10
87.20363496083799
 20
-138.3054253126459
 10
87.20363496083799
 20
-138.3054253126459
 10
87.20363496083799
 20
-138.3054253126459
 10
87.20363496083799
 20
-138.5169541754402
 10
87.20363496083799
 20
-138.5169541754402
 10
86.8797959852245
 20
-138.8070312152983
 10
86.61314559466616
 20
-139.3992431292127
 10
86.57938365891071
 20
-139.8498616186834
 97
        0
 97
        0
 75
     2
 76
     1
 98
        0
  0
POLYLINE
  5
1A8
330
1A0
100
AcDbEntity
  8
_U+30EC_U+30A4_U+30E4_U+30FC 1
370
     0
100
AcDb2dPolyline
 66
     1
 10
0.0
 20
0.0
 30
0.0
  0
VERTEX
  5
1A9
330
1A8
100
AcDbEntity
  8
_U+30EC_U+30A4_U+30E4_U+30FC 1
370
     0
100
AcDbVertex
100
AcDb2dVertex
 10
87.4051730467251
 20
-139.8498616186834
 30
0.0
  0
VERTEX
  5
1AA
330
1A8
100
AcDbEntity
  8
_U+30EC_U+30A4_U+30E4_U+30FC 1
370
     0
100
AcDbVertex
100
AcDb2dVertex
 10
87.4051730467251
 20
-139.5980251387116
 30
0.0
  0
VERTEX
  5
1AB
330
1A8
100
AcDbEntity
  8
_U+30EC_U+30A4_U+30E4_U+30FC 1
370
     0
100
AcDbVertex
100
AcDb2dVertex
 10
87.65700952669687
 20
-139.5980251387116
 30
0.0
  0
VERTEX
  5
1AC
330
1A8
100
AcDbEntity
  8
_U+30EC_U+30A4_U+30E4_U+30FC 1
370
     0
100
AcDbVertex
100
AcDb2dVertex
 10
87.65700952669687
 20
-139.8498616186834
 30
0.0
  0
VERTEX
  5
1AD
330
1A8
100
AcDbEntity
  8
_U+30EC_U+30A4_U+30E4_U+30FC 1
370
     0
100
AcDbVertex
100
AcDb2dVertex
 10
87.4051730467251
 20
-139.8498616186834
 30
0.0
  0
SEQEND
  5
1AE
330
1A8
100
AcDbEntity
  8
_U+30EC_U+30A4_U+30E4_U+30FC 1
370
     0
  0
HATCH
  5
1AF
330
1A0
100
AcDbEntity
  8
_U+30EC_U+30A4_U+30E4_U+30FC 1
 62
     7
420
 16777215
100
AcDbHatch
 10
0.0
 20
0.0
 30
0.0
210
0.0
220
0.0
230
1.0
  2
SOLID
 70
     1
 71
     0
 91
        1
 92
        1
 93
        4
 72
     1
 10
87.4051730467251
 20
-139.8498616186834
 11
87.4051730467251
 21
-139.5980251387116
 72
     1
 10
87.4051730467251
 20
-139.5980251387116
 11
87.65700952669687
 21
-139.5980251387116
 72
     1
 10
87.65700952669687
 20
-139.5980251387116
 11
87.65700952669687
 21
-139.8498616186834
 72
     1
 10
87.65700952669687
 20
-139.8498616186834
 11
87.4051730467251
 21
-139.8498616186834
 97
        0
 75
     2
 76
     1
 98
        0
  0
SPLINE
  5
1B0
330
1A0
100
AcDbEntity
  8
_U+30EC_U+30A4_U+30E4_U+30FC 1
370
     0
100
AcDbSpline
210
0.0
220
0.0
230
1.0
 70
    11
 71
     3
 72
    53
 73
    49
 74
     0
 42
0.0000000001
 43
0.0000000001
 12
1.0
 22
0.0
 32
0.0
 13
1.0
 23
0.0
 33
0.0
 40
0.0
 40
0.0
 40
0.0
 40
0.0
 40
1.0
 40
1.0
 40
1.0
 40
2.0
 40
2.0
 40
2.0
 40
3.0
 40
3.0
 40
3.0
 40
4.0
 40
4.0
 40
4.0
 40
5.0
 40
5.0
 40
5.0
 40
6.0
 40
6.0
 40
6.0
 40
7.0
 40
7.0
 40
7.0
 40
8.0
 40
8.0
 40
8.0
 40
9.0
 40
9.0
 40
9.0
 40
10.0
 40
10.0
 40
10.0
 40
11.0
 40
11.0
 40
11.0
 40
12.0
 40
12.0
 40
12.0
 40
13.0
 40
13.0
 40
13.0
 40
14.0
 40
14.0
 40
14.0
 40
15.0
 40
15.0
 40
15.0
 40
16.0
 40
16.0
 40
16.0
 40
16.0
 10
88.37427840672588
 20
-139.9005045223165
 30
0.0
 10
88.29607473921071
 20
-139.9005045223165
 30
0.0
 10
88.19444442239583
 20
-139.8836235544388
 30
0.0
 10
88.09281410558097
 20
-139.8202337975102
 30
0.0
 10
87.9195258026729
 20
-139.7103352515308
 30
0.0
 10
87.89816621066436
 20
-139.5790771135427
 30
0.0
 10
87.87921818549547
 20
-139.4712456248544
 30
0.0
 10
87.87921818549547
 20
-139.4712456248544
 30
0.0
 10
88.1014268442941
 20
-139.4712456248544
 30
0.0
 10
88.1014268442941
 20
-139.4712456248544
 30
0.0
 10
88.15620386250957
 20
-139.6700276343533
 30
0.0
 10
88.28332788591528
 20
-139.6996554555265
 30
0.0
 10
88.37634546401704
 20
-139.6996554555265
 30
0.0
 10
88.51587183116965
 20
-139.6996554555265
 30
0.0
 10
88.66814505161769
 20
-139.6000921960027
 30
0.0
 10
88.66814505161769
 20
-139.3675482507484
 30
0.0
 10
88.66814505161769
 20
-139.1115776561943
 30
0.0
 10
88.48831106728765
 20
-139.0419867273923
 30
0.0
 10
88.36773272530391
 20
-139.0419867273923
 30
0.0
 10
88.3360378468396
 20
-139.0419867273923
 30
0.0
 10
88.19444442239583
 20
-139.0419867273923
 30
0.0
 10
88.1055609588764
 20
-139.1708332985406
 30
0.0
 10
88.1055609588764
 20
-139.1708332985406
 30
0.0
 10
87.92986108912865
 20
-139.1515407638232
 30
0.0
 10
87.92986108912865
 20
-139.1515407638232
 30
0.0
 10
87.92986108912865
 20
-139.1515407638232
 30
0.0
 10
88.0504394311124
 20
-138.3054253126459
 30
0.0
 10
88.0504394311124
 20
-138.3054253126459
 30
0.0
 10
88.0504394311124
 20
-138.3054253126459
 30
0.0
 10
88.82903101077886
 20
-138.3054253126459
 30
0.0
 10
88.82903101077886
 20
-138.3054253126459
 30
0.0
 10
88.82903101077886
 20
-138.3054253126459
 30
0.0
 10
88.82903101077886
 20
-138.500417717111
 30
0.0
 10
88.82903101077886
 20
-138.500417717111
 30
0.0
 10
88.82903101077886
 20
-138.500417717111
 30
0.0
 10
88.21339244756471
 20
-138.500417717111
 30
0.0
 10
88.21339244756471
 20
-138.500417717111
 30
0.0
 10
88.21339244756471
 20
-138.500417717111
 30
0.0
 10
88.14793563334497
 20
-138.9234754426997
 30
0.0
 10
88.14793563334497
 20
-138.9234754426997
 30
0.0
 10
88.20925833298242
 20
-138.8893689973957
 30
0.0
 10
88.29159611507988
 20
-138.8490613802183
 30
0.0
 10
88.41010739977247
 20
-138.8490613802183
 30
0.0
 10
88.66401093703539
 20
-138.8490613802183
 30
0.0
 10
88.90103350642057
 20
-139.0354410459703
 30
0.0
 10
88.90103350642057
 20
-139.3486002255795
 30
0.0
 10
88.90103350642057
 20
-139.665893519771
 30
0.0
 10
88.67675779033081
 20
-139.9005045223165
 30
0.0
 10
88.37427840672588
 20
-139.9005045223165
 30
0.0
  0
HATCH
  5
1B1
330
1A0
100
AcDbEntity
  8
_U+30EC_U+30A4_U+30E4_U+30FC 1
 62
     7
420
 16777215
100
AcDbHatch
 10
0.0
 20
0.0
 30
0.0
210
0.0
220
0.0
230
1.0
  2
SOLID
 70
     1
 71
     0
 91
        1
 92
        1
 93
        1
 72
     4
 94
        3
 73
     0
 74
     1
 95
       53
 96
       49
 40
0.0
 40
0.0
 40
0.0
 40
0.0
 40
1.0
 40
1.0
 40
1.0
 40
2.0
 40
2.0
 40
2.0
 40
3.0
 40
3.0
 40
3.0
 40
4.0
 40
4.0
 40
4.0
 40
5.0
 40
5.0
 40
5.0
 40
6.0
 40
6.0
 40
6.0
 40
7.0
 40
7.0
 40
7.0
 40
8.0
 40
8.0
 40
8.0
 40
9.0
 40
9.0
 40
9.0
 40
10.0
 40
10.0
 40
10.0
 40
11.0
 40
11.0
 40
11.0
 40
12.0
 40
12.0
 40
12.0
 40
13.0
 40
13.0
 40
13.0
 40
14.0
 40
14.0
 40
14.0
 40
15.0
 40
15.0
 40
15.0
 40
16.0
 40
16.0
 40
16.0
 40
16.0
 10
88.37427840672588
 20
-139.9005045223165
 10
88.29607473921071
 20
-139.9005045223165
 10
88.19444442239583
 20
-139.8836235544388
 10
88.09281410558097
 20
-139.8202337975102
 10
87.9195258026729
 20
-139.7103352515308
 10
87.89816621066436
 20
-139.5790771135427
 10
87.87921818549547
 20
-139.4712456248544
 10
87.87921818549547
 20
-139.4712456248544
 10
88.1014268442941
 20
-139.4712456248544
 10
88.1014268442941
 20
-139.4712456248544
 10
88.15620386250957
 20
-139.6700276343533
 10
88.28332788591528
 20
-139.6996554555265
 10
88.37634546401704
 20
-139.6996554555265
 10
88.51587183116965
 20
-139.6996554555265
 10
88.66814505161769
 20
-139.6000921960027
 10
88.66814505161769
 20
-139.3675482507484
 10
88.66814505161769
 20
-139.1115776561943
 10
88.48831106728765
 20
-139.0419867273923
 10
88.36773272530391
 20
-139.0419867273923
 10
88.3360378468396
 20
-139.0419867273923
 10
88.19444442239583
 20
-139.0419867273923
 10
88.1055609588764
 20
-139.1708332985406
 10
88.1055609588764
 20
-139.1708332985406
 10
87.92986108912865
 20
-139.1515407638232
 10
87.92986108912865
 20
-139.1515407638232
 10
87.92986108912865
 20
-139.1515407638232
 10
88.0504394311124
 20
-138.3054253126459
 10
88.0504394311124
 20
-138.3054253126459
 10
88.0504394311124
 20
-138.3054253126459
 10
88.82903101077886
 20
-138.3054253126459
 10
88.82903101077886
 20
-138.3054253126459
 10
88.82903101077886
 20
-138.3054253126459
 10
88.82903101077886
 20
-138.500417717111
 10
88.82903101077886
 20
-138.500417717111
 10
88.82903101077886
 20
-138.500417717111
 10
88.21339244756471
 20
-138.500417717111
 10
88.21339244756471
 20
-138.500417717111
 10
88.21339244756471
 20
-138.500417717111
 10
88.14793563334497
 20
-138.9234754426997
 10
88.14793563334497
 20
-138.9234754426997
 10
88.20925833298242
 20
-138.8893689973957
 10
88.29159611507988
 20
-138.8490613802183
 10
88.41010739977247
 20
-138.8490613802183
 10
88.66401093703539
 20
-138.8490613802183
 10
88.90103350642057
 20
-139.0354410459703
 10
88.90103350642057
 20
-139.3486002255795
 10
88.90103350642057
 20
-139.665893519771
 10
88.67675779033081
 20
-139.9005045223165
 10
88.37427840672588
 20
-139.9005045223165
 97
        0
 97
        0
 75
     2
 76
     1
 98
        0
  0
ENDBLK
  5
1A3
330
1A0
100
AcDbEntity
  8
0
100
AcDbBlockEnd
  0
ENDSEC
  0
SECTION
  2
ENTITIES
  0
INSERT
  5
42
330
1F
100
AcDbEntity
  8
_U+30EC_U+30A4_U+30E4_U+30FC 1
100
AcDbBlockReference
  2
block 2
 10
0.0
 20
0.0
 30
0.0
  0
ENDSEC
  0
SECTION
  2
OBJECTS
  0
DICTIONARY
  5
C
330
0
100
AcDbDictionary
281
     1
  3
ACAD_GROUP
350
D
  3
ACAD_LAYOUT
350
1A
  3
ACAD_MATERIAL
350
3B
  3
ACAD_MLEADERSTYLE
350
1BA
  3
ACAD_MLINESTYLE
350
17
  3
ACAD_PLOTSETTINGS
350
19
  3
ACAD_PLOTSTYLENAME
350
E
  3
ACAD_TABLESTYLE
350
1B9
  3
ACAD_VISUALSTYLE
350
2A
  0
SUN
  5
3F
330
29
100
AcDbSun
 90
        1
290
     0
 63
     7
421
 16777215
 40
1.0
291
     1
 91
  2455826
 92
 54000000
292
     0
 70
     2
 71
   256
280
     1
  0
DICTIONARY
  5
D
102
{ACAD_REACTORS
330
C
102
}
330
C
100
AcDbDictionary
281
     1
  0
DICTIONARY
  5
1A
102
{ACAD_REACTORS
330
C
102
}
330
C
100
AcDbDictionary
281
     1
  3
Layout1
350
1E
  3
Layout2
350
26
  3
Model
350
22
  0
DICTIONARY
  5
3B
102
{ACAD_REACTORS
330
C
102
}
330
C
100
AcDbDictionary
281
     1
  3
ByBlock
350
3D
  3
ByLayer
350
3C
  3
Global
350
3E
  0
DICTIONARY
  5
1BA
102
{ACAD_REACTORS
330
C
102
}
330
C
100
AcDbDictionary
281
     1
  0
DICTIONARY
  5
17
102
{ACAD_REACTORS
330
C
102
}
330
C
100
AcDbDictionary
281
     1
  3
Standard
350
18
  0
DICTIONARY
  5
19
102
{ACAD_REACTORS
330
C
102
}
330
C
100
AcDbDictionary
281
     1
  0
ACDBDICTIONARYWDFLT
  5
E
102
{ACAD_REACTORS
330
C
102
}
330
C
100
AcDbDictionary
281
     1
  3
Normal
350
F
100
AcDbDictionaryWithDefault
340
F
  0
DICTIONARY
  5
1B9
102
{ACAD_REACTORS
330
C
102
}
330
C
100
AcDbDictionary
281
     1
  0
DICTIONARY
  5
2A
102
{ACAD_REACTORS
330
C
102
}
330
C
100
AcDbDictionary
281
     1
  3
2dWireframe
350
2F
  3
3D Hidden
350
31
  3
3dWireframe
350
30
  3
Basic
350
32
  3
Brighten
350
36
  3
ColorChange
350
3A
  3
Conceptual
350
34
  3
Dim
350
35
  3
Facepattern
350
39
  3
Flat
350
2B
  3
FlatWithEdges
350
2C
  3
Gouraud
350
2D
  3
GouraudWithEdges
350
2E
  3
Linepattern
350
38
  3
Realistic
350
33
  3
Thicken
350
37
  0
LAYOUT
  5
1E
102
{ACAD_REACTORS
330
1A
102
}
330
1A
100
AcDbPlotSettings
  1

  2
none_device
  4

  6

 40
0.0
 41
0.0
 42
0.0
 43
0.0
 44
0.0
 45
0.0
 46
0.0
 47
0.0
 48
0.0
 49
0.0
140
0.0
141
0.0
142
1.0
143
1.0
 70
   688
 72
     0
 73
     0
 74
     5
  7

 75
    16
 76
     0
 77
     2
 78
   300
147
1.0
148
0.0
149
0.0
100
AcDbLayout
  1
Layout1
 70
     1
 71
     1
 10
0.0
 20
0.0
 11
12.0
 21
9.0
 12
0.0
 22
0.0
 32
0.0
 14
1.000000000000000E+20
 24
1.000000000000000E+20
 34
1.000000000000000E+20
 15
-1.000000000000000E+20
 25
-1.000000000000000E+20
 35
-1.000000000000000E+20
146
0.0
 13
0.0
 23
0.0
 33
0.0
 16
1.0
 26
0.0
 36
0.0
 17
0.0
 27
1.0
 37
0.0
 76
     0
330
1B
  0
LAYOUT
  5
26
102
{ACAD_REACTORS
330
1A
102
}
330
1A
100
AcDbPlotSettings
  1

  2
none_device
  4

  6

 40
0.0
 41
0.0
 42
0.0
 43
0.0
 44
0.0
 45
0.0
 46
0.0
 47
0.0
 48
0.0
 49
0.0
140
0.0
141
0.0
142
1.0
143
1.0
 70
   688
 72
     0
 73
     0
 74
     5
  7

 75
    16
 76
     0
 77
     2
 78
   300
147
1.0
148
0.0
149
0.0
100
AcDbLayout
  1
Layout2
 70
     1
 71
     2
 10
0.0
 20
0.0
 11
0.0
 21
0.0
 12
0.0
 22
0.0
 32
0.0
 14
0.0
 24
0.0
 34
0.0
 15
0.0
 25
0.0
 35
0.0
146
0.0
 13
0.0
 23
0.0
 33
0.0
 16
1.0
 26
0.0
 36
0.0
 17
0.0
 27
1.0
 37
0.0
 76
     0
330
23
  0
LAYOUT
  5
22
102
{ACAD_REACTORS
330
1A
102
}
330
1A
100
AcDbPlotSettings
  1

  2
none_device
  4

  6

 40
0.0
 41
0.0
 42
0.0
 43
0.0
 44
0.0
 45
0.0
 46
0.0
 47
0.0
 48
0.0
 49
0.0
140
0.0
141
0.0
142
1.0
143
1.0
 70
  1712
 72
     0
 73
     0
 74
     0
  7

 75
     0
 76
     0
 77
     2
 78
   300
147
1.0
148
0.0
149
0.0
100
AcDbLayout
  1
Model
 70
     1
 71
     0
 10
0.0
 20
0.0
 11
12.0
 21
9.0
 12
0.0
 22
0.0
 32
0.0
 14
1.000000000000000E+20
 24
1.000000000000000E+20
 34
1.000000000000000E+20
 15
-1.000000000000000E+20
 25
-1.000000000000000E+20
 35
-1.000000000000000E+20
146
0.0
 13
0.0
 23
0.0
 33
0.0
 16
1.0
 26
0.0
 36
0.0
 17
0.0
 27
1.0
 37
0.0
 76
     0
330
1F
331
29
  0
MATERIAL
  5
3D
102
{ACAD_REACTORS
330
3B
102
}
330
3B
100
AcDbMaterial
  1
ByBlock
 72
     1
 94
      127
  0
MATERIAL
  5
3C
102
{ACAD_REACTORS
330
3B
102
}
330
3B
100
AcDbMaterial
  1
ByLayer
 72
     1
 94
      127
  0
MATERIAL
  5
3E
102
{ACAD_REACTORS
330
3B
102
}
330
3B
100
AcDbMaterial
  1
Global
 72
     1
 94
      127
  0
MLINESTYLE
  5
18
102
{ACAD_REACTORS
330
17
102
}
330
17
100
AcDbMlineStyle
  2
Standard
 70
     0
  3

 62
   256
 51
90.0
 52
90.0
 71
     2
 49
0.5
 62
   256
  6
BYLAYER
 49
-0.5
 62
   256
  6
BYLAYER
  0
ACDBPLACEHOLDER
  5
F
102
{ACAD_REACTORS
330
E
102
}
330
E
  0
VISUALSTYLE
  5
2F
102
{ACAD_REACTORS
330
2A
102
}
330
2A
100
AcDbVisualStyle
  2
2dWireframe
 70
     4
177
     2
291
     0
 71
     0
176
     1
 72
     2
176
     1
 73
     0
176
     1
 90
        0
176
     1
 40
-0.6
176
     1
 41
-30.0
176
     1
 62
     5
 63
     7
421
 16777215
176
     1
 74
     1
176
     1
 91
        4
176
     1
 64
     7
176
     1
 65
   257
176
     1
 75
     1
176
     1
175
     1
176
     1
 42
1.0
176
     1
 92
        0
176
     1
 66
   257
176
     1
 43
1.0
176
     1
 76
     1
176
     1
 77
     6
176
     1
 78
     2
176
     1
 67
     7
176
     1
 79
     5
176
     1
170
     0
176
     1
171
     0
176
     1
290
     0
176
     1
 93
        1
176
     1
 44
0.0
176
     1
173
     0
176
     1
  0
VISUALSTYLE
  5
31
102
{ACAD_REACTORS
330
2A
102
}
330
2A
100
AcDbVisualStyle
  2
3D Hidden
 70
     6
177
     2
291
     0
 71
     1
176
     1
 72
     2
176
     1
 73
     2
176
     1
 90
        0
176
     1
 40
-0.6
176
     1
 41
-30.0
176
     1
 62
     5
 63
     7
421
 16777215
176
     1
 74
     2
176
     1
 91
        2
176
     1
 64
     7
176
     1
 65
   257
176
     1
 75
     2
176
     1
175
     1
176
     1
 42
40.0
176
     1
 92
        0
176
     1
 66
   257
176
     1
 43
1.0
176
     1
 76
     1
176
     1
 77
     6
176
     1
 78
     2
176
     1
 67
     7
176
     1
 79
     3
176
     1
170
     0
176
     1
171
     0
176
     1
290
     0
176
     1
 93
        1
176
     1
 44
0.0
176
     1
173
     0
176
     1
  0
VISUALSTYLE
  5
30
102
{ACAD_REACTORS
330
2A
102
}
330
2A
100
AcDbVisualStyle
  2
3dWireframe
 70
     5
177
     2
291
     0
 71
     0
176
     1
 72
     2
176
     1
 73
     0
176
     1
 90
        0
176
     1
 40
-0.6
176
     1
 41
-30.0
176
     1
 62
     5
 63
     7
421
 16777215
176
     1
 74
     1
176
     1
 91
        4
176
     1
 64
     7
176
     1
 65
   257
176
     1
 75
     1
176
     1
175
     1
176
     1
 42
1.0
176
     1
 92
        0
176
     1
 66
   257
176
     1
 43
1.0
176
     1
 76
     1
176
     1
 77
     6
176
     1
 78
     2
176
     1
 67
     7
176
     1
 79
     5
176
     1
170
     0
176
     1
171
     0
176
     1
290
     0
176
     1
 93
        1
176
     1
 44
0.0
176
     1
173
     0
176
     1
  0
VISUALSTYLE
  5
32
102
{ACAD_REACTORS
330
2A
102
}
330
2A
100
AcDbVisualStyle
  2
Basic
 70
     7
177
     2
291
     1
 71
     1
176
     1
 72
     0
176
     1
 73
     1
176
     1
 90
        0
176
     1
 40
-0.6
176
     1
 41
-30.0
176
     1
 62
     5
 63
     7
421
 16777215
176
     1
 74
     0
176
     1
 91
        4
176
     1
 64
     7
176
     1
 65
   257
176
     1
 75
     1
176
     1
175
     1
176
     1
 42
1.0
176
     1
 92
        8
176
     1
 66
     7
176
     1
 43
1.0
176
     1
 76
     1
176
     1
 77
     6
176
     1
 78
     2
176
     1
 67
     7
176
     1
 79
     5
176
     1
170
     0
176
     1
171
     0
176
     1
290
     0
176
     1
 93
        1
176
     1
 44
0.0
176
     1
173
     0
176
     1
  0
VISUALSTYLE
  5
36
102
{ACAD_REACTORS
330
2A
102
}
330
2A
100
AcDbVisualStyle
  2
Brighten
 70
    12
177
     2
291
     1
 71
     2
176
     1
 72
     2
176
     1
 73
     0
176
     1
 90
        0
176
     1
 40
-0.6
176
     1
 41
-30.0
176
     1
 62
     5
 63
     7
421
 16777215
176
     1
 74
     1
176
     1
 91
        4
176
     1
 64
     7
176
     1
 65
   257
176
     1
 75
     1
176
     1
175
     1
176
     1
 42
1.0
176
     1
 92
        8
176
     1
 66
     7
176
     1
 43
1.0
176
     1
 76
     1
176
     1
 77
     6
176
     1
 78
     2
176
     1
 67
     7
176
     1
 79
     5
176
     1
170
     0
176
     1
171
     0
176
     1
290
     0
176
     1
 93
        1
176
     1
 44
50.0
176
     1
173
     0
176
     1
  0
VISUALSTYLE
  5
3A
102
{ACAD_REACTORS
330
2A
102
}
330
2A
100
AcDbVisualStyle
  2
ColorChange
 70
    16
177
     2
291
     1
 71
     2
176
     1
 72
     2
176
     1
 73
     3
176
     1
 90
        0
176
     1
 40
-0.6
176
     1
 41
-30.0
176
     1
 62
     5
 63
     8
421
  8421504
176
     1
 74
     1
176
     1
 91
        4
176
     1
 64
     7
176
     1
 65
   257
176
     1
 75
     1
176
     1
175
     1
176
     1
 42
1.0
176
     1
 92
        8
176
     1
 66
     8
424
  8421504
176
     1
 43
1.0
176
     1
 76
     1
176
     1
 77
     6
176
     1
 78
     2
176
     1
 67
     7
176
     1
 79
     5
176
     1
170
     0
176
     1
171
     0
176
     1
290
     0
176
     1
 93
        1
176
     1
 44
0.0
176
     1
173
     0
176
     1
  0
VISUALSTYLE
  5
34
102
{ACAD_REACTORS
330
2A
102
}
330
2A
100
AcDbVisualStyle
  2
Conceptual
 70
     9
177
     2
291
     0
 71
     3
176
     1
 72
     2
176
     1
 73
     0
176
     1
 90
        0
176
     1
 40
-0.6
176
     1
 41
-30.0
176
     1
 62
     5
 63
     7
421
 16777215
176
     1
 74
     2
176
     1
 91
        2
176
     1
 64
     7
176
     1
 65
   257
176
     1
 75
     1
176
     1
175
     1
176
     1
 42
40.0
176
     1
 92
        8
176
     1
 66
     7
176
     1
 43
1.0
176
     1
 76
     1
176
     1
 77
     6
176
     1
 78
     2
176
     1
 67
     7
176
     1
 79
     3
176
     1
170
     0
176
     1
171
     0
176
     1
290
     0
176
     1
 93
        1
176
     1
 44
0.0
176
     1
173
     0
176
     1
  0
VISUALSTYLE
  5
35
102
{ACAD_REACTORS
330
2A
102
}
330
2A
100
AcDbVisualStyle
  2
Dim
 70
    11
177
     2
291
     1
 71
     2
176
     1
 72
     2
176
     1
 73
     0
176
     1
 90
        0
176
     1
 40
-0.6
176
     1
 41
-30.0
176
     1
 62
     5
 63
     7
421
 16777215
176
     1
 74
     1
176
     1
 91
        4
176
     1
 64
     7
176
     1
 65
   257
176
     1
 75
     1
176
     1
175
     1
176
     1
 42
1.0
176
     1
 92
        8
176
     1
 66
     7
176
     1
 43
1.0
176
     1
 76
     1
176
     1
 77
     6
176
     1
 78
     2
176
     1
 67
     7
176
     1
 79
     5
176
     1
170
     0
176
     1
171
     0
176
     1
290
     0
176
     1
 93
        1
176
     1
 44
-50.0
176
     1
173
     0
176
     1
  0
VISUALSTYLE
  5
39
102
{ACAD_REACTORS
330
2A
102
}
330
2A
100
AcDbVisualStyle
  2
Facepattern
 70
    15
177
     2
291
     1
 71
     2
176
     1
 72
     2
176
     1
 73
     0
176
     1
 90
        0
176
     1
 40
-0.6
176
     1
 41
-30.0
176
     1
 62
     5
 63
     7
421
 16777215
176
     1
 74
     1
176
     1
 91
        4
176
     1
 64
     7
176
     1
 65
   257
176
     1
 75
     1
176
     1
175
     1
176
     1
 42
1.0
176
     1
 92
        8
176
     1
 66
     7
176
     1
 43
1.0
176
     1
 76
     1
176
     1
 77
     6
176
     1
 78
     2
176
     1
 67
     7
176
     1
 79
     5
176
     1
170
     0
176
     1
171
     0
176
     1
290
     0
176
     1
 93
        1
176
     1
 44
0.0
176
     1
173
     0
176
     1
  0
VISUALSTYLE
  5
2B
102
{ACAD_REACTORS
330
2A
102
}
330
2A
100
AcDbVisualStyle
  2
Flat
 70
     0
177
     2
291
     1
 71
     2
176
     1
 72
     1
176
     1
 73
     1
176
     1
 90
        2
176
     1
 40
-0.6
176
     1
 41
30.0
176
     1
 62
     5
 63
     7
421
 16777215
176
     1
 74
     0
176
     1
 91
        4
176
     1
 64
     7
176
     1
 65
   257
176
     1
 75
     1
176
     1
175
     1
176
     1
 42
1.0
176
     1
 92
        8
176
     1
 66
     7
176
     1
 43
1.0
176
     1
 76
     1
176
     1
 77
     6
176
     1
 78
     2
176
     1
 67
     7
176
     1
 79
     5
176
     1
170
     0
176
     1
171
     0
176
     1
290
     0
176
     1
 93
       13
176
     1
 44
0.0
176
     1
173
     0
176
     1
  0
VISUALSTYLE
  5
2C
102
{ACAD_REACTORS
330
2A
102
}
330
2A
100
AcDbVisualStyle
  2
FlatWithEdges
 70
     1
177
     2
291
     1
 71
     2
176
     1
 72
     1
176
     1
 73
     1
176
     1
 90
        2
176
     1
 40
-0.6
176
     1
 41
30.0
176
     1
 62
     5
 63
     7
421
 16777215
176
     1
 74
     1
176
     1
 91
        4
176
     1
 64
     7
176
     1
 65
   257
176
     1
 75
     1
176
     1
175
     1
176
     1
 42
1.0
176
     1
 92
        0
176
     1
 66
   257
176
     1
 43
1.0
176
     1
 76
     1
176
     1
 77
     6
176
     1
 78
     2
176
     1
 67
     7
176
     1
 79
     5
176
     1
170
     0
176
     1
171
     0
176
     1
290
     0
176
     1
 93
       13
176
     1
 44
0.0
176
     1
173
     0
176
     1
  0
VISUALSTYLE
  5
2D
102
{ACAD_REACTORS
330
2A
102
}
330
2A
100
AcDbVisualStyle
  2
Gouraud
 70
     2
177
     2
291
     1
 71
     2
176
     1
 72
     2
176
     1
 73
     1
176
     1
 90
        2
176
     1
 40
-0.6
176
     1
 41
30.0
176
     1
 62
     5
 63
     7
421
 16777215
176
     1
 74
     0
176
     1
 91
        4
176
     1
 64
     7
176
     1
 65
   257
176
     1
 75
     1
176
     1
175
     1
176
     1
 42
1.0
176
     1
 92
        0
176
     1
 66
     7
176
     1
 43
1.0
176
     1
 76
     1
176
     1
 77
     6
176
     1
 78
     2
176
     1
 67
     7
176
     1
 79
     5
176
     1
170
     0
176
     1
171
     0
176
     1
290
     0
176
     1
 93
       13
176
     1
 44
0.0
176
     1
173
     0
176
     1
  0
VISUALSTYLE
  5
2E
102
{ACAD_REACTORS
330
2A
102
}
330
2A
100
AcDbVisualStyle
  2
GouraudWithEdges
 70
     3
177
     2
291
     1
 71
     2
176
     1
 72
     2
176
     1
 73
     1
176
     1
 90
        2
176
     1
 40
-0.6
176
     1
 41
30.0
176
     1
 62
     5
 63
     7
421
 16777215
176
     1
 74
     1
176
     1
 91
        4
176
     1
 64
     7
176
     1
 65
   257
176
     1
 75
     1
176
     1
175
     1
176
     1
 42
1.0
176
     1
 92
        0
176
     1
 66
   257
176
     1
 43
1.0
176
     1
 76
     1
176
     1
 77
     6
176
     1
 78
     2
176
     1
 67
     7
176
     1
 79
     5
176
     1
170
     0
176
     1
171
     0
176
     1
290
     0
176
     1
 93
       13
176
     1
 44
0.0
176
     1
173
     0
176
     1
  0
VISUALSTYLE
  5
38
102
{ACAD_REACTORS
330
2A
102
}
330
2A
100
AcDbVisualStyle
  2
Linepattern
 70
    14
177
     2
291
     1
 71
     2
176
     1
 72
     2
176
     1
 73
     0
176
     1
 90
        0
176
     1
 40
-0.6
176
     1
 41
-30.0
176
     1
 62
     5
 63
     7
421
 16777215
176
     1
 74
     1
176
     1
 91
        4
176
     1
 64
     7
176
     1
 65
   257
176
     1
 75
     7
176
     1
175
     7
176
     1
 42
1.0
176
     1
 92
        8
176
     1
 66
     7
176
     1
 43
1.0
176
     1
 76
     1
176
     1
 77
     6
176
     1
 78
     2
176
     1
 67
     7
176
     1
 79
     5
176
     1
170
     0
176
     1
171
     0
176
     1
290
     0
176
     1
 93
        1
176
     1
 44
0.0
176
     1
173
     0
176
     1
  0
VISUALSTYLE
  5
33
102
{ACAD_REACTORS
330
2A
102
}
330
2A
100
AcDbVisualStyle
  2
Realistic
 70
     8
177
     2
291
     0
 71
     2
176
     1
 72
     2
176
     1
 73
     0
176
     1
 90
        0
176
     1
 40
-0.6
176
     1
 41
-30.0
176
     1
 62
     5
 63
     7
421
 16777215
176
     1
 74
     1
176
     1
 91
        0
176
     1
 64
     7
176
     1
 65
   257
176
     1
 75
     1
176
     1
175
     1
176
     1
 42
1.0
176
     1
 92
        8
176
     1
 66
     8
424
  7895160
176
     1
 43
1.0
176
     1
 76
     1
176
     1
 77
     6
176
     1
 78
     2
176
     1
 67
     7
176
     1
 79
     5
176
     1
170
     0
176
     1
171
     0
176
     1
290
     0
176
     1
 93
       13
176
     1
 44
0.0
176
     1
173
     0
176
     1
  0
VISUALSTYLE
  5
37
102
{ACAD_REACTORS
330
2A
102
}
330
2A
100
AcDbVisualStyle
  2
Thicken
 70
    13
177
     2
291
     1
 71
     2
176
     1
 72
     2
176
     1
 73
     0
176
     1
 90
        0
176
     1
 40
-0.6
176
     1
 41
-30.0
176
     1
 62
     5
 63
     7
421
 16777215
176
     1
 74
     1
176
     1
 91
        4
176
     1
 64
     7
176
     1
 65
   257
176
     1
 75
     1
176
     1
175
     1
176
     1
 42
1.0
176
     1
 92
       12
176
     1
 66
     7
176
     1
 43
1.0
176
     1
 76
     1
176
     1
 77
     6
176
     1
 78
     2
176
     1
 67
     7
176
     1
 79
     5
176
     1
170
     0
176
     1
171
     0
176
     1
290
     0
176
     1
 93
        1
176
     1
 44
0.0
176
     1
173
     0
176
     1
  0
ENDSEC
  0
EOF
