  0
SECTION
  2
HEADER
  9
$ACADVER
  1
AC1024
  9
$ACADMAINTVER
 70
     6
  9
$DWGCODEPAGE
  3
UNDEFINED
  9
$INSBASE
 10
0.0
 20
0.0
 30
0.0
  9
$EXTMIN
 10
1.000000000000000E+20
 20
1.000000000000000E+20
 30
1.000000000000000E+20
  9
$EXTMAX
 10
-1.000000000000000E+20
 20
-1.000000000000000E+20
 30
-1.000000000000000E+20
  9
$LIMMIN
 10
0.0
 20
0.0
  9
$LIMMAX
 10
12.0
 20
9.0
  9
$ORTHOMODE
 70
     0
  9
$REGENMODE
 70
     1
  9
$FILLMODE
 70
     1
  9
$QTEXTMODE
 70
     0
  9
$MIRRTEXT
 70
     1
  9
$LTSCALE
 40
1.0
  9
$ATTMODE
 70
     1
  9
$TEXTSIZE
 40
0.2
  9
$TRACEWID
 40
0.05
  9
$TEXTSTYLE
  7
Standard
  9
$CLAYER
  8
0
  9
$CELTYPE
  6
ByLayer
  9
$CECOLOR
 62
   256
  9
$CELTSCALE
 40
1.0
  9
$DISPSILH
 70
     0
  9
$DIMSCALE
 40
1.0
  9
$DIMASZ
 40
0.18
  9
$DIMEXO
 40
0.0625
  9
$DIMDLI
 40
0.38
  9
$DIMRND
 40
0.0
  9
$DIMDLE
 40
0.0
  9
$DIMEXE
 40
0.18
  9
$DIMTP
 40
0.0
  9
$DIMTM
 40
0.0
  9
$DIMTXT
 40
0.18
  9
$DIMCEN
 40
0.09
  9
$DIMTSZ
 40
0.0
  9
$DIMTOL
 70
     0
  9
$DIMLIM
 70
     0
  9
$DIMTIH
 70
     1
  9
$DIMTOH
 70
     1
  9
$DIMSE1
 70
     0
  9
$DIMSE2
 70
     0
  9
$DIMTAD
 70
     0
  9
$DIMZIN
 70
     0
  9
$DIMBLK
  1

  9
$DIMASO
 70
     1
  9
$DIMSHO
 70
     1
  9
$DIMPOST
  1

  9
$DIMAPOST
  1

  9
$DIMALT
 70
     0
  9
$DIMALTD
 70
     2
  9
$DIMALTF
 40
25.4
  9
$DIMLFAC
 40
1.0
  9
$DIMTOFL
 70
     0
  9
$DIMTVP
 40
0.0
  9
$DIMTIX
 70
     0
  9
$DIMSOXD
 70
     0
  9
$DIMSAH
 70
     0
  9
$DIMBLK1
  1

  9
$DIMBLK2
  1

  9
$DIMSTYLE
  2
Standard
  9
$DIMCLRD
 70
     0
  9
$DIMCLRE
 70
     0
  9
$DIMCLRT
 70
     0
  9
$DIMTFAC
 40
1.0
  9
$DIMGAP
 40
0.09
  9
$DIMJUST
 70
     0
  9
$DIMSD1
 70
     0
  9
$DIMSD2
 70
     0
  9
$DIMTOLJ
 70
     1
  9
$DIMTZIN
 70
     0
  9
$DIMALTZ
 70
     0
  9
$DIMALTTZ
 70
     0
  9
$DIMUPT
 70
     0
  9
$DIMDEC
 70
     4
  9
$DIMTDEC
 70
     4
  9
$DIMALTU
 70
     2
  9
$DIMALTTD
 70
     2
  9
$DIMTXSTY
  7
Standard
  9
$DIMAUNIT
 70
     0
  9
$DIMADEC
 70
     0
  9
$DIMALTRND
 40
0.0
  9
$DIMAZIN
 70
     0
  9
$DIMDSEP
 70
    46
  9
$DIMATFIT
 70
     3
  9
$DIMFRAC
 70
     0
  9
$DIMLDRBLK
  1

  9
$DIMLUNIT
 70
     2
  9
$DIMLWD
 70
    -2
  9
$DIMLWE
 70
    -2
  9
$DIMTMOVE
 70
     0
  9
$DIMFXL
 40
1.0
  9
$DIMFXLON
 70
     0
  9
$DIMJOGANG
 40
0.7853981633974483
  9
$DIMTFILL
 70
     0
  9
$DIMTFILLCLR
 70
     0
  9
$DIMARCSYM
 70
     0
  9
$DIMLTYPE
  6

  9
$DIMLTEX1
  6

  9
$DIMLTEX2
  6

  9
$DIMTXTDIRECTION
 70
     0
  9
$LUNITS
 70
     2
  9
$LUPREC
 70
     4
  9
$SKETCHINC
 40
0.1
  9
$FILLETRAD
 40
0.5
  9
$AUNITS
 70
     0
  9
$AUPREC
 70
     0
  9
$MENU
  1
.
  9
$ELEVATION
 40
0.0
  9
$PELEVATION
 40
0.0
  9
$THICKNESS
 40
0.0
  9
$LIMCHECK
 70
     0
  9
$CHAMFERA
 40
0.5
  9
$CHAMFERB
 40
0.5
  9
$CHAMFERC
 40
1.0
  9
$CHAMFERD
 40
0.0
  9
$SKPOLY
 70
     0
  9
$TDCREATE
 40
2457917.638819444
  9
$TDUCREATE
 40
2457917.263819444
  9
$TDUPDATE
 40
2457917.638819444
  9
$TDUUPDATE
 40
2457917.263819444
  9
$TDINDWG
 40
0.0000000116
  9
$TDUSRTIMER
 40
0.0000000116
  9
$USRTIMER
 70
     1
  9
$ANGBASE
 50
0.0
  9
$ANGDIR
 70
     0
  9
$PDMODE
 70
     0
  9
$PDSIZE
 40
0.0
  9
$PLINEWID
 40
0.0
  9
$SPLFRAME
 70
     0
  9
$SPLINETYPE
 70
     6
  9
$SPLINESEGS
 70
     8
  9
$HANDSEED
  5
25A
  9
$SURFTAB1
 70
     6
  9
$SURFTAB2
 70
     6
  9
$SURFTYPE
 70
     6
  9
$SURFU
 70
     6
  9
$SURFV
 70
     6
  9
$UCSBASE
  2

  9
$UCSNAME
  2

  9
$UCSORG
 10
0.0
 20
0.0
 30
0.0
  9
$UCSXDIR
 10
1.0
 20
0.0
 30
0.0
  9
$UCSYDIR
 10
0.0
 20
1.0
 30
0.0
  9
$UCSORTHOREF
  2

  9
$UCSORTHOVIEW
 70
     0
  9
$UCSORGTOP
 10
0.0
 20
0.0
 30
0.0
  9
$UCSORGBOTTOM
 10
0.0
 20
0.0
 30
0.0
  9
$UCSORGLEFT
 10
0.0
 20
0.0
 30
0.0
  9
$UCSORGRIGHT
 10
0.0
 20
0.0
 30
0.0
  9
$UCSORGFRONT
 10
0.0
 20
0.0
 30
0.0
  9
$UCSORGBACK
 10
0.0
 20
0.0
 30
0.0
  9
$PUCSBASE
  2

  9
$PUCSNAME
  2

  9
$PUCSORG
 10
0.0
 20
0.0
 30
0.0
  9
$PUCSXDIR
 10
1.0
 20
0.0
 30
0.0
  9
$PUCSYDIR
 10
0.0
 20
1.0
 30
0.0
  9
$PUCSORTHOREF
  2

  9
$PUCSORTHOVIEW
 70
     0
  9
$PUCSORGTOP
 10
0.0
 20
0.0
 30
0.0
  9
$PUCSORGBOTTOM
 10
0.0
 20
0.0
 30
0.0
  9
$PUCSORGLEFT
 10
0.0
 20
0.0
 30
0.0
  9
$PUCSORGRIGHT
 10
0.0
 20
0.0
 30
0.0
  9
$PUCSORGFRONT
 10
0.0
 20
0.0
 30
0.0
  9
$PUCSORGBACK
 10
0.0
 20
0.0
 30
0.0
  9
$USERI1
 70
     0
  9
$USERI2
 70
     0
  9
$USERI3
 70
     0
  9
$USERI4
 70
     0
  9
$USERI5
 70
     0
  9
$USERR1
 40
0.0
  9
$USERR2
 40
0.0
  9
$USERR3
 40
0.0
  9
$USERR4
 40
0.0
  9
$USERR5
 40
0.0
  9
$WORLDVIEW
 70
     1
  9
$SHADEDGE
 70
     3
  9
$SHADEDIF
 70
    70
  9
$TILEMODE
 70
     1
  9
$MAXACTVP
 70
    64
  9
$PINSBASE
 10
0.0
 20
0.0
 30
0.0
  9
$PLIMCHECK
 70
     0
  9
$PEXTMIN
 10
1.000000000000000E+20
 20
1.000000000000000E+20
 30
1.000000000000000E+20
  9
$PEXTMAX
 10
-1.000000000000000E+20
 20
-1.000000000000000E+20
 30
-1.000000000000000E+20
  9
$PLIMMIN
 10
0.0
 20
0.0
  9
$PLIMMAX
 10
12.0
 20
9.0
  9
$UNITMODE
 70
     0
  9
$VISRETAIN
 70
     1
  9
$PLINEGEN
 70
     0
  9
$PSLTSCALE
 70
     1
  9
$TREEDEPTH
 70
  3020
  9
$CMLSTYLE
  2
Standard
  9
$CMLJUST
 70
     0
  9
$CMLSCALE
 40
1.0
  9
$PROXYGRAPHICS
 70
     1
  9
$MEASUREMENT
 70
     0
  9
$CELWEIGHT
370
    -1
  9
$ENDCAPS
280
     0
  9
$JOINSTYLE
280
     0
  9
$LWDISPLAY
290
     1
  9
$INSUNITS
 70
     1
  9
$HYPERLINKBASE
  1

  9
$STYLESHEET
  1

  9
$XEDIT
290
     1
  9
$CEPSNTYPE
380
     0
  9
$PSTYLEMODE
290
     1
  9
$FINGERPRINTGUID
  2
{0FDE8AF9-3565-E554-CF16-425846FFD18B}
  9
$VERSIONGUID
  2
{FAEB1C32-E019-11D5-929B-00C0DF256EC4}
  9
$EXTNAMES
290
     1
  9
$PSVPSCALE
 40
0.0
  9
$OLESTARTUP
290
     0
  9
$SORTENTS
280
   127
  9
$INDEXCTL
280
     0
  9
$HIDETEXT
280
     1
  9
$XCLIPFRAME
280
     2
  9
$HALOGAP
280
     0
  9
$OBSCOLOR
 70
   257
  9
$OBSLTYPE
280
     0
  9
$INTERSECTIONDISPLAY
280
     0
  9
$INTERSECTIONCOLOR
 70
   257
  9
$DIMASSOC
280
     2
  9
$PROJECTNAME
  1

  9
$CAMERADISPLAY
290
     0
  9
$LENSLENGTH
 40
50.0
  9
$CAMERAHEIGHT
 40
0.0
  9
$STEPSPERSEC
 40
2.0
  9
$STEPSIZE
 40
6.0
  9
$3DDWFPREC
 40
2.0
  9
$PSOLWIDTH
 40
0.25
  9
$PSOLHEIGHT
 40
4.0
  9
$LOFTANG1
 40
1.570796326794897
  9
$LOFTANG2
 40
1.570796326794897
  9
$LOFTMAG1
 40
0.0
  9
$LOFTMAG2
 40
0.0
  9
$LOFTPARAM
 70
     7
  9
$LOFTNORMALS
280
     1
  9
$LATITUDE
 40
37.795
  9
$LONGITUDE
 40
-122.394
  9
$NORTHDIRECTION
 40
0.0
  9
$TIMEZONE
 70
 -8000
  9
$LIGHTGLYPHDISPLAY
280
     1
  9
$TILEMODELIGHTSYNCH
280
     1
  9
$CMATERIAL
347
3C
  9
$SOLIDHIST
280
     1
  9
$SHOWHIST
280
     1
  9
$DWFFRAME
280
     2
  9
$DGNFRAME
280
     2
  9
$REALWORLDSCALE
290
     1
  9
$INTERFERECOLOR
 62
   256
  9
$CSHADOW
280
     0
  9
$SHADOWPLANELOCATION
 40
0.0
  0
ENDSEC
  0
SECTION
  2
CLASSES
  0
CLASS
  1
ACDBDICTIONARYWDFLT
  2
AcDbDictionaryWithDefault
  3
ObjectDBX Classes
 90
        0
 91
        4
280
     0
281
     0
  0
CLASS
  1
VISUALSTYLE
  2
AcDbVisualStyle
  3
ObjectDBX Classes
 90
     4095
 91
        4
280
     0
281
     0
  0
CLASS
  1
MATERIAL
  2
AcDbMaterial
  3
ObjectDBX Classes
 90
     1153
 91
        4
280
     0
281
     0
  0
CLASS
  1
SUN
  2
AcDbSun
  3
SCENEOE
 90
     1024
 91
        4
280
     0
281
     0
  0
ENDSEC
  0
SECTION
  2
TABLES
  0
TABLE
  2
VPORT
  5
8
330
0
100
AcDbSymbolTable
 70
     1
  0
VPORT
  5
29
330
8
100
AcDbSymbolTableRecord
100
AcDbViewportTableRecord
  2
*Active
 70
     0
 10
0.0
 20
0.0
 11
1.0
 21
1.0
 12
0.0
 22
0.0
 13
0.0
 23
0.0
 14
0.5
 24
0.5
 15
0.5
 25
0.5
 16
0.0
 26
0.0
 36
1.0
 17
91.00082462281999
 27
-128.4993055234307
 37
0.0
 40
256.9986110468615
 41
0.7081814508812795
 42
50.0
 43
0.0
 44
0.0
 50
0.0
 51
0.0
 71
     0
 72
   100
 73
     1
 74
     3
 75
     0
 76
     0
 77
     0
 78
     0
281
     0
 65
     1
110
0.0
120
0.0
130
0.0
111
1.0
121
0.0
131
0.0
112
0.0
122
1.0
132
0.0
 79
     0
146
0.0
 60
     3
 61
     5
292
     1
282
     1
141
0.0
142
0.0
 63
   250
361
3F
  0
ENDTAB
  0
TABLE
  2
LTYPE
  5
5
330
0
100
AcDbSymbolTable
 70
     2
  0
LTYPE
  5
14
330
5
100
AcDbSymbolTableRecord
100
AcDbLinetypeTableRecord
  2
ByBlock
 70
     0
  3

 72
    65
 73
     0
 40
0.0
  0
LTYPE
  5
15
330
5
100
AcDbSymbolTableRecord
100
AcDbLinetypeTableRecord
  2
ByLayer
 70
     0
  3

 72
    65
 73
     0
 40
0.0
  0
LTYPE
  5
16
330
5
100
AcDbSymbolTableRecord
100
AcDbLinetypeTableRecord
  2
Continuous
 70
     0
  3
Solid line
 72
    65
 73
     0
 40
0.0
  0
LTYPE
  5
80
330
5
100
AcDbSymbolTableRecord
100
AcDbLinetypeTableRecord
  2
AI-Linetype-1
 70
     0
  3
Adobe Illustrator Linetype No. 1
 72
    65
 73
     4
 40
2.1166666661375
 49
1.05833333306875
 74
     0
 49
-0.3527777776895833
 74
     0
 49
0.3527777776895833
 74
     0
 49
-0.3527777776895833
 74
     0
  0
ENDTAB
  0
TABLE
  2
LAYER
  5
2
330
0
100
AcDbSymbolTable
 70
     2
  0
LAYER
  5
10
330
2
100
AcDbSymbolTableRecord
100
AcDbLayerTableRecord
  2
0
 70
     0
 62
     7
  6
Continuous
370
    -3
390
F
347
3E
  0
LAYER
  5
40
330
2
100
AcDbSymbolTableRecord
100
AcDbLayerTableRecord
  2
_U+30EC_U+30A4_U+30E4_U+30FC 1
 70
     0
 62
     7
  6
Continuous
370
    -3
390
F
347
3E
  0
ENDTAB
  0
TABLE
  2
STYLE
  5
3
330
0
100
AcDbSymbolTable
 70
     1
  0
STYLE
  5
11
330
3
100
AcDbSymbolTableRecord
100
AcDbTextStyleTableRecord
  2
Standard
 70
     0
 40
0.0
 41
1.0
 50
0.0
 71
     0
 42
0.2
  3
txt
  4

  0
ENDTAB
  0
TABLE
  2
VIEW
  5
6
330
0
100
AcDbSymbolTable
 70
     0
  0
ENDTAB
  0
TABLE
  2
UCS
  5
7
330
0
100
AcDbSymbolTable
 70
     0
  0
ENDTAB
  0
TABLE
  2
APPID
  5
9
330
0
100
AcDbSymbolTable
 70
     1
  0
APPID
  5
12
330
9
100
AcDbSymbolTableRecord
100
AcDbRegAppTableRecord
  2
ACAD
 70
     0
  0
ENDTAB
  0
TABLE
  2
DIMSTYLE
  5
A
330
0
100
AcDbSymbolTable
 70
     1
100
AcDbDimStyleTable
  0
DIMSTYLE
105
27
330
A
100
AcDbSymbolTableRecord
100
AcDbDimStyleTableRecord
  2
Standard
 70
     0
178
     0
340
11
  0
ENDTAB
  0
TABLE
  2
BLOCK_RECORD
  5
1
330
0
100
AcDbSymbolTable
 70
    13
  0
BLOCK_RECORD
  5
1F
330
1
100
AcDbSymbolTableRecord
100
AcDbBlockTableRecord
  2
*Model_Space
340
22
 70
     0
280
     1
281
     0
  0
BLOCK_RECORD
  5
1B
330
1
100
AcDbSymbolTableRecord
100
AcDbBlockTableRecord
  2
*Paper_Space
340
1E
 70
     0
280
     1
281
     0
  0
BLOCK_RECORD
  5
23
330
1
100
AcDbSymbolTableRecord
100
AcDbBlockTableRecord
  2
*Paper_Space0
340
26
 70
     0
280
     1
281
     0
  0
BLOCK_RECORD
  5
106
330
1
100
AcDbSymbolTableRecord
100
AcDbBlockTableRecord
  2
block 2
340
0
102
{BLKREFS
331
107
102
}
 70
     0
280
     1
281
     0
  0
BLOCK_RECORD
  5
14E
330
1
100
AcDbSymbolTableRecord
100
AcDbBlockTableRecord
  2
block 3
340
0
102
{BLKREFS
331
14F
102
}
 70
     0
280
     1
281
     0
  0
BLOCK_RECORD
  5
154
330
1
100
AcDbSymbolTableRecord
100
AcDbBlockTableRecord
  2
block 4
340
0
102
{BLKREFS
331
155
102
}
 70
     0
280
     1
281
     0
  0
BLOCK_RECORD
  5
169
330
1
100
AcDbSymbolTableRecord
100
AcDbBlockTableRecord
  2
block 5
340
0
102
{BLKREFS
331
16A
102
}
 70
     0
280
     1
281
     0
  0
BLOCK_RECORD
  5
185
330
1
100
AcDbSymbolTableRecord
100
AcDbBlockTableRecord
  2
block 6
340
0
102
{BLKREFS
331
186
102
}
 70
     0
280
     1
281
     0
  0
BLOCK_RECORD
  5
1A6
330
1
100
AcDbSymbolTableRecord
100
AcDbBlockTableRecord
  2
block 7
340
0
102
{BLKREFS
331
1A7
102
}
 70
     0
280
     1
281
     0
  0
BLOCK_RECORD
  5
1AE
330
1
100
AcDbSymbolTableRecord
100
AcDbBlockTableRecord
  2
block 8
340
0
102
{BLKREFS
331
1AF
102
}
 70
     0
280
     1
281
     0
  0
BLOCK_RECORD
  5
1D1
330
1
100
AcDbSymbolTableRecord
100
AcDbBlockTableRecord
  2
block 9
340
0
102
{BLKREFS
331
1D2
102
}
 70
     0
280
     1
281
     0
  0
BLOCK_RECORD
  5
1EC
330
1
100
AcDbSymbolTableRecord
100
AcDbBlockTableRecord
  2
block 10
340
0
102
{BLKREFS
331
1ED
102
}
 70
     0
280
     1
281
     0
  0
BLOCK_RECORD
  5
208
330
1
100
AcDbSymbolTableRecord
100
AcDbBlockTableRecord
  2
block 11
340
0
102
{BLKREFS
331
209
102
}
 70
     0
280
     1
281
     0
  0
BLOCK_RECORD
  5
223
330
1
100
AcDbSymbolTableRecord
100
AcDbBlockTableRecord
  2
block 12
340
0
102
{BLKREFS
331
224
102
}
 70
     0
280
     1
281
     0
  0
BLOCK_RECORD
  5
23B
330
1
100
AcDbSymbolTableRecord
100
AcDbBlockTableRecord
  2
block 13
340
0
102
{BLKREFS
331
23C
102
}
 70
     0
280
     1
281
     0
  0
ENDTAB
  0
ENDSEC
  0
SECTION
  2
BLOCKS
  0
BLOCK
  5
20
330
1F
100
AcDbEntity
  8
0
100
AcDbBlockBegin
  2
*Model_Space
 70
     0
 10
0.0
 20
0.0
 30
0.0
  3
*Model_Space
  1

  0
ENDBLK
  5
21
330
1F
100
AcDbEntity
  8
0
100
AcDbBlockEnd
  0
BLOCK
  5
1C
330
1B
100
AcDbEntity
 67
     1
  8
0
100
AcDbBlockBegin
  2
*Paper_Space
 70
     0
 10
0.0
 20
0.0
 30
0.0
  3
*Paper_Space
  1

  0
ENDBLK
  5
1D
330
1B
100
AcDbEntity
 67
     1
  8
0
100
AcDbBlockEnd
  0
BLOCK
  5
24
330
23
100
AcDbEntity
  8
0
100
AcDbBlockBegin
  2
*Paper_Space0
 70
     0
 10
0.0
 20
0.0
 30
0.0
  3
*Paper_Space0
  1

  0
ENDBLK
  5
25
330
23
100
AcDbEntity
  8
0
100
AcDbBlockEnd
  0
BLOCK
  5
108
330
106
100
AcDbEntity
  8
0
100
AcDbBlockBegin
  2
block 2
 70
     0
 10
0.0
 20
0.0
 30
0.0
  3
block 2
  1

  0
SPLINE
  5
10A
330
106
100
AcDbEntity
  8
_U+30EC_U+30A4_U+30E4_U+30FC 1
370
     0
100
AcDbSpline
210
0.0
220
0.0
230
1.0
 70
    11
 71
     3
 72
   197
 73
   193
 74
     0
 42
0.0000000001
 43
0.0000000001
 12
1.0
 22
0.0
 32
0.0
 13
1.0
 23
0.0
 33
0.0
 40
0.0
 40
0.0
 40
0.0
 40
0.0
 40
1.0
 40
1.0
 40
1.0
 40
2.0
 40
2.0
 40
2.0
 40
3.0
 40
3.0
 40
3.0
 40
4.0
 40
4.0
 40
4.0
 40
5.0
 40
5.0
 40
5.0
 40
6.0
 40
6.0
 40
6.0
 40
7.0
 40
7.0
 40
7.0
 40
8.0
 40
8.0
 40
8.0
 40
9.0
 40
9.0
 40
9.0
 40
10.0
 40
10.0
 40
10.0
 40
11.0
 40
11.0
 40
11.0
 40
12.0
 40
12.0
 40
12.0
 40
13.0
 40
13.0
 40
13.0
 40
14.0
 40
14.0
 40
14.0
 40
15.0
 40
15.0
 40
15.0
 40
16.0
 40
16.0
 40
16.0
 40
17.0
 40
17.0
 40
17.0
 40
18.0
 40
18.0
 40
18.0
 40
19.0
 40
19.0
 40
19.0
 40
20.0
 40
20.0
 40
20.0
 40
21.0
 40
21.0
 40
21.0
 40
22.0
 40
22.0
 40
22.0
 40
23.0
 40
23.0
 40
23.0
 40
24.0
 40
24.0
 40
24.0
 40
25.0
 40
25.0
 40
25.0
 40
26.0
 40
26.0
 40
26.0
 40
27.0
 40
27.0
 40
27.0
 40
28.0
 40
28.0
 40
28.0
 40
29.0
 40
29.0
 40
29.0
 40
30.0
 40
30.0
 40
30.0
 40
31.0
 40
31.0
 40
31.0
 40
32.0
 40
32.0
 40
32.0
 40
33.0
 40
33.0
 40
33.0
 40
34.0
 40
34.0
 40
34.0
 40
35.0
 40
35.0
 40
35.0
 40
36.0
 40
36.0
 40
36.0
 40
37.0
 40
37.0
 40
37.0
 40
38.0
 40
38.0
 40
38.0
 40
39.0
 40
39.0
 40
39.0
 40
40.0
 40
40.0
 40
40.0
 40
41.0
 40
41.0
 40
41.0
 40
42.0
 40
42.0
 40
42.0
 40
43.0
 40
43.0
 40
43.0
 40
44.0
 40
44.0
 40
44.0
 40
45.0
 40
45.0
 40
45.0
 40
46.0
 40
46.0
 40
46.0
 40
47.0
 40
47.0
 40
47.0
 40
48.0
 40
48.0
 40
48.0
 40
49.0
 40
49.0
 40
49.0
 40
50.0
 40
50.0
 40
50.0
 40
51.0
 40
51.0
 40
51.0
 40
52.0
 40
52.0
 40
52.0
 40
53.0
 40
53.0
 40
53.0
 40
54.0
 40
54.0
 40
54.0
 40
55.0
 40
55.0
 40
55.0
 40
56.0
 40
56.0
 40
56.0
 40
57.0
 40
57.0
 40
57.0
 40
58.0
 40
58.0
 40
58.0
 40
59.0
 40
59.0
 40
59.0
 40
60.0
 40
60.0
 40
60.0
 40
61.0
 40
61.0
 40
61.0
 40
62.0
 40
62.0
 40
62.0
 40
63.0
 40
63.0
 40
63.0
 40
64.0
 40
64.0
 40
64.0
 40
64.0
 10
104.0463622786759
 20
-112.796560301662
 30
0.0
 10
104.0356824826716
 20
-112.8261881228351
 30
0.0
 10
104.0122558333719
 20
-112.872696911886
 30
0.0
 10
104.0019205469162
 20
-112.900257675768
 30
0.0
 10
104.0019205469162
 20
-112.900257675768
 30
0.0
 10
103.9405978472787
 20
-113.052530896216
 30
0.0
 10
103.9405978472787
 20
-113.052530896216
 30
0.0
 10
103.9299180512745
 20
-113.0778523480326
 30
0.0
 10
103.8813422049325
 20
-113.1899902060775
 30
0.0
 10
103.868595351637
 20
-113.2132446006029
 30
0.0
 10
103.8665282943459
 20
-113.2196180272507
 30
0.0
 10
103.862049670215
 20
-113.2280585111895
 30
0.0
 10
103.8599826129239
 20
-113.2344319378372
 30
0.0
 10
103.8599826129239
 20
-113.2344319378372
 30
0.0
 10
103.6505208074207
 20
-113.1815497221386
 30
0.0
 10
103.6505208074207
 20
-113.1815497221386
 30
0.0
 10
103.7290689844844
 20
-113.0714789213849
 30
0.0
 10
103.7903916841219
 20
-112.9360866688146
 30
0.0
 10
103.8220865625862
 20
-112.8261881228351
 30
0.0
 10
103.8220865625862
 20
-112.8261881228351
 30
0.0
 10
103.3566541625289
 20
-112.8261881228351
 30
0.0
 10
103.3566541625289
 20
-112.8261881228351
 30
0.0
 10
103.276038928174
 20
-112.9912081965786
 30
0.0
 10
103.2085150566632
 20
-113.0694118640938
 30
0.0
 10
103.1747531209077
 20
-113.1095472264969
 30
0.0
 10
103.1747531209077
 20
-113.1095472264969
 30
0.0
 10
103.0521077216328
 20
-113.0440904122772
 30
0.0
 10
103.0521077216328
 20
-113.0440904122772
 30
0.0
 10
103.0521077216328
 20
-113.0440904122772
 30
0.0
 10
103.0521077216328
 20
-113.2153116578941
 30
0.0
 10
103.0521077216328
 20
-113.2153116578941
 30
0.0
 10
103.0521077216328
 20
-113.3233154013567
 30
0.0
 10
103.054174778924
 20
-113.3718912476987
 30
0.0
 10
103.0645100653797
 20
-113.4776556790959
 30
0.0
 10
102.9928520792865
 20
-113.4755886218047
 30
0.0
 10
102.971492487278
 20
-113.4755886218047
 30
0.0
 10
102.7665093059056
 20
-113.4755886218047
 30
0.0
 10
102.7665093059056
 20
-113.4755886218047
 30
0.0
 10
102.7113877781416
 20
-113.4755886218047
 30
0.0
 10
102.7113877781416
 20
-113.4755886218047
 30
0.0
 10
102.7113877781416
 20
-113.4755886218047
 30
0.0
 10
102.7113877781416
 20
-113.610980874375
 30
0.0
 10
102.7113877781416
 20
-113.610980874375
 30
0.0
 10
102.7113877781416
 20
-113.610980874375
 30
0.0
 10
102.7833902737833
 20
-113.610980874375
 30
0.0
 10
102.7833902737833
 20
-113.610980874375
 30
0.0
 10
102.8488470880031
 20
-113.610980874375
 30
0.0
 10
102.9949191365777
 20
-113.6066745050185
 30
0.0
 10
103.1006835679748
 20
-113.5982340210796
 30
0.0
 10
103.1006835679748
 20
-113.5982340210796
 30
0.0
 10
103.1006835679748
 20
-113.7760009481185
 30
0.0
 10
103.1006835679748
 20
-113.7760009481185
 30
0.0
 10
103.0031873657423
 20
-113.7696275214708
 30
0.0
 10
102.8447129734208
 20
-113.7654934068885
 30
0.0
 10
102.7833902737833
 20
-113.7654934068885
 30
0.0
 10
102.7833902737833
 20
-113.7654934068885
 30
0.0
 10
102.7113877781416
 20
-113.7654934068885
 30
0.0
 10
102.7113877781416
 20
-113.7654934068885
 30
0.0
 10
102.7134548354328
 20
-113.8542046156337
 30
0.0
 10
102.7175889500151
 20
-114.09329424231
 30
0.0
 10
102.7196560073062
 20
-114.1673637952429
 30
0.0
 10
102.7196560073062
 20
-114.1673637952429
 30
0.0
 10
102.5188069405161
 20
-114.1673637952429
 30
0.0
 10
102.5188069405161
 20
-114.1673637952429
 30
0.0
 10
102.5315537938116
 20
-113.9537678751574
 30
0.0
 10
102.5315537938116
 20
-113.9241400539842
 30
0.0
 10
102.5356879083939
 20
-113.7654934068885
 30
0.0
 10
102.5356879083939
 20
-113.7654934068885
 30
0.0
 10
102.4660969795918
 20
-113.7654934068885
 30
0.0
 10
102.4660969795918
 20
-113.7654934068885
 30
0.0
 10
102.4089083945367
 20
-113.7654934068885
 30
0.0
 10
102.2566351740886
 20
-113.7696275214708
 30
0.0
 10
102.1463921185606
 20
-113.7760009481185
 30
0.0
 10
102.1463921185606
 20
-113.7760009481185
 30
0.0
 10
102.1463921185606
 20
-113.5982340210796
 30
0.0
 10
102.1463921185606
 20
-113.5982340210796
 30
0.0
 10
102.2521565499578
 20
-113.6066745050185
 30
0.0
 10
102.3961615412412
 20
-113.610980874375
 30
0.0
 10
102.4660969795918
 20
-113.610980874375
 30
0.0
 10
102.4660969795918
 20
-113.610980874375
 30
0.0
 10
102.5398220229762
 20
-113.610980874375
 30
0.0
 10
102.5398220229762
 20
-113.610980874375
 30
0.0
 10
102.5398220229762
 20
-113.610980874375
 30
0.0
 10
102.5398220229762
 20
-113.4755886218047
 30
0.0
 10
102.5398220229762
 20
-113.4755886218047
 30
0.0
 10
102.5398220229762
 20
-113.4755886218047
 30
0.0
 10
102.495724800765
 20
-113.4755886218047
 30
0.0
 10
102.495724800765
 20
-113.4755886218047
 30
0.0
 10
102.4192436809924
 20
-113.4755886218047
 30
0.0
 10
102.2270073529155
 20
-113.4776556790959
 30
0.0
 10
102.1929009076115
 20
-113.4776556790959
 30
0.0
 10
102.1994465890335
 20
-113.4058254382284
 30
0.0
 10
102.2077148181981
 20
-113.3253824586478
 30
0.0
 10
102.2077148181981
 20
-113.2048041166641
 30
0.0
 10
102.2077148181981
 20
-113.2048041166641
 30
0.0
 10
102.2077148181981
 20
-113.0313435589817
 30
0.0
 10
102.2077148181981
 20
-113.0313435589817
 30
0.0
 10
102.2077148181981
 20
-112.95934106334
 30
0.0
 10
102.1994465890335
 20
-112.8387627213563
 30
0.0
 10
102.1929009076115
 20
-112.75849199655
 30
0.0
 10
102.2714490846752
 20
-112.7626261111323
 30
0.0
 10
102.3093451350129
 20
-112.7648654231977
 30
0.0
 10
102.4364691584187
 20
-112.7648654231977
 30
0.0
 10
102.4364691584187
 20
-112.7648654231977
 30
0.0
 10
102.5398220229762
 20
-112.7648654231977
 30
0.0
 10
102.5398220229762
 20
-112.7648654231977
 30
0.0
 10
102.5398220229762
 20
-112.7648654231977
 30
0.0
 10
102.5398220229762
 20
-112.6187933746231
 30
0.0
 10
102.5398220229762
 20
-112.6187933746231
 30
0.0
 10
102.5398220229762
 20
-112.6187933746231
 30
0.0
 10
102.461618355461
 20
-112.6187933746231
 30
0.0
 10
102.461618355461
 20
-112.6187933746231
 30
0.0
 10
102.4068413372455
 20
-112.6187933746231
 30
0.0
 10
102.2352755820801
 20
-112.6230997439797
 30
0.0
 10
102.1508707426915
 20
-112.6294731706274
 30
0.0
 10
102.1508707426915
 20
-112.6294731706274
 30
0.0
 10
102.1508707426915
 20
-112.4517062435885
 30
0.0
 10
102.1508707426915
 20
-112.4517062435885
 30
0.0
 10
102.2332085247889
 20
-112.4580796702362
 30
0.0
 10
102.3961615412412
 20
-112.4622137848185
 30
0.0
 10
102.461618355461
 20
-112.4622137848185
 30
0.0
 10
102.461618355461
 20
-112.4622137848185
 30
0.0
 10
102.5398220229762
 20
-112.4622137848185
 30
0.0
 10
102.5398220229762
 20
-112.4622137848185
 30
0.0
 10
102.5398220229762
 20
-112.428451849063
 30
0.0
 10
102.5356879083939
 20
-112.2739393165496
 30
0.0
 10
102.5356879083939
 20
-112.2422444380853
 30
0.0
 10
102.5356879083939
 20
-112.2422444380853
 30
0.0
 10
102.7324028606016
 20
-112.259125405963
 30
0.0
 10
102.7324028606016
 20
-112.259125405963
 30
0.0
 10
102.7492838284793
 20
-112.2613647180284
 30
0.0
 10
102.7706434204879
 20
-112.2634317753196
 30
0.0
 10
102.7706434204879
 20
-112.2846191125539
 30
0.0
 10
102.7706434204879
 20
-112.3078735070793
 30
0.0
 10
102.7492838284793
 20
-112.3163139910181
 30
0.0
 10
102.7220675741459
 20
-112.3290608443136
 30
0.0
 10
102.7220675741459
 20
-112.3500759267736
 30
0.0
 10
102.7196560073062
 20
-112.4453328169407
 30
0.0
 10
102.7196560073062
 20
-112.4622137848185
 30
0.0
 10
102.7196560073062
 20
-112.4622137848185
 30
0.0
 10
102.7789116496525
 20
-112.4622137848185
 30
0.0
 10
102.7789116496525
 20
-112.4622137848185
 30
0.0
 10
102.8467800307119
 20
-112.4622137848185
 30
0.0
 10
102.9904405124468
 20
-112.4580796702362
 30
0.0
 10
103.096204943844
 20
-112.4517062435885
 30
0.0
 10
103.096204943844
 20
-112.4517062435885
 30
0.0
 10
103.096204943844
 20
-112.6294731706274
 30
0.0
 10
103.096204943844
 20
-112.6294731706274
 30
0.0
 10
102.99905325116
 20
-112.6230997439797
 30
0.0
 10
102.8426459161296
 20
-112.6187933746231
 30
0.0
 10
102.7789116496525
 20
-112.6187933746231
 30
0.0
 10
102.7789116496525
 20
-112.6187933746231
 30
0.0
 10
102.7113877781416
 20
-112.6187933746231
 30
0.0
 10
102.7113877781416
 20
-112.6187933746231
 30
0.0
 10
102.7113877781416
 20
-112.6187933746231
 30
0.0
 10
102.7113877781416
 20
-112.7648654231977
 30
0.0
 10
102.7113877781416
 20
-112.7648654231977
 30
0.0
 10
102.7113877781416
 20
-112.7648654231977
 30
0.0
 10
102.7813232164922
 20
-112.7648654231977
 30
0.0
 10
102.7813232164922
 20
-112.7648654231977
 30
0.0
 10
102.9311848701005
 20
-112.7648654231977
 30
0.0
 10
103.0031873657423
 20
-112.7605590538411
 30
0.0
 10
103.0645100653797
 20
-112.75849199655
 30
0.0
 10
103.0562418362151
 20
-112.8535766319429
 30
0.0
 10
103.054174778924
 20
-112.9319525542323
 30
0.0
 10
103.0521077216328
 20
-112.9700208593443
 30
0.0
 10
103.206447999372
 20
-112.75849199655
 30
0.0
 10
103.3122124307692
 20
-112.5109618859348
 30
0.0
 10
103.3290933986469
 20
-112.248617864733
 30
0.0
 10
103.3290933986469
 20
-112.248617864733
 30
0.0
 10
103.5447563760235
 20
-112.2994330231404
 30
0.0
 10
103.5447563760235
 20
-112.2994330231404
 30
0.0
 10
103.5595702866101
 20
-112.3035671377227
 30
0.0
 10
103.5743841971967
 20
-112.3099405643704
 30
0.0
 10
103.5743841971967
 20
-112.3268215322482
 30
0.0
 10
103.5743841971967
 20
-112.3438747549001
 30
0.0
 10
103.5702500826144
 20
-112.3459418121913
 30
0.0
 10
103.5196071789812
 20
-112.3671291494256
 30
0.0
 10
103.502381701555
 20
-112.4432657596496
 30
0.0
 10
103.4772325045126
 20
-112.5342162804602
 30
0.0
 10
103.4286566581706
 20
-112.6611680490917
 30
0.0
 10
103.4286566581706
 20
-112.6611680490917
 30
0.0
 10
103.7669650348221
 20
-112.6611680490917
 30
0.0
 10
103.7669650348221
 20
-112.6611680490917
 30
0.0
 10
103.8052055947084
 20
-112.6611680490917
 30
0.0
 10
103.9340521658568
 20
-112.6568616797351
 30
0.0
 10
103.9826280121988
 20
-112.6504882530874
 30
0.0
 10
103.9826280121988
 20
-112.6504882530874
 30
0.0
 10
104.0759900998491
 20
-112.720423691438
 30
0.0
 10
104.0759900998491
 20
-112.720423691438
 30
0.0
 10
104.0673773611359
 20
-112.741438773898
 30
0.0
 10
104.0611761892625
 20
-112.7605590538411
 30
0.0
 10
104.0463622786759
 20
-112.796560301662
 30
0.0
  0
POLYLINE
  5
10B
330
106
100
AcDbEntity
  8
_U+30EC_U+30A4_U+30E4_U+30FC 1
370
     0
100
AcDb2dPolyline
 66
     1
 10
0.0
 20
0.0
 30
0.0
  0
VERTEX
  5
10C
330
10B
100
AcDbEntity
  8
_U+30EC_U+30A4_U+30E4_U+30FC 1
370
     0
100
AcDbVertex
100
AcDb2dVertex
 10
102.5398220229762
 20
-112.921272758228
 30
0.0
  0
VERTEX
  5
10D
330
10B
100
AcDbEntity
  8
_U+30EC_U+30A4_U+30E4_U+30FC 1
370
     0
100
AcDbVertex
100
AcDb2dVertex
 10
102.3813476306547
 20
-112.921272758228
 30
0.0
  0
VERTEX
  5
10E
330
10B
100
AcDbEntity
  8
_U+30EC_U+30A4_U+30E4_U+30FC 1
370
     0
100
AcDbVertex
100
AcDb2dVertex
 10
102.3813476306547
 20
-113.0504638389249
 30
0.0
  0
VERTEX
  5
10F
330
10B
100
AcDbEntity
  8
_U+30EC_U+30A4_U+30E4_U+30FC 1
370
     0
100
AcDbVertex
100
AcDb2dVertex
 10
102.5398220229762
 20
-113.0504638389249
 30
0.0
  0
VERTEX
  5
110
330
10B
100
AcDbEntity
  8
_U+30EC_U+30A4_U+30E4_U+30FC 1
370
     0
100
AcDbVertex
100
AcDb2dVertex
 10
102.5398220229762
 20
-112.921272758228
 30
0.0
  0
SEQEND
  5
111
330
10B
100
AcDbEntity
  8
_U+30EC_U+30A4_U+30E4_U+30FC 1
370
     0
  0
POLYLINE
  5
112
330
106
100
AcDbEntity
  8
_U+30EC_U+30A4_U+30E4_U+30FC 1
370
     0
100
AcDb2dPolyline
 66
     1
 10
0.0
 20
0.0
 30
0.0
  0
VERTEX
  5
113
330
112
100
AcDbEntity
  8
_U+30EC_U+30A4_U+30E4_U+30FC 1
370
     0
100
AcDbVertex
100
AcDb2dVertex
 10
102.5398220229762
 20
-113.1942965754341
 30
0.0
  0
VERTEX
  5
114
330
112
100
AcDbEntity
  8
_U+30EC_U+30A4_U+30E4_U+30FC 1
370
     0
100
AcDbVertex
100
AcDb2dVertex
 10
102.3813476306547
 20
-113.1942965754341
 30
0.0
  0
VERTEX
  5
115
330
112
100
AcDbEntity
  8
_U+30EC_U+30A4_U+30E4_U+30FC 1
370
     0
100
AcDbVertex
100
AcDb2dVertex
 10
102.3813476306547
 20
-113.3233154013567
 30
0.0
  0
VERTEX
  5
116
330
112
100
AcDbEntity
  8
_U+30EC_U+30A4_U+30E4_U+30FC 1
370
     0
100
AcDbVertex
100
AcDb2dVertex
 10
102.5398220229762
 20
-113.3233154013567
 30
0.0
  0
VERTEX
  5
117
330
112
100
AcDbEntity
  8
_U+30EC_U+30A4_U+30E4_U+30FC 1
370
     0
100
AcDbVertex
100
AcDb2dVertex
 10
102.5398220229762
 20
-113.1942965754341
 30
0.0
  0
SEQEND
  5
118
330
112
100
AcDbEntity
  8
_U+30EC_U+30A4_U+30E4_U+30FC 1
370
     0
  0
POLYLINE
  5
119
330
106
100
AcDbEntity
  8
_U+30EC_U+30A4_U+30E4_U+30FC 1
370
     0
100
AcDb2dPolyline
 66
     1
 10
0.0
 20
0.0
 30
0.0
  0
VERTEX
  5
11A
330
119
100
AcDbEntity
  8
_U+30EC_U+30A4_U+30E4_U+30FC 1
370
     0
100
AcDbVertex
100
AcDb2dVertex
 10
102.8722737373028
 20
-112.921272758228
 30
0.0
  0
VERTEX
  5
11B
330
119
100
AcDbEntity
  8
_U+30EC_U+30A4_U+30E4_U+30FC 1
370
     0
100
AcDbVertex
100
AcDb2dVertex
 10
102.7113877781416
 20
-112.921272758228
 30
0.0
  0
VERTEX
  5
11C
330
119
100
AcDbEntity
  8
_U+30EC_U+30A4_U+30E4_U+30FC 1
370
     0
100
AcDbVertex
100
AcDb2dVertex
 10
102.7113877781416
 20
-113.0504638389249
 30
0.0
  0
VERTEX
  5
11D
330
119
100
AcDbEntity
  8
_U+30EC_U+30A4_U+30E4_U+30FC 1
370
     0
100
AcDbVertex
100
AcDb2dVertex
 10
102.8722737373028
 20
-113.0504638389249
 30
0.0
  0
VERTEX
  5
11E
330
119
100
AcDbEntity
  8
_U+30EC_U+30A4_U+30E4_U+30FC 1
370
     0
100
AcDbVertex
100
AcDb2dVertex
 10
102.8722737373028
 20
-112.921272758228
 30
0.0
  0
SEQEND
  5
11F
330
119
100
AcDbEntity
  8
_U+30EC_U+30A4_U+30E4_U+30FC 1
370
     0
  0
POLYLINE
  5
120
330
106
100
AcDbEntity
  8
_U+30EC_U+30A4_U+30E4_U+30FC 1
370
     0
100
AcDb2dPolyline
 66
     1
 10
0.0
 20
0.0
 30
0.0
  0
VERTEX
  5
121
330
120
100
AcDbEntity
  8
_U+30EC_U+30A4_U+30E4_U+30FC 1
370
     0
100
AcDbVertex
100
AcDb2dVertex
 10
102.8722737373028
 20
-113.1942965754341
 30
0.0
  0
VERTEX
  5
122
330
120
100
AcDbEntity
  8
_U+30EC_U+30A4_U+30E4_U+30FC 1
370
     0
100
AcDbVertex
100
AcDb2dVertex
 10
102.7113877781416
 20
-113.1942965754341
 30
0.0
  0
VERTEX
  5
123
330
120
100
AcDbEntity
  8
_U+30EC_U+30A4_U+30E4_U+30FC 1
370
     0
100
AcDbVertex
100
AcDb2dVertex
 10
102.7113877781416
 20
-113.3233154013567
 30
0.0
  0
VERTEX
  5
124
330
120
100
AcDbEntity
  8
_U+30EC_U+30A4_U+30E4_U+30FC 1
370
     0
100
AcDbVertex
100
AcDb2dVertex
 10
102.8722737373028
 20
-113.3233154013567
 30
0.0
  0
VERTEX
  5
125
330
120
100
AcDbEntity
  8
_U+30EC_U+30A4_U+30E4_U+30FC 1
370
     0
100
AcDbVertex
100
AcDb2dVertex
 10
102.8722737373028
 20
-113.1942965754341
 30
0.0
  0
SEQEND
  5
126
330
120
100
AcDbEntity
  8
_U+30EC_U+30A4_U+30E4_U+30FC 1
370
     0
  0
SPLINE
  5
127
330
106
100
AcDbEntity
  8
_U+30EC_U+30A4_U+30E4_U+30FC 1
370
     0
100
AcDbSpline
210
0.0
220
0.0
230
1.0
 70
    11
 71
     3
 72
    41
 73
    37
 74
     0
 42
0.0000000001
 43
0.0000000001
 12
1.0
 22
0.0
 32
0.0
 13
1.0
 23
0.0
 33
0.0
 40
0.0
 40
0.0
 40
0.0
 40
0.0
 40
1.0
 40
1.0
 40
1.0
 40
2.0
 40
2.0
 40
2.0
 40
3.0
 40
3.0
 40
3.0
 40
4.0
 40
4.0
 40
4.0
 40
5.0
 40
5.0
 40
5.0
 40
6.0
 40
6.0
 40
6.0
 40
7.0
 40
7.0
 40
7.0
 40
8.0
 40
8.0
 40
8.0
 40
9.0
 40
9.0
 40
9.0
 40
10.0
 40
10.0
 40
10.0
 40
11.0
 40
11.0
 40
11.0
 40
12.0
 40
12.0
 40
12.0
 40
12.0
 10
103.9616129297388
 20
-114.1525498846563
 30
0.0
 10
103.7204562457713
 20
-114.017157632086
 30
0.0
 10
103.5426893187324
 20
-113.7210516751288
 30
0.0
 10
103.502381701555
 20
-113.5920328492062
 30
0.0
 10
103.3818033595712
 20
-113.8564439276991
 30
0.0
 10
103.2191948526674
 20
-114.0340385999637
 30
0.0
 10
103.0372938110462
 20
-114.1482435152998
 30
0.0
 10
103.0372938110462
 20
-114.1482435152998
 30
0.0
 10
102.8402343492899
 20
-114.0107842054383
 30
0.0
 10
102.8402343492899
 20
-114.0107842054383
 30
0.0
 10
102.9101697876405
 20
-113.9854627536217
 30
0.0
 10
103.0562418362151
 20
-113.9241400539842
 30
0.0
 10
103.17888723549
 20
-113.7696275214708
 30
0.0
 10
103.3035996920561
 20
-113.6130479316662
 30
0.0
 10
103.3924831555755
 20
-113.3803317316376
 30
0.0
 10
103.3924831555755
 20
-113.1202270225012
 30
0.0
 10
103.3924831555755
 20
-113.0185967056863
 30
0.0
 10
103.3797363022801
 20
-112.9467664648189
 30
0.0
 10
103.3694010158243
 20
-112.900257675768
 30
0.0
 10
103.3694010158243
 20
-112.900257675768
 30
0.0
 10
103.5743841971967
 20
-112.921272758228
 30
0.0
 10
103.5743841971967
 20
-112.921272758228
 30
0.0
 10
103.5957437892052
 20
-112.9235120702934
 30
0.0
 10
103.6167588716653
 20
-112.9255791275846
 30
0.0
 10
103.6167588716653
 20
-112.9467664648189
 30
0.0
 10
103.6167588716653
 20
-112.9657144899877
 30
0.0
 10
103.606079075661
 20
-112.9741549739266
 30
0.0
 10
103.5723171399055
 20
-112.9953423111609
 30
0.0
 10
103.5640489107409
 20
-113.1963636327252
 30
0.0
 10
103.6208929862476
 20
-113.4395873739839
 30
0.0
 10
103.682215685885
 20
-113.5601657159676
 30
0.0
 10
103.7731662066956
 20
-113.7358655857153
 30
0.0
 10
103.9678141016122
 20
-113.9156995700454
 30
0.0
 10
104.1032063541825
 20
-113.9727159003263
 30
0.0
 10
104.1032063541825
 20
-113.9727159003263
 30
0.0
 10
103.9616129297388
 20
-114.1525498846563
 30
0.0
 10
103.9616129297388
 20
-114.1525498846563
 30
0.0
  0
HATCH
  5
128
330
106
100
AcDbEntity
  8
_U+30EC_U+30A4_U+30E4_U+30FC 1
 62
   179
420
  2234388
100
AcDbHatch
 10
0.0
 20
0.0
 30
0.0
210
0.0
220
0.0
230
1.0
  2
SOLID
 70
     1
 71
     0
 91
        6
 92
        1
 93
        1
 72
     4
 94
        3
 73
     0
 74
     1
 95
      197
 96
      193
 40
0.0
 40
0.0
 40
0.0
 40
0.0
 40
1.0
 40
1.0
 40
1.0
 40
2.0
 40
2.0
 40
2.0
 40
3.0
 40
3.0
 40
3.0
 40
4.0
 40
4.0
 40
4.0
 40
5.0
 40
5.0
 40
5.0
 40
6.0
 40
6.0
 40
6.0
 40
7.0
 40
7.0
 40
7.0
 40
8.0
 40
8.0
 40
8.0
 40
9.0
 40
9.0
 40
9.0
 40
10.0
 40
10.0
 40
10.0
 40
11.0
 40
11.0
 40
11.0
 40
12.0
 40
12.0
 40
12.0
 40
13.0
 40
13.0
 40
13.0
 40
14.0
 40
14.0
 40
14.0
 40
15.0
 40
15.0
 40
15.0
 40
16.0
 40
16.0
 40
16.0
 40
17.0
 40
17.0
 40
17.0
 40
18.0
 40
18.0
 40
18.0
 40
19.0
 40
19.0
 40
19.0
 40
20.0
 40
20.0
 40
20.0
 40
21.0
 40
21.0
 40
21.0
 40
22.0
 40
22.0
 40
22.0
 40
23.0
 40
23.0
 40
23.0
 40
24.0
 40
24.0
 40
24.0
 40
25.0
 40
25.0
 40
25.0
 40
26.0
 40
26.0
 40
26.0
 40
27.0
 40
27.0
 40
27.0
 40
28.0
 40
28.0
 40
28.0
 40
29.0
 40
29.0
 40
29.0
 40
30.0
 40
30.0
 40
30.0
 40
31.0
 40
31.0
 40
31.0
 40
32.0
 40
32.0
 40
32.0
 40
33.0
 40
33.0
 40
33.0
 40
34.0
 40
34.0
 40
34.0
 40
35.0
 40
35.0
 40
35.0
 40
36.0
 40
36.0
 40
36.0
 40
37.0
 40
37.0
 40
37.0
 40
38.0
 40
38.0
 40
38.0
 40
39.0
 40
39.0
 40
39.0
 40
40.0
 40
40.0
 40
40.0
 40
41.0
 40
41.0
 40
41.0
 40
42.0
 40
42.0
 40
42.0
 40
43.0
 40
43.0
 40
43.0
 40
44.0
 40
44.0
 40
44.0
 40
45.0
 40
45.0
 40
45.0
 40
46.0
 40
46.0
 40
46.0
 40
47.0
 40
47.0
 40
47.0
 40
48.0
 40
48.0
 40
48.0
 40
49.0
 40
49.0
 40
49.0
 40
50.0
 40
50.0
 40
50.0
 40
51.0
 40
51.0
 40
51.0
 40
52.0
 40
52.0
 40
52.0
 40
53.0
 40
53.0
 40
53.0
 40
54.0
 40
54.0
 40
54.0
 40
55.0
 40
55.0
 40
55.0
 40
56.0
 40
56.0
 40
56.0
 40
57.0
 40
57.0
 40
57.0
 40
58.0
 40
58.0
 40
58.0
 40
59.0
 40
59.0
 40
59.0
 40
60.0
 40
60.0
 40
60.0
 40
61.0
 40
61.0
 40
61.0
 40
62.0
 40
62.0
 40
62.0
 40
63.0
 40
63.0
 40
63.0
 40
64.0
 40
64.0
 40
64.0
 40
64.0
 10
104.0463622786759
 20
-112.796560301662
 10
104.0356824826716
 20
-112.8261881228351
 10
104.0122558333719
 20
-112.872696911886
 10
104.0019205469162
 20
-112.900257675768
 10
104.0019205469162
 20
-112.900257675768
 10
103.9405978472787
 20
-113.052530896216
 10
103.9405978472787
 20
-113.052530896216
 10
103.9299180512745
 20
-113.0778523480326
 10
103.8813422049325
 20
-113.1899902060775
 10
103.868595351637
 20
-113.2132446006029
 10
103.8665282943459
 20
-113.2196180272507
 10
103.862049670215
 20
-113.2280585111895
 10
103.8599826129239
 20
-113.2344319378372
 10
103.8599826129239
 20
-113.2344319378372
 10
103.6505208074207
 20
-113.1815497221386
 10
103.6505208074207
 20
-113.1815497221386
 10
103.7290689844844
 20
-113.0714789213849
 10
103.7903916841219
 20
-112.9360866688146
 10
103.8220865625862
 20
-112.8261881228351
 10
103.8220865625862
 20
-112.8261881228351
 10
103.3566541625289
 20
-112.8261881228351
 10
103.3566541625289
 20
-112.8261881228351
 10
103.276038928174
 20
-112.9912081965786
 10
103.2085150566632
 20
-113.0694118640938
 10
103.1747531209077
 20
-113.1095472264969
 10
103.1747531209077
 20
-113.1095472264969
 10
103.0521077216328
 20
-113.0440904122772
 10
103.0521077216328
 20
-113.0440904122772
 10
103.0521077216328
 20
-113.0440904122772
 10
103.0521077216328
 20
-113.2153116578941
 10
103.0521077216328
 20
-113.2153116578941
 10
103.0521077216328
 20
-113.3233154013567
 10
103.054174778924
 20
-113.3718912476987
 10
103.0645100653797
 20
-113.4776556790959
 10
102.9928520792865
 20
-113.4755886218047
 10
102.971492487278
 20
-113.4755886218047
 10
102.7665093059056
 20
-113.4755886218047
 10
102.7665093059056
 20
-113.4755886218047
 10
102.7113877781416
 20
-113.4755886218047
 10
102.7113877781416
 20
-113.4755886218047
 10
102.7113877781416
 20
-113.4755886218047
 10
102.7113877781416
 20
-113.610980874375
 10
102.7113877781416
 20
-113.610980874375
 10
102.7113877781416
 20
-113.610980874375
 10
102.7833902737833
 20
-113.610980874375
 10
102.7833902737833
 20
-113.610980874375
 10
102.8488470880031
 20
-113.610980874375
 10
102.9949191365777
 20
-113.6066745050185
 10
103.1006835679748
 20
-113.5982340210796
 10
103.1006835679748
 20
-113.5982340210796
 10
103.1006835679748
 20
-113.7760009481185
 10
103.1006835679748
 20
-113.7760009481185
 10
103.0031873657423
 20
-113.7696275214708
 10
102.8447129734208
 20
-113.7654934068885
 10
102.7833902737833
 20
-113.7654934068885
 10
102.7833902737833
 20
-113.7654934068885
 10
102.7113877781416
 20
-113.7654934068885
 10
102.7113877781416
 20
-113.7654934068885
 10
102.7134548354328
 20
-113.8542046156337
 10
102.7175889500151
 20
-114.09329424231
 10
102.7196560073062
 20
-114.1673637952429
 10
102.7196560073062
 20
-114.1673637952429
 10
102.5188069405161
 20
-114.1673637952429
 10
102.5188069405161
 20
-114.1673637952429
 10
102.5315537938116
 20
-113.9537678751574
 10
102.5315537938116
 20
-113.9241400539842
 10
102.5356879083939
 20
-113.7654934068885
 10
102.5356879083939
 20
-113.7654934068885
 10
102.4660969795918
 20
-113.7654934068885
 10
102.4660969795918
 20
-113.7654934068885
 10
102.4089083945367
 20
-113.7654934068885
 10
102.2566351740886
 20
-113.7696275214708
 10
102.1463921185606
 20
-113.7760009481185
 10
102.1463921185606
 20
-113.7760009481185
 10
102.1463921185606
 20
-113.5982340210796
 10
102.1463921185606
 20
-113.5982340210796
 10
102.2521565499578
 20
-113.6066745050185
 10
102.3961615412412
 20
-113.610980874375
 10
102.4660969795918
 20
-113.610980874375
 10
102.4660969795918
 20
-113.610980874375
 10
102.5398220229762
 20
-113.610980874375
 10
102.5398220229762
 20
-113.610980874375
 10
102.5398220229762
 20
-113.610980874375
 10
102.5398220229762
 20
-113.4755886218047
 10
102.5398220229762
 20
-113.4755886218047
 10
102.5398220229762
 20
-113.4755886218047
 10
102.495724800765
 20
-113.4755886218047
 10
102.495724800765
 20
-113.4755886218047
 10
102.4192436809924
 20
-113.4755886218047
 10
102.2270073529155
 20
-113.4776556790959
 10
102.1929009076115
 20
-113.4776556790959
 10
102.1994465890335
 20
-113.4058254382284
 10
102.2077148181981
 20
-113.3253824586478
 10
102.2077148181981
 20
-113.2048041166641
 10
102.2077148181981
 20
-113.2048041166641
 10
102.2077148181981
 20
-113.0313435589817
 10
102.2077148181981
 20
-113.0313435589817
 10
102.2077148181981
 20
-112.95934106334
 10
102.1994465890335
 20
-112.8387627213563
 10
102.1929009076115
 20
-112.75849199655
 10
102.2714490846752
 20
-112.7626261111323
 10
102.3093451350129
 20
-112.7648654231977
 10
102.4364691584187
 20
-112.7648654231977
 10
102.4364691584187
 20
-112.7648654231977
 10
102.5398220229762
 20
-112.7648654231977
 10
102.5398220229762
 20
-112.7648654231977
 10
102.5398220229762
 20
-112.7648654231977
 10
102.5398220229762
 20
-112.6187933746231
 10
102.5398220229762
 20
-112.6187933746231
 10
102.5398220229762
 20
-112.6187933746231
 10
102.461618355461
 20
-112.6187933746231
 10
102.461618355461
 20
-112.6187933746231
 10
102.4068413372455
 20
-112.6187933746231
 10
102.2352755820801
 20
-112.6230997439797
 10
102.1508707426915
 20
-112.6294731706274
 10
102.1508707426915
 20
-112.6294731706274
 10
102.1508707426915
 20
-112.4517062435885
 10
102.1508707426915
 20
-112.4517062435885
 10
102.2332085247889
 20
-112.4580796702362
 10
102.3961615412412
 20
-112.4622137848185
 10
102.461618355461
 20
-112.4622137848185
 10
102.461618355461
 20
-112.4622137848185
 10
102.5398220229762
 20
-112.4622137848185
 10
102.5398220229762
 20
-112.4622137848185
 10
102.5398220229762
 20
-112.428451849063
 10
102.5356879083939
 20
-112.2739393165496
 10
102.5356879083939
 20
-112.2422444380853
 10
102.5356879083939
 20
-112.2422444380853
 10
102.7324028606016
 20
-112.259125405963
 10
102.7324028606016
 20
-112.259125405963
 10
102.7492838284793
 20
-112.2613647180284
 10
102.7706434204879
 20
-112.2634317753196
 10
102.7706434204879
 20
-112.2846191125539
 10
102.7706434204879
 20
-112.3078735070793
 10
102.7492838284793
 20
-112.3163139910181
 10
102.7220675741459
 20
-112.3290608443136
 10
102.7220675741459
 20
-112.3500759267736
 10
102.7196560073062
 20
-112.4453328169407
 10
102.7196560073062
 20
-112.4622137848185
 10
102.7196560073062
 20
-112.4622137848185
 10
102.7789116496525
 20
-112.4622137848185
 10
102.7789116496525
 20
-112.4622137848185
 10
102.8467800307119
 20
-112.4622137848185
 10
102.9904405124468
 20
-112.4580796702362
 10
103.096204943844
 20
-112.4517062435885
 10
103.096204943844
 20
-112.4517062435885
 10
103.096204943844
 20
-112.6294731706274
 10
103.096204943844
 20
-112.6294731706274
 10
102.99905325116
 20
-112.6230997439797
 10
102.8426459161296
 20
-112.6187933746231
 10
102.7789116496525
 20
-112.6187933746231
 10
102.7789116496525
 20
-112.6187933746231
 10
102.7113877781416
 20
-112.6187933746231
 10
102.7113877781416
 20
-112.6187933746231
 10
102.7113877781416
 20
-112.6187933746231
 10
102.7113877781416
 20
-112.7648654231977
 10
102.7113877781416
 20
-112.7648654231977
 10
102.7113877781416
 20
-112.7648654231977
 10
102.7813232164922
 20
-112.7648654231977
 10
102.7813232164922
 20
-112.7648654231977
 10
102.9311848701005
 20
-112.7648654231977
 10
103.0031873657423
 20
-112.7605590538411
 10
103.0645100653797
 20
-112.75849199655
 10
103.0562418362151
 20
-112.8535766319429
 10
103.054174778924
 20
-112.9319525542323
 10
103.0521077216328
 20
-112.9700208593443
 10
103.206447999372
 20
-112.75849199655
 10
103.3122124307692
 20
-112.5109618859348
 10
103.3290933986469
 20
-112.248617864733
 10
103.3290933986469
 20
-112.248617864733
 10
103.5447563760235
 20
-112.2994330231404
 10
103.5447563760235
 20
-112.2994330231404
 10
103.5595702866101
 20
-112.3035671377227
 10
103.5743841971967
 20
-112.3099405643704
 10
103.5743841971967
 20
-112.3268215322482
 10
103.5743841971967
 20
-112.3438747549001
 10
103.5702500826144
 20
-112.3459418121913
 10
103.5196071789812
 20
-112.3671291494256
 10
103.502381701555
 20
-112.4432657596496
 10
103.4772325045126
 20
-112.5342162804602
 10
103.4286566581706
 20
-112.6611680490917
 10
103.4286566581706
 20
-112.6611680490917
 10
103.7669650348221
 20
-112.6611680490917
 10
103.7669650348221
 20
-112.6611680490917
 10
103.8052055947084
 20
-112.6611680490917
 10
103.9340521658568
 20
-112.6568616797351
 10
103.9826280121988
 20
-112.6504882530874
 10
103.9826280121988
 20
-112.6504882530874
 10
104.0759900998491
 20
-112.720423691438
 10
104.0759900998491
 20
-112.720423691438
 10
104.0673773611359
 20
-112.741438773898
 10
104.0611761892625
 20
-112.7605590538411
 10
104.0463622786759
 20
-112.796560301662
 97
        0
 97
        0
 92
        1
 93
        4
 72
     1
 10
102.5398220229762
 20
-112.921272758228
 11
102.3813476306547
 21
-112.921272758228
 72
     1
 10
102.3813476306547
 20
-112.921272758228
 11
102.3813476306547
 21
-113.0504638389249
 72
     1
 10
102.3813476306547
 20
-113.0504638389249
 11
102.5398220229762
 21
-113.0504638389249
 72
     1
 10
102.5398220229762
 20
-113.0504638389249
 11
102.5398220229762
 21
-112.921272758228
 97
        0
 92
        1
 93
        4
 72
     1
 10
102.5398220229762
 20
-113.1942965754341
 11
102.3813476306547
 21
-113.1942965754341
 72
     1
 10
102.3813476306547
 20
-113.1942965754341
 11
102.3813476306547
 21
-113.3233154013567
 72
     1
 10
102.3813476306547
 20
-113.3233154013567
 11
102.5398220229762
 21
-113.3233154013567
 72
     1
 10
102.5398220229762
 20
-113.3233154013567
 11
102.5398220229762
 21
-113.1942965754341
 97
        0
 92
        1
 93
        4
 72
     1
 10
102.8722737373028
 20
-112.921272758228
 11
102.7113877781416
 21
-112.921272758228
 72
     1
 10
102.7113877781416
 20
-112.921272758228
 11
102.7113877781416
 21
-113.0504638389249
 72
     1
 10
102.7113877781416
 20
-113.0504638389249
 11
102.8722737373028
 21
-113.0504638389249
 72
     1
 10
102.8722737373028
 20
-113.0504638389249
 11
102.8722737373028
 21
-112.921272758228
 97
        0
 92
        1
 93
        4
 72
     1
 10
102.8722737373028
 20
-113.1942965754341
 11
102.7113877781416
 21
-113.1942965754341
 72
     1
 10
102.7113877781416
 20
-113.1942965754341
 11
102.7113877781416
 21
-113.3233154013567
 72
     1
 10
102.7113877781416
 20
-113.3233154013567
 11
102.8722737373028
 21
-113.3233154013567
 72
     1
 10
102.8722737373028
 20
-113.3233154013567
 11
102.8722737373028
 21
-113.1942965754341
 97
        0
 92
        1
 93
        1
 72
     4
 94
        3
 73
     0
 74
     1
 95
       41
 96
       37
 40
0.0
 40
0.0
 40
0.0
 40
0.0
 40
1.0
 40
1.0
 40
1.0
 40
2.0
 40
2.0
 40
2.0
 40
3.0
 40
3.0
 40
3.0
 40
4.0
 40
4.0
 40
4.0
 40
5.0
 40
5.0
 40
5.0
 40
6.0
 40
6.0
 40
6.0
 40
7.0
 40
7.0
 40
7.0
 40
8.0
 40
8.0
 40
8.0
 40
9.0
 40
9.0
 40
9.0
 40
10.0
 40
10.0
 40
10.0
 40
11.0
 40
11.0
 40
11.0
 40
12.0
 40
12.0
 40
12.0
 40
12.0
 10
103.9616129297388
 20
-114.1525498846563
 10
103.7204562457713
 20
-114.017157632086
 10
103.5426893187324
 20
-113.7210516751288
 10
103.502381701555
 20
-113.5920328492062
 10
103.3818033595712
 20
-113.8564439276991
 10
103.2191948526674
 20
-114.0340385999637
 10
103.0372938110462
 20
-114.1482435152998
 10
103.0372938110462
 20
-114.1482435152998
 10
102.8402343492899
 20
-114.0107842054383
 10
102.8402343492899
 20
-114.0107842054383
 10
102.9101697876405
 20
-113.9854627536217
 10
103.0562418362151
 20
-113.9241400539842
 10
103.17888723549
 20
-113.7696275214708
 10
103.3035996920561
 20
-113.6130479316662
 10
103.3924831555755
 20
-113.3803317316376
 10
103.3924831555755
 20
-113.1202270225012
 10
103.3924831555755
 20
-113.0185967056863
 10
103.3797363022801
 20
-112.9467664648189
 10
103.3694010158243
 20
-112.900257675768
 10
103.3694010158243
 20
-112.900257675768
 10
103.5743841971967
 20
-112.921272758228
 10
103.5743841971967
 20
-112.921272758228
 10
103.5957437892052
 20
-112.9235120702934
 10
103.6167588716653
 20
-112.9255791275846
 10
103.6167588716653
 20
-112.9467664648189
 10
103.6167588716653
 20
-112.9657144899877
 10
103.606079075661
 20
-112.9741549739266
 10
103.5723171399055
 20
-112.9953423111609
 10
103.5640489107409
 20
-113.1963636327252
 10
103.6208929862476
 20
-113.4395873739839
 10
103.682215685885
 20
-113.5601657159676
 10
103.7731662066956
 20
-113.7358655857153
 10
103.9678141016122
 20
-113.9156995700454
 10
104.1032063541825
 20
-113.9727159003263
 10
104.1032063541825
 20
-113.9727159003263
 10
103.9616129297388
 20
-114.1525498846563
 10
103.9616129297388
 20
-114.1525498846563
 97
        0
 97
        0
 75
     2
 76
     1
 98
        0
  0
SPLINE
  5
129
330
106
100
AcDbEntity
  8
_U+30EC_U+30A4_U+30E4_U+30FC 1
370
     0
100
AcDbSpline
210
0.0
220
0.0
230
1.0
 70
    11
 71
     3
 72
    71
 73
    67
 74
     0
 42
0.0000000001
 43
0.0000000001
 12
1.0
 22
0.0
 32
0.0
 13
1.0
 23
0.0
 33
0.0
 40
0.0
 40
0.0
 40
0.0
 40
0.0
 40
1.0
 40
1.0
 40
1.0
 40
2.0
 40
2.0
 40
2.0
 40
3.0
 40
3.0
 40
3.0
 40
4.0
 40
4.0
 40
4.0
 40
5.0
 40
5.0
 40
5.0
 40
6.0
 40
6.0
 40
6.0
 40
7.0
 40
7.0
 40
7.0
 40
8.0
 40
8.0
 40
8.0
 40
9.0
 40
9.0
 40
9.0
 40
10.0
 40
10.0
 40
10.0
 40
11.0
 40
11.0
 40
11.0
 40
12.0
 40
12.0
 40
12.0
 40
13.0
 40
13.0
 40
13.0
 40
14.0
 40
14.0
 40
14.0
 40
15.0
 40
15.0
 40
15.0
 40
16.0
 40
16.0
 40
16.0
 40
17.0
 40
17.0
 40
17.0
 40
18.0
 40
18.0
 40
18.0
 40
19.0
 40
19.0
 40
19.0
 40
20.0
 40
20.0
 40
20.0
 40
21.0
 40
21.0
 40
21.0
 40
22.0
 40
22.0
 40
22.0
 40
22.0
 10
105.1560275344749
 20
-112.4200113651242
 30
0.0
 10
105.1412136238883
 20
-112.4200113651242
 30
0.0
 10
105.1284667705929
 20
-112.4157049957676
 30
0.0
 10
105.102973064002
 20
-112.4072645118287
 30
0.0
 10
104.9613796395583
 20
-112.4537733008796
 30
0.0
 10
104.7877468271017
 20
-112.4706542687573
 30
0.0
 10
104.6482204599491
 20
-112.4749606381139
 30
0.0
 10
104.6482204599491
 20
-112.4749606381139
 30
0.0
 10
104.6461534026579
 20
-112.5638441016334
 30
0.0
 10
104.6461534026579
 20
-112.5638441016334
 30
0.0
 10
104.6461534026579
 20
-112.5638441016334
 30
0.0
 10
104.9062581117943
 20
-112.5638441016334
 30
0.0
 10
104.9062581117943
 20
-112.5638441016334
 30
0.0
 10
104.9593125822671
 20
-112.5638441016334
 30
0.0
 10
105.1412136238883
 20
-112.5554036176945
 30
0.0
 10
105.185655355648
 20
-112.5490301910468
 30
0.0
 10
105.185655355648
 20
-112.5490301910468
 30
0.0
 10
105.185655355648
 20
-112.7097438954337
 30
0.0
 10
105.185655355648
 20
-112.7097438954337
 30
0.0
 10
105.130533827884
 20
-112.703370468786
 30
0.0
 10
105.005821371318
 20
-112.7013034114948
 30
0.0
 10
104.9675808114317
 20
-112.703370468786
 30
0.0
 10
104.9675808114317
 20
-112.703370468786
 30
0.0
 10
104.9675808114317
 20
-112.8134412695397
 30
0.0
 10
104.9675808114317
 20
-112.8134412695397
 30
0.0
 10
104.9675808114317
 20
-112.8599500585906
 30
0.0
 10
104.9696478687229
 20
-112.9235120702934
 30
0.0
 10
104.9761935501448
 20
-112.9615803754054
 30
0.0
 10
104.9761935501448
 20
-112.9615803754054
 30
0.0
 10
104.7836127125194
 20
-112.9615803754054
 30
0.0
 10
104.7836127125194
 20
-112.9615803754054
 30
0.0
 10
104.7898138843928
 20
-112.921272758228
 30
0.0
 10
104.7963595658148
 20
-112.8387627213563
 30
0.0
 10
104.7963595658148
 20
-112.8239488107697
 30
0.0
 10
104.7963595658148
 20
-112.8239488107697
 30
0.0
 10
104.7963595658148
 20
-112.703370468786
 30
0.0
 10
104.7963595658148
 20
-112.703370468786
 30
0.0
 10
104.7963595658148
 20
-112.703370468786
 30
0.0
 10
104.6313394920713
 20
-112.703370468786
 30
0.0
 10
104.6313394920713
 20
-112.703370468786
 30
0.0
 10
104.5889648176028
 20
-112.9235120702934
 30
0.0
 10
104.5338432898388
 20
-113.0037827950998
 30
0.0
 10
104.4280788584416
 20
-113.1033460546235
 30
0.0
 10
104.4280788584416
 20
-113.1033460546235
 30
0.0
 10
104.260991727407
 20
-112.9889688845132
 30
0.0
 10
104.260991727407
 20
-112.9889688845132
 30
0.0
 10
104.3243814843356
 20
-112.9403930381712
 30
0.0
 10
104.4745876474925
 20
-112.8282551801263
 30
0.0
 10
104.4745876474925
 20
-112.4792670074705
 30
0.0
 10
104.4745876474925
 20
-112.3967569705987
 30
0.0
 10
104.4663194183279
 20
-112.3500759267736
 30
0.0
 10
104.4577066796147
 20
-112.3015000804316
 30
0.0
 10
104.6037787281893
 20
-112.3163139910181
 30
0.0
 10
104.6185926387759
 20
-112.3163139910181
 30
0.0
 10
104.6544216318225
 20
-112.3163139910181
 30
0.0
 10
104.7625976300594
 20
-112.3163139910181
 30
0.0
 10
104.9041910545031
 20
-112.2994330231404
 30
0.0
 10
105.0650770136643
 20
-112.238110323503
 30
0.0
 10
105.0650770136643
 20
-112.238110323503
 30
0.0
 10
105.1791096742261
 20
-112.3691962067167
 30
0.0
 10
105.1791096742261
 20
-112.3691962067167
 30
0.0
 10
105.185655355648
 20
-112.3755696333644
 30
0.0
 10
105.1897894702303
 20
-112.3840101173033
 30
0.0
 10
105.1897894702303
 20
-112.3924506012422
 30
0.0
 10
105.1897894702303
 20
-112.4157049957676
 30
0.0
 10
105.1708414450615
 20
-112.4200113651242
 30
0.0
 10
105.1560275344749
 20
-112.4200113651242
 30
0.0
  0
SPLINE
  5
12A
330
106
100
AcDbEntity
  8
_U+30EC_U+30A4_U+30E4_U+30FC 1
370
     0
100
AcDbSpline
210
0.0
220
0.0
230
1.0
 70
    11
 71
     3
 72
    74
 73
    70
 74
     0
 42
0.0000000001
 43
0.0000000001
 12
1.0
 22
0.0
 32
0.0
 13
1.0
 23
0.0
 33
0.0
 40
0.0
 40
0.0
 40
0.0
 40
0.0
 40
1.0
 40
1.0
 40
1.0
 40
2.0
 40
2.0
 40
2.0
 40
3.0
 40
3.0
 40
3.0
 40
4.0
 40
4.0
 40
4.0
 40
5.0
 40
5.0
 40
5.0
 40
6.0
 40
6.0
 40
6.0
 40
7.0
 40
7.0
 40
7.0
 40
8.0
 40
8.0
 40
8.0
 40
9.0
 40
9.0
 40
9.0
 40
10.0
 40
10.0
 40
10.0
 40
11.0
 40
11.0
 40
11.0
 40
12.0
 40
12.0
 40
12.0
 40
13.0
 40
13.0
 40
13.0
 40
14.0
 40
14.0
 40
14.0
 40
15.0
 40
15.0
 40
15.0
 40
16.0
 40
16.0
 40
16.0
 40
17.0
 40
17.0
 40
17.0
 40
18.0
 40
18.0
 40
18.0
 40
19.0
 40
19.0
 40
19.0
 40
20.0
 40
20.0
 40
20.0
 40
21.0
 40
21.0
 40
21.0
 40
22.0
 40
22.0
 40
22.0
 40
23.0
 40
23.0
 40
23.0
 40
23.0
 10
105.9935302469391
 20
-114.186484075186
 30
0.0
 10
105.7799343268536
 20
-114.1758042791817
 30
0.0
 10
105.5790852600636
 20
-114.0891601277277
 30
0.0
 10
105.4033853903158
 20
-113.968581785744
 30
0.0
 10
105.4033853903158
 20
-113.968581785744
 30
0.0
 10
105.5008815925484
 20
-113.8817653795157
 30
0.0
 10
105.5008815925484
 20
-113.8817653795157
 30
0.0
 10
105.5008815925484
 20
-113.8817653795157
 30
0.0
 10
104.9486327862628
 20
-113.8817653795157
 30
0.0
 10
104.9486327862628
 20
-113.8817653795157
 30
0.0
 10
104.9486327862628
 20
-113.8817653795157
 30
0.0
 10
105.0289035110692
 20
-113.9451551364443
 30
0.0
 10
105.0289035110692
 20
-113.9451551364443
 30
0.0
 10
105.0354491924911
 20
-113.9494615058008
 30
0.0
 10
105.0457844789469
 20
-113.9599690470309
 30
0.0
 10
105.0457844789469
 20
-113.9747829576174
 30
0.0
 10
105.0457844789469
 20
-114.0150905747948
 30
0.0
 10
104.971714926014
 20
-114.0087171481471
 30
0.0
 10
104.9569010154274
 20
-114.006650090856
 30
0.0
 10
104.7264241274642
 20
-114.1461764580086
 30
0.0
 10
104.5827636457293
 20
-114.1778713364729
 30
0.0
 10
104.4790662716233
 20
-114.1949245591249
 30
0.0
 10
104.4790662716233
 20
-114.1949245591249
 30
0.0
 10
104.3498751909264
 20
-114.017157632086
 30
0.0
 10
104.3498751909264
 20
-114.017157632086
 30
0.0
 10
104.5975775563159
 20
-113.9854627536217
 30
0.0
 10
104.6988633635822
 20
-113.9389539645708
 30
0.0
 10
104.7877468271017
 20
-113.8860717488722
 30
0.0
 10
104.7136772741688
 20
-113.8881388061634
 30
0.0
 10
104.599644613607
 20
-113.8902058634545
 30
0.0
 10
104.5679497351427
 20
-113.8922729207457
 30
0.0
 10
104.5827636457293
 20
-113.8035617120005
 30
0.0
 10
104.5848307030205
 20
-113.6743706313036
 30
0.0
 10
104.5848307030205
 20
-113.600473333145
 30
0.0
 10
104.5848307030205
 20
-113.600473333145
 30
0.0
 10
104.5848307030205
 20
-113.3000610068312
 30
0.0
 10
104.5848307030205
 20
-113.3000610068312
 30
0.0
 10
104.5848307030205
 20
-113.2004977473075
 30
0.0
 10
104.5782850215985
 20
-113.1011067425581
 30
0.0
 10
104.5679497351427
 20
-113.0037827950998
 30
0.0
 10
104.6692355424091
 20
-113.0101562217475
 30
0.0
 10
104.9000569399208
 20
-113.0165296483952
 30
0.0
 10
105.0078884286091
 20
-113.0165296483952
 30
0.0
 10
105.0078884286091
 20
-113.0165296483952
 30
0.0
 10
105.4309461541978
 20
-113.0165296483952
 30
0.0
 10
105.4309461541978
 20
-113.0165296483952
 30
0.0
 10
105.5494574388904
 20
-113.0165296483952
 30
0.0
 10
105.591832113359
 20
-113.0165296483952
 30
0.0
 10
105.6741698954565
 20
-113.0122232790386
 30
0.0
 10
105.8223090013222
 20
-113.0060221071652
 30
0.0
 10
105.8391899691999
 20
-113.0060221071652
 30
0.0
 10
105.8856987582508
 20
-113.0037827950998
 30
0.0
 10
105.8774305290862
 20
-113.0842257746803
 30
0.0
 10
105.8729519049554
 20
-113.2428724217761
 30
0.0
 10
105.8729519049554
 20
-113.3253824586478
 30
0.0
 10
105.8729519049554
 20
-113.3253824586478
 30
0.0
 10
105.8729519049554
 20
-113.610980874375
 30
0.0
 10
105.8729519049554
 20
-113.610980874375
 30
0.0
 10
105.8729519049554
 20
-113.6829833700168
 30
0.0
 10
105.8750189622465
 20
-113.8140692532305
 30
0.0
 10
105.8856987582508
 20
-113.8922729207457
 30
0.0
 10
105.8136962626091
 20
-113.8881388061634
 30
0.0
 10
105.6910508633342
 20
-113.8860717488722
 30
0.0
 10
105.612847195819
 20
-113.8838324368068
 30
0.0
 10
105.7227457417985
 20
-113.951528563092
 30
0.0
 10
105.8750189622465
 20
-114.0023437214994
 30
0.0
 10
106.0868923345894
 20
-114.006650090856
 30
0.0
 10
106.0868923345894
 20
-114.006650090856
 30
0.0
 10
105.9935302469391
 20
-114.186484075186
 30
0.0
 10
105.9935302469391
 20
-114.186484075186
 30
0.0
  0
POLYLINE
  5
12B
330
106
100
AcDbEntity
  8
_U+30EC_U+30A4_U+30E4_U+30FC 1
370
     0
100
AcDb2dPolyline
 66
     1
 10
0.0
 20
0.0
 30
0.0
  0
VERTEX
  5
12C
330
12B
100
AcDbEntity
  8
_U+30EC_U+30A4_U+30E4_U+30FC 1
370
     0
100
AcDbVertex
100
AcDb2dVertex
 10
105.688983806043
 20
-113.1519219009655
 30
0.0
  0
VERTEX
  5
12D
330
12B
100
AcDbEntity
  8
_U+30EC_U+30A4_U+30E4_U+30FC 1
370
     0
100
AcDbVertex
100
AcDb2dVertex
 10
104.7770670310974
 20
-113.1519219009655
 30
0.0
  0
VERTEX
  5
12E
330
12B
100
AcDbEntity
  8
_U+30EC_U+30A4_U+30E4_U+30FC 1
370
     0
100
AcDbVertex
100
AcDb2dVertex
 10
104.7770670310974
 20
-113.2640597590104
 30
0.0
  0
VERTEX
  5
12F
330
12B
100
AcDbEntity
  8
_U+30EC_U+30A4_U+30E4_U+30FC 1
370
     0
100
AcDbVertex
100
AcDb2dVertex
 10
105.688983806043
 20
-113.2640597590104
 30
0.0
  0
VERTEX
  5
130
330
12B
100
AcDbEntity
  8
_U+30EC_U+30A4_U+30E4_U+30FC 1
370
     0
100
AcDbVertex
100
AcDb2dVertex
 10
105.688983806043
 20
-113.1519219009655
 30
0.0
  0
SEQEND
  5
131
330
12B
100
AcDbEntity
  8
_U+30EC_U+30A4_U+30E4_U+30FC 1
370
     0
  0
POLYLINE
  5
132
330
106
100
AcDbEntity
  8
_U+30EC_U+30A4_U+30E4_U+30FC 1
370
     0
100
AcDb2dPolyline
 66
     1
 10
0.0
 20
0.0
 30
0.0
  0
VERTEX
  5
133
330
132
100
AcDbEntity
  8
_U+30EC_U+30A4_U+30E4_U+30FC 1
370
     0
100
AcDbVertex
100
AcDb2dVertex
 10
105.688983806043
 20
-113.3973849542895
 30
0.0
  0
VERTEX
  5
134
330
132
100
AcDbEntity
  8
_U+30EC_U+30A4_U+30E4_U+30FC 1
370
     0
100
AcDbVertex
100
AcDb2dVertex
 10
104.7770670310974
 20
-113.3973849542895
 30
0.0
  0
VERTEX
  5
135
330
132
100
AcDbEntity
  8
_U+30EC_U+30A4_U+30E4_U+30FC 1
370
     0
100
AcDbVertex
100
AcDb2dVertex
 10
104.7770670310974
 20
-113.507283500269
 30
0.0
  0
VERTEX
  5
136
330
132
100
AcDbEntity
  8
_U+30EC_U+30A4_U+30E4_U+30FC 1
370
     0
100
AcDbVertex
100
AcDb2dVertex
 10
105.688983806043
 20
-113.507283500269
 30
0.0
  0
VERTEX
  5
137
330
132
100
AcDbEntity
  8
_U+30EC_U+30A4_U+30E4_U+30FC 1
370
     0
100
AcDbVertex
100
AcDb2dVertex
 10
105.688983806043
 20
-113.3973849542895
 30
0.0
  0
SEQEND
  5
138
330
132
100
AcDbEntity
  8
_U+30EC_U+30A4_U+30E4_U+30FC 1
370
     0
  0
POLYLINE
  5
139
330
106
100
AcDbEntity
  8
_U+30EC_U+30A4_U+30E4_U+30FC 1
370
     0
100
AcDb2dPolyline
 66
     1
 10
0.0
 20
0.0
 30
0.0
  0
VERTEX
  5
13A
330
139
100
AcDbEntity
  8
_U+30EC_U+30A4_U+30E4_U+30FC 1
370
     0
100
AcDbVertex
100
AcDb2dVertex
 10
105.688983806043
 20
-113.6426757528393
 30
0.0
  0
VERTEX
  5
13B
330
139
100
AcDbEntity
  8
_U+30EC_U+30A4_U+30E4_U+30FC 1
370
     0
100
AcDbVertex
100
AcDb2dVertex
 10
104.7770670310974
 20
-113.6426757528393
 30
0.0
  0
VERTEX
  5
13C
330
139
100
AcDbEntity
  8
_U+30EC_U+30A4_U+30E4_U+30FC 1
370
     0
100
AcDbVertex
100
AcDb2dVertex
 10
104.7770670310974
 20
-113.7506794963019
 30
0.0
  0
VERTEX
  5
13D
330
139
100
AcDbEntity
  8
_U+30EC_U+30A4_U+30E4_U+30FC 1
370
     0
100
AcDbVertex
100
AcDb2dVertex
 10
105.688983806043
 20
-113.7506794963019
 30
0.0
  0
VERTEX
  5
13E
330
139
100
AcDbEntity
  8
_U+30EC_U+30A4_U+30E4_U+30FC 1
370
     0
100
AcDbVertex
100
AcDb2dVertex
 10
105.688983806043
 20
-113.6426757528393
 30
0.0
  0
SEQEND
  5
13F
330
139
100
AcDbEntity
  8
_U+30EC_U+30A4_U+30E4_U+30FC 1
370
     0
  0
SPLINE
  5
140
330
106
100
AcDbEntity
  8
_U+30EC_U+30A4_U+30E4_U+30FC 1
370
     0
100
AcDbSpline
210
0.0
220
0.0
230
1.0
 70
    11
 71
     3
 72
    74
 73
    70
 74
     0
 42
0.0000000001
 43
0.0000000001
 12
1.0
 22
0.0
 32
0.0
 13
1.0
 23
0.0
 33
0.0
 40
0.0
 40
0.0
 40
0.0
 40
0.0
 40
1.0
 40
1.0
 40
1.0
 40
2.0
 40
2.0
 40
2.0
 40
3.0
 40
3.0
 40
3.0
 40
4.0
 40
4.0
 40
4.0
 40
5.0
 40
5.0
 40
5.0
 40
6.0
 40
6.0
 40
6.0
 40
7.0
 40
7.0
 40
7.0
 40
8.0
 40
8.0
 40
8.0
 40
9.0
 40
9.0
 40
9.0
 40
10.0
 40
10.0
 40
10.0
 40
11.0
 40
11.0
 40
11.0
 40
12.0
 40
12.0
 40
12.0
 40
13.0
 40
13.0
 40
13.0
 40
14.0
 40
14.0
 40
14.0
 40
15.0
 40
15.0
 40
15.0
 40
16.0
 40
16.0
 40
16.0
 40
17.0
 40
17.0
 40
17.0
 40
18.0
 40
18.0
 40
18.0
 40
19.0
 40
19.0
 40
19.0
 40
20.0
 40
20.0
 40
20.0
 40
21.0
 40
21.0
 40
21.0
 40
22.0
 40
22.0
 40
22.0
 40
23.0
 40
23.0
 40
23.0
 40
23.0
 10
106.0062771002345
 20
-112.6992363542037
 30
0.0
 10
106.0062771002345
 20
-112.6992363542037
 30
0.0
 10
105.8457356506219
 20
-112.6992363542037
 30
0.0
 10
105.8457356506219
 20
-112.6992363542037
 30
0.0
 10
105.8457356506219
 20
-112.6992363542037
 30
0.0
 10
105.8457356506219
 20
-112.8134412695397
 30
0.0
 10
105.8457356506219
 20
-112.8134412695397
 30
0.0
 10
105.8457356506219
 20
-112.8535766319429
 30
0.0
 10
105.8519368224954
 20
-112.9276461848757
 30
0.0
 10
105.8560709370777
 20
-112.9531398914666
 30
0.0
 10
105.8560709370777
 20
-112.9531398914666
 30
0.0
 10
105.6445420742833
 20
-112.9531398914666
 30
0.0
 10
105.6445420742833
 20
-112.9531398914666
 30
0.0
 10
105.6552218702876
 20
-112.8875108224726
 30
0.0
 10
105.6572889275787
 20
-112.8282551801263
 30
0.0
 10
105.6572889275787
 20
-112.8261881228351
 30
0.0
 10
105.6572889275787
 20
-112.8261881228351
 30
0.0
 10
105.6572889275787
 20
-112.703370468786
 30
0.0
 10
105.6572889275787
 20
-112.703370468786
 30
0.0
 10
105.6572889275787
 20
-112.703370468786
 30
0.0
 10
105.4774549432487
 20
-112.703370468786
 30
0.0
 10
105.4774549432487
 20
-112.703370468786
 30
0.0
 10
105.4585069180798
 20
-112.7626261111323
 30
0.0
 10
105.4119981290289
 20
-112.9086981597069
 30
0.0
 10
105.2976209589187
 20
-112.9912081965786
 30
0.0
 10
105.2976209589187
 20
-112.9912081965786
 30
0.0
 10
105.1412136238883
 20
-112.8854437651814
 30
0.0
 10
105.1412136238883
 20
-112.8854437651814
 30
0.0
 10
105.2152831768212
 20
-112.8387627213563
 30
0.0
 10
105.3313828946741
 20
-112.7648654231977
 30
0.0
 10
105.3313828946741
 20
-112.4432657596496
 30
0.0
 10
105.3313828946741
 20
-112.3881442318856
 30
0.0
 10
105.3272487800918
 20
-112.3438747549001
 30
0.0
 10
105.3251817228007
 20
-112.3056341950139
 30
0.0
 10
105.4013183330247
 20
-112.314246933727
 30
0.0
 10
105.4753878859575
 20
-112.3204481056004
 30
0.0
 10
105.5387776428861
 20
-112.3204481056004
 30
0.0
 10
105.716544569925
 20
-112.3204481056004
 30
0.0
 10
105.9153265794239
 20
-112.2613647180284
 30
0.0
 10
105.9766492790614
 20
-112.2317368968553
 30
0.0
 10
105.9766492790614
 20
-112.2317368968553
 30
0.0
 10
106.1037733024671
 20
-112.3671291494256
 30
0.0
 10
106.1037733024671
 20
-112.3671291494256
 30
0.0
 10
106.1079074170494
 20
-112.3712632640079
 30
0.0
 10
106.1099744743406
 20
-112.3797037479467
 30
0.0
 10
106.1099744743406
 20
-112.3860771745945
 30
0.0
 10
106.1099744743406
 20
-112.4072645118287
 30
0.0
 10
106.095160563754
 20
-112.4136379384765
 30
0.0
 10
106.0782795958763
 20
-112.4136379384765
 30
0.0
 10
106.0572645134162
 20
-112.4136379384765
 30
0.0
 10
106.0424506028297
 20
-112.4051974545376
 30
0.0
 10
106.0231580681123
 20
-112.3945176585333
 30
0.0
 10
105.8498697652042
 20
-112.4517062435885
 30
0.0
 10
105.6317952209879
 20
-112.4770276954051
 30
0.0
 10
105.4984700257087
 20
-112.4792670074705
 30
0.0
 10
105.4984700257087
 20
-112.4792670074705
 30
0.0
 10
105.4943359111264
 20
-112.5617770443422
 30
0.0
 10
105.4943359111264
 20
-112.5617770443422
 30
0.0
 10
105.4943359111264
 20
-112.5617770443422
 30
0.0
 10
105.7671874735582
 20
-112.5617770443422
 30
0.0
 10
105.7671874735582
 20
-112.5617770443422
 30
0.0
 10
105.8243760586134
 20
-112.5617770443422
 30
0.0
 10
106.0868923345894
 20
-112.5426567643991
 30
0.0
 10
106.1309895568006
 20
-112.5362833377514
 30
0.0
 10
106.1309895568006
 20
-112.5362833377514
 30
0.0
 10
106.1309895568006
 20
-112.7056097808514
 30
0.0
 10
106.1309895568006
 20
-112.7056097808514
 30
0.0
 10
106.0972276210451
 20
-112.7013034114948
 30
0.0
 10
106.0844807677497
 20
-112.6992363542037
 30
0.0
 10
106.0062771002345
 20
-112.6992363542037
 30
0.0
  0
HATCH
  5
141
330
106
100
AcDbEntity
  8
_U+30EC_U+30A4_U+30E4_U+30FC 1
 62
   179
420
  2234388
100
AcDbHatch
 10
0.0
 20
0.0
 30
0.0
210
0.0
220
0.0
230
1.0
  2
SOLID
 70
     1
 71
     0
 91
        6
 92
        1
 93
        1
 72
     4
 94
        3
 73
     0
 74
     1
 95
       71
 96
       67
 40
0.0
 40
0.0
 40
0.0
 40
0.0
 40
1.0
 40
1.0
 40
1.0
 40
2.0
 40
2.0
 40
2.0
 40
3.0
 40
3.0
 40
3.0
 40
4.0
 40
4.0
 40
4.0
 40
5.0
 40
5.0
 40
5.0
 40
6.0
 40
6.0
 40
6.0
 40
7.0
 40
7.0
 40
7.0
 40
8.0
 40
8.0
 40
8.0
 40
9.0
 40
9.0
 40
9.0
 40
10.0
 40
10.0
 40
10.0
 40
11.0
 40
11.0
 40
11.0
 40
12.0
 40
12.0
 40
12.0
 40
13.0
 40
13.0
 40
13.0
 40
14.0
 40
14.0
 40
14.0
 40
15.0
 40
15.0
 40
15.0
 40
16.0
 40
16.0
 40
16.0
 40
17.0
 40
17.0
 40
17.0
 40
18.0
 40
18.0
 40
18.0
 40
19.0
 40
19.0
 40
19.0
 40
20.0
 40
20.0
 40
20.0
 40
21.0
 40
21.0
 40
21.0
 40
22.0
 40
22.0
 40
22.0
 40
22.0
 10
105.1560275344749
 20
-112.4200113651242
 10
105.1412136238883
 20
-112.4200113651242
 10
105.1284667705929
 20
-112.4157049957676
 10
105.102973064002
 20
-112.4072645118287
 10
104.9613796395583
 20
-112.4537733008796
 10
104.7877468271017
 20
-112.4706542687573
 10
104.6482204599491
 20
-112.4749606381139
 10
104.6482204599491
 20
-112.4749606381139
 10
104.6461534026579
 20
-112.5638441016334
 10
104.6461534026579
 20
-112.5638441016334
 10
104.6461534026579
 20
-112.5638441016334
 10
104.9062581117943
 20
-112.5638441016334
 10
104.9062581117943
 20
-112.5638441016334
 10
104.9593125822671
 20
-112.5638441016334
 10
105.1412136238883
 20
-112.5554036176945
 10
105.185655355648
 20
-112.5490301910468
 10
105.185655355648
 20
-112.5490301910468
 10
105.185655355648
 20
-112.7097438954337
 10
105.185655355648
 20
-112.7097438954337
 10
105.130533827884
 20
-112.703370468786
 10
105.005821371318
 20
-112.7013034114948
 10
104.9675808114317
 20
-112.703370468786
 10
104.9675808114317
 20
-112.703370468786
 10
104.9675808114317
 20
-112.8134412695397
 10
104.9675808114317
 20
-112.8134412695397
 10
104.9675808114317
 20
-112.8599500585906
 10
104.9696478687229
 20
-112.9235120702934
 10
104.9761935501448
 20
-112.9615803754054
 10
104.9761935501448
 20
-112.9615803754054
 10
104.7836127125194
 20
-112.9615803754054
 10
104.7836127125194
 20
-112.9615803754054
 10
104.7898138843928
 20
-112.921272758228
 10
104.7963595658148
 20
-112.8387627213563
 10
104.7963595658148
 20
-112.8239488107697
 10
104.7963595658148
 20
-112.8239488107697
 10
104.7963595658148
 20
-112.703370468786
 10
104.7963595658148
 20
-112.703370468786
 10
104.7963595658148
 20
-112.703370468786
 10
104.6313394920713
 20
-112.703370468786
 10
104.6313394920713
 20
-112.703370468786
 10
104.5889648176028
 20
-112.9235120702934
 10
104.5338432898388
 20
-113.0037827950998
 10
104.4280788584416
 20
-113.1033460546235
 10
104.4280788584416
 20
-113.1033460546235
 10
104.260991727407
 20
-112.9889688845132
 10
104.260991727407
 20
-112.9889688845132
 10
104.3243814843356
 20
-112.9403930381712
 10
104.4745876474925
 20
-112.8282551801263
 10
104.4745876474925
 20
-112.4792670074705
 10
104.4745876474925
 20
-112.3967569705987
 10
104.4663194183279
 20
-112.3500759267736
 10
104.4577066796147
 20
-112.3015000804316
 10
104.6037787281893
 20
-112.3163139910181
 10
104.6185926387759
 20
-112.3163139910181
 10
104.6544216318225
 20
-112.3163139910181
 10
104.7625976300594
 20
-112.3163139910181
 10
104.9041910545031
 20
-112.2994330231404
 10
105.0650770136643
 20
-112.238110323503
 10
105.0650770136643
 20
-112.238110323503
 10
105.1791096742261
 20
-112.3691962067167
 10
105.1791096742261
 20
-112.3691962067167
 10
105.185655355648
 20
-112.3755696333644
 10
105.1897894702303
 20
-112.3840101173033
 10
105.1897894702303
 20
-112.3924506012422
 10
105.1897894702303
 20
-112.4157049957676
 10
105.1708414450615
 20
-112.4200113651242
 10
105.1560275344749
 20
-112.4200113651242
 97
        0
 97
        0
 92
        1
 93
        1
 72
     4
 94
        3
 73
     0
 74
     1
 95
       74
 96
       70
 40
0.0
 40
0.0
 40
0.0
 40
0.0
 40
1.0
 40
1.0
 40
1.0
 40
2.0
 40
2.0
 40
2.0
 40
3.0
 40
3.0
 40
3.0
 40
4.0
 40
4.0
 40
4.0
 40
5.0
 40
5.0
 40
5.0
 40
6.0
 40
6.0
 40
6.0
 40
7.0
 40
7.0
 40
7.0
 40
8.0
 40
8.0
 40
8.0
 40
9.0
 40
9.0
 40
9.0
 40
10.0
 40
10.0
 40
10.0
 40
11.0
 40
11.0
 40
11.0
 40
12.0
 40
12.0
 40
12.0
 40
13.0
 40
13.0
 40
13.0
 40
14.0
 40
14.0
 40
14.0
 40
15.0
 40
15.0
 40
15.0
 40
16.0
 40
16.0
 40
16.0
 40
17.0
 40
17.0
 40
17.0
 40
18.0
 40
18.0
 40
18.0
 40
19.0
 40
19.0
 40
19.0
 40
20.0
 40
20.0
 40
20.0
 40
21.0
 40
21.0
 40
21.0
 40
22.0
 40
22.0
 40
22.0
 40
23.0
 40
23.0
 40
23.0
 40
23.0
 10
105.9935302469391
 20
-114.186484075186
 10
105.7799343268536
 20
-114.1758042791817
 10
105.5790852600636
 20
-114.0891601277277
 10
105.4033853903158
 20
-113.968581785744
 10
105.4033853903158
 20
-113.968581785744
 10
105.5008815925484
 20
-113.8817653795157
 10
105.5008815925484
 20
-113.8817653795157
 10
105.5008815925484
 20
-113.8817653795157
 10
104.9486327862628
 20
-113.8817653795157
 10
104.9486327862628
 20
-113.8817653795157
 10
104.9486327862628
 20
-113.8817653795157
 10
105.0289035110692
 20
-113.9451551364443
 10
105.0289035110692
 20
-113.9451551364443
 10
105.0354491924911
 20
-113.9494615058008
 10
105.0457844789469
 20
-113.9599690470309
 10
105.0457844789469
 20
-113.9747829576174
 10
105.0457844789469
 20
-114.0150905747948
 10
104.971714926014
 20
-114.0087171481471
 10
104.9569010154274
 20
-114.006650090856
 10
104.7264241274642
 20
-114.1461764580086
 10
104.5827636457293
 20
-114.1778713364729
 10
104.4790662716233
 20
-114.1949245591249
 10
104.4790662716233
 20
-114.1949245591249
 10
104.3498751909264
 20
-114.017157632086
 10
104.3498751909264
 20
-114.017157632086
 10
104.5975775563159
 20
-113.9854627536217
 10
104.6988633635822
 20
-113.9389539645708
 10
104.7877468271017
 20
-113.8860717488722
 10
104.7136772741688
 20
-113.8881388061634
 10
104.599644613607
 20
-113.8902058634545
 10
104.5679497351427
 20
-113.8922729207457
 10
104.5827636457293
 20
-113.8035617120005
 10
104.5848307030205
 20
-113.6743706313036
 10
104.5848307030205
 20
-113.600473333145
 10
104.5848307030205
 20
-113.600473333145
 10
104.5848307030205
 20
-113.3000610068312
 10
104.5848307030205
 20
-113.3000610068312
 10
104.5848307030205
 20
-113.2004977473075
 10
104.5782850215985
 20
-113.1011067425581
 10
104.5679497351427
 20
-113.0037827950998
 10
104.6692355424091
 20
-113.0101562217475
 10
104.9000569399208
 20
-113.0165296483952
 10
105.0078884286091
 20
-113.0165296483952
 10
105.0078884286091
 20
-113.0165296483952
 10
105.4309461541978
 20
-113.0165296483952
 10
105.4309461541978
 20
-113.0165296483952
 10
105.5494574388904
 20
-113.0165296483952
 10
105.591832113359
 20
-113.0165296483952
 10
105.6741698954565
 20
-113.0122232790386
 10
105.8223090013222
 20
-113.0060221071652
 10
105.8391899691999
 20
-113.0060221071652
 10
105.8856987582508
 20
-113.0037827950998
 10
105.8774305290862
 20
-113.0842257746803
 10
105.8729519049554
 20
-113.2428724217761
 10
105.8729519049554
 20
-113.3253824586478
 10
105.8729519049554
 20
-113.3253824586478
 10
105.8729519049554
 20
-113.610980874375
 10
105.8729519049554
 20
-113.610980874375
 10
105.8729519049554
 20
-113.6829833700168
 10
105.8750189622465
 20
-113.8140692532305
 10
105.8856987582508
 20
-113.8922729207457
 10
105.8136962626091
 20
-113.8881388061634
 10
105.6910508633342
 20
-113.8860717488722
 10
105.612847195819
 20
-113.8838324368068
 10
105.7227457417985
 20
-113.951528563092
 10
105.8750189622465
 20
-114.0023437214994
 10
106.0868923345894
 20
-114.006650090856
 10
106.0868923345894
 20
-114.006650090856
 10
105.9935302469391
 20
-114.186484075186
 10
105.9935302469391
 20
-114.186484075186
 97
        0
 97
        0
 92
        1
 93
        4
 72
     1
 10
105.688983806043
 20
-113.1519219009655
 11
104.7770670310974
 21
-113.1519219009655
 72
     1
 10
104.7770670310974
 20
-113.1519219009655
 11
104.7770670310974
 21
-113.2640597590104
 72
     1
 10
104.7770670310974
 20
-113.2640597590104
 11
105.688983806043
 21
-113.2640597590104
 72
     1
 10
105.688983806043
 20
-113.2640597590104
 11
105.688983806043
 21
-113.1519219009655
 97
        0
 92
        1
 93
        4
 72
     1
 10
105.688983806043
 20
-113.3973849542895
 11
104.7770670310974
 21
-113.3973849542895
 72
     1
 10
104.7770670310974
 20
-113.3973849542895
 11
104.7770670310974
 21
-113.507283500269
 72
     1
 10
104.7770670310974
 20
-113.507283500269
 11
105.688983806043
 21
-113.507283500269
 72
     1
 10
105.688983806043
 20
-113.507283500269
 11
105.688983806043
 21
-113.3973849542895
 97
        0
 92
        1
 93
        4
 72
     1
 10
105.688983806043
 20
-113.6426757528393
 11
104.7770670310974
 21
-113.6426757528393
 72
     1
 10
104.7770670310974
 20
-113.6426757528393
 11
104.7770670310974
 21
-113.7506794963019
 72
     1
 10
104.7770670310974
 20
-113.7506794963019
 11
105.688983806043
 21
-113.7506794963019
 72
     1
 10
105.688983806043
 20
-113.7506794963019
 11
105.688983806043
 21
-113.6426757528393
 97
        0
 92
        1
 93
        1
 72
     4
 94
        3
 73
     0
 74
     1
 95
       74
 96
       70
 40
0.0
 40
0.0
 40
0.0
 40
0.0
 40
1.0
 40
1.0
 40
1.0
 40
2.0
 40
2.0
 40
2.0
 40
3.0
 40
3.0
 40
3.0
 40
4.0
 40
4.0
 40
4.0
 40
5.0
 40
5.0
 40
5.0
 40
6.0
 40
6.0
 40
6.0
 40
7.0
 40
7.0
 40
7.0
 40
8.0
 40
8.0
 40
8.0
 40
9.0
 40
9.0
 40
9.0
 40
10.0
 40
10.0
 40
10.0
 40
11.0
 40
11.0
 40
11.0
 40
12.0
 40
12.0
 40
12.0
 40
13.0
 40
13.0
 40
13.0
 40
14.0
 40
14.0
 40
14.0
 40
15.0
 40
15.0
 40
15.0
 40
16.0
 40
16.0
 40
16.0
 40
17.0
 40
17.0
 40
17.0
 40
18.0
 40
18.0
 40
18.0
 40
19.0
 40
19.0
 40
19.0
 40
20.0
 40
20.0
 40
20.0
 40
21.0
 40
21.0
 40
21.0
 40
22.0
 40
22.0
 40
22.0
 40
23.0
 40
23.0
 40
23.0
 40
23.0
 10
106.0062771002345
 20
-112.6992363542037
 10
106.0062771002345
 20
-112.6992363542037
 10
105.8457356506219
 20
-112.6992363542037
 10
105.8457356506219
 20
-112.6992363542037
 10
105.8457356506219
 20
-112.6992363542037
 10
105.8457356506219
 20
-112.8134412695397
 10
105.8457356506219
 20
-112.8134412695397
 10
105.8457356506219
 20
-112.8535766319429
 10
105.8519368224954
 20
-112.9276461848757
 10
105.8560709370777
 20
-112.9531398914666
 10
105.8560709370777
 20
-112.9531398914666
 10
105.6445420742833
 20
-112.9531398914666
 10
105.6445420742833
 20
-112.9531398914666
 10
105.6552218702876
 20
-112.8875108224726
 10
105.6572889275787
 20
-112.8282551801263
 10
105.6572889275787
 20
-112.8261881228351
 10
105.6572889275787
 20
-112.8261881228351
 10
105.6572889275787
 20
-112.703370468786
 10
105.6572889275787
 20
-112.703370468786
 10
105.6572889275787
 20
-112.703370468786
 10
105.4774549432487
 20
-112.703370468786
 10
105.4774549432487
 20
-112.703370468786
 10
105.4585069180798
 20
-112.7626261111323
 10
105.4119981290289
 20
-112.9086981597069
 10
105.2976209589187
 20
-112.9912081965786
 10
105.2976209589187
 20
-112.9912081965786
 10
105.1412136238883
 20
-112.8854437651814
 10
105.1412136238883
 20
-112.8854437651814
 10
105.2152831768212
 20
-112.8387627213563
 10
105.3313828946741
 20
-112.7648654231977
 10
105.3313828946741
 20
-112.4432657596496
 10
105.3313828946741
 20
-112.3881442318856
 10
105.3272487800918
 20
-112.3438747549001
 10
105.3251817228007
 20
-112.3056341950139
 10
105.4013183330247
 20
-112.314246933727
 10
105.4753878859575
 20
-112.3204481056004
 10
105.5387776428861
 20
-112.3204481056004
 10
105.716544569925
 20
-112.3204481056004
 10
105.9153265794239
 20
-112.2613647180284
 10
105.9766492790614
 20
-112.2317368968553
 10
105.9766492790614
 20
-112.2317368968553
 10
106.1037733024671
 20
-112.3671291494256
 10
106.1037733024671
 20
-112.3671291494256
 10
106.1079074170494
 20
-112.3712632640079
 10
106.1099744743406
 20
-112.3797037479467
 10
106.1099744743406
 20
-112.3860771745945
 10
106.1099744743406
 20
-112.4072645118287
 10
106.095160563754
 20
-112.4136379384765
 10
106.0782795958763
 20
-112.4136379384765
 10
106.0572645134162
 20
-112.4136379384765
 10
106.0424506028297
 20
-112.4051974545376
 10
106.0231580681123
 20
-112.3945176585333
 10
105.8498697652042
 20
-112.4517062435885
 10
105.6317952209879
 20
-112.4770276954051
 10
105.4984700257087
 20
-112.4792670074705
 10
105.4984700257087
 20
-112.4792670074705
 10
105.4943359111264
 20
-112.5617770443422
 10
105.4943359111264
 20
-112.5617770443422
 10
105.4943359111264
 20
-112.5617770443422
 10
105.7671874735582
 20
-112.5617770443422
 10
105.7671874735582
 20
-112.5617770443422
 10
105.8243760586134
 20
-112.5617770443422
 10
106.0868923345894
 20
-112.5426567643991
 10
106.1309895568006
 20
-112.5362833377514
 10
106.1309895568006
 20
-112.5362833377514
 10
106.1309895568006
 20
-112.7056097808514
 10
106.1309895568006
 20
-112.7056097808514
 10
106.0972276210451
 20
-112.7013034114948
 10
106.0844807677497
 20
-112.6992363542037
 10
106.0062771002345
 20
-112.6992363542037
 97
        0
 97
        0
 75
     2
 76
     1
 98
        0
  0
ENDBLK
  5
109
330
106
100
AcDbEntity
  8
0
100
AcDbBlockEnd
  0
BLOCK
  5
150
330
14E
100
AcDbEntity
  8
0
100
AcDbBlockBegin
  2
block 3
 70
     0
 10
0.0
 20
0.0
 30
0.0
  3
block 3
  1

  0
SPLINE
  5
152
330
14E
100
AcDbEntity
  8
_U+30EC_U+30A4_U+30E4_U+30FC 1
370
     0
100
AcDbSpline
210
0.0
220
0.0
230
1.0
 70
    11
 71
     3
 72
    53
 73
    49
 74
     0
 42
0.0000000001
 43
0.0000000001
 12
1.0
 22
0.0
 32
0.0
 13
1.0
 23
0.0
 33
0.0
 40
0.0
 40
0.0
 40
0.0
 40
0.0
 40
1.0
 40
1.0
 40
1.0
 40
2.0
 40
2.0
 40
2.0
 40
3.0
 40
3.0
 40
3.0
 40
4.0
 40
4.0
 40
4.0
 40
5.0
 40
5.0
 40
5.0
 40
6.0
 40
6.0
 40
6.0
 40
7.0
 40
7.0
 40
7.0
 40
8.0
 40
8.0
 40
8.0
 40
9.0
 40
9.0
 40
9.0
 40
10.0
 40
10.0
 40
10.0
 40
11.0
 40
11.0
 40
11.0
 40
12.0
 40
12.0
 40
12.0
 40
13.0
 40
13.0
 40
13.0
 40
14.0
 40
14.0
 40
14.0
 40
15.0
 40
15.0
 40
15.0
 40
16.0
 40
16.0
 40
16.0
 40
16.0
 10
89.50633678317898
 20
-132.1559298714749
 30
0.0
 10
89.42796086088954
 20
-132.1559298714749
 30
0.0
 10
89.32650279884894
 20
-132.1390489035972
 30
0.0
 10
89.22487248203406
 20
-132.0756591466686
 30
0.0
 10
89.05141192435174
 20
-131.9654160911406
 30
0.0
 10
89.03022458711744
 20
-131.8345024627011
 30
0.0
 10
89.01127656194858
 20
-131.7263264644643
 30
0.0
 10
89.01127656194858
 20
-131.7263264644643
 30
0.0
 10
89.23331296597293
 20
-131.7263264644643
 30
0.0
 10
89.23331296597293
 20
-131.7263264644643
 30
0.0
 10
89.28843449373693
 20
-131.9254529835117
 30
0.0
 10
89.41538626236839
 20
-131.9550808046849
 30
0.0
 10
89.50840384047012
 20
-131.9550808046849
 30
0.0
 10
89.64793020762275
 20
-131.9550808046849
 30
0.0
 10
89.80037568284504
 20
-131.8555175451611
 30
0.0
 10
89.80037568284504
 20
-131.6229735999068
 30
0.0
 10
89.80037568284504
 20
-131.3670030053527
 30
0.0
 10
89.62054169851501
 20
-131.2970675670021
 30
0.0
 10
89.49996335653127
 20
-131.2970675670021
 30
0.0
 10
89.46826847806696
 20
-131.2970675670021
 30
0.0
 10
89.32650279884894
 20
-131.2970675670021
 30
0.0
 10
89.23761933532948
 20
-131.4259141381505
 30
0.0
 10
89.23761933532948
 20
-131.4259141381505
 30
0.0
 10
89.06209172035601
 20
-131.4069661129816
 30
0.0
 10
89.06209172035601
 20
-131.4069661129816
 30
0.0
 10
89.06209172035601
 20
-131.4069661129816
 30
0.0
 10
89.18267006233975
 20
-130.5608506618042
 30
0.0
 10
89.18267006233975
 20
-130.5608506618042
 30
0.0
 10
89.18267006233975
 20
-130.5608506618042
 30
0.0
 10
89.96108938723195
 20
-130.5608506618042
 30
0.0
 10
89.96108938723195
 20
-130.5608506618042
 30
0.0
 10
89.96108938723195
 20
-130.5608506618042
 30
0.0
 10
89.96108938723195
 20
-130.7554985567209
 30
0.0
 10
89.96108938723195
 20
-130.7554985567209
 30
0.0
 10
89.96108938723195
 20
-130.7554985567209
 30
0.0
 10
89.3454508240178
 20
-130.7554985567209
 30
0.0
 10
89.3454508240178
 20
-130.7554985567209
 30
0.0
 10
89.3454508240178
 20
-130.7554985567209
 30
0.0
 10
89.27999400979806
 20
-131.1785562823095
 30
0.0
 10
89.27999400979806
 20
-131.1785562823095
 30
0.0
 10
89.3413167094355
 20
-131.1447943465541
 30
0.0
 10
89.42382674630724
 20
-131.1044867293767
 30
0.0
 10
89.54216577622557
 20
-131.1044867293767
 30
0.0
 10
89.79606931348849
 20
-131.1044867293767
 30
0.0
 10
90.03309188287368
 20
-131.2905218855801
 30
0.0
 10
90.03309188287368
 20
-131.6036810651894
 30
0.0
 10
90.03309188287368
 20
-131.9209743593809
 30
0.0
 10
89.80881616678391
 20
-132.1559298714749
 30
0.0
 10
89.50633678317898
 20
-132.1559298714749
 30
0.0
  0
HATCH
  5
153
330
14E
100
AcDbEntity
  8
_U+30EC_U+30A4_U+30E4_U+30FC 1
 62
   179
420
  2234388
100
AcDbHatch
 10
0.0
 20
0.0
 30
0.0
210
0.0
220
0.0
230
1.0
  2
SOLID
 70
     1
 71
     0
 91
        1
 92
        1
 93
        1
 72
     4
 94
        3
 73
     0
 74
     1
 95
       53
 96
       49
 40
0.0
 40
0.0
 40
0.0
 40
0.0
 40
1.0
 40
1.0
 40
1.0
 40
2.0
 40
2.0
 40
2.0
 40
3.0
 40
3.0
 40
3.0
 40
4.0
 40
4.0
 40
4.0
 40
5.0
 40
5.0
 40
5.0
 40
6.0
 40
6.0
 40
6.0
 40
7.0
 40
7.0
 40
7.0
 40
8.0
 40
8.0
 40
8.0
 40
9.0
 40
9.0
 40
9.0
 40
10.0
 40
10.0
 40
10.0
 40
11.0
 40
11.0
 40
11.0
 40
12.0
 40
12.0
 40
12.0
 40
13.0
 40
13.0
 40
13.0
 40
14.0
 40
14.0
 40
14.0
 40
15.0
 40
15.0
 40
15.0
 40
16.0
 40
16.0
 40
16.0
 40
16.0
 10
89.50633678317898
 20
-132.1559298714749
 10
89.42796086088954
 20
-132.1559298714749
 10
89.32650279884894
 20
-132.1390489035972
 10
89.22487248203406
 20
-132.0756591466686
 10
89.05141192435174
 20
-131.9654160911406
 10
89.03022458711744
 20
-131.8345024627011
 10
89.01127656194858
 20
-131.7263264644643
 10
89.01127656194858
 20
-131.7263264644643
 10
89.23331296597293
 20
-131.7263264644643
 10
89.23331296597293
 20
-131.7263264644643
 10
89.28843449373693
 20
-131.9254529835117
 10
89.41538626236839
 20
-131.9550808046849
 10
89.50840384047012
 20
-131.9550808046849
 10
89.64793020762275
 20
-131.9550808046849
 10
89.80037568284504
 20
-131.8555175451611
 10
89.80037568284504
 20
-131.6229735999068
 10
89.80037568284504
 20
-131.3670030053527
 10
89.62054169851501
 20
-131.2970675670021
 10
89.49996335653127
 20
-131.2970675670021
 10
89.46826847806696
 20
-131.2970675670021
 10
89.32650279884894
 20
-131.2970675670021
 10
89.23761933532948
 20
-131.4259141381505
 10
89.23761933532948
 20
-131.4259141381505
 10
89.06209172035601
 20
-131.4069661129816
 10
89.06209172035601
 20
-131.4069661129816
 10
89.06209172035601
 20
-131.4069661129816
 10
89.18267006233975
 20
-130.5608506618042
 10
89.18267006233975
 20
-130.5608506618042
 10
89.18267006233975
 20
-130.5608506618042
 10
89.96108938723195
 20
-130.5608506618042
 10
89.96108938723195
 20
-130.5608506618042
 10
89.96108938723195
 20
-130.5608506618042
 10
89.96108938723195
 20
-130.7554985567209
 10
89.96108938723195
 20
-130.7554985567209
 10
89.96108938723195
 20
-130.7554985567209
 10
89.3454508240178
 20
-130.7554985567209
 10
89.3454508240178
 20
-130.7554985567209
 10
89.3454508240178
 20
-130.7554985567209
 10
89.27999400979806
 20
-131.1785562823095
 10
89.27999400979806
 20
-131.1785562823095
 10
89.3413167094355
 20
-131.1447943465541
 10
89.42382674630724
 20
-131.1044867293767
 10
89.54216577622557
 20
-131.1044867293767
 10
89.79606931348849
 20
-131.1044867293767
 10
90.03309188287368
 20
-131.2905218855801
 10
90.03309188287368
 20
-131.6036810651894
 10
90.03309188287368
 20
-131.9209743593809
 10
89.80881616678391
 20
-132.1559298714749
 10
89.50633678317898
 20
-132.1559298714749
 97
        0
 97
        0
 75
     2
 76
     1
 98
        0
  0
ENDBLK
  5
151
330
14E
100
AcDbEntity
  8
0
100
AcDbBlockEnd
  0
BLOCK
  5
156
330
154
100
AcDbEntity
  8
0
100
AcDbBlockBegin
  2
block 4
 70
     0
 10
0.0
 20
0.0
 30
0.0
  3
block 4
  1

  0
SPLINE
  5
158
330
154
100
AcDbEntity
  8
_U+30EC_U+30A4_U+30E4_U+30FC 1
370
     0
100
AcDbSpline
210
0.0
220
0.0
230
1.0
 70
    11
 71
     3
 72
    53
 73
    49
 74
     0
 42
0.0000000001
 43
0.0000000001
 12
1.0
 22
0.0
 32
0.0
 13
1.0
 23
0.0
 33
0.0
 40
0.0
 40
0.0
 40
0.0
 40
0.0
 40
1.0
 40
1.0
 40
1.0
 40
2.0
 40
2.0
 40
2.0
 40
3.0
 40
3.0
 40
3.0
 40
4.0
 40
4.0
 40
4.0
 40
5.0
 40
5.0
 40
5.0
 40
6.0
 40
6.0
 40
6.0
 40
7.0
 40
7.0
 40
7.0
 40
8.0
 40
8.0
 40
8.0
 40
9.0
 40
9.0
 40
9.0
 40
10.0
 40
10.0
 40
10.0
 40
11.0
 40
11.0
 40
11.0
 40
12.0
 40
12.0
 40
12.0
 40
13.0
 40
13.0
 40
13.0
 40
14.0
 40
14.0
 40
14.0
 40
15.0
 40
15.0
 40
15.0
 40
16.0
 40
16.0
 40
16.0
 40
16.0
 10
99.6927951139657
 20
-144.2830104891029
 30
0.0
 10
99.61459144645052
 20
-144.2830104891029
 30
0.0
 10
99.51296112963566
 20
-144.2661295212251
 30
0.0
 10
99.41133081282078
 20
-144.2027397642966
 30
0.0
 10
99.23804250991272
 20
-144.0924967087686
 30
0.0
 10
99.21668291790417
 20
-143.9615830803291
 30
0.0
 10
99.1977348927353
 20
-143.8534070820922
 30
0.0
 10
99.1977348927353
 20
-143.8534070820922
 30
0.0
 10
99.4199435515339
 20
-143.8534070820922
 30
0.0
 10
99.4199435515339
 20
-143.8534070820922
 30
0.0
 10
99.47472056974938
 20
-144.0525336011397
 30
0.0
 10
99.60184459315509
 20
-144.0821614223128
 30
0.0
 10
99.69486217125684
 20
-144.0821614223128
 30
0.0
 10
99.83438853840946
 20
-144.0821614223128
 30
0.0
 10
99.98666175885751
 20
-143.9825981627891
 30
0.0
 10
99.98666175885751
 20
-143.7500542175347
 30
0.0
 10
99.98666175885751
 20
-143.4940836229806
 30
0.0
 10
99.80682777452746
 20
-143.4241481846301
 30
0.0
 10
99.68624943254372
 20
-143.4241481846301
 30
0.0
 10
99.65455455407943
 20
-143.4241481846301
 30
0.0
 10
99.51296112963566
 20
-143.4241481846301
 30
0.0
 10
99.4240776661162
 20
-143.5529947557784
 30
0.0
 10
99.4240776661162
 20
-143.5529947557784
 30
0.0
 10
99.24837779636846
 20
-143.5340467306096
 30
0.0
 10
99.24837779636846
 20
-143.5340467306096
 30
0.0
 10
99.24837779636846
 20
-143.5340467306096
 30
0.0
 10
99.3689561383522
 20
-142.6879312794322
 30
0.0
 10
99.3689561383522
 20
-142.6879312794322
 30
0.0
 10
99.3689561383522
 20
-142.6879312794322
 30
0.0
 10
100.1475477180187
 20
-142.6879312794322
 30
0.0
 10
100.1475477180187
 20
-142.6879312794322
 30
0.0
 10
100.1475477180187
 20
-142.6879312794322
 30
0.0
 10
100.1475477180187
 20
-142.8825791743488
 30
0.0
 10
100.1475477180187
 20
-142.8825791743488
 30
0.0
 10
100.1475477180187
 20
-142.8825791743488
 30
0.0
 10
99.53190915480452
 20
-142.8825791743488
 30
0.0
 10
99.53190915480452
 20
-142.8825791743488
 30
0.0
 10
99.53190915480452
 20
-142.8825791743488
 30
0.0
 10
99.46645234058478
 20
-143.3056368999375
 30
0.0
 10
99.46645234058478
 20
-143.3056368999375
 30
0.0
 10
99.52777504022222
 20
-143.271874964182
 30
0.0
 10
99.61011282231969
 20
-143.2315673470046
 30
0.0
 10
99.7286241070123
 20
-143.2315673470046
 30
0.0
 10
99.98252764427521
 20
-143.2315673470046
 30
0.0
 10
100.2195502136604
 20
-143.4176025032081
 30
0.0
 10
100.2195502136604
 20
-143.7307616828173
 30
0.0
 10
100.2195502136604
 20
-144.0480549770088
 30
0.0
 10
99.99527449757063
 20
-144.2830104891029
 30
0.0
 10
99.6927951139657
 20
-144.2830104891029
 30
0.0
  0
HATCH
  5
159
330
154
100
AcDbEntity
  8
_U+30EC_U+30A4_U+30E4_U+30FC 1
 62
   179
420
  2234388
100
AcDbHatch
 10
0.0
 20
0.0
 30
0.0
210
0.0
220
0.0
230
1.0
  2
SOLID
 70
     1
 71
     0
 91
        1
 92
        1
 93
        1
 72
     4
 94
        3
 73
     0
 74
     1
 95
       53
 96
       49
 40
0.0
 40
0.0
 40
0.0
 40
0.0
 40
1.0
 40
1.0
 40
1.0
 40
2.0
 40
2.0
 40
2.0
 40
3.0
 40
3.0
 40
3.0
 40
4.0
 40
4.0
 40
4.0
 40
5.0
 40
5.0
 40
5.0
 40
6.0
 40
6.0
 40
6.0
 40
7.0
 40
7.0
 40
7.0
 40
8.0
 40
8.0
 40
8.0
 40
9.0
 40
9.0
 40
9.0
 40
10.0
 40
10.0
 40
10.0
 40
11.0
 40
11.0
 40
11.0
 40
12.0
 40
12.0
 40
12.0
 40
13.0
 40
13.0
 40
13.0
 40
14.0
 40
14.0
 40
14.0
 40
15.0
 40
15.0
 40
15.0
 40
16.0
 40
16.0
 40
16.0
 40
16.0
 10
99.6927951139657
 20
-144.2830104891029
 10
99.61459144645052
 20
-144.2830104891029
 10
99.51296112963566
 20
-144.2661295212251
 10
99.41133081282078
 20
-144.2027397642966
 10
99.23804250991272
 20
-144.0924967087686
 10
99.21668291790417
 20
-143.9615830803291
 10
99.1977348927353
 20
-143.8534070820922
 10
99.1977348927353
 20
-143.8534070820922
 10
99.4199435515339
 20
-143.8534070820922
 10
99.4199435515339
 20
-143.8534070820922
 10
99.47472056974938
 20
-144.0525336011397
 10
99.60184459315509
 20
-144.0821614223128
 10
99.69486217125684
 20
-144.0821614223128
 10
99.83438853840946
 20
-144.0821614223128
 10
99.98666175885751
 20
-143.9825981627891
 10
99.98666175885751
 20
-143.7500542175347
 10
99.98666175885751
 20
-143.4940836229806
 10
99.80682777452746
 20
-143.4241481846301
 10
99.68624943254372
 20
-143.4241481846301
 10
99.65455455407943
 20
-143.4241481846301
 10
99.51296112963566
 20
-143.4241481846301
 10
99.4240776661162
 20
-143.5529947557784
 10
99.4240776661162
 20
-143.5529947557784
 10
99.24837779636846
 20
-143.5340467306096
 10
99.24837779636846
 20
-143.5340467306096
 10
99.24837779636846
 20
-143.5340467306096
 10
99.3689561383522
 20
-142.6879312794322
 10
99.3689561383522
 20
-142.6879312794322
 10
99.3689561383522
 20
-142.6879312794322
 10
100.1475477180187
 20
-142.6879312794322
 10
100.1475477180187
 20
-142.6879312794322
 10
100.1475477180187
 20
-142.6879312794322
 10
100.1475477180187
 20
-142.8825791743488
 10
100.1475477180187
 20
-142.8825791743488
 10
100.1475477180187
 20
-142.8825791743488
 10
99.53190915480452
 20
-142.8825791743488
 10
99.53190915480452
 20
-142.8825791743488
 10
99.53190915480452
 20
-142.8825791743488
 10
99.46645234058478
 20
-143.3056368999375
 10
99.46645234058478
 20
-143.3056368999375
 10
99.52777504022222
 20
-143.271874964182
 10
99.61011282231969
 20
-143.2315673470046
 10
99.7286241070123
 20
-143.2315673470046
 10
99.98252764427521
 20
-143.2315673470046
 10
100.2195502136604
 20
-143.4176025032081
 10
100.2195502136604
 20
-143.7307616828173
 10
100.2195502136604
 20
-144.0480549770088
 10
99.99527449757063
 20
-144.2830104891029
 10
99.6927951139657
 20
-144.2830104891029
 97
        0
 97
        0
 75
     2
 76
     1
 98
        0
  0
ENDBLK
  5
157
330
154
100
AcDbEntity
  8
0
100
AcDbBlockEnd
  0
BLOCK
  5
16B
330
169
100
AcDbEntity
  8
0
100
AcDbBlockBegin
  2
block 5
 70
     0
 10
0.0
 20
0.0
 30
0.0
  3
block 5
  1

  0
SPLINE
  5
16D
330
169
100
AcDbEntity
  8
_U+30EC_U+30A4_U+30E4_U+30FC 1
370
     0
100
AcDbSpline
210
0.0
220
0.0
230
1.0
 70
    11
 71
     3
 72
    32
 73
    28
 74
     0
 42
0.0000000001
 43
0.0000000001
 12
1.0
 22
0.0
 32
0.0
 13
1.0
 23
0.0
 33
0.0
 40
0.0
 40
0.0
 40
0.0
 40
0.0
 40
1.0
 40
1.0
 40
1.0
 40
2.0
 40
2.0
 40
2.0
 40
3.0
 40
3.0
 40
3.0
 40
4.0
 40
4.0
 40
4.0
 40
5.0
 40
5.0
 40
5.0
 40
6.0
 40
6.0
 40
6.0
 40
7.0
 40
7.0
 40
7.0
 40
8.0
 40
8.0
 40
8.0
 40
9.0
 40
9.0
 40
9.0
 40
9.0
 10
84.98292641104594
 20
-140.1564751168706
 30
0.0
 10
84.8094658533636
 20
-140.1564751168706
 30
0.0
 10
84.56417505481382
 20
-140.08653967852
 30
0.0
 10
84.52610674970181
 20
-139.754432473742
 30
0.0
 10
84.52610674970181
 20
-139.754432473742
 30
0.0
 10
84.7397026697873
 20
-139.754432473742
 30
0.0
 10
84.7397026697873
 20
-139.754432473742
 30
0.0
 10
84.75038246579157
 20
-139.8136881160883
 30
0.0
 10
84.78207734425587
 20
-139.961827221954
 30
0.0
 10
84.98516572311135
 20
-139.961827221954
 30
0.0
 10
85.27713756548627
 20
-139.961827221954
 30
0.0
 10
85.31520587059829
 20
-139.6317870744671
 30
0.0
 10
85.32778046911945
 20
-139.4264593835462
 30
0.0
 10
85.23682994830885
 20
-139.507074617901
 30
0.0
 10
85.1691338220237
 20
-139.5642632029562
 30
0.0
 10
84.98723278040251
 20
-139.5642632029562
 30
0.0
 10
84.80739879607246
 20
-139.5642632029562
 30
0.0
 10
84.50491941246753
 20
-139.458498771559
 30
0.0
 10
84.50491941246753
 20
-139.052322013848
 30
0.0
 10
84.50491941246753
 20
-138.7326171528169
 30
0.0
 10
84.70370142196644
 20
-138.5128200608579
 30
0.0
 10
85.02116697093221
 20
-138.5128200608579
 30
0.0
 10
85.53517521733148
 20
-138.5128200608579
 30
0.0
 10
85.5456827585615
 20
-139.0671359244346
 30
0.0
 10
85.5456827585615
 20
-139.2807318445201
 30
0.0
 10
85.5456827585615
 20
-139.5112087324833
 30
0.0
 10
85.52673473339263
 20
-140.1564751168706
 30
0.0
 10
84.98292641104594
 20
-140.1564751168706
 30
0.0
  0
SPLINE
  5
16E
330
169
100
AcDbEntity
  8
_U+30EC_U+30A4_U+30E4_U+30FC 1
370
     0
100
AcDbSpline
210
0.0
220
0.0
230
1.0
 70
    11
 71
     3
 72
    17
 73
    13
 74
     0
 42
0.0000000001
 43
0.0000000001
 12
1.0
 22
0.0
 32
0.0
 13
1.0
 23
0.0
 33
0.0
 40
0.0
 40
0.0
 40
0.0
 40
0.0
 40
1.0
 40
1.0
 40
1.0
 40
2.0
 40
2.0
 40
2.0
 40
3.0
 40
3.0
 40
3.0
 40
4.0
 40
4.0
 40
4.0
 40
4.0
 10
85.02323402822336
 20
-138.7050563889348
 30
0.0
 10
84.90472274353077
 20
-138.7050563889348
 30
0.0
 10
84.7291951285573
 20
-138.76224497399
 30
0.0
 10
84.7291951285573
 20
-139.0478433897172
 30
0.0
 10
84.7291951285573
 20
-139.2741861630981
 30
0.0
 10
84.8687214957099
 20
-139.3696153080396
 30
0.0
 10
85.00411374828022
 20
-139.3696153080396
 30
0.0
 10
85.266457769482
 20
-139.3696153080396
 30
0.0
 10
85.30452607459401
 20
-139.1601535025364
 30
0.0
 10
85.30452607459401
 20
-139.0437092751349
 30
0.0
 10
85.30452607459401
 20
-138.8680094053872
 30
0.0
 10
85.20944143920111
 20
-138.7050563889348
 30
0.0
 10
85.02323402822336
 20
-138.7050563889348
 30
0.0
  0
HATCH
  5
16F
330
169
100
AcDbEntity
  8
_U+30EC_U+30A4_U+30E4_U+30FC 1
 62
   179
420
  2234388
100
AcDbHatch
 10
0.0
 20
0.0
 30
0.0
210
0.0
220
0.0
230
1.0
  2
SOLID
 70
     1
 71
     0
 91
        2
 92
        1
 93
        1
 72
     4
 94
        3
 73
     0
 74
     1
 95
       32
 96
       28
 40
0.0
 40
0.0
 40
0.0
 40
0.0
 40
1.0
 40
1.0
 40
1.0
 40
2.0
 40
2.0
 40
2.0
 40
3.0
 40
3.0
 40
3.0
 40
4.0
 40
4.0
 40
4.0
 40
5.0
 40
5.0
 40
5.0
 40
6.0
 40
6.0
 40
6.0
 40
7.0
 40
7.0
 40
7.0
 40
8.0
 40
8.0
 40
8.0
 40
9.0
 40
9.0
 40
9.0
 40
9.0
 10
84.98292641104594
 20
-140.1564751168706
 10
84.8094658533636
 20
-140.1564751168706
 10
84.56417505481382
 20
-140.08653967852
 10
84.52610674970181
 20
-139.754432473742
 10
84.52610674970181
 20
-139.754432473742
 10
84.7397026697873
 20
-139.754432473742
 10
84.7397026697873
 20
-139.754432473742
 10
84.75038246579157
 20
-139.8136881160883
 10
84.78207734425587
 20
-139.961827221954
 10
84.98516572311135
 20
-139.961827221954
 10
85.27713756548627
 20
-139.961827221954
 10
85.31520587059829
 20
-139.6317870744671
 10
85.32778046911945
 20
-139.4264593835462
 10
85.23682994830885
 20
-139.507074617901
 10
85.1691338220237
 20
-139.5642632029562
 10
84.98723278040251
 20
-139.5642632029562
 10
84.80739879607246
 20
-139.5642632029562
 10
84.50491941246753
 20
-139.458498771559
 10
84.50491941246753
 20
-139.052322013848
 10
84.50491941246753
 20
-138.7326171528169
 10
84.70370142196644
 20
-138.5128200608579
 10
85.02116697093221
 20
-138.5128200608579
 10
85.53517521733148
 20
-138.5128200608579
 10
85.5456827585615
 20
-139.0671359244346
 10
85.5456827585615
 20
-139.2807318445201
 10
85.5456827585615
 20
-139.5112087324833
 10
85.52673473339263
 20
-140.1564751168706
 10
84.98292641104594
 20
-140.1564751168706
 97
        0
 97
        0
 92
        1
 93
        1
 72
     4
 94
        3
 73
     0
 74
     1
 95
       17
 96
       13
 40
0.0
 40
0.0
 40
0.0
 40
0.0
 40
1.0
 40
1.0
 40
1.0
 40
2.0
 40
2.0
 40
2.0
 40
3.0
 40
3.0
 40
3.0
 40
4.0
 40
4.0
 40
4.0
 40
4.0
 10
85.02323402822336
 20
-138.7050563889348
 10
84.90472274353077
 20
-138.7050563889348
 10
84.7291951285573
 20
-138.76224497399
 10
84.7291951285573
 20
-139.0478433897172
 10
84.7291951285573
 20
-139.2741861630981
 10
84.8687214957099
 20
-139.3696153080396
 10
85.00411374828022
 20
-139.3696153080396
 10
85.266457769482
 20
-139.3696153080396
 10
85.30452607459401
 20
-139.1601535025364
 10
85.30452607459401
 20
-139.0437092751349
 10
85.30452607459401
 20
-138.8680094053872
 10
85.20944143920111
 20
-138.7050563889348
 10
85.02323402822336
 20
-138.7050563889348
 97
        0
 97
        0
 75
     2
 76
     1
 98
        0
  0
ENDBLK
  5
16C
330
169
100
AcDbEntity
  8
0
100
AcDbBlockEnd
  0
BLOCK
  5
187
330
185
100
AcDbEntity
  8
0
100
AcDbBlockBegin
  2
block 6
 70
     0
 10
0.0
 20
0.0
 30
0.0
  3
block 6
  1

  0
SPLINE
  5
189
330
185
100
AcDbEntity
  8
_U+30EC_U+30A4_U+30E4_U+30FC 1
370
     0
100
AcDbSpline
210
0.0
220
0.0
230
1.0
 70
    11
 71
     3
 72
    26
 73
    22
 74
     0
 42
0.0000000001
 43
0.0000000001
 12
1.0
 22
0.0
 32
0.0
 13
1.0
 23
0.0
 33
0.0
 40
0.0
 40
0.0
 40
0.0
 40
0.0
 40
1.0
 40
1.0
 40
1.0
 40
2.0
 40
2.0
 40
2.0
 40
3.0
 40
3.0
 40
3.0
 40
4.0
 40
4.0
 40
4.0
 40
5.0
 40
5.0
 40
5.0
 40
6.0
 40
6.0
 40
6.0
 40
7.0
 40
7.0
 40
7.0
 40
7.0
 10
86.77575410156996
 20
-144.1055880716125
 30
0.0
 10
86.77575410156996
 20
-144.1055880716125
 30
0.0
 10
86.77575410156996
 20
-143.0010904590414
 30
0.0
 10
86.77575410156996
 20
-143.0010904590414
 30
0.0
 10
86.77575410156996
 20
-143.0010904590414
 30
0.0
 10
86.44571395408302
 20
-143.0010904590414
 30
0.0
 10
86.44571395408302
 20
-143.0010904590414
 30
0.0
 10
86.44571395408302
 20
-143.0010904590414
 30
0.0
 10
86.44571395408302
 20
-142.8529513531757
 30
0.0
 10
86.44571395408302
 20
-142.8529513531757
 30
0.0
 10
86.77799341363537
 20
-142.8381374425891
 30
0.0
 10
86.82450220268623
 20
-142.6755289356853
 30
0.0
 10
86.85413002385938
 20
-142.561151765575
 30
0.0
 10
86.85413002385938
 20
-142.561151765575
 30
0.0
 10
87.00002981765972
 20
-142.561151765575
 30
0.0
 10
87.00002981765972
 20
-142.561151765575
 30
0.0
 10
87.00002981765972
 20
-142.561151765575
 30
0.0
 10
87.00002981765972
 20
-144.1055880716125
 30
0.0
 10
87.00002981765972
 20
-144.1055880716125
 30
0.0
 10
87.00002981765972
 20
-144.1055880716125
 30
0.0
 10
86.77575410156996
 20
-144.1055880716125
 30
0.0
 10
86.77575410156996
 20
-144.1055880716125
 30
0.0
  0
HATCH
  5
18A
330
185
100
AcDbEntity
  8
_U+30EC_U+30A4_U+30E4_U+30FC 1
 62
   179
420
  2234388
100
AcDbHatch
 10
0.0
 20
0.0
 30
0.0
210
0.0
220
0.0
230
1.0
  2
SOLID
 70
     1
 71
     0
 91
        1
 92
        1
 93
        1
 72
     4
 94
        3
 73
     0
 74
     1
 95
       26
 96
       22
 40
0.0
 40
0.0
 40
0.0
 40
0.0
 40
1.0
 40
1.0
 40
1.0
 40
2.0
 40
2.0
 40
2.0
 40
3.0
 40
3.0
 40
3.0
 40
4.0
 40
4.0
 40
4.0
 40
5.0
 40
5.0
 40
5.0
 40
6.0
 40
6.0
 40
6.0
 40
7.0
 40
7.0
 40
7.0
 40
7.0
 10
86.77575410156996
 20
-144.1055880716125
 10
86.77575410156996
 20
-144.1055880716125
 10
86.77575410156996
 20
-143.0010904590414
 10
86.77575410156996
 20
-143.0010904590414
 10
86.77575410156996
 20
-143.0010904590414
 10
86.44571395408302
 20
-143.0010904590414
 10
86.44571395408302
 20
-143.0010904590414
 10
86.44571395408302
 20
-143.0010904590414
 10
86.44571395408302
 20
-142.8529513531757
 10
86.44571395408302
 20
-142.8529513531757
 10
86.77799341363537
 20
-142.8381374425891
 10
86.82450220268623
 20
-142.6755289356853
 10
86.85413002385938
 20
-142.561151765575
 10
86.85413002385938
 20
-142.561151765575
 10
87.00002981765972
 20
-142.561151765575
 10
87.00002981765972
 20
-142.561151765575
 10
87.00002981765972
 20
-142.561151765575
 10
87.00002981765972
 20
-144.1055880716125
 10
87.00002981765972
 20
-144.1055880716125
 10
87.00002981765972
 20
-144.1055880716125
 10
86.77575410156996
 20
-144.1055880716125
 10
86.77575410156996
 20
-144.1055880716125
 97
        0
 97
        0
 75
     2
 76
     1
 98
        0
  0
SPLINE
  5
18B
330
185
100
AcDbEntity
  8
_U+30EC_U+30A4_U+30E4_U+30FC 1
370
     0
100
AcDbSpline
210
0.0
220
0.0
230
1.0
 70
    11
 71
     3
 72
    26
 73
    22
 74
     0
 42
0.0000000001
 43
0.0000000001
 12
1.0
 22
0.0
 32
0.0
 13
1.0
 23
0.0
 33
0.0
 40
0.0
 40
0.0
 40
0.0
 40
0.0
 40
1.0
 40
1.0
 40
1.0
 40
2.0
 40
2.0
 40
2.0
 40
3.0
 40
3.0
 40
3.0
 40
4.0
 40
4.0
 40
4.0
 40
5.0
 40
5.0
 40
5.0
 40
6.0
 40
6.0
 40
6.0
 40
7.0
 40
7.0
 40
7.0
 40
7.0
 10
87.91246335692814
 20
-144.1055880716125
 30
0.0
 10
87.91246335692814
 20
-144.1055880716125
 30
0.0
 10
87.67561304231721
 20
-144.1055880716125
 30
0.0
 10
87.67561304231721
 20
-144.1055880716125
 30
0.0
 10
87.7009344941338
 20
-143.7965630065856
 30
0.0
 10
87.89351533175926
 20
-143.278420645604
 30
0.0
 10
88.29969208947021
 20
-142.7726806283693
 30
0.0
 10
88.29969208947021
 20
-142.7726806283693
 30
0.0
 10
87.46184486745746
 20
-142.7726806283693
 30
0.0
 10
87.46184486745746
 20
-142.7726806283693
 30
0.0
 10
87.46184486745746
 20
-142.7726806283693
 30
0.0
 10
87.46184486745746
 20
-142.561151765575
 30
0.0
 10
87.46184486745746
 20
-142.561151765575
 30
0.0
 10
87.46184486745746
 20
-142.561151765575
 30
0.0
 10
88.53654240408115
 20
-142.561151765575
 30
0.0
 10
88.53654240408115
 20
-142.561151765575
 30
0.0
 10
88.53654240408115
 20
-142.561151765575
 30
0.0
 10
88.53654240408115
 20
-142.7726806283693
 30
0.0
 10
88.53654240408115
 20
-142.7726806283693
 30
0.0
 10
88.21287568324192
 20
-143.0624131586789
 30
0.0
 10
87.94639754745785
 20
-143.6549695821418
 30
0.0
 10
87.91246335692814
 20
-144.1055880716125
 30
0.0
  0
HATCH
  5
18C
330
185
100
AcDbEntity
  8
_U+30EC_U+30A4_U+30E4_U+30FC 1
 62
   179
420
  2234388
100
AcDbHatch
 10
0.0
 20
0.0
 30
0.0
210
0.0
220
0.0
230
1.0
  2
SOLID
 70
     1
 71
     0
 91
        1
 92
        1
 93
        1
 72
     4
 94
        3
 73
     0
 74
     1
 95
       26
 96
       22
 40
0.0
 40
0.0
 40
0.0
 40
0.0
 40
1.0
 40
1.0
 40
1.0
 40
2.0
 40
2.0
 40
2.0
 40
3.0
 40
3.0
 40
3.0
 40
4.0
 40
4.0
 40
4.0
 40
5.0
 40
5.0
 40
5.0
 40
6.0
 40
6.0
 40
6.0
 40
7.0
 40
7.0
 40
7.0
 40
7.0
 10
87.91246335692814
 20
-144.1055880716125
 10
87.91246335692814
 20
-144.1055880716125
 10
87.67561304231721
 20
-144.1055880716125
 10
87.67561304231721
 20
-144.1055880716125
 10
87.7009344941338
 20
-143.7965630065856
 10
87.89351533175926
 20
-143.278420645604
 10
88.29969208947021
 20
-142.7726806283693
 10
88.29969208947021
 20
-142.7726806283693
 10
87.46184486745746
 20
-142.7726806283693
 10
87.46184486745746
 20
-142.7726806283693
 10
87.46184486745746
 20
-142.7726806283693
 10
87.46184486745746
 20
-142.561151765575
 10
87.46184486745746
 20
-142.561151765575
 10
87.46184486745746
 20
-142.561151765575
 10
88.53654240408115
 20
-142.561151765575
 10
88.53654240408115
 20
-142.561151765575
 10
88.53654240408115
 20
-142.561151765575
 10
88.53654240408115
 20
-142.7726806283693
 10
88.53654240408115
 20
-142.7726806283693
 10
88.21287568324192
 20
-143.0624131586789
 10
87.94639754745785
 20
-143.6549695821418
 10
87.91246335692814
 20
-144.1055880716125
 97
        0
 97
        0
 75
     2
 76
     1
 98
        0
  0
POLYLINE
  5
18D
330
185
100
AcDbEntity
  8
_U+30EC_U+30A4_U+30E4_U+30FC 1
370
     0
100
AcDb2dPolyline
 66
     1
 10
0.0
 20
0.0
 30
0.0
  0
VERTEX
  5
18E
330
18D
100
AcDbEntity
  8
_U+30EC_U+30A4_U+30E4_U+30FC 1
370
     0
100
AcDbVertex
100
AcDb2dVertex
 10
88.73825274474252
 20
-144.1055880716125
 30
0.0
  0
VERTEX
  5
18F
330
18D
100
AcDbEntity
  8
_U+30EC_U+30A4_U+30E4_U+30FC 1
370
     0
100
AcDbVertex
100
AcDb2dVertex
 10
88.73825274474252
 20
-143.8537515916407
 30
0.0
  0
VERTEX
  5
190
330
18D
100
AcDbEntity
  8
_U+30EC_U+30A4_U+30E4_U+30FC 1
370
     0
100
AcDbVertex
100
AcDb2dVertex
 10
88.98991696994003
 20
-143.8537515916407
 30
0.0
  0
VERTEX
  5
191
330
18D
100
AcDbEntity
  8
_U+30EC_U+30A4_U+30E4_U+30FC 1
370
     0
100
AcDbVertex
100
AcDb2dVertex
 10
88.98991696994003
 20
-144.1055880716125
 30
0.0
  0
VERTEX
  5
192
330
18D
100
AcDbEntity
  8
_U+30EC_U+30A4_U+30E4_U+30FC 1
370
     0
100
AcDbVertex
100
AcDb2dVertex
 10
88.73825274474252
 20
-144.1055880716125
 30
0.0
  0
SEQEND
  5
193
330
18D
100
AcDbEntity
  8
_U+30EC_U+30A4_U+30E4_U+30FC 1
370
     0
  0
HATCH
  5
194
330
185
100
AcDbEntity
  8
_U+30EC_U+30A4_U+30E4_U+30FC 1
 62
   179
420
  2234388
100
AcDbHatch
 10
0.0
 20
0.0
 30
0.0
210
0.0
220
0.0
230
1.0
  2
SOLID
 70
     1
 71
     0
 91
        1
 92
        1
 93
        4
 72
     1
 10
88.73825274474252
 20
-144.1055880716125
 11
88.73825274474252
 21
-143.8537515916407
 72
     1
 10
88.73825274474252
 20
-143.8537515916407
 11
88.98991696994003
 21
-143.8537515916407
 72
     1
 10
88.98991696994003
 20
-143.8537515916407
 11
88.98991696994003
 21
-144.1055880716125
 72
     1
 10
88.98991696994003
 20
-144.1055880716125
 11
88.73825274474252
 21
-144.1055880716125
 97
        0
 75
     2
 76
     1
 98
        0
  0
SPLINE
  5
195
330
185
100
AcDbEntity
  8
_U+30EC_U+30A4_U+30E4_U+30FC 1
370
     0
100
AcDbSpline
210
0.0
220
0.0
230
1.0
 70
    11
 71
     3
 72
    53
 73
    49
 74
     0
 42
0.0000000001
 43
0.0000000001
 12
1.0
 22
0.0
 32
0.0
 13
1.0
 23
0.0
 33
0.0
 40
0.0
 40
0.0
 40
0.0
 40
0.0
 40
1.0
 40
1.0
 40
1.0
 40
2.0
 40
2.0
 40
2.0
 40
3.0
 40
3.0
 40
3.0
 40
4.0
 40
4.0
 40
4.0
 40
5.0
 40
5.0
 40
5.0
 40
6.0
 40
6.0
 40
6.0
 40
7.0
 40
7.0
 40
7.0
 40
8.0
 40
8.0
 40
8.0
 40
9.0
 40
9.0
 40
9.0
 40
10.0
 40
10.0
 40
10.0
 40
11.0
 40
11.0
 40
11.0
 40
12.0
 40
12.0
 40
12.0
 40
13.0
 40
13.0
 40
13.0
 40
14.0
 40
14.0
 40
14.0
 40
15.0
 40
15.0
 40
15.0
 40
16.0
 40
16.0
 40
16.0
 40
16.0
 10
89.7073581047433
 20
-144.1562309752457
 30
0.0
 10
89.62915443722814
 20
-144.1562309752457
 30
0.0
 10
89.52752412041326
 20
-144.1393500073679
 30
0.0
 10
89.42606605837265
 20
-144.0759602504394
 30
0.0
 10
89.25243324591607
 20
-143.9657171949113
 30
0.0
 10
89.23141816345604
 20
-143.8348035664719
 30
0.0
 10
89.2122978835129
 20
-143.726627568235
 30
0.0
 10
89.2122978835129
 20
-143.726627568235
 30
0.0
 10
89.43450654231151
 20
-143.726627568235
 30
0.0
 10
89.43450654231151
 20
-143.726627568235
 30
0.0
 10
89.48945581530126
 20
-143.9257540872825
 30
0.0
 10
89.61640758393271
 20
-143.9553819084556
 30
0.0
 10
89.70942516203445
 20
-143.9553819084556
 30
0.0
 10
89.84912378396133
 20
-143.9553819084556
 30
0.0
 10
90.00139700440938
 20
-143.8558186489319
 30
0.0
 10
90.00139700440938
 20
-143.6232747036775
 30
0.0
 10
90.00139700440938
 20
-143.3673041091235
 30
0.0
 10
89.82156302007934
 20
-143.2973686707729
 30
0.0
 10
89.7009846780956
 20
-143.2973686707729
 30
0.0
 10
89.66928979963129
 20
-143.2973686707729
 30
0.0
 10
89.52752412041326
 20
-143.2973686707729
 30
0.0
 10
89.43864065689381
 20
-143.4262152419212
 30
0.0
 10
89.43864065689381
 20
-143.4262152419212
 30
0.0
 10
89.26311304192033
 20
-143.4072672167524
 30
0.0
 10
89.26311304192033
 20
-143.4072672167524
 30
0.0
 10
89.26311304192033
 20
-143.4072672167524
 30
0.0
 10
89.38369138390408
 20
-142.561151765575
 30
0.0
 10
89.38369138390408
 20
-142.561151765575
 30
0.0
 10
89.38369138390408
 20
-142.561151765575
 30
0.0
 10
90.16211070879628
 20
-142.561151765575
 30
0.0
 10
90.16211070879628
 20
-142.561151765575
 30
0.0
 10
90.16211070879628
 20
-142.561151765575
 30
0.0
 10
90.16211070879628
 20
-142.7557996604916
 30
0.0
 10
90.16211070879628
 20
-142.7557996604916
 30
0.0
 10
90.16211070879628
 20
-142.7557996604916
 30
0.0
 10
89.5466444003564
 20
-142.7557996604916
 30
0.0
 10
89.5466444003564
 20
-142.7557996604916
 30
0.0
 10
89.5466444003564
 20
-142.7557996604916
 30
0.0
 10
89.48101533136239
 20
-143.1788573860803
 30
0.0
 10
89.48101533136239
 20
-143.1788573860803
 30
0.0
 10
89.54233803099983
 20
-143.1450954503248
 30
0.0
 10
89.62484806787157
 20
-143.1047878331474
 30
0.0
 10
89.74335935256417
 20
-143.1047878331474
 30
0.0
 10
89.99709063505281
 20
-143.1047878331474
 30
0.0
 10
90.234113204438
 20
-143.2908229893509
 30
0.0
 10
90.234113204438
 20
-143.6039821689601
 30
0.0
 10
90.234113204438
 20
-143.9212754631516
 30
0.0
 10
90.00983748834824
 20
-144.1562309752457
 30
0.0
 10
89.7073581047433
 20
-144.1562309752457
 30
0.0
  0
HATCH
  5
196
330
185
100
AcDbEntity
  8
_U+30EC_U+30A4_U+30E4_U+30FC 1
 62
   179
420
  2234388
100
AcDbHatch
 10
0.0
 20
0.0
 30
0.0
210
0.0
220
0.0
230
1.0
  2
SOLID
 70
     1
 71
     0
 91
        1
 92
        1
 93
        1
 72
     4
 94
        3
 73
     0
 74
     1
 95
       53
 96
       49
 40
0.0
 40
0.0
 40
0.0
 40
0.0
 40
1.0
 40
1.0
 40
1.0
 40
2.0
 40
2.0
 40
2.0
 40
3.0
 40
3.0
 40
3.0
 40
4.0
 40
4.0
 40
4.0
 40
5.0
 40
5.0
 40
5.0
 40
6.0
 40
6.0
 40
6.0
 40
7.0
 40
7.0
 40
7.0
 40
8.0
 40
8.0
 40
8.0
 40
9.0
 40
9.0
 40
9.0
 40
10.0
 40
10.0
 40
10.0
 40
11.0
 40
11.0
 40
11.0
 40
12.0
 40
12.0
 40
12.0
 40
13.0
 40
13.0
 40
13.0
 40
14.0
 40
14.0
 40
14.0
 40
15.0
 40
15.0
 40
15.0
 40
16.0
 40
16.0
 40
16.0
 40
16.0
 10
89.7073581047433
 20
-144.1562309752457
 10
89.62915443722814
 20
-144.1562309752457
 10
89.52752412041326
 20
-144.1393500073679
 10
89.42606605837265
 20
-144.0759602504394
 10
89.25243324591607
 20
-143.9657171949113
 10
89.23141816345604
 20
-143.8348035664719
 10
89.2122978835129
 20
-143.726627568235
 10
89.2122978835129
 20
-143.726627568235
 10
89.43450654231151
 20
-143.726627568235
 10
89.43450654231151
 20
-143.726627568235
 10
89.48945581530126
 20
-143.9257540872825
 10
89.61640758393271
 20
-143.9553819084556
 10
89.70942516203445
 20
-143.9553819084556
 10
89.84912378396133
 20
-143.9553819084556
 10
90.00139700440938
 20
-143.8558186489319
 10
90.00139700440938
 20
-143.6232747036775
 10
90.00139700440938
 20
-143.3673041091235
 10
89.82156302007934
 20
-143.2973686707729
 10
89.7009846780956
 20
-143.2973686707729
 10
89.66928979963129
 20
-143.2973686707729
 10
89.52752412041326
 20
-143.2973686707729
 10
89.43864065689381
 20
-143.4262152419212
 10
89.43864065689381
 20
-143.4262152419212
 10
89.26311304192033
 20
-143.4072672167524
 10
89.26311304192033
 20
-143.4072672167524
 10
89.26311304192033
 20
-143.4072672167524
 10
89.38369138390408
 20
-142.561151765575
 10
89.38369138390408
 20
-142.561151765575
 10
89.38369138390408
 20
-142.561151765575
 10
90.16211070879628
 20
-142.561151765575
 10
90.16211070879628
 20
-142.561151765575
 10
90.16211070879628
 20
-142.561151765575
 10
90.16211070879628
 20
-142.7557996604916
 10
90.16211070879628
 20
-142.7557996604916
 10
90.16211070879628
 20
-142.7557996604916
 10
89.5466444003564
 20
-142.7557996604916
 10
89.5466444003564
 20
-142.7557996604916
 10
89.5466444003564
 20
-142.7557996604916
 10
89.48101533136239
 20
-143.1788573860803
 10
89.48101533136239
 20
-143.1788573860803
 10
89.54233803099983
 20
-143.1450954503248
 10
89.62484806787157
 20
-143.1047878331474
 10
89.74335935256417
 20
-143.1047878331474
 10
89.99709063505281
 20
-143.1047878331474
 10
90.234113204438
 20
-143.2908229893509
 10
90.234113204438
 20
-143.6039821689601
 10
90.234113204438
 20
-143.9212754631516
 10
90.00983748834824
 20
-144.1562309752457
 10
89.7073581047433
 20
-144.1562309752457
 97
        0
 97
        0
 75
     2
 76
     1
 98
        0
  0
ENDBLK
  5
188
330
185
100
AcDbEntity
  8
0
100
AcDbBlockEnd
  0
BLOCK
  5
1A8
330
1A6
100
AcDbEntity
  8
0
100
AcDbBlockBegin
  2
block 7
 70
     0
 10
0.0
 20
0.0
 30
0.0
  3
block 7
  1

  0
SPLINE
  5
1AA
330
1A6
100
AcDbEntity
  8
_U+30EC_U+30A4_U+30E4_U+30FC 1
370
     0
100
AcDbSpline
210
0.0
220
0.0
230
1.0
 70
    11
 71
     3
 72
    26
 73
    22
 74
     0
 42
0.0000000001
 43
0.0000000001
 12
1.0
 22
0.0
 32
0.0
 13
1.0
 23
0.0
 33
0.0
 40
0.0
 40
0.0
 40
0.0
 40
0.0
 40
1.0
 40
1.0
 40
1.0
 40
2.0
 40
2.0
 40
2.0
 40
3.0
 40
3.0
 40
3.0
 40
4.0
 40
4.0
 40
4.0
 40
5.0
 40
5.0
 40
5.0
 40
6.0
 40
6.0
 40
6.0
 40
7.0
 40
7.0
 40
7.0
 40
7.0
 10
93.88815373086824
 20
-118.1049356801092
 30
0.0
 10
93.88815373086824
 20
-118.1049356801092
 30
0.0
 10
93.88815373086824
 20
-117.0006103223124
 30
0.0
 10
93.88815373086824
 20
-117.0006103223124
 30
0.0
 10
93.88815373086824
 20
-117.0006103223124
 30
0.0
 10
93.55811358338131
 20
-117.0006103223124
 30
0.0
 10
93.55811358338131
 20
-117.0006103223124
 30
0.0
 10
93.55811358338131
 20
-117.0006103223124
 30
0.0
 10
93.55811358338131
 20
-116.8526434712209
 30
0.0
 10
93.55811358338131
 20
-116.8526434712209
 30
0.0
 10
93.8902207881594
 20
-116.8378295606343
 30
0.0
 10
93.93672957721027
 20
-116.674876544182
 30
0.0
 10
93.96635739838341
 20
-116.560671628846
 30
0.0
 10
93.96635739838341
 20
-116.560671628846
 30
0.0
 10
94.112429446958
 20
-116.560671628846
 30
0.0
 10
94.112429446958
 20
-116.560671628846
 30
0.0
 10
94.112429446958
 20
-116.560671628846
 30
0.0
 10
94.112429446958
 20
-118.1049356801092
 30
0.0
 10
94.112429446958
 20
-118.1049356801092
 30
0.0
 10
94.112429446958
 20
-118.1049356801092
 30
0.0
 10
93.88815373086824
 20
-118.1049356801092
 30
0.0
 10
93.88815373086824
 20
-118.1049356801092
 30
0.0
  0
HATCH
  5
1AB
330
1A6
100
AcDbEntity
  8
_U+30EC_U+30A4_U+30E4_U+30FC 1
 62
   179
420
  2234388
100
AcDbHatch
 10
0.0
 20
0.0
 30
0.0
210
0.0
220
0.0
230
1.0
  2
SOLID
 70
     1
 71
     0
 91
        1
 92
        1
 93
        1
 72
     4
 94
        3
 73
     0
 74
     1
 95
       26
 96
       22
 40
0.0
 40
0.0
 40
0.0
 40
0.0
 40
1.0
 40
1.0
 40
1.0
 40
2.0
 40
2.0
 40
2.0
 40
3.0
 40
3.0
 40
3.0
 40
4.0
 40
4.0
 40
4.0
 40
5.0
 40
5.0
 40
5.0
 40
6.0
 40
6.0
 40
6.0
 40
7.0
 40
7.0
 40
7.0
 40
7.0
 10
93.88815373086824
 20
-118.1049356801092
 10
93.88815373086824
 20
-118.1049356801092
 10
93.88815373086824
 20
-117.0006103223124
 10
93.88815373086824
 20
-117.0006103223124
 10
93.88815373086824
 20
-117.0006103223124
 10
93.55811358338131
 20
-117.0006103223124
 10
93.55811358338131
 20
-117.0006103223124
 10
93.55811358338131
 20
-117.0006103223124
 10
93.55811358338131
 20
-116.8526434712209
 10
93.55811358338131
 20
-116.8526434712209
 10
93.8902207881594
 20
-116.8378295606343
 10
93.93672957721027
 20
-116.674876544182
 10
93.96635739838341
 20
-116.560671628846
 10
93.96635739838341
 20
-116.560671628846
 10
94.112429446958
 20
-116.560671628846
 10
94.112429446958
 20
-116.560671628846
 10
94.112429446958
 20
-116.560671628846
 10
94.112429446958
 20
-118.1049356801092
 10
94.112429446958
 20
-118.1049356801092
 10
94.112429446958
 20
-118.1049356801092
 10
93.88815373086824
 20
-118.1049356801092
 10
93.88815373086824
 20
-118.1049356801092
 97
        0
 97
        0
 75
     2
 76
     1
 98
        0
  0
SPLINE
  5
1AC
330
1A6
100
AcDbEntity
  8
_U+30EC_U+30A4_U+30E4_U+30FC 1
370
     0
100
AcDbSpline
210
0.0
220
0.0
230
1.0
 70
    11
 71
     3
 72
    53
 73
    49
 74
     0
 42
0.0000000001
 43
0.0000000001
 12
1.0
 22
0.0
 32
0.0
 13
1.0
 23
0.0
 33
0.0
 40
0.0
 40
0.0
 40
0.0
 40
0.0
 40
1.0
 40
1.0
 40
1.0
 40
2.0
 40
2.0
 40
2.0
 40
3.0
 40
3.0
 40
3.0
 40
4.0
 40
4.0
 40
4.0
 40
5.0
 40
5.0
 40
5.0
 40
6.0
 40
6.0
 40
6.0
 40
7.0
 40
7.0
 40
7.0
 40
8.0
 40
8.0
 40
8.0
 40
9.0
 40
9.0
 40
9.0
 40
10.0
 40
10.0
 40
10.0
 40
11.0
 40
11.0
 40
11.0
 40
12.0
 40
12.0
 40
12.0
 40
13.0
 40
13.0
 40
13.0
 40
14.0
 40
14.0
 40
14.0
 40
15.0
 40
15.0
 40
15.0
 40
16.0
 40
16.0
 40
16.0
 40
16.0
 10
95.09462616980274
 20
-118.1557508385166
 30
0.0
 10
95.01642250228757
 20
-118.1557508385166
 30
0.0
 10
94.91479218547269
 20
-118.1388698706389
 30
0.0
 10
94.81316186865783
 20
-118.075307858936
 30
0.0
 10
94.63987356574975
 20
-117.9654093129566
 30
0.0
 10
94.61851397374122
 20
-117.8341511749686
 30
0.0
 10
94.59956594857233
 20
-117.7263196862802
 30
0.0
 10
94.59956594857233
 20
-117.7263196862802
 30
0.0
 10
94.82177460737095
 20
-117.7263196862802
 30
0.0
 10
94.82177460737095
 20
-117.7263196862802
 30
0.0
 10
94.87655162558642
 20
-117.9251016957791
 30
0.0
 10
95.00367564899214
 20
-117.9547295169523
 30
0.0
 10
95.09669322709388
 20
-117.9547295169523
 30
0.0
 10
95.2362195942465
 20
-117.9547295169523
 30
0.0
 10
95.38849281469454
 20
-117.8553385122028
 30
0.0
 10
95.38849281469454
 20
-117.6226223121742
 30
0.0
 10
95.38849281469454
 20
-117.3666517176201
 30
0.0
 10
95.20865883036451
 20
-117.2968885340438
 30
0.0
 10
95.08808048838077
 20
-117.2968885340438
 30
0.0
 10
95.05638560991646
 20
-117.2968885340438
 30
0.0
 10
94.91479218547269
 20
-117.2968885340438
 30
0.0
 10
94.82590872195325
 20
-117.4259073599664
 30
0.0
 10
94.82590872195325
 20
-117.4259073599664
 30
0.0
 10
94.65020885220551
 20
-117.4067870800233
 30
0.0
 10
94.65020885220551
 20
-117.4067870800233
 30
0.0
 10
94.65020885220551
 20
-117.4067870800233
 30
0.0
 10
94.77078719418925
 20
-116.560671628846
 30
0.0
 10
94.77078719418925
 20
-116.560671628846
 30
0.0
 10
94.77078719418925
 20
-116.560671628846
 30
0.0
 10
95.54937877385572
 20
-116.560671628846
 30
0.0
 10
95.54937877385572
 20
-116.560671628846
 30
0.0
 10
95.54937877385572
 20
-116.560671628846
 30
0.0
 10
95.54937877385572
 20
-116.7553195237626
 30
0.0
 10
95.54937877385572
 20
-116.7553195237626
 30
0.0
 10
95.54937877385572
 20
-116.7553195237626
 30
0.0
 10
94.93374021064157
 20
-116.7553195237626
 30
0.0
 10
94.93374021064157
 20
-116.7553195237626
 30
0.0
 10
94.93374021064157
 20
-116.7553195237626
 30
0.0
 10
94.86828339642182
 20
-117.1783772493512
 30
0.0
 10
94.86828339642182
 20
-117.1783772493512
 30
0.0
 10
94.92960609605927
 20
-117.1446153135958
 30
0.0
 10
95.01194387815674
 20
-117.1043076964184
 30
0.0
 10
95.13045516284933
 20
-117.1043076964184
 30
0.0
 10
95.38435870011224
 20
-117.1043076964184
 30
0.0
 10
95.62138126949743
 20
-117.2905151073961
 30
0.0
 10
95.62138126949743
 20
-117.6036742870053
 30
0.0
 10
95.62138126949743
 20
-117.9209675811968
 30
0.0
 10
95.39710555340767
 20
-118.1557508385166
 30
0.0
 10
95.09462616980274
 20
-118.1557508385166
 30
0.0
  0
HATCH
  5
1AD
330
1A6
100
AcDbEntity
  8
_U+30EC_U+30A4_U+30E4_U+30FC 1
 62
   179
420
  2234388
100
AcDbHatch
 10
0.0
 20
0.0
 30
0.0
210
0.0
220
0.0
230
1.0
  2
SOLID
 70
     1
 71
     0
 91
        1
 92
        1
 93
        1
 72
     4
 94
        3
 73
     0
 74
     1
 95
       53
 96
       49
 40
0.0
 40
0.0
 40
0.0
 40
0.0
 40
1.0
 40
1.0
 40
1.0
 40
2.0
 40
2.0
 40
2.0
 40
3.0
 40
3.0
 40
3.0
 40
4.0
 40
4.0
 40
4.0
 40
5.0
 40
5.0
 40
5.0
 40
6.0
 40
6.0
 40
6.0
 40
7.0
 40
7.0
 40
7.0
 40
8.0
 40
8.0
 40
8.0
 40
9.0
 40
9.0
 40
9.0
 40
10.0
 40
10.0
 40
10.0
 40
11.0
 40
11.0
 40
11.0
 40
12.0
 40
12.0
 40
12.0
 40
13.0
 40
13.0
 40
13.0
 40
14.0
 40
14.0
 40
14.0
 40
15.0
 40
15.0
 40
15.0
 40
16.0
 40
16.0
 40
16.0
 40
16.0
 10
95.09462616980274
 20
-118.1557508385166
 10
95.01642250228757
 20
-118.1557508385166
 10
94.91479218547269
 20
-118.1388698706389
 10
94.81316186865783
 20
-118.075307858936
 10
94.63987356574975
 20
-117.9654093129566
 10
94.61851397374122
 20
-117.8341511749686
 10
94.59956594857233
 20
-117.7263196862802
 10
94.59956594857233
 20
-117.7263196862802
 10
94.82177460737095
 20
-117.7263196862802
 10
94.82177460737095
 20
-117.7263196862802
 10
94.87655162558642
 20
-117.9251016957791
 10
95.00367564899214
 20
-117.9547295169523
 10
95.09669322709388
 20
-117.9547295169523
 10
95.2362195942465
 20
-117.9547295169523
 10
95.38849281469454
 20
-117.8553385122028
 10
95.38849281469454
 20
-117.6226223121742
 10
95.38849281469454
 20
-117.3666517176201
 10
95.20865883036451
 20
-117.2968885340438
 10
95.08808048838077
 20
-117.2968885340438
 10
95.05638560991646
 20
-117.2968885340438
 10
94.91479218547269
 20
-117.2968885340438
 10
94.82590872195325
 20
-117.4259073599664
 10
94.82590872195325
 20
-117.4259073599664
 10
94.65020885220551
 20
-117.4067870800233
 10
94.65020885220551
 20
-117.4067870800233
 10
94.65020885220551
 20
-117.4067870800233
 10
94.77078719418925
 20
-116.560671628846
 10
94.77078719418925
 20
-116.560671628846
 10
94.77078719418925
 20
-116.560671628846
 10
95.54937877385572
 20
-116.560671628846
 10
95.54937877385572
 20
-116.560671628846
 10
95.54937877385572
 20
-116.560671628846
 10
95.54937877385572
 20
-116.7553195237626
 10
95.54937877385572
 20
-116.7553195237626
 10
95.54937877385572
 20
-116.7553195237626
 10
94.93374021064157
 20
-116.7553195237626
 10
94.93374021064157
 20
-116.7553195237626
 10
94.93374021064157
 20
-116.7553195237626
 10
94.86828339642182
 20
-117.1783772493512
 10
94.86828339642182
 20
-117.1783772493512
 10
94.92960609605927
 20
-117.1446153135958
 10
95.01194387815674
 20
-117.1043076964184
 10
95.13045516284933
 20
-117.1043076964184
 10
95.38435870011224
 20
-117.1043076964184
 10
95.62138126949743
 20
-117.2905151073961
 10
95.62138126949743
 20
-117.6036742870053
 10
95.62138126949743
 20
-117.9209675811968
 10
95.39710555340767
 20
-118.1557508385166
 10
95.09462616980274
 20
-118.1557508385166
 97
        0
 97
        0
 75
     2
 76
     1
 98
        0
  0
ENDBLK
  5
1A9
330
1A6
100
AcDbEntity
  8
0
100
AcDbBlockEnd
  0
BLOCK
  5
1B0
330
1AE
100
AcDbEntity
  8
0
100
AcDbBlockBegin
  2
block 8
 70
     0
 10
0.0
 20
0.0
 30
0.0
  3
block 8
  1

  0
SPLINE
  5
1B2
330
1AE
100
AcDbEntity
  8
_U+30EC_U+30A4_U+30E4_U+30FC 1
370
     0
100
AcDbSpline
210
0.0
220
0.0
230
1.0
 70
    11
 71
     3
 72
    26
 73
    22
 74
     0
 42
0.0000000001
 43
0.0000000001
 12
1.0
 22
0.0
 32
0.0
 13
1.0
 23
0.0
 33
0.0
 40
0.0
 40
0.0
 40
0.0
 40
0.0
 40
1.0
 40
1.0
 40
1.0
 40
2.0
 40
2.0
 40
2.0
 40
3.0
 40
3.0
 40
3.0
 40
4.0
 40
4.0
 40
4.0
 40
5.0
 40
5.0
 40
5.0
 40
6.0
 40
6.0
 40
6.0
 40
7.0
 40
7.0
 40
7.0
 40
7.0
 10
81.66357691100772
 20
-130.0554551541181
 30
0.0
 10
81.66357691100772
 20
-130.0554551541181
 30
0.0
 10
81.66357691100772
 20
-128.950957541547
 30
0.0
 10
81.66357691100772
 20
-128.950957541547
 30
0.0
 10
81.66357691100772
 20
-128.950957541547
 30
0.0
 10
81.33353676352078
 20
-128.950957541547
 30
0.0
 10
81.33353676352078
 20
-128.950957541547
 30
0.0
 10
81.33353676352078
 20
-128.950957541547
 30
0.0
 10
81.33353676352078
 20
-128.8028184356812
 30
0.0
 10
81.33353676352078
 20
-128.8028184356812
 30
0.0
 10
81.66581622307314
 20
-128.7880045250947
 30
0.0
 10
81.71232501212401
 20
-128.6252237634166
 30
0.0
 10
81.74195283329715
 20
-128.5110188480806
 30
0.0
 10
81.74195283329715
 20
-128.5110188480806
 30
0.0
 10
81.88785262709749
 20
-128.5110188480806
 30
0.0
 10
81.88785262709749
 20
-128.5110188480806
 30
0.0
 10
81.88785262709749
 20
-128.5110188480806
 30
0.0
 10
81.88785262709749
 20
-130.0554551541181
 30
0.0
 10
81.88785262709749
 20
-130.0554551541181
 30
0.0
 10
81.88785262709749
 20
-130.0554551541181
 30
0.0
 10
81.66357691100772
 20
-130.0554551541181
 30
0.0
 10
81.66357691100772
 20
-130.0554551541181
 30
0.0
  0
HATCH
  5
1B3
330
1AE
100
AcDbEntity
  8
_U+30EC_U+30A4_U+30E4_U+30FC 1
 62
   179
420
  2234388
100
AcDbHatch
 10
0.0
 20
0.0
 30
0.0
210
0.0
220
0.0
230
1.0
  2
SOLID
 70
     1
 71
     0
 91
        1
 92
        1
 93
        1
 72
     4
 94
        3
 73
     0
 74
     1
 95
       26
 96
       22
 40
0.0
 40
0.0
 40
0.0
 40
0.0
 40
1.0
 40
1.0
 40
1.0
 40
2.0
 40
2.0
 40
2.0
 40
3.0
 40
3.0
 40
3.0
 40
4.0
 40
4.0
 40
4.0
 40
5.0
 40
5.0
 40
5.0
 40
6.0
 40
6.0
 40
6.0
 40
7.0
 40
7.0
 40
7.0
 40
7.0
 10
81.66357691100772
 20
-130.0554551541181
 10
81.66357691100772
 20
-130.0554551541181
 10
81.66357691100772
 20
-128.950957541547
 10
81.66357691100772
 20
-128.950957541547
 10
81.66357691100772
 20
-128.950957541547
 10
81.33353676352078
 20
-128.950957541547
 10
81.33353676352078
 20
-128.950957541547
 10
81.33353676352078
 20
-128.950957541547
 10
81.33353676352078
 20
-128.8028184356812
 10
81.33353676352078
 20
-128.8028184356812
 10
81.66581622307314
 20
-128.7880045250947
 10
81.71232501212401
 20
-128.6252237634166
 10
81.74195283329715
 20
-128.5110188480806
 10
81.74195283329715
 20
-128.5110188480806
 10
81.88785262709749
 20
-128.5110188480806
 10
81.88785262709749
 20
-128.5110188480806
 10
81.88785262709749
 20
-128.5110188480806
 10
81.88785262709749
 20
-130.0554551541181
 10
81.88785262709749
 20
-130.0554551541181
 10
81.88785262709749
 20
-130.0554551541181
 10
81.66357691100772
 20
-130.0554551541181
 10
81.66357691100772
 20
-130.0554551541181
 97
        0
 97
        0
 75
     2
 76
     1
 98
        0
  0
POLYLINE
  5
1B4
330
1AE
100
AcDbEntity
  8
_U+30EC_U+30A4_U+30E4_U+30FC 1
370
     0
100
AcDb2dPolyline
 66
     1
 10
0.0
 20
0.0
 30
0.0
  0
VERTEX
  5
1B5
330
1B4
100
AcDbEntity
  8
_U+30EC_U+30A4_U+30E4_U+30FC 1
370
     0
100
AcDbVertex
100
AcDb2dVertex
 10
82.44905868164469
 20
-130.0554551541181
 30
0.0
  0
VERTEX
  5
1B6
330
1B4
100
AcDbEntity
  8
_U+30EC_U+30A4_U+30E4_U+30FC 1
370
     0
100
AcDbVertex
100
AcDb2dVertex
 10
82.44905868164469
 20
-129.8036186741463
 30
0.0
  0
VERTEX
  5
1B7
330
1B4
100
AcDbEntity
  8
_U+30EC_U+30A4_U+30E4_U+30FC 1
370
     0
100
AcDbVertex
100
AcDb2dVertex
 10
82.70089516161644
 20
-129.8036186741463
 30
0.0
  0
VERTEX
  5
1B8
330
1B4
100
AcDbEntity
  8
_U+30EC_U+30A4_U+30E4_U+30FC 1
370
     0
100
AcDbVertex
100
AcDb2dVertex
 10
82.70089516161644
 20
-130.0554551541181
 30
0.0
  0
VERTEX
  5
1B9
330
1B4
100
AcDbEntity
  8
_U+30EC_U+30A4_U+30E4_U+30FC 1
370
     0
100
AcDbVertex
100
AcDb2dVertex
 10
82.44905868164469
 20
-130.0554551541181
 30
0.0
  0
SEQEND
  5
1BA
330
1B4
100
AcDbEntity
  8
_U+30EC_U+30A4_U+30E4_U+30FC 1
370
     0
  0
HATCH
  5
1BB
330
1AE
100
AcDbEntity
  8
_U+30EC_U+30A4_U+30E4_U+30FC 1
 62
   179
420
  2234388
100
AcDbHatch
 10
0.0
 20
0.0
 30
0.0
210
0.0
220
0.0
230
1.0
  2
SOLID
 70
     1
 71
     0
 91
        1
 92
        1
 93
        4
 72
     1
 10
82.44905868164469
 20
-130.0554551541181
 11
82.44905868164469
 21
-129.8036186741463
 72
     1
 10
82.44905868164469
 20
-129.8036186741463
 11
82.70089516161644
 21
-129.8036186741463
 72
     1
 10
82.70089516161644
 20
-129.8036186741463
 11
82.70089516161644
 21
-130.0554551541181
 72
     1
 10
82.70089516161644
 20
-130.0554551541181
 11
82.44905868164469
 21
-130.0554551541181
 97
        0
 75
     2
 76
     1
 98
        0
  0
SPLINE
  5
1BC
330
1AE
100
AcDbEntity
  8
_U+30EC_U+30A4_U+30E4_U+30FC 1
370
     0
100
AcDbSpline
210
0.0
220
0.0
230
1.0
 70
    11
 71
     3
 72
    53
 73
    49
 74
     0
 42
0.0000000001
 43
0.0000000001
 12
1.0
 22
0.0
 32
0.0
 13
1.0
 23
0.0
 33
0.0
 40
0.0
 40
0.0
 40
0.0
 40
0.0
 40
1.0
 40
1.0
 40
1.0
 40
2.0
 40
2.0
 40
2.0
 40
3.0
 40
3.0
 40
3.0
 40
4.0
 40
4.0
 40
4.0
 40
5.0
 40
5.0
 40
5.0
 40
6.0
 40
6.0
 40
6.0
 40
7.0
 40
7.0
 40
7.0
 40
8.0
 40
8.0
 40
8.0
 40
9.0
 40
9.0
 40
9.0
 40
10.0
 40
10.0
 40
10.0
 40
11.0
 40
11.0
 40
11.0
 40
12.0
 40
12.0
 40
12.0
 40
13.0
 40
13.0
 40
13.0
 40
14.0
 40
14.0
 40
14.0
 40
15.0
 40
15.0
 40
15.0
 40
16.0
 40
16.0
 40
16.0
 40
16.0
 10
83.41833629641972
 20
-130.1060980577513
 30
0.0
 10
83.33996037413029
 20
-130.1060980577513
 30
0.0
 10
83.23850231208968
 20
-130.0892170898735
 30
0.0
 10
83.13687199527482
 20
-130.0258273329449
 30
0.0
 10
82.96341143759248
 20
-129.9155842774169
 30
0.0
 10
82.94239635513246
 20
-129.7846706489775
 30
0.0
 10
82.92327607518932
 20
-129.6764946507406
 30
0.0
 10
82.92327607518932
 20
-129.6764946507406
 30
0.0
 10
83.14548473398794
 20
-129.6764946507406
 30
0.0
 10
83.14548473398794
 20
-129.6764946507406
 30
0.0
 10
83.20043400697767
 20
-129.875621169788
 30
0.0
 10
83.32738577560913
 20
-129.9052489909612
 30
0.0
 10
83.42040335371088
 20
-129.9052489909612
 30
0.0
 10
83.56010197563775
 20
-129.9052489909612
 30
0.0
 10
83.7123751960858
 20
-129.8056857314375
 30
0.0
 10
83.7123751960858
 20
-129.5731417861831
 30
0.0
 10
83.7123751960858
 20
-129.3171711916291
 30
0.0
 10
83.53254121175576
 20
-129.2472357532785
 30
0.0
 10
83.41196286977201
 20
-129.2472357532785
 30
0.0
 10
83.38026799130772
 20
-129.2472357532785
 30
0.0
 10
83.23850231208968
 20
-129.2472357532785
 30
0.0
 10
83.14961884857024
 20
-129.3760823244268
 30
0.0
 10
83.14961884857024
 20
-129.3760823244268
 30
0.0
 10
82.97409123359675
 20
-129.357134299258
 30
0.0
 10
82.97409123359675
 20
-129.357134299258
 30
0.0
 10
82.97409123359675
 20
-129.357134299258
 30
0.0
 10
83.0946695755805
 20
-128.5110188480806
 30
0.0
 10
83.0946695755805
 20
-128.5110188480806
 30
0.0
 10
83.0946695755805
 20
-128.5110188480806
 30
0.0
 10
83.87308890047271
 20
-128.5110188480806
 30
0.0
 10
83.87308890047271
 20
-128.5110188480806
 30
0.0
 10
83.87308890047271
 20
-128.5110188480806
 30
0.0
 10
83.87308890047271
 20
-128.7056667429972
 30
0.0
 10
83.87308890047271
 20
-128.7056667429972
 30
0.0
 10
83.87308890047271
 20
-128.7056667429972
 30
0.0
 10
83.25762259203282
 20
-128.7056667429972
 30
0.0
 10
83.25762259203282
 20
-128.7056667429972
 30
0.0
 10
83.25762259203282
 20
-128.7056667429972
 30
0.0
 10
83.19199352303882
 20
-129.1287244685859
 30
0.0
 10
83.19199352303882
 20
-129.1287244685859
 30
0.0
 10
83.25331622267626
 20
-129.0949625328304
 30
0.0
 10
83.33582625954799
 20
-129.054654915653
 30
0.0
 10
83.45433754424059
 20
-129.054654915653
 30
0.0
 10
83.70806882672923
 20
-129.054654915653
 30
0.0
 10
83.94509139611442
 20
-129.2406900718565
 30
0.0
 10
83.94509139611442
 20
-129.5538492514657
 30
0.0
 10
83.94509139611442
 20
-129.8711425456572
 30
0.0
 10
83.72081568002466
 20
-130.1060980577513
 30
0.0
 10
83.41833629641972
 20
-130.1060980577513
 30
0.0
  0
HATCH
  5
1BD
330
1AE
100
AcDbEntity
  8
_U+30EC_U+30A4_U+30E4_U+30FC 1
 62
   179
420
  2234388
100
AcDbHatch
 10
0.0
 20
0.0
 30
0.0
210
0.0
220
0.0
230
1.0
  2
SOLID
 70
     1
 71
     0
 91
        1
 92
        1
 93
        1
 72
     4
 94
        3
 73
     0
 74
     1
 95
       53
 96
       49
 40
0.0
 40
0.0
 40
0.0
 40
0.0
 40
1.0
 40
1.0
 40
1.0
 40
2.0
 40
2.0
 40
2.0
 40
3.0
 40
3.0
 40
3.0
 40
4.0
 40
4.0
 40
4.0
 40
5.0
 40
5.0
 40
5.0
 40
6.0
 40
6.0
 40
6.0
 40
7.0
 40
7.0
 40
7.0
 40
8.0
 40
8.0
 40
8.0
 40
9.0
 40
9.0
 40
9.0
 40
10.0
 40
10.0
 40
10.0
 40
11.0
 40
11.0
 40
11.0
 40
12.0
 40
12.0
 40
12.0
 40
13.0
 40
13.0
 40
13.0
 40
14.0
 40
14.0
 40
14.0
 40
15.0
 40
15.0
 40
15.0
 40
16.0
 40
16.0
 40
16.0
 40
16.0
 10
83.41833629641972
 20
-130.1060980577513
 10
83.33996037413029
 20
-130.1060980577513
 10
83.23850231208968
 20
-130.0892170898735
 10
83.13687199527482
 20
-130.0258273329449
 10
82.96341143759248
 20
-129.9155842774169
 10
82.94239635513246
 20
-129.7846706489775
 10
82.92327607518932
 20
-129.6764946507406
 10
82.92327607518932
 20
-129.6764946507406
 10
83.14548473398794
 20
-129.6764946507406
 10
83.14548473398794
 20
-129.6764946507406
 10
83.20043400697767
 20
-129.875621169788
 10
83.32738577560913
 20
-129.9052489909612
 10
83.42040335371088
 20
-129.9052489909612
 10
83.56010197563775
 20
-129.9052489909612
 10
83.7123751960858
 20
-129.8056857314375
 10
83.7123751960858
 20
-129.5731417861831
 10
83.7123751960858
 20
-129.3171711916291
 10
83.53254121175576
 20
-129.2472357532785
 10
83.41196286977201
 20
-129.2472357532785
 10
83.38026799130772
 20
-129.2472357532785
 10
83.23850231208968
 20
-129.2472357532785
 10
83.14961884857024
 20
-129.3760823244268
 10
83.14961884857024
 20
-129.3760823244268
 10
82.97409123359675
 20
-129.357134299258
 10
82.97409123359675
 20
-129.357134299258
 10
82.97409123359675
 20
-129.357134299258
 10
83.0946695755805
 20
-128.5110188480806
 10
83.0946695755805
 20
-128.5110188480806
 10
83.0946695755805
 20
-128.5110188480806
 10
83.87308890047271
 20
-128.5110188480806
 10
83.87308890047271
 20
-128.5110188480806
 10
83.87308890047271
 20
-128.5110188480806
 10
83.87308890047271
 20
-128.7056667429972
 10
83.87308890047271
 20
-128.7056667429972
 10
83.87308890047271
 20
-128.7056667429972
 10
83.25762259203282
 20
-128.7056667429972
 10
83.25762259203282
 20
-128.7056667429972
 10
83.25762259203282
 20
-128.7056667429972
 10
83.19199352303882
 20
-129.1287244685859
 10
83.19199352303882
 20
-129.1287244685859
 10
83.25331622267626
 20
-129.0949625328304
 10
83.33582625954799
 20
-129.054654915653
 10
83.45433754424059
 20
-129.054654915653
 10
83.70806882672923
 20
-129.054654915653
 10
83.94509139611442
 20
-129.2406900718565
 10
83.94509139611442
 20
-129.5538492514657
 10
83.94509139611442
 20
-129.8711425456572
 10
83.72081568002466
 20
-130.1060980577513
 10
83.41833629641972
 20
-130.1060980577513
 97
        0
 97
        0
 75
     2
 76
     1
 98
        0
  0
ENDBLK
  5
1B1
330
1AE
100
AcDbEntity
  8
0
100
AcDbBlockEnd
  0
BLOCK
  5
1D3
330
1D1
100
AcDbEntity
  8
0
100
AcDbBlockBegin
  2
block 9
 70
     0
 10
0.0
 20
0.0
 30
0.0
  3
block 9
  1

  0
SPLINE
  5
1D5
330
1D1
100
AcDbEntity
  8
_U+30EC_U+30A4_U+30E4_U+30FC 1
370
     0
100
AcDbSpline
210
0.0
220
0.0
230
1.0
 70
    11
 71
     3
 72
    62
 73
    58
 74
     0
 42
0.0000000001
 43
0.0000000001
 12
1.0
 22
0.0
 32
0.0
 13
1.0
 23
0.0
 33
0.0
 40
0.0
 40
0.0
 40
0.0
 40
0.0
 40
1.0
 40
1.0
 40
1.0
 40
2.0
 40
2.0
 40
2.0
 40
3.0
 40
3.0
 40
3.0
 40
4.0
 40
4.0
 40
4.0
 40
5.0
 40
5.0
 40
5.0
 40
6.0
 40
6.0
 40
6.0
 40
7.0
 40
7.0
 40
7.0
 40
8.0
 40
8.0
 40
8.0
 40
9.0
 40
9.0
 40
9.0
 40
10.0
 40
10.0
 40
10.0
 40
11.0
 40
11.0
 40
11.0
 40
12.0
 40
12.0
 40
12.0
 40
13.0
 40
13.0
 40
13.0
 40
14.0
 40
14.0
 40
14.0
 40
15.0
 40
15.0
 40
15.0
 40
16.0
 40
16.0
 40
16.0
 40
17.0
 40
17.0
 40
17.0
 40
18.0
 40
18.0
 40
18.0
 40
19.0
 40
19.0
 40
19.0
 40
19.0
 10
104.9978976517019
 20
-120.8491264888849
 30
0.0
 10
104.9978976517019
 20
-120.9443833790521
 30
0.0
 10
104.9768825692419
 20
-121.1622856684941
 30
0.0
 10
104.7905029034899
 20
-121.2871703798345
 30
0.0
 10
104.6785373002193
 20
-121.3610676779931
 30
0.0
 10
104.5789740406955
 20
-121.3653740473496
 30
0.0
 10
104.4945692013069
 20
-121.3695081619319
 30
0.0
 10
104.4945692013069
 20
-121.3695081619319
 30
0.0
 10
104.4945692013069
 20
-121.1495388151987
 30
0.0
 10
104.4945692013069
 20
-121.1495388151987
 30
0.0
 10
104.5682942446913
 20
-121.1474717579076
 30
0.0
 10
104.8032497567853
 20
-121.1369642166776
 30
0.0
 10
104.8032497567853
 20
-120.8534328582415
 30
0.0
 10
104.8032497567853
 20
-120.71597354838
 30
0.0
 10
104.7333143184347
 20
-120.5635280731577
 30
0.0
 10
104.5049044877627
 20
-120.5635280731577
 30
0.0
 10
104.3884602603612
 20
-120.5635280731577
 30
0.0
 10
104.3398844140192
 20
-120.6015963782697
 30
0.0
 10
104.3081895355549
 20
-120.6334635115083
 30
0.0
 10
104.234119982622
 20
-120.7073608096669
 30
0.0
 10
104.2213731293266
 20
-120.8238050370684
 30
0.0
 10
104.2213731293266
 20
-120.8787543100581
 30
0.0
 10
104.2213731293266
 20
-120.8978745900012
 30
0.0
 10
104.2237846961663
 20
-120.9338758378221
 30
0.0
 10
104.2279188107486
 20
-120.9612643469298
 30
0.0
 10
104.2279188107486
 20
-120.9612643469298
 30
0.0
 10
104.033270915832
 20
-120.9612643469298
 30
0.0
 10
104.033270915832
 20
-120.9612643469298
 30
0.0
 10
104.0394720877054
 20
-120.9231960418178
 30
0.0
 10
104.0415391449966
 20
-120.8809936221235
 30
0.0
 10
104.0415391449966
 20
-120.8746201954758
 30
0.0
 10
104.0415391449966
 20
-120.8089911264818
 30
0.0
 10
104.0205240625365
 20
-120.6102091169829
 30
0.0
 10
103.7835014931513
 20
-120.6102091169829
 30
0.0
 10
103.6057345661125
 20
-120.6102091169829
 30
0.0
 10
103.550957547897
 20
-120.7412950001966
 30
0.0
 10
103.550957547897
 20
-120.8513658009504
 30
0.0
 10
103.550957547897
 20
-121.1157768794433
 30
0.0
 10
103.7835014931513
 20
-121.1242173633821
 30
0.0
 10
103.8555039887931
 20
-121.1283514779644
 30
0.0
 10
103.8555039887931
 20
-121.1283514779644
 30
0.0
 10
103.8555039887931
 20
-121.3314398568199
 30
0.0
 10
103.8555039887931
 20
-121.3314398568199
 30
0.0
 10
103.730791532227
 20
-121.3229993728811
 30
0.0
 10
103.3542425956892
 20
-121.2956108637733
 30
0.0
 10
103.3542425956892
 20
-120.8386189476549
 30
0.0
 10
103.3542425956892
 20
-120.6143432315652
 30
0.0
 10
103.4810221095464
 20
-120.3731865475977
 30
0.0
 10
103.7773003212779
 20
-120.3731865475977
 30
0.0
 10
103.9633354774814
 20
-120.3731865475977
 30
0.0
 10
104.0460177691274
 20
-120.4684434377648
 30
0.0
 10
104.1073404687648
 20
-120.5678344425143
 30
0.0
 10
104.1349012326468
 20
-120.5065117428769
 30
0.0
 10
104.2151719574532
 20
-120.3246107012557
 30
0.0
 10
104.4921576344672
 20
-120.3246107012557
 30
0.0
 10
104.8308105206673
 20
-120.3246107012557
 30
0.0
 10
104.9978976517019
 20
-120.5719685570966
 30
0.0
 10
104.9978976517019
 20
-120.8491264888849
 30
0.0
  0
HATCH
  5
1D6
330
1D1
100
AcDbEntity
  8
_U+30EC_U+30A4_U+30E4_U+30FC 1
 62
   179
420
  2234388
100
AcDbHatch
 10
0.0
 20
0.0
 30
0.0
210
0.0
220
0.0
230
1.0
  2
SOLID
 70
     1
 71
     0
 91
        1
 92
        1
 93
        1
 72
     4
 94
        3
 73
     0
 74
     1
 95
       62
 96
       58
 40
0.0
 40
0.0
 40
0.0
 40
0.0
 40
1.0
 40
1.0
 40
1.0
 40
2.0
 40
2.0
 40
2.0
 40
3.0
 40
3.0
 40
3.0
 40
4.0
 40
4.0
 40
4.0
 40
5.0
 40
5.0
 40
5.0
 40
6.0
 40
6.0
 40
6.0
 40
7.0
 40
7.0
 40
7.0
 40
8.0
 40
8.0
 40
8.0
 40
9.0
 40
9.0
 40
9.0
 40
10.0
 40
10.0
 40
10.0
 40
11.0
 40
11.0
 40
11.0
 40
12.0
 40
12.0
 40
12.0
 40
13.0
 40
13.0
 40
13.0
 40
14.0
 40
14.0
 40
14.0
 40
15.0
 40
15.0
 40
15.0
 40
16.0
 40
16.0
 40
16.0
 40
17.0
 40
17.0
 40
17.0
 40
18.0
 40
18.0
 40
18.0
 40
19.0
 40
19.0
 40
19.0
 40
19.0
 10
104.9978976517019
 20
-120.8491264888849
 10
104.9978976517019
 20
-120.9443833790521
 10
104.9768825692419
 20
-121.1622856684941
 10
104.7905029034899
 20
-121.2871703798345
 10
104.6785373002193
 20
-121.3610676779931
 10
104.5789740406955
 20
-121.3653740473496
 10
104.4945692013069
 20
-121.3695081619319
 10
104.4945692013069
 20
-121.3695081619319
 10
104.4945692013069
 20
-121.1495388151987
 10
104.4945692013069
 20
-121.1495388151987
 10
104.5682942446913
 20
-121.1474717579076
 10
104.8032497567853
 20
-121.1369642166776
 10
104.8032497567853
 20
-120.8534328582415
 10
104.8032497567853
 20
-120.71597354838
 10
104.7333143184347
 20
-120.5635280731577
 10
104.5049044877627
 20
-120.5635280731577
 10
104.3884602603612
 20
-120.5635280731577
 10
104.3398844140192
 20
-120.6015963782697
 10
104.3081895355549
 20
-120.6334635115083
 10
104.234119982622
 20
-120.7073608096669
 10
104.2213731293266
 20
-120.8238050370684
 10
104.2213731293266
 20
-120.8787543100581
 10
104.2213731293266
 20
-120.8978745900012
 10
104.2237846961663
 20
-120.9338758378221
 10
104.2279188107486
 20
-120.9612643469298
 10
104.2279188107486
 20
-120.9612643469298
 10
104.033270915832
 20
-120.9612643469298
 10
104.033270915832
 20
-120.9612643469298
 10
104.0394720877054
 20
-120.9231960418178
 10
104.0415391449966
 20
-120.8809936221235
 10
104.0415391449966
 20
-120.8746201954758
 10
104.0415391449966
 20
-120.8089911264818
 10
104.0205240625365
 20
-120.6102091169829
 10
103.7835014931513
 20
-120.6102091169829
 10
103.6057345661125
 20
-120.6102091169829
 10
103.550957547897
 20
-120.7412950001966
 10
103.550957547897
 20
-120.8513658009504
 10
103.550957547897
 20
-121.1157768794433
 10
103.7835014931513
 20
-121.1242173633821
 10
103.8555039887931
 20
-121.1283514779644
 10
103.8555039887931
 20
-121.1283514779644
 10
103.8555039887931
 20
-121.3314398568199
 10
103.8555039887931
 20
-121.3314398568199
 10
103.730791532227
 20
-121.3229993728811
 10
103.3542425956892
 20
-121.2956108637733
 10
103.3542425956892
 20
-120.8386189476549
 10
103.3542425956892
 20
-120.6143432315652
 10
103.4810221095464
 20
-120.3731865475977
 10
103.7773003212779
 20
-120.3731865475977
 10
103.9633354774814
 20
-120.3731865475977
 10
104.0460177691274
 20
-120.4684434377648
 10
104.1073404687648
 20
-120.5678344425143
 10
104.1349012326468
 20
-120.5065117428769
 10
104.2151719574532
 20
-120.3246107012557
 10
104.4921576344672
 20
-120.3246107012557
 10
104.8308105206673
 20
-120.3246107012557
 10
104.9978976517019
 20
-120.5719685570966
 10
104.9978976517019
 20
-120.8491264888849
 97
        0
 97
        0
 75
     2
 76
     1
 98
        0
  0
POLYLINE
  5
1D7
330
1D1
100
AcDbEntity
  8
_U+30EC_U+30A4_U+30E4_U+30FC 1
370
     0
100
AcDb2dPolyline
 66
     1
 10
0.0
 20
0.0
 30
0.0
  0
VERTEX
  5
1D8
330
1D7
100
AcDbEntity
  8
_U+30EC_U+30A4_U+30E4_U+30FC 1
370
     0
100
AcDbVertex
100
AcDb2dVertex
 10
104.9472547480687
 20
-120.1039523354254
 30
0.0
  0
VERTEX
  5
1D9
330
1D7
100
AcDbEntity
  8
_U+30EC_U+30A4_U+30E4_U+30FC 1
370
     0
100
AcDbVertex
100
AcDb2dVertex
 10
104.695418268097
 20
-120.1039523354254
 30
0.0
  0
VERTEX
  5
1DA
330
1D7
100
AcDbEntity
  8
_U+30EC_U+30A4_U+30E4_U+30FC 1
370
     0
100
AcDbVertex
100
AcDb2dVertex
 10
104.695418268097
 20
-119.8521158554536
 30
0.0
  0
VERTEX
  5
1DB
330
1D7
100
AcDbEntity
  8
_U+30EC_U+30A4_U+30E4_U+30FC 1
370
     0
100
AcDbVertex
100
AcDb2dVertex
 10
104.9472547480687
 20
-119.8521158554536
 30
0.0
  0
VERTEX
  5
1DC
330
1D7
100
AcDbEntity
  8
_U+30EC_U+30A4_U+30E4_U+30FC 1
370
     0
100
AcDbVertex
100
AcDb2dVertex
 10
104.9472547480687
 20
-120.1039523354254
 30
0.0
  0
SEQEND
  5
1DD
330
1D7
100
AcDbEntity
  8
_U+30EC_U+30A4_U+30E4_U+30FC 1
370
     0
  0
HATCH
  5
1DE
330
1D1
100
AcDbEntity
  8
_U+30EC_U+30A4_U+30E4_U+30FC 1
 62
   179
420
  2234388
100
AcDbHatch
 10
0.0
 20
0.0
 30
0.0
210
0.0
220
0.0
230
1.0
  2
SOLID
 70
     1
 71
     0
 91
        1
 92
        1
 93
        4
 72
     1
 10
104.9472547480687
 20
-120.1039523354254
 11
104.695418268097
 21
-120.1039523354254
 72
     1
 10
104.695418268097
 20
-120.1039523354254
 11
104.695418268097
 21
-119.8521158554536
 72
     1
 10
104.695418268097
 20
-119.8521158554536
 11
104.9472547480687
 21
-119.8521158554536
 72
     1
 10
104.9472547480687
 20
-119.8521158554536
 11
104.9472547480687
 21
-120.1039523354254
 97
        0
 75
     2
 76
     1
 98
        0
  0
SPLINE
  5
1DF
330
1D1
100
AcDbEntity
  8
_U+30EC_U+30A4_U+30E4_U+30FC 1
370
     0
100
AcDbSpline
210
0.0
220
0.0
230
1.0
 70
    11
 71
     3
 72
    53
 73
    49
 74
     0
 42
0.0000000001
 43
0.0000000001
 12
1.0
 22
0.0
 32
0.0
 13
1.0
 23
0.0
 33
0.0
 40
0.0
 40
0.0
 40
0.0
 40
0.0
 40
1.0
 40
1.0
 40
1.0
 40
2.0
 40
2.0
 40
2.0
 40
3.0
 40
3.0
 40
3.0
 40
4.0
 40
4.0
 40
4.0
 40
5.0
 40
5.0
 40
5.0
 40
6.0
 40
6.0
 40
6.0
 40
7.0
 40
7.0
 40
7.0
 40
8.0
 40
8.0
 40
8.0
 40
9.0
 40
9.0
 40
9.0
 40
10.0
 40
10.0
 40
10.0
 40
11.0
 40
11.0
 40
11.0
 40
12.0
 40
12.0
 40
12.0
 40
13.0
 40
13.0
 40
13.0
 40
14.0
 40
14.0
 40
14.0
 40
15.0
 40
15.0
 40
15.0
 40
16.0
 40
16.0
 40
16.0
 40
16.0
 10
104.9978976517019
 20
-119.1346747206504
 30
0.0
 10
104.9978976517019
 20
-119.2130506429398
 30
0.0
 10
104.9810166838242
 20
-119.3145087049804
 30
0.0
 10
104.9176269268956
 20
-119.4161390217953
 30
0.0
 10
104.8073838713676
 20
-119.5895995794776
 30
0.0
 10
104.6764702429281
 20
-119.6106146619376
 30
0.0
 10
104.5682942446913
 20
-119.6297349418808
 30
0.0
 10
104.5682942446913
 20
-119.6297349418808
 30
0.0
 10
104.5682942446913
 20
-119.4075262830821
 30
0.0
 10
104.5682942446913
 20
-119.4075262830821
 30
0.0
 10
104.7674207637387
 20
-119.3525770100924
 30
0.0
 10
104.7970485849118
 20
-119.225625241461
 30
0.0
 10
104.7970485849118
 20
-119.1326076633592
 30
0.0
 10
104.7970485849118
 20
-118.9929090414323
 30
0.0
 10
104.6974853253881
 20
-118.8406358209843
 30
0.0
 10
104.4649413801338
 20
-118.8406358209843
 30
0.0
 10
104.2089707855797
 20
-118.8406358209843
 30
0.0
 10
104.1390353472291
 20
-119.0204698053143
 30
0.0
 10
104.1390353472291
 20
-119.1410481472981
 30
0.0
 10
104.1390353472291
 20
-119.1727430257624
 30
0.0
 10
104.1390353472291
 20
-119.3145087049804
 30
0.0
 10
104.2678819183775
 20
-119.4033921684998
 30
0.0
 10
104.2678819183775
 20
-119.4033921684998
 30
0.0
 10
104.2489338932086
 20
-119.5789197834733
 30
0.0
 10
104.2489338932086
 20
-119.5789197834733
 30
0.0
 10
104.2489338932086
 20
-119.5789197834733
 30
0.0
 10
103.4028184420312
 20
-119.4583414414896
 30
0.0
 10
103.4028184420312
 20
-119.4583414414896
 30
0.0
 10
103.4028184420312
 20
-119.4583414414896
 30
0.0
 10
103.4028184420312
 20
-118.6799221165974
 30
0.0
 10
103.4028184420312
 20
-118.6799221165974
 30
0.0
 10
103.4028184420312
 20
-118.6799221165974
 30
0.0
 10
103.5974663369479
 20
-118.6799221165974
 30
0.0
 10
103.5974663369479
 20
-118.6799221165974
 30
0.0
 10
103.5974663369479
 20
-118.6799221165974
 30
0.0
 10
103.5974663369479
 20
-119.2955606798115
 30
0.0
 10
103.5974663369479
 20
-119.2955606798115
 30
0.0
 10
103.5974663369479
 20
-119.2955606798115
 30
0.0
 10
104.0205240625365
 20
-119.3610174940313
 30
0.0
 10
104.0205240625365
 20
-119.3610174940313
 30
0.0
 10
103.9867621267811
 20
-119.2996947943938
 30
0.0
 10
103.9464545096037
 20
-119.2171847575221
 30
0.0
 10
103.9464545096037
 20
-119.0986734728295
 30
0.0
 10
103.9464545096037
 20
-118.8449421903409
 30
0.0
 10
104.1324896658072
 20
-118.6079196209557
 30
0.0
 10
104.4456488454164
 20
-118.6079196209557
 30
0.0
 10
104.7629421396079
 20
-118.6079196209557
 30
0.0
 10
104.9978976517019
 20
-118.8321953370454
 30
0.0
 10
104.9978976517019
 20
-119.1346747206504
 30
0.0
  0
HATCH
  5
1E0
330
1D1
100
AcDbEntity
  8
_U+30EC_U+30A4_U+30E4_U+30FC 1
 62
   179
420
  2234388
100
AcDbHatch
 10
0.0
 20
0.0
 30
0.0
210
0.0
220
0.0
230
1.0
  2
SOLID
 70
     1
 71
     0
 91
        1
 92
        1
 93
        1
 72
     4
 94
        3
 73
     0
 74
     1
 95
       53
 96
       49
 40
0.0
 40
0.0
 40
0.0
 40
0.0
 40
1.0
 40
1.0
 40
1.0
 40
2.0
 40
2.0
 40
2.0
 40
3.0
 40
3.0
 40
3.0
 40
4.0
 40
4.0
 40
4.0
 40
5.0
 40
5.0
 40
5.0
 40
6.0
 40
6.0
 40
6.0
 40
7.0
 40
7.0
 40
7.0
 40
8.0
 40
8.0
 40
8.0
 40
9.0
 40
9.0
 40
9.0
 40
10.0
 40
10.0
 40
10.0
 40
11.0
 40
11.0
 40
11.0
 40
12.0
 40
12.0
 40
12.0
 40
13.0
 40
13.0
 40
13.0
 40
14.0
 40
14.0
 40
14.0
 40
15.0
 40
15.0
 40
15.0
 40
16.0
 40
16.0
 40
16.0
 40
16.0
 10
104.9978976517019
 20
-119.1346747206504
 10
104.9978976517019
 20
-119.2130506429398
 10
104.9810166838242
 20
-119.3145087049804
 10
104.9176269268956
 20
-119.4161390217953
 10
104.8073838713676
 20
-119.5895995794776
 10
104.6764702429281
 20
-119.6106146619376
 10
104.5682942446913
 20
-119.6297349418808
 10
104.5682942446913
 20
-119.6297349418808
 10
104.5682942446913
 20
-119.4075262830821
 10
104.5682942446913
 20
-119.4075262830821
 10
104.7674207637387
 20
-119.3525770100924
 10
104.7970485849118
 20
-119.225625241461
 10
104.7970485849118
 20
-119.1326076633592
 10
104.7970485849118
 20
-118.9929090414323
 10
104.6974853253881
 20
-118.8406358209843
 10
104.4649413801338
 20
-118.8406358209843
 10
104.2089707855797
 20
-118.8406358209843
 10
104.1390353472291
 20
-119.0204698053143
 10
104.1390353472291
 20
-119.1410481472981
 10
104.1390353472291
 20
-119.1727430257624
 10
104.1390353472291
 20
-119.3145087049804
 10
104.2678819183775
 20
-119.4033921684998
 10
104.2678819183775
 20
-119.4033921684998
 10
104.2489338932086
 20
-119.5789197834733
 10
104.2489338932086
 20
-119.5789197834733
 10
104.2489338932086
 20
-119.5789197834733
 10
103.4028184420312
 20
-119.4583414414896
 10
103.4028184420312
 20
-119.4583414414896
 10
103.4028184420312
 20
-119.4583414414896
 10
103.4028184420312
 20
-118.6799221165974
 10
103.4028184420312
 20
-118.6799221165974
 10
103.4028184420312
 20
-118.6799221165974
 10
103.5974663369479
 20
-118.6799221165974
 10
103.5974663369479
 20
-118.6799221165974
 10
103.5974663369479
 20
-118.6799221165974
 10
103.5974663369479
 20
-119.2955606798115
 10
103.5974663369479
 20
-119.2955606798115
 10
103.5974663369479
 20
-119.2955606798115
 10
104.0205240625365
 20
-119.3610174940313
 10
104.0205240625365
 20
-119.3610174940313
 10
103.9867621267811
 20
-119.2996947943938
 10
103.9464545096037
 20
-119.2171847575221
 10
103.9464545096037
 20
-119.0986734728295
 10
103.9464545096037
 20
-118.8449421903409
 10
104.1324896658072
 20
-118.6079196209557
 10
104.4456488454164
 20
-118.6079196209557
 10
104.7629421396079
 20
-118.6079196209557
 10
104.9978976517019
 20
-118.8321953370454
 10
104.9978976517019
 20
-119.1346747206504
 97
        0
 97
        0
 75
     2
 76
     1
 98
        0
  0
ENDBLK
  5
1D4
330
1D1
100
AcDbEntity
  8
0
100
AcDbBlockEnd
  0
BLOCK
  5
1EE
330
1EC
100
AcDbEntity
  8
0
100
AcDbBlockBegin
  2
block 10
 70
     0
 10
0.0
 20
0.0
 30
0.0
  3
block 10
  1

  0
SPLINE
  5
1F0
330
1EC
100
AcDbEntity
  8
_U+30EC_U+30A4_U+30E4_U+30FC 1
370
     0
100
AcDbSpline
210
0.0
220
0.0
230
1.0
 70
    11
 71
     3
 72
    26
 73
    22
 74
     0
 42
0.0000000001
 43
0.0000000001
 12
1.0
 22
0.0
 32
0.0
 13
1.0
 23
0.0
 33
0.0
 40
0.0
 40
0.0
 40
0.0
 40
0.0
 40
1.0
 40
1.0
 40
1.0
 40
2.0
 40
2.0
 40
2.0
 40
3.0
 40
3.0
 40
3.0
 40
4.0
 40
4.0
 40
4.0
 40
5.0
 40
5.0
 40
5.0
 40
6.0
 40
6.0
 40
6.0
 40
7.0
 40
7.0
 40
7.0
 40
7.0
 10
104.9479437671658
 20
-132.115277744749
 30
0.0
 10
104.9479437671658
 20
-132.115277744749
 30
0.0
 10
103.8434461545947
 20
-132.115277744749
 30
0.0
 10
103.8434461545947
 20
-132.115277744749
 30
0.0
 10
103.8434461545947
 20
-132.115277744749
 30
0.0
 10
103.8434461545947
 20
-132.4453178922359
 30
0.0
 10
103.8434461545947
 20
-132.4453178922359
 30
0.0
 10
103.8434461545947
 20
-132.4453178922359
 30
0.0
 10
103.6953070487289
 20
-132.4453178922359
 30
0.0
 10
103.6953070487289
 20
-132.4453178922359
 30
0.0
 10
103.6804931381424
 20
-132.1132106874578
 30
0.0
 10
103.5178846312386
 20
-132.0667018984069
 30
0.0
 10
103.4035074611283
 20
-132.0370740772338
 30
0.0
 10
103.4035074611283
 20
-132.0370740772338
 30
0.0
 10
103.4035074611283
 20
-131.8910020286592
 30
0.0
 10
103.4035074611283
 20
-131.8910020286592
 30
0.0
 10
103.4035074611283
 20
-131.8910020286592
 30
0.0
 10
104.9479437671658
 20
-131.8910020286592
 30
0.0
 10
104.9479437671658
 20
-131.8910020286592
 30
0.0
 10
104.9479437671658
 20
-131.8910020286592
 30
0.0
 10
104.9479437671658
 20
-132.115277744749
 30
0.0
 10
104.9479437671658
 20
-132.115277744749
 30
0.0
  0
HATCH
  5
1F1
330
1EC
100
AcDbEntity
  8
_U+30EC_U+30A4_U+30E4_U+30FC 1
 62
   179
420
  2234388
100
AcDbHatch
 10
0.0
 20
0.0
 30
0.0
210
0.0
220
0.0
230
1.0
  2
SOLID
 70
     1
 71
     0
 91
        1
 92
        1
 93
        1
 72
     4
 94
        3
 73
     0
 74
     1
 95
       26
 96
       22
 40
0.0
 40
0.0
 40
0.0
 40
0.0
 40
1.0
 40
1.0
 40
1.0
 40
2.0
 40
2.0
 40
2.0
 40
3.0
 40
3.0
 40
3.0
 40
4.0
 40
4.0
 40
4.0
 40
5.0
 40
5.0
 40
5.0
 40
6.0
 40
6.0
 40
6.0
 40
7.0
 40
7.0
 40
7.0
 40
7.0
 10
104.9479437671658
 20
-132.115277744749
 10
104.9479437671658
 20
-132.115277744749
 10
103.8434461545947
 20
-132.115277744749
 10
103.8434461545947
 20
-132.115277744749
 10
103.8434461545947
 20
-132.115277744749
 10
103.8434461545947
 20
-132.4453178922359
 10
103.8434461545947
 20
-132.4453178922359
 10
103.8434461545947
 20
-132.4453178922359
 10
103.6953070487289
 20
-132.4453178922359
 10
103.6953070487289
 20
-132.4453178922359
 10
103.6804931381424
 20
-132.1132106874578
 10
103.5178846312386
 20
-132.0667018984069
 10
103.4035074611283
 20
-132.0370740772338
 10
103.4035074611283
 20
-132.0370740772338
 10
103.4035074611283
 20
-131.8910020286592
 10
103.4035074611283
 20
-131.8910020286592
 10
103.4035074611283
 20
-131.8910020286592
 10
104.9479437671658
 20
-131.8910020286592
 10
104.9479437671658
 20
-131.8910020286592
 10
104.9479437671658
 20
-131.8910020286592
 10
104.9479437671658
 20
-132.115277744749
 10
104.9479437671658
 20
-132.115277744749
 97
        0
 97
        0
 75
     2
 76
     1
 98
        0
  0
SPLINE
  5
1F2
330
1EC
100
AcDbEntity
  8
_U+30EC_U+30A4_U+30E4_U+30FC 1
370
     0
100
AcDbSpline
210
0.0
220
0.0
230
1.0
 70
    11
 71
     3
 72
    29
 73
    25
 74
     0
 42
0.0000000001
 43
0.0000000001
 12
1.0
 22
0.0
 32
0.0
 13
1.0
 23
0.0
 33
0.0
 40
0.0
 40
0.0
 40
0.0
 40
0.0
 40
1.0
 40
1.0
 40
1.0
 40
2.0
 40
2.0
 40
2.0
 40
3.0
 40
3.0
 40
3.0
 40
4.0
 40
4.0
 40
4.0
 40
5.0
 40
5.0
 40
5.0
 40
6.0
 40
6.0
 40
6.0
 40
7.0
 40
7.0
 40
7.0
 40
8.0
 40
8.0
 40
8.0
 40
8.0
 10
104.7701768401269
 20
-130.4919487520992
 30
0.0
 10
104.9796386456301
 20
-130.6001247503361
 30
0.0
 10
104.998586670799
 20
-130.7734130532442
 30
0.0
 10
104.998586670799
 20
-130.8898572806456
 30
0.0
 10
104.998586670799
 20
-131.0507432398068
 30
0.0
 10
104.9520778817481
 20
-131.1923366642505
 30
0.0
 10
104.7701768401269
 20
-131.2874212996434
 30
0.0
 10
104.5755289452103
 20
-131.3911186737494
 30
0.0
 10
104.3385063758251
 20
-131.4104112084669
 30
0.0
 10
104.1755533593728
 20
-131.4104112084669
 30
0.0
 10
104.0318928776379
 20
-131.4104112084669
 30
0.0
 10
103.7800563976661
 20
-131.3931857310406
 30
0.0
 10
103.5812743881672
 20
-131.2874212996434
 30
0.0
 10
103.3780137545374
 20
-131.1795898109551
 30
0.0
 10
103.3549316147863
 20
-131.0187038517939
 30
0.0
 10
103.3549316147863
 20
-130.8898572806456
 30
0.0
 10
103.3549316147863
 20
-130.7310383787756
 30
0.0
 10
103.399373346546
 20
-130.5873778970407
 30
0.0
 10
103.5812743881672
 20
-130.4919487520992
 30
0.0
 10
103.7738552257927
 20
-130.392730002124
 30
0.0
 10
104.0022650564647
 20
-130.3693033528243
 30
0.0
 10
104.1755533593728
 20
-130.3693033528243
 30
0.0
 10
104.3471191145382
 20
-130.3693033528243
 30
0.0
 10
104.5775960025014
 20
-130.3906629448329
 30
0.0
 10
104.7701768401269
 20
-130.4919487520992
 30
0.0
  0
SPLINE
  5
1F3
330
1EC
100
AcDbEntity
  8
_U+30EC_U+30A4_U+30E4_U+30FC 1
370
     0
100
AcDbSpline
210
0.0
220
0.0
230
1.0
 70
    11
 71
     3
 72
    17
 73
    13
 74
     0
 42
0.0000000001
 43
0.0000000001
 12
1.0
 22
0.0
 32
0.0
 13
1.0
 23
0.0
 33
0.0
 40
0.0
 40
0.0
 40
0.0
 40
0.0
 40
1.0
 40
1.0
 40
1.0
 40
2.0
 40
2.0
 40
2.0
 40
3.0
 40
3.0
 40
3.0
 40
4.0
 40
4.0
 40
4.0
 40
4.0
 10
103.5471679428632
 20
-130.8898572806456
 30
0.0
 10
103.5471679428632
 20
-131.1396267033262
 30
0.0
 10
103.8306993012993
 20
-131.1861354923771
 30
0.0
 10
104.1755533593728
 20
-131.1861354923771
 30
0.0
 10
104.495258220404
 20
-131.1861354923771
 30
0.0
 10
104.8039387758824
 20
-131.149961989782
 30
0.0
 10
104.8039387758824
 20
-130.8898572806456
 30
0.0
 10
104.8039387758824
 20
-130.6421549152561
 30
0.0
 10
104.5224744747374
 20
-130.5935790689141
 30
0.0
 10
104.1755533593728
 20
-130.5935790689141
 30
0.0
 10
103.8561930078901
 20
-130.5935790689141
 30
0.0
 10
103.5471679428632
 20
-130.6318196288004
 30
0.0
 10
103.5471679428632
 20
-130.8898572806456
 30
0.0
  0
HATCH
  5
1F4
330
1EC
100
AcDbEntity
  8
_U+30EC_U+30A4_U+30E4_U+30FC 1
 62
   179
420
  2234388
100
AcDbHatch
 10
0.0
 20
0.0
 30
0.0
210
0.0
220
0.0
230
1.0
  2
SOLID
 70
     1
 71
     0
 91
        2
 92
        1
 93
        1
 72
     4
 94
        3
 73
     0
 74
     1
 95
       29
 96
       25
 40
0.0
 40
0.0
 40
0.0
 40
0.0
 40
1.0
 40
1.0
 40
1.0
 40
2.0
 40
2.0
 40
2.0
 40
3.0
 40
3.0
 40
3.0
 40
4.0
 40
4.0
 40
4.0
 40
5.0
 40
5.0
 40
5.0
 40
6.0
 40
6.0
 40
6.0
 40
7.0
 40
7.0
 40
7.0
 40
8.0
 40
8.0
 40
8.0
 40
8.0
 10
104.7701768401269
 20
-130.4919487520992
 10
104.9796386456301
 20
-130.6001247503361
 10
104.998586670799
 20
-130.7734130532442
 10
104.998586670799
 20
-130.8898572806456
 10
104.998586670799
 20
-131.0507432398068
 10
104.9520778817481
 20
-131.1923366642505
 10
104.7701768401269
 20
-131.2874212996434
 10
104.5755289452103
 20
-131.3911186737494
 10
104.3385063758251
 20
-131.4104112084669
 10
104.1755533593728
 20
-131.4104112084669
 10
104.0318928776379
 20
-131.4104112084669
 10
103.7800563976661
 20
-131.3931857310406
 10
103.5812743881672
 20
-131.2874212996434
 10
103.3780137545374
 20
-131.1795898109551
 10
103.3549316147863
 20
-131.0187038517939
 10
103.3549316147863
 20
-130.8898572806456
 10
103.3549316147863
 20
-130.7310383787756
 10
103.399373346546
 20
-130.5873778970407
 10
103.5812743881672
 20
-130.4919487520992
 10
103.7738552257927
 20
-130.392730002124
 10
104.0022650564647
 20
-130.3693033528243
 10
104.1755533593728
 20
-130.3693033528243
 10
104.3471191145382
 20
-130.3693033528243
 10
104.5775960025014
 20
-130.3906629448329
 10
104.7701768401269
 20
-130.4919487520992
 97
        0
 97
        0
 92
        1
 93
        1
 72
     4
 94
        3
 73
     0
 74
     1
 95
       17
 96
       13
 40
0.0
 40
0.0
 40
0.0
 40
0.0
 40
1.0
 40
1.0
 40
1.0
 40
2.0
 40
2.0
 40
2.0
 40
3.0
 40
3.0
 40
3.0
 40
4.0
 40
4.0
 40
4.0
 40
4.0
 10
103.5471679428632
 20
-130.8898572806456
 10
103.5471679428632
 20
-131.1396267033262
 10
103.8306993012993
 20
-131.1861354923771
 10
104.1755533593728
 20
-131.1861354923771
 10
104.495258220404
 20
-131.1861354923771
 10
104.8039387758824
 20
-131.149961989782
 10
104.8039387758824
 20
-130.8898572806456
 10
104.8039387758824
 20
-130.6421549152561
 10
104.5224744747374
 20
-130.5935790689141
 10
104.1755533593728
 20
-130.5935790689141
 10
103.8561930078901
 20
-130.5935790689141
 10
103.5471679428632
 20
-130.6318196288004
 10
103.5471679428632
 20
-130.8898572806456
 97
        0
 97
        0
 75
     2
 76
     1
 98
        0
  0
ENDBLK
  5
1EF
330
1EC
100
AcDbEntity
  8
0
100
AcDbBlockEnd
  0
BLOCK
  5
20A
330
208
100
AcDbEntity
  8
0
100
AcDbBlockBegin
  2
block 11
 70
     0
 10
0.0
 20
0.0
 30
0.0
  3
block 11
  1

  0
SPLINE
  5
20C
330
208
100
AcDbEntity
  8
_U+30EC_U+30A4_U+30E4_U+30FC 1
370
     0
100
AcDbSpline
210
0.0
220
0.0
230
1.0
 70
    11
 71
     3
 72
    44
 73
    40
 74
     0
 42
0.0000000001
 43
0.0000000001
 12
1.0
 22
0.0
 32
0.0
 13
1.0
 23
0.0
 33
0.0
 40
0.0
 40
0.0
 40
0.0
 40
0.0
 40
1.0
 40
1.0
 40
1.0
 40
2.0
 40
2.0
 40
2.0
 40
3.0
 40
3.0
 40
3.0
 40
4.0
 40
4.0
 40
4.0
 40
5.0
 40
5.0
 40
5.0
 40
6.0
 40
6.0
 40
6.0
 40
7.0
 40
7.0
 40
7.0
 40
8.0
 40
8.0
 40
8.0
 40
9.0
 40
9.0
 40
9.0
 40
10.0
 40
10.0
 40
10.0
 40
11.0
 40
11.0
 40
11.0
 40
12.0
 40
12.0
 40
12.0
 40
13.0
 40
13.0
 40
13.0
 40
13.0
 10
75.98192543673369
 20
-140.2477701472297
 30
0.0
 10
76.14057208382944
 20
-140.4658446914461
 30
0.0
 10
76.21464163676231
 20
-140.5588622695478
 30
0.0
 10
76.35847437327149
 20
-140.6074381158898
 30
0.0
 10
76.35847437327149
 20
-140.6074381158898
 30
0.0
 10
76.35847437327149
 20
-139.8291910457719
 30
0.0
 10
76.35847437327149
 20
-139.8291910457719
 30
0.0
 10
76.35847437327149
 20
-139.8291910457719
 30
0.0
 10
76.56362980941812
 20
-139.8291910457719
 30
0.0
 10
76.56362980941812
 20
-139.8291910457719
 30
0.0
 10
76.56362980941812
 20
-139.8291910457719
 30
0.0
 10
76.56362980941812
 20
-140.8572075385704
 30
0.0
 10
76.56362980941812
 20
-140.8572075385704
 30
0.0
 10
76.20620115282345
 20
-140.8255126601061
 30
0.0
 10
76.12782523053401
 20
-140.7597113363379
 30
0.0
 10
75.82965221628565
 20
-140.3748941706355
 30
0.0
 10
75.63069795201247
 20
-140.1189235760814
 30
0.0
 10
75.56300182572731
 20
-140.0531222523131
 30
0.0
 10
75.42554251586584
 20
-140.0531222523131
 30
0.0
 10
75.30703123117324
 20
-140.0531222523131
 30
0.0
 10
75.17594534795948
 20
-140.1251247479548
 30
0.0
 10
75.17594534795948
 20
-140.3218397001626
 30
0.0
 10
75.17594534795948
 20
-140.5822889188475
 30
0.0
 10
75.4064222359227
 20
-140.5905571480121
 30
0.0
 10
75.52286646332415
 20
-140.5946912625944
 30
0.0
 10
75.52286646332415
 20
-140.5946912625944
 30
0.0
 10
75.52286646332415
 20
-140.8189669786842
 30
0.0
 10
75.52286646332415
 20
-140.8189669786842
 30
0.0
 10
75.39591469469269
 20
-140.8106987495196
 30
0.0
 10
75.2837768366478
 20
-140.8000189535153
 30
0.0
 10
75.16526555195522
 20
-140.719748228709
 30
0.0
 10
75.00455184756831
 20
-140.609505173181
 30
0.0
 10
74.9706176570386
 20
-140.4234700169775
 30
0.0
 10
74.9706176570386
 20
-140.307025789576
 30
0.0
 10
74.9706176570386
 20
-140.0300401125619
 30
0.0
 10
75.1547580107252
 20
-139.8226453643499
 30
0.0
 10
75.42760957315699
 20
-139.8226453643499
 30
0.0
 10
75.65619165860332
 20
-139.8226453643499
 30
0.0
 10
75.75558266335277
 20
-139.9390895917514
 30
0.0
 10
75.98192543673369
 20
-140.2477701472297
 30
0.0
  0
HATCH
  5
20D
330
208
100
AcDbEntity
  8
_U+30EC_U+30A4_U+30E4_U+30FC 1
 62
   179
420
  2234388
100
AcDbHatch
 10
0.0
 20
0.0
 30
0.0
210
0.0
220
0.0
230
1.0
  2
SOLID
 70
     1
 71
     0
 91
        1
 92
        1
 93
        1
 72
     4
 94
        3
 73
     0
 74
     1
 95
       44
 96
       40
 40
0.0
 40
0.0
 40
0.0
 40
0.0
 40
1.0
 40
1.0
 40
1.0
 40
2.0
 40
2.0
 40
2.0
 40
3.0
 40
3.0
 40
3.0
 40
4.0
 40
4.0
 40
4.0
 40
5.0
 40
5.0
 40
5.0
 40
6.0
 40
6.0
 40
6.0
 40
7.0
 40
7.0
 40
7.0
 40
8.0
 40
8.0
 40
8.0
 40
9.0
 40
9.0
 40
9.0
 40
10.0
 40
10.0
 40
10.0
 40
11.0
 40
11.0
 40
11.0
 40
12.0
 40
12.0
 40
12.0
 40
13.0
 40
13.0
 40
13.0
 40
13.0
 10
75.98192543673369
 20
-140.2477701472297
 10
76.14057208382944
 20
-140.4658446914461
 10
76.21464163676231
 20
-140.5588622695478
 10
76.35847437327149
 20
-140.6074381158898
 10
76.35847437327149
 20
-140.6074381158898
 10
76.35847437327149
 20
-139.8291910457719
 10
76.35847437327149
 20
-139.8291910457719
 10
76.35847437327149
 20
-139.8291910457719
 10
76.56362980941812
 20
-139.8291910457719
 10
76.56362980941812
 20
-139.8291910457719
 10
76.56362980941812
 20
-139.8291910457719
 10
76.56362980941812
 20
-140.8572075385704
 10
76.56362980941812
 20
-140.8572075385704
 10
76.20620115282345
 20
-140.8255126601061
 10
76.12782523053401
 20
-140.7597113363379
 10
75.82965221628565
 20
-140.3748941706355
 10
75.63069795201247
 20
-140.1189235760814
 10
75.56300182572731
 20
-140.0531222523131
 10
75.42554251586584
 20
-140.0531222523131
 10
75.30703123117324
 20
-140.0531222523131
 10
75.17594534795948
 20
-140.1251247479548
 10
75.17594534795948
 20
-140.3218397001626
 10
75.17594534795948
 20
-140.5822889188475
 10
75.4064222359227
 20
-140.5905571480121
 10
75.52286646332415
 20
-140.5946912625944
 10
75.52286646332415
 20
-140.5946912625944
 10
75.52286646332415
 20
-140.8189669786842
 10
75.52286646332415
 20
-140.8189669786842
 10
75.39591469469269
 20
-140.8106987495196
 10
75.2837768366478
 20
-140.8000189535153
 10
75.16526555195522
 20
-140.719748228709
 10
75.00455184756831
 20
-140.609505173181
 10
74.9706176570386
 20
-140.4234700169775
 10
74.9706176570386
 20
-140.307025789576
 10
74.9706176570386
 20
-140.0300401125619
 10
75.1547580107252
 20
-139.8226453643499
 10
75.42760957315699
 20
-139.8226453643499
 10
75.65619165860332
 20
-139.8226453643499
 10
75.75558266335277
 20
-139.9390895917514
 10
75.98192543673369
 20
-140.2477701472297
 97
        0
 97
        0
 75
     2
 76
     1
 98
        0
  0
POLYLINE
  5
20E
330
208
100
AcDbEntity
  8
_U+30EC_U+30A4_U+30E4_U+30FC 1
370
     0
100
AcDb2dPolyline
 66
     1
 10
0.0
 20
0.0
 30
0.0
  0
VERTEX
  5
20F
330
20E
100
AcDbEntity
  8
_U+30EC_U+30A4_U+30E4_U+30FC 1
370
     0
100
AcDbVertex
100
AcDb2dVertex
 10
76.56362980941812
 20
-139.6042263105851
 30
0.0
  0
VERTEX
  5
210
330
20E
100
AcDbEntity
  8
_U+30EC_U+30A4_U+30E4_U+30FC 1
370
     0
100
AcDbVertex
100
AcDb2dVertex
 10
76.31196558422063
 20
-139.6042263105851
 30
0.0
  0
VERTEX
  5
211
330
20E
100
AcDbEntity
  8
_U+30EC_U+30A4_U+30E4_U+30FC 1
370
     0
100
AcDbVertex
100
AcDb2dVertex
 10
76.31196558422063
 20
-139.3523898306133
 30
0.0
  0
VERTEX
  5
212
330
20E
100
AcDbEntity
  8
_U+30EC_U+30A4_U+30E4_U+30FC 1
370
     0
100
AcDbVertex
100
AcDb2dVertex
 10
76.56362980941812
 20
-139.3523898306133
 30
0.0
  0
VERTEX
  5
213
330
20E
100
AcDbEntity
  8
_U+30EC_U+30A4_U+30E4_U+30FC 1
370
     0
100
AcDbVertex
100
AcDb2dVertex
 10
76.56362980941812
 20
-139.6042263105851
 30
0.0
  0
SEQEND
  5
214
330
20E
100
AcDbEntity
  8
_U+30EC_U+30A4_U+30E4_U+30FC 1
370
     0
  0
HATCH
  5
215
330
208
100
AcDbEntity
  8
_U+30EC_U+30A4_U+30E4_U+30FC 1
 62
   179
420
  2234388
100
AcDbHatch
 10
0.0
 20
0.0
 30
0.0
210
0.0
220
0.0
230
1.0
  2
SOLID
 70
     1
 71
     0
 91
        1
 92
        1
 93
        4
 72
     1
 10
76.56362980941812
 20
-139.6042263105851
 11
76.31196558422063
 21
-139.6042263105851
 72
     1
 10
76.31196558422063
 20
-139.6042263105851
 11
76.31196558422063
 21
-139.3523898306133
 72
     1
 10
76.31196558422063
 20
-139.3523898306133
 11
76.56362980941812
 21
-139.3523898306133
 72
     1
 10
76.56362980941812
 20
-139.3523898306133
 11
76.56362980941812
 21
-139.6042263105851
 97
        0
 75
     2
 76
     1
 98
        0
  0
SPLINE
  5
216
330
208
100
AcDbEntity
  8
_U+30EC_U+30A4_U+30E4_U+30FC 1
370
     0
100
AcDbSpline
210
0.0
220
0.0
230
1.0
 70
    11
 71
     3
 72
    53
 73
    49
 74
     0
 42
0.0000000001
 43
0.0000000001
 12
1.0
 22
0.0
 32
0.0
 13
1.0
 23
0.0
 33
0.0
 40
0.0
 40
0.0
 40
0.0
 40
0.0
 40
1.0
 40
1.0
 40
1.0
 40
2.0
 40
2.0
 40
2.0
 40
3.0
 40
3.0
 40
3.0
 40
4.0
 40
4.0
 40
4.0
 40
5.0
 40
5.0
 40
5.0
 40
6.0
 40
6.0
 40
6.0
 40
7.0
 40
7.0
 40
7.0
 40
8.0
 40
8.0
 40
8.0
 40
9.0
 40
9.0
 40
9.0
 40
10.0
 40
10.0
 40
10.0
 40
11.0
 40
11.0
 40
11.0
 40
12.0
 40
12.0
 40
12.0
 40
13.0
 40
13.0
 40
13.0
 40
14.0
 40
14.0
 40
14.0
 40
15.0
 40
15.0
 40
15.0
 40
16.0
 40
16.0
 40
16.0
 40
16.0
 10
76.61444496782556
 20
-138.6351209505843
 30
0.0
 10
76.61444496782556
 20
-138.7133246180994
 30
0.0
 10
76.59756399994784
 20
-138.8149549349143
 30
0.0
 10
76.53400198824498
 20
-138.9162407421807
 30
0.0
 10
76.4241034422655
 20
-139.0898735546373
 30
0.0
 10
76.29284530427749
 20
-139.1108886370973
 30
0.0
 10
76.18501381558917
 20
-139.1298366622662
 30
0.0
 10
76.18501381558917
 20
-139.1298366622662
 30
0.0
 10
76.18501381558917
 20
-138.9079725130161
 30
0.0
 10
76.18501381558917
 20
-138.9079725130161
 30
0.0
 10
76.38379582508809
 20
-138.8528509852521
 30
0.0
 10
76.41342364626124
 20
-138.7260714713949
 30
0.0
 10
76.41342364626124
 20
-138.6327093837446
 30
0.0
 10
76.41342364626124
 20
-138.493183016592
 30
0.0
 10
76.31403264151177
 20
-138.3409097961439
 30
0.0
 10
76.08131644148315
 20
-138.3409097961439
 30
0.0
 10
75.82534584692908
 20
-138.3409097961439
 30
0.0
 10
75.75558266335277
 20
-138.520743780474
 30
0.0
 10
75.75558266335277
 20
-138.6413221224577
 30
0.0
 10
75.75558266335277
 20
-138.673017000922
 30
0.0
 10
75.75558266335277
 20
-138.8149549349143
 30
0.0
 10
75.88460148927538
 20
-138.9034938888852
 30
0.0
 10
75.88460148927538
 20
-138.9034938888852
 30
0.0
 10
75.86548120933224
 20
-139.079193758633
 30
0.0
 10
75.86548120933224
 20
-139.079193758633
 30
0.0
 10
75.86548120933224
 20
-139.079193758633
 30
0.0
 10
75.01936575815489
 20
-138.9586154166493
 30
0.0
 10
75.01936575815489
 20
-138.9586154166493
 30
0.0
 10
75.01936575815489
 20
-138.9586154166493
 30
0.0
 10
75.01936575815489
 20
-138.1800238369828
 30
0.0
 10
75.01936575815489
 20
-138.1800238369828
 30
0.0
 10
75.01936575815489
 20
-138.1800238369828
 30
0.0
 10
75.2140136530715
 20
-138.1800238369828
 30
0.0
 10
75.2140136530715
 20
-138.1800238369828
 30
0.0
 10
75.2140136530715
 20
-138.1800238369828
 30
0.0
 10
75.2140136530715
 20
-138.7956624001969
 30
0.0
 10
75.2140136530715
 20
-138.7956624001969
 30
0.0
 10
75.2140136530715
 20
-138.7956624001969
 30
0.0
 10
75.63707137866018
 20
-138.8614637239652
 30
0.0
 10
75.63707137866018
 20
-138.8614637239652
 30
0.0
 10
75.60330944290473
 20
-138.8001410243278
 30
0.0
 10
75.56300182572731
 20
-138.7174587326818
 30
0.0
 10
75.56300182572731
 20
-138.5989474479892
 30
0.0
 10
75.56300182572731
 20
-138.3450439107262
 30
0.0
 10
75.74920923670506
 20
-138.1083658508896
 30
0.0
 10
76.06236841631427
 20
-138.1083658508896
 30
0.0
 10
76.37966171050579
 20
-138.1083658508896
 30
0.0
 10
76.61444496782556
 20
-138.3322970574308
 30
0.0
 10
76.61444496782556
 20
-138.6351209505843
 30
0.0
  0
HATCH
  5
217
330
208
100
AcDbEntity
  8
_U+30EC_U+30A4_U+30E4_U+30FC 1
 62
   179
420
  2234388
100
AcDbHatch
 10
0.0
 20
0.0
 30
0.0
210
0.0
220
0.0
230
1.0
  2
SOLID
 70
     1
 71
     0
 91
        1
 92
        1
 93
        1
 72
     4
 94
        3
 73
     0
 74
     1
 95
       53
 96
       49
 40
0.0
 40
0.0
 40
0.0
 40
0.0
 40
1.0
 40
1.0
 40
1.0
 40
2.0
 40
2.0
 40
2.0
 40
3.0
 40
3.0
 40
3.0
 40
4.0
 40
4.0
 40
4.0
 40
5.0
 40
5.0
 40
5.0
 40
6.0
 40
6.0
 40
6.0
 40
7.0
 40
7.0
 40
7.0
 40
8.0
 40
8.0
 40
8.0
 40
9.0
 40
9.0
 40
9.0
 40
10.0
 40
10.0
 40
10.0
 40
11.0
 40
11.0
 40
11.0
 40
12.0
 40
12.0
 40
12.0
 40
13.0
 40
13.0
 40
13.0
 40
14.0
 40
14.0
 40
14.0
 40
15.0
 40
15.0
 40
15.0
 40
16.0
 40
16.0
 40
16.0
 40
16.0
 10
76.61444496782556
 20
-138.6351209505843
 10
76.61444496782556
 20
-138.7133246180994
 10
76.59756399994784
 20
-138.8149549349143
 10
76.53400198824498
 20
-138.9162407421807
 10
76.4241034422655
 20
-139.0898735546373
 10
76.29284530427749
 20
-139.1108886370973
 10
76.18501381558917
 20
-139.1298366622662
 10
76.18501381558917
 20
-139.1298366622662
 10
76.18501381558917
 20
-138.9079725130161
 10
76.18501381558917
 20
-138.9079725130161
 10
76.38379582508809
 20
-138.8528509852521
 10
76.41342364626124
 20
-138.7260714713949
 10
76.41342364626124
 20
-138.6327093837446
 10
76.41342364626124
 20
-138.493183016592
 10
76.31403264151177
 20
-138.3409097961439
 10
76.08131644148315
 20
-138.3409097961439
 10
75.82534584692908
 20
-138.3409097961439
 10
75.75558266335277
 20
-138.520743780474
 10
75.75558266335277
 20
-138.6413221224577
 10
75.75558266335277
 20
-138.673017000922
 10
75.75558266335277
 20
-138.8149549349143
 10
75.88460148927538
 20
-138.9034938888852
 10
75.88460148927538
 20
-138.9034938888852
 10
75.86548120933224
 20
-139.079193758633
 10
75.86548120933224
 20
-139.079193758633
 10
75.86548120933224
 20
-139.079193758633
 10
75.01936575815489
 20
-138.9586154166493
 10
75.01936575815489
 20
-138.9586154166493
 10
75.01936575815489
 20
-138.9586154166493
 10
75.01936575815489
 20
-138.1800238369828
 10
75.01936575815489
 20
-138.1800238369828
 10
75.01936575815489
 20
-138.1800238369828
 10
75.2140136530715
 20
-138.1800238369828
 10
75.2140136530715
 20
-138.1800238369828
 10
75.2140136530715
 20
-138.1800238369828
 10
75.2140136530715
 20
-138.7956624001969
 10
75.2140136530715
 20
-138.7956624001969
 10
75.2140136530715
 20
-138.7956624001969
 10
75.63707137866018
 20
-138.8614637239652
 10
75.63707137866018
 20
-138.8614637239652
 10
75.60330944290473
 20
-138.8001410243278
 10
75.56300182572731
 20
-138.7174587326818
 10
75.56300182572731
 20
-138.5989474479892
 10
75.56300182572731
 20
-138.3450439107262
 10
75.74920923670506
 20
-138.1083658508896
 10
76.06236841631427
 20
-138.1083658508896
 10
76.37966171050579
 20
-138.1083658508896
 10
76.61444496782556
 20
-138.3322970574308
 10
76.61444496782556
 20
-138.6351209505843
 97
        0
 97
        0
 75
     2
 76
     1
 98
        0
  0
ENDBLK
  5
20B
330
208
100
AcDbEntity
  8
0
100
AcDbBlockEnd
  0
BLOCK
  5
225
330
223
100
AcDbEntity
  8
0
100
AcDbBlockBegin
  2
block 12
 70
     0
 10
0.0
 20
0.0
 30
0.0
  3
block 12
  1

  0
SPLINE
  5
227
330
223
100
AcDbEntity
  8
_U+30EC_U+30A4_U+30E4_U+30FC 1
370
     0
100
AcDbSpline
210
0.0
220
0.0
230
1.0
 70
    11
 71
     3
 72
    26
 73
    22
 74
     0
 42
0.0000000001
 43
0.0000000001
 12
1.0
 22
0.0
 32
0.0
 13
1.0
 23
0.0
 33
0.0
 40
0.0
 40
0.0
 40
0.0
 40
0.0
 40
1.0
 40
1.0
 40
1.0
 40
2.0
 40
2.0
 40
2.0
 40
3.0
 40
3.0
 40
3.0
 40
4.0
 40
4.0
 40
4.0
 40
5.0
 40
5.0
 40
5.0
 40
6.0
 40
6.0
 40
6.0
 40
7.0
 40
7.0
 40
7.0
 40
7.0
 10
76.56362980941812
 20
-129.6155164606517
 30
0.0
 10
76.56362980941812
 20
-129.6155164606517
 30
0.0
 10
75.45930445162129
 20
-129.6155164606517
 30
0.0
 10
75.45930445162129
 20
-129.6155164606517
 30
0.0
 10
75.45930445162129
 20
-129.6155164606517
 30
0.0
 10
75.45930445162129
 20
-129.9455566081386
 30
0.0
 10
75.45930445162129
 20
-129.9455566081386
 30
0.0
 10
75.45930445162129
 20
-129.9455566081386
 30
0.0
 10
75.31133760052981
 20
-129.9455566081386
 30
0.0
 10
75.31133760052981
 20
-129.9455566081386
 30
0.0
 10
75.29652368994323
 20
-129.6134494033605
 30
0.0
 10
75.13357067349092
 20
-129.5669406143097
 30
0.0
 10
75.01936575815489
 20
-129.5373127931365
 30
0.0
 10
75.01936575815489
 20
-129.5373127931365
 30
0.0
 10
75.01936575815489
 20
-129.3912407445619
 30
0.0
 10
75.01936575815489
 20
-129.3912407445619
 30
0.0
 10
75.01936575815489
 20
-129.3912407445619
 30
0.0
 10
76.56362980941812
 20
-129.3912407445619
 30
0.0
 10
76.56362980941812
 20
-129.3912407445619
 30
0.0
 10
76.56362980941812
 20
-129.3912407445619
 30
0.0
 10
76.56362980941812
 20
-129.6155164606517
 30
0.0
 10
76.56362980941812
 20
-129.6155164606517
 30
0.0
  0
HATCH
  5
228
330
223
100
AcDbEntity
  8
_U+30EC_U+30A4_U+30E4_U+30FC 1
 62
   179
420
  2234388
100
AcDbHatch
 10
0.0
 20
0.0
 30
0.0
210
0.0
220
0.0
230
1.0
  2
SOLID
 70
     1
 71
     0
 91
        1
 92
        1
 93
        1
 72
     4
 94
        3
 73
     0
 74
     1
 95
       26
 96
       22
 40
0.0
 40
0.0
 40
0.0
 40
0.0
 40
1.0
 40
1.0
 40
1.0
 40
2.0
 40
2.0
 40
2.0
 40
3.0
 40
3.0
 40
3.0
 40
4.0
 40
4.0
 40
4.0
 40
5.0
 40
5.0
 40
5.0
 40
6.0
 40
6.0
 40
6.0
 40
7.0
 40
7.0
 40
7.0
 40
7.0
 10
76.56362980941812
 20
-129.6155164606517
 10
76.56362980941812
 20
-129.6155164606517
 10
75.45930445162129
 20
-129.6155164606517
 10
75.45930445162129
 20
-129.6155164606517
 10
75.45930445162129
 20
-129.6155164606517
 10
75.45930445162129
 20
-129.9455566081386
 10
75.45930445162129
 20
-129.9455566081386
 10
75.45930445162129
 20
-129.9455566081386
 10
75.31133760052981
 20
-129.9455566081386
 10
75.31133760052981
 20
-129.9455566081386
 10
75.29652368994323
 20
-129.6134494033605
 10
75.13357067349092
 20
-129.5669406143097
 10
75.01936575815489
 20
-129.5373127931365
 10
75.01936575815489
 20
-129.5373127931365
 10
75.01936575815489
 20
-129.3912407445619
 10
75.01936575815489
 20
-129.3912407445619
 10
75.01936575815489
 20
-129.3912407445619
 10
76.56362980941812
 20
-129.3912407445619
 10
76.56362980941812
 20
-129.3912407445619
 10
76.56362980941812
 20
-129.3912407445619
 10
76.56362980941812
 20
-129.6155164606517
 10
76.56362980941812
 20
-129.6155164606517
 97
        0
 97
        0
 75
     2
 76
     1
 98
        0
  0
SPLINE
  5
229
330
223
100
AcDbEntity
  8
_U+30EC_U+30A4_U+30E4_U+30FC 1
370
     0
100
AcDbSpline
210
0.0
220
0.0
230
1.0
 70
    11
 71
     3
 72
    29
 73
    25
 74
     0
 42
0.0000000001
 43
0.0000000001
 12
1.0
 22
0.0
 32
0.0
 13
1.0
 23
0.0
 33
0.0
 40
0.0
 40
0.0
 40
0.0
 40
0.0
 40
1.0
 40
1.0
 40
1.0
 40
2.0
 40
2.0
 40
2.0
 40
3.0
 40
3.0
 40
3.0
 40
4.0
 40
4.0
 40
4.0
 40
5.0
 40
5.0
 40
5.0
 40
6.0
 40
6.0
 40
6.0
 40
7.0
 40
7.0
 40
7.0
 40
8.0
 40
8.0
 40
8.0
 40
8.0
 10
76.3860351371535
 20
-127.9923597227762
 30
0.0
 10
76.59532468788242
 20
-128.1001912114645
 30
0.0
 10
76.61444496782556
 20
-128.2736517691469
 30
0.0
 10
76.61444496782556
 20
-128.3900959965483
 30
0.0
 10
76.61444496782556
 20
-128.5508097009352
 30
0.0
 10
76.56793617877469
 20
-128.6925753801532
 30
0.0
 10
76.3860351371535
 20
-128.7876600155462
 30
0.0
 10
76.19138724223689
 20
-128.8913573896522
 30
0.0
 10
75.9543646728517
 20
-128.9106499243696
 30
0.0
 10
75.79158391117363
 20
-128.9106499243696
 30
0.0
 10
75.6475789198902
 20
-128.9106499243696
 30
0.0
 10
75.39591469469269
 20
-128.8934244469433
 30
0.0
 10
75.19713268519378
 20
-128.7876600155462
 30
0.0
 10
74.99387205156404
 20
-128.6798285268578
 30
0.0
 10
74.9706176570386
 20
-128.5191148224709
 30
0.0
 10
74.9706176570386
 20
-128.3900959965483
 30
0.0
 10
74.9706176570386
 20
-128.2314493494526
 30
0.0
 10
75.01505938879832
 20
-128.0876166129434
 30
0.0
 10
75.19713268519378
 20
-127.9923597227762
 30
0.0
 10
75.38954126804498
 20
-127.8929687180268
 30
0.0
 10
75.61795109871704
 20
-127.8697143235013
 30
0.0
 10
75.79158391117363
 20
-127.8697143235013
 30
0.0
 10
75.96280515679055
 20
-127.8697143235013
 30
0.0
 10
76.19345429952803
 20
-127.8907294059614
 30
0.0
 10
76.3860351371535
 20
-127.9923597227762
 30
0.0
  0
SPLINE
  5
22A
330
223
100
AcDbEntity
  8
_U+30EC_U+30A4_U+30E4_U+30FC 1
370
     0
100
AcDbSpline
210
0.0
220
0.0
230
1.0
 70
    11
 71
     3
 72
    17
 73
    13
 74
     0
 42
0.0000000001
 43
0.0000000001
 12
1.0
 22
0.0
 32
0.0
 13
1.0
 23
0.0
 33
0.0
 40
0.0
 40
0.0
 40
0.0
 40
0.0
 40
1.0
 40
1.0
 40
1.0
 40
2.0
 40
2.0
 40
2.0
 40
3.0
 40
3.0
 40
3.0
 40
4.0
 40
4.0
 40
4.0
 40
4.0
 10
75.16319849466406
 20
-128.3900959965483
 30
0.0
 10
75.16319849466406
 20
-128.6396931644547
 30
0.0
 10
75.44672985310012
 20
-128.6862019535055
 30
0.0
 10
75.79158391117363
 20
-128.6862019535055
 30
0.0
 10
76.11094426265629
 20
-128.6862019535055
 30
0.0
 10
76.41979707290895
 20
-128.6502007056847
 30
0.0
 10
76.41979707290895
 20
-128.3900959965483
 30
0.0
 10
76.41979707290895
 20
-128.1425658859331
 30
0.0
 10
76.1385050265383
 20
-128.0938177848168
 30
0.0
 10
75.79158391117363
 20
-128.0938177848168
 30
0.0
 10
75.47205130491672
 20
-128.0938177848168
 30
0.0
 10
75.16319849466406
 20
-128.1320583447031
 30
0.0
 10
75.16319849466406
 20
-128.3900959965483
 30
0.0
  0
HATCH
  5
22B
330
223
100
AcDbEntity
  8
_U+30EC_U+30A4_U+30E4_U+30FC 1
 62
   179
420
  2234388
100
AcDbHatch
 10
0.0
 20
0.0
 30
0.0
210
0.0
220
0.0
230
1.0
  2
SOLID
 70
     1
 71
     0
 91
        2
 92
        1
 93
        1
 72
     4
 94
        3
 73
     0
 74
     1
 95
       29
 96
       25
 40
0.0
 40
0.0
 40
0.0
 40
0.0
 40
1.0
 40
1.0
 40
1.0
 40
2.0
 40
2.0
 40
2.0
 40
3.0
 40
3.0
 40
3.0
 40
4.0
 40
4.0
 40
4.0
 40
5.0
 40
5.0
 40
5.0
 40
6.0
 40
6.0
 40
6.0
 40
7.0
 40
7.0
 40
7.0
 40
8.0
 40
8.0
 40
8.0
 40
8.0
 10
76.3860351371535
 20
-127.9923597227762
 10
76.59532468788242
 20
-128.1001912114645
 10
76.61444496782556
 20
-128.2736517691469
 10
76.61444496782556
 20
-128.3900959965483
 10
76.61444496782556
 20
-128.5508097009352
 10
76.56793617877469
 20
-128.6925753801532
 10
76.3860351371535
 20
-128.7876600155462
 10
76.19138724223689
 20
-128.8913573896522
 10
75.9543646728517
 20
-128.9106499243696
 10
75.79158391117363
 20
-128.9106499243696
 10
75.6475789198902
 20
-128.9106499243696
 10
75.39591469469269
 20
-128.8934244469433
 10
75.19713268519378
 20
-128.7876600155462
 10
74.99387205156404
 20
-128.6798285268578
 10
74.9706176570386
 20
-128.5191148224709
 10
74.9706176570386
 20
-128.3900959965483
 10
74.9706176570386
 20
-128.2314493494526
 10
75.01505938879832
 20
-128.0876166129434
 10
75.19713268519378
 20
-127.9923597227762
 10
75.38954126804498
 20
-127.8929687180268
 10
75.61795109871704
 20
-127.8697143235013
 10
75.79158391117363
 20
-127.8697143235013
 10
75.96280515679055
 20
-127.8697143235013
 10
76.19345429952803
 20
-127.8907294059614
 10
76.3860351371535
 20
-127.9923597227762
 97
        0
 97
        0
 92
        1
 93
        1
 72
     4
 94
        3
 73
     0
 74
     1
 95
       17
 96
       13
 40
0.0
 40
0.0
 40
0.0
 40
0.0
 40
1.0
 40
1.0
 40
1.0
 40
2.0
 40
2.0
 40
2.0
 40
3.0
 40
3.0
 40
3.0
 40
4.0
 40
4.0
 40
4.0
 40
4.0
 10
75.16319849466406
 20
-128.3900959965483
 10
75.16319849466406
 20
-128.6396931644547
 10
75.44672985310012
 20
-128.6862019535055
 10
75.79158391117363
 20
-128.6862019535055
 10
76.11094426265629
 20
-128.6862019535055
 10
76.41979707290895
 20
-128.6502007056847
 10
76.41979707290895
 20
-128.3900959965483
 10
76.41979707290895
 20
-128.1425658859331
 10
76.1385050265383
 20
-128.0938177848168
 10
75.79158391117363
 20
-128.0938177848168
 10
75.47205130491672
 20
-128.0938177848168
 10
75.16319849466406
 20
-128.1320583447031
 10
75.16319849466406
 20
-128.3900959965483
 97
        0
 97
        0
 75
     2
 76
     1
 98
        0
  0
ENDBLK
  5
226
330
223
100
AcDbEntity
  8
0
100
AcDbBlockEnd
  0
BLOCK
  5
23D
330
23B
100
AcDbEntity
  8
0
100
AcDbBlockBegin
  2
block 13
 70
     0
 10
0.0
 20
0.0
 30
0.0
  3
block 13
  1

  0
SPLINE
  5
23F
330
23B
100
AcDbEntity
  8
_U+30EC_U+30A4_U+30E4_U+30FC 1
370
     0
100
AcDbSpline
210
0.0
220
0.0
230
1.0
 70
    11
 71
     3
 72
    26
 73
    22
 74
     0
 42
0.0000000001
 43
0.0000000001
 12
1.0
 22
0.0
 32
0.0
 13
1.0
 23
0.0
 33
0.0
 40
0.0
 40
0.0
 40
0.0
 40
0.0
 40
1.0
 40
1.0
 40
1.0
 40
2.0
 40
2.0
 40
2.0
 40
3.0
 40
3.0
 40
3.0
 40
4.0
 40
4.0
 40
4.0
 40
5.0
 40
5.0
 40
5.0
 40
6.0
 40
6.0
 40
6.0
 40
7.0
 40
7.0
 40
7.0
 40
7.0
 10
76.56431882851517
 20
-120.3892062416041
 30
0.0
 10
76.56431882851517
 20
-120.3892062416041
 30
0.0
 10
75.45999347071835
 20
-120.3892062416041
 30
0.0
 10
75.45999347071835
 20
-120.3892062416041
 30
0.0
 10
75.45999347071835
 20
-120.3892062416041
 30
0.0
 10
75.45999347071835
 20
-120.719246389091
 30
0.0
 10
75.45999347071835
 20
-120.719246389091
 30
0.0
 10
75.45999347071835
 20
-120.719246389091
 30
0.0
 10
75.31202661962686
 20
-120.719246389091
 30
0.0
 10
75.31202661962686
 20
-120.719246389091
 30
0.0
 10
75.29721270904028
 20
-120.3869669295387
 30
0.0
 10
75.13425969258796
 20
-120.3404581404878
 30
0.0
 10
75.02005477725193
 20
-120.3108303193147
 30
0.0
 10
75.02005477725193
 20
-120.3108303193147
 30
0.0
 10
75.02005477725193
 20
-120.1649305255143
 30
0.0
 10
75.02005477725193
 20
-120.1649305255143
 30
0.0
 10
75.02005477725193
 20
-120.1649305255143
 30
0.0
 10
76.56431882851517
 20
-120.1649305255143
 30
0.0
 10
76.56431882851517
 20
-120.1649305255143
 30
0.0
 10
76.56431882851517
 20
-120.1649305255143
 30
0.0
 10
76.56431882851517
 20
-120.3892062416041
 30
0.0
 10
76.56431882851517
 20
-120.3892062416041
 30
0.0
  0
HATCH
  5
240
330
23B
100
AcDbEntity
  8
_U+30EC_U+30A4_U+30E4_U+30FC 1
 62
   179
420
  2234388
100
AcDbHatch
 10
0.0
 20
0.0
 30
0.0
210
0.0
220
0.0
230
1.0
  2
SOLID
 70
     1
 71
     0
 91
        1
 92
        1
 93
        1
 72
     4
 94
        3
 73
     0
 74
     1
 95
       26
 96
       22
 40
0.0
 40
0.0
 40
0.0
 40
0.0
 40
1.0
 40
1.0
 40
1.0
 40
2.0
 40
2.0
 40
2.0
 40
3.0
 40
3.0
 40
3.0
 40
4.0
 40
4.0
 40
4.0
 40
5.0
 40
5.0
 40
5.0
 40
6.0
 40
6.0
 40
6.0
 40
7.0
 40
7.0
 40
7.0
 40
7.0
 10
76.56431882851517
 20
-120.3892062416041
 10
76.56431882851517
 20
-120.3892062416041
 10
75.45999347071835
 20
-120.3892062416041
 10
75.45999347071835
 20
-120.3892062416041
 10
75.45999347071835
 20
-120.3892062416041
 10
75.45999347071835
 20
-120.719246389091
 10
75.45999347071835
 20
-120.719246389091
 10
75.45999347071835
 20
-120.719246389091
 10
75.31202661962686
 20
-120.719246389091
 10
75.31202661962686
 20
-120.719246389091
 10
75.29721270904028
 20
-120.3869669295387
 10
75.13425969258796
 20
-120.3404581404878
 10
75.02005477725193
 20
-120.3108303193147
 10
75.02005477725193
 20
-120.3108303193147
 10
75.02005477725193
 20
-120.1649305255143
 10
75.02005477725193
 20
-120.1649305255143
 10
75.02005477725193
 20
-120.1649305255143
 10
76.56431882851517
 20
-120.1649305255143
 10
76.56431882851517
 20
-120.1649305255143
 10
76.56431882851517
 20
-120.1649305255143
 10
76.56431882851517
 20
-120.3892062416041
 10
76.56431882851517
 20
-120.3892062416041
 97
        0
 97
        0
 75
     2
 76
     1
 98
        0
  0
POLYLINE
  5
241
330
23B
100
AcDbEntity
  8
_U+30EC_U+30A4_U+30E4_U+30FC 1
370
     0
100
AcDb2dPolyline
 66
     1
 10
0.0
 20
0.0
 30
0.0
  0
VERTEX
  5
242
330
241
100
AcDbEntity
  8
_U+30EC_U+30A4_U+30E4_U+30FC 1
370
     0
100
AcDbVertex
100
AcDb2dVertex
 10
76.56431882851517
 20
-119.6037244709671
 30
0.0
  0
VERTEX
  5
243
330
241
100
AcDbEntity
  8
_U+30EC_U+30A4_U+30E4_U+30FC 1
370
     0
100
AcDbVertex
100
AcDb2dVertex
 10
76.31265460331767
 20
-119.6037244709671
 30
0.0
  0
VERTEX
  5
244
330
241
100
AcDbEntity
  8
_U+30EC_U+30A4_U+30E4_U+30FC 1
370
     0
100
AcDbVertex
100
AcDb2dVertex
 10
76.31265460331767
 20
-119.3518879909954
 30
0.0
  0
VERTEX
  5
245
330
241
100
AcDbEntity
  8
_U+30EC_U+30A4_U+30E4_U+30FC 1
370
     0
100
AcDbVertex
100
AcDb2dVertex
 10
76.56431882851517
 20
-119.3518879909954
 30
0.0
  0
VERTEX
  5
246
330
241
100
AcDbEntity
  8
_U+30EC_U+30A4_U+30E4_U+30FC 1
370
     0
100
AcDbVertex
100
AcDb2dVertex
 10
76.56431882851517
 20
-119.6037244709671
 30
0.0
  0
SEQEND
  5
247
330
241
100
AcDbEntity
  8
_U+30EC_U+30A4_U+30E4_U+30FC 1
370
     0
  0
HATCH
  5
248
330
23B
100
AcDbEntity
  8
_U+30EC_U+30A4_U+30E4_U+30FC 1
 62
   179
420
  2234388
100
AcDbHatch
 10
0.0
 20
0.0
 30
0.0
210
0.0
220
0.0
230
1.0
  2
SOLID
 70
     1
 71
     0
 91
        1
 92
        1
 93
        4
 72
     1
 10
76.56431882851517
 20
-119.6037244709671
 11
76.31265460331767
 21
-119.6037244709671
 72
     1
 10
76.31265460331767
 20
-119.6037244709671
 11
76.31265460331767
 21
-119.3518879909954
 72
     1
 10
76.31265460331767
 20
-119.3518879909954
 11
76.56431882851517
 21
-119.3518879909954
 72
     1
 10
76.56431882851517
 20
-119.3518879909954
 11
76.56431882851517
 21
-119.6037244709671
 97
        0
 75
     2
 76
     1
 98
        0
  0
SPLINE
  5
249
330
23B
100
AcDbEntity
  8
_U+30EC_U+30A4_U+30E4_U+30FC 1
370
     0
100
AcDbSpline
210
0.0
220
0.0
230
1.0
 70
    11
 71
     3
 72
    53
 73
    49
 74
     0
 42
0.0000000001
 43
0.0000000001
 12
1.0
 22
0.0
 32
0.0
 13
1.0
 23
0.0
 33
0.0
 40
0.0
 40
0.0
 40
0.0
 40
0.0
 40
1.0
 40
1.0
 40
1.0
 40
2.0
 40
2.0
 40
2.0
 40
3.0
 40
3.0
 40
3.0
 40
4.0
 40
4.0
 40
4.0
 40
5.0
 40
5.0
 40
5.0
 40
6.0
 40
6.0
 40
6.0
 40
7.0
 40
7.0
 40
7.0
 40
8.0
 40
8.0
 40
8.0
 40
9.0
 40
9.0
 40
9.0
 40
10.0
 40
10.0
 40
10.0
 40
11.0
 40
11.0
 40
11.0
 40
12.0
 40
12.0
 40
12.0
 40
13.0
 40
13.0
 40
13.0
 40
14.0
 40
14.0
 40
14.0
 40
15.0
 40
15.0
 40
15.0
 40
16.0
 40
16.0
 40
16.0
 40
16.0
 10
76.61513398692261
 20
-118.6344468561921
 30
0.0
 10
76.61513398692261
 20
-118.7128227784815
 30
0.0
 10
76.59825301904489
 20
-118.8142808405221
 30
0.0
 10
76.53469100734202
 20
-118.915911157337
 30
0.0
 10
76.42479246136256
 20
-119.0893717150193
 30
0.0
 10
76.29353432337453
 20
-119.1103867974794
 30
0.0
 10
76.18570283468621
 20
-119.1295070774225
 30
0.0
 10
76.18570283468621
 20
-119.1295070774225
 30
0.0
 10
76.18570283468621
 20
-118.9072984186239
 30
0.0
 10
76.18570283468621
 20
-118.9072984186239
 30
0.0
 10
76.38448484418514
 20
-118.8523491456341
 30
0.0
 10
76.41411266535827
 20
-118.7253973770027
 30
0.0
 10
76.41411266535827
 20
-118.6323797989009
 30
0.0
 10
76.41411266535827
 20
-118.4926811769741
 30
0.0
 10
76.31472166060883
 20
-118.340407956526
 30
0.0
 10
76.08200546058019
 20
-118.340407956526
 30
0.0
 10
75.82603486602613
 20
-118.340407956526
 30
0.0
 10
75.75627168244982
 20
-118.5202419408561
 30
0.0
 10
75.75627168244982
 20
-118.6408202828398
 30
0.0
 10
75.75627168244982
 20
-118.6725151613041
 30
0.0
 10
75.75627168244982
 20
-118.8142808405221
 30
0.0
 10
75.88529050837244
 20
-118.9031643040416
 30
0.0
 10
75.88529050837244
 20
-118.9031643040416
 30
0.0
 10
75.8661702284293
 20
-119.0786919190151
 30
0.0
 10
75.8661702284293
 20
-119.0786919190151
 30
0.0
 10
75.8661702284293
 20
-119.0786919190151
 30
0.0
 10
75.02005477725193
 20
-118.9581135770313
 30
0.0
 10
75.02005477725193
 20
-118.9581135770313
 30
0.0
 10
75.02005477725193
 20
-118.9581135770313
 30
0.0
 10
75.02005477725193
 20
-118.1796942521391
 30
0.0
 10
75.02005477725193
 20
-118.1796942521391
 30
0.0
 10
75.02005477725193
 20
-118.1796942521391
 30
0.0
 10
75.21470267216856
 20
-118.1796942521391
 30
0.0
 10
75.21470267216856
 20
-118.1796942521391
 30
0.0
 10
75.21470267216856
 20
-118.1796942521391
 30
0.0
 10
75.21470267216856
 20
-118.7953328153533
 30
0.0
 10
75.21470267216856
 20
-118.7953328153533
 30
0.0
 10
75.21470267216856
 20
-118.7953328153533
 30
0.0
 10
75.63776039775723
 20
-118.860789629573
 30
0.0
 10
75.63776039775723
 20
-118.860789629573
 30
0.0
 10
75.60399846200178
 20
-118.7994669299356
 30
0.0
 10
75.56369084482436
 20
-118.7169568930638
 30
0.0
 10
75.56369084482436
 20
-118.5984456083712
 30
0.0
 10
75.56369084482436
 20
-118.3447143258826
 30
0.0
 10
75.74989825580211
 20
-118.1076917564974
 30
0.0
 10
76.06305743541132
 20
-118.1076917564974
 30
0.0
 10
76.38035072960284
 20
-118.1076917564974
 30
0.0
 10
76.61513398692261
 20
-118.3319674725872
 30
0.0
 10
76.61513398692261
 20
-118.6344468561921
 30
0.0
  0
HATCH
  5
24A
330
23B
100
AcDbEntity
  8
_U+30EC_U+30A4_U+30E4_U+30FC 1
 62
   179
420
  2234388
100
AcDbHatch
 10
0.0
 20
0.0
 30
0.0
210
0.0
220
0.0
230
1.0
  2
SOLID
 70
     1
 71
     0
 91
        1
 92
        1
 93
        1
 72
     4
 94
        3
 73
     0
 74
     1
 95
       53
 96
       49
 40
0.0
 40
0.0
 40
0.0
 40
0.0
 40
1.0
 40
1.0
 40
1.0
 40
2.0
 40
2.0
 40
2.0
 40
3.0
 40
3.0
 40
3.0
 40
4.0
 40
4.0
 40
4.0
 40
5.0
 40
5.0
 40
5.0
 40
6.0
 40
6.0
 40
6.0
 40
7.0
 40
7.0
 40
7.0
 40
8.0
 40
8.0
 40
8.0
 40
9.0
 40
9.0
 40
9.0
 40
10.0
 40
10.0
 40
10.0
 40
11.0
 40
11.0
 40
11.0
 40
12.0
 40
12.0
 40
12.0
 40
13.0
 40
13.0
 40
13.0
 40
14.0
 40
14.0
 40
14.0
 40
15.0
 40
15.0
 40
15.0
 40
16.0
 40
16.0
 40
16.0
 40
16.0
 10
76.61513398692261
 20
-118.6344468561921
 10
76.61513398692261
 20
-118.7128227784815
 10
76.59825301904489
 20
-118.8142808405221
 10
76.53469100734202
 20
-118.915911157337
 10
76.42479246136256
 20
-119.0893717150193
 10
76.29353432337453
 20
-119.1103867974794
 10
76.18570283468621
 20
-119.1295070774225
 10
76.18570283468621
 20
-119.1295070774225
 10
76.18570283468621
 20
-118.9072984186239
 10
76.18570283468621
 20
-118.9072984186239
 10
76.38448484418514
 20
-118.8523491456341
 10
76.41411266535827
 20
-118.7253973770027
 10
76.41411266535827
 20
-118.6323797989009
 10
76.41411266535827
 20
-118.4926811769741
 10
76.31472166060883
 20
-118.340407956526
 10
76.08200546058019
 20
-118.340407956526
 10
75.82603486602613
 20
-118.340407956526
 10
75.75627168244982
 20
-118.5202419408561
 10
75.75627168244982
 20
-118.6408202828398
 10
75.75627168244982
 20
-118.6725151613041
 10
75.75627168244982
 20
-118.8142808405221
 10
75.88529050837244
 20
-118.9031643040416
 10
75.88529050837244
 20
-118.9031643040416
 10
75.8661702284293
 20
-119.0786919190151
 10
75.8661702284293
 20
-119.0786919190151
 10
75.8661702284293
 20
-119.0786919190151
 10
75.02005477725193
 20
-118.9581135770313
 10
75.02005477725193
 20
-118.9581135770313
 10
75.02005477725193
 20
-118.9581135770313
 10
75.02005477725193
 20
-118.1796942521391
 10
75.02005477725193
 20
-118.1796942521391
 10
75.02005477725193
 20
-118.1796942521391
 10
75.21470267216856
 20
-118.1796942521391
 10
75.21470267216856
 20
-118.1796942521391
 10
75.21470267216856
 20
-118.1796942521391
 10
75.21470267216856
 20
-118.7953328153533
 10
75.21470267216856
 20
-118.7953328153533
 10
75.21470267216856
 20
-118.7953328153533
 10
75.63776039775723
 20
-118.860789629573
 10
75.63776039775723
 20
-118.860789629573
 10
75.60399846200178
 20
-118.7994669299356
 10
75.56369084482436
 20
-118.7169568930638
 10
75.56369084482436
 20
-118.5984456083712
 10
75.56369084482436
 20
-118.3447143258826
 10
75.74989825580211
 20
-118.1076917564974
 10
76.06305743541132
 20
-118.1076917564974
 10
76.38035072960284
 20
-118.1076917564974
 10
76.61513398692261
 20
-118.3319674725872
 10
76.61513398692261
 20
-118.6344468561921
 97
        0
 97
        0
 75
     2
 76
     1
 98
        0
  0
ENDBLK
  5
23E
330
23B
100
AcDbEntity
  8
0
100
AcDbBlockEnd
  0
ENDSEC
  0
SECTION
  2
ENTITIES
  0
POLYLINE
  5
41
330
1F
100
AcDbEntity
  8
_U+30EC_U+30A4_U+30E4_U+30FC 1
 62
   179
420
  2234388
370
    25
100
AcDb2dPolyline
 66
     1
 10
0.0
 20
0.0
 30
0.0
  0
VERTEX
  5
42
330
41
100
AcDbEntity
  8
_U+30EC_U+30A4_U+30E4_U+30FC 1
 62
   179
420
  2234388
370
    25
100
AcDbVertex
100
AcDb2dVertex
 10
97.02595141355064
 20
-125.4774463575197
 30
0.0
  0
VERTEX
  5
43
330
41
100
AcDbEntity
  8
_U+30EC_U+30A4_U+30E4_U+30FC 1
 62
   179
420
  2234388
370
    25
100
AcDbVertex
100
AcDb2dVertex
 10
97.02595141355064
 20
-136.4774455214363
 30
0.0
  0
SEQEND
  5
44
330
41
100
AcDbEntity
  8
_U+30EC_U+30A4_U+30E4_U+30FC 1
 62
   179
420
  2234388
370
    25
  0
POLYLINE
  5
45
330
1F
100
AcDbEntity
  8
_U+30EC_U+30A4_U+30E4_U+30FC 1
 62
   179
420
  2234388
370
    25
100
AcDb2dPolyline
 66
     1
 10
0.0
 20
0.0
 30
0.0
  0
VERTEX
  5
46
330
45
100
AcDbEntity
  8
_U+30EC_U+30A4_U+30E4_U+30FC 1
 62
   179
420
  2234388
370
    25
100
AcDbVertex
100
AcDb2dVertex
 10
99.52569940533232
 20
-122.9776630248112
 30
0.0
  0
VERTEX
  5
47
330
45
100
AcDbEntity
  8
_U+30EC_U+30A4_U+30E4_U+30FC 1
 62
   179
420
  2234388
370
    25
100
AcDbVertex
100
AcDb2dVertex
 10
102.0261555300492
 20
-122.9776630248112
 30
0.0
  0
SEQEND
  5
48
330
45
100
AcDbEntity
  8
_U+30EC_U+30A4_U+30E4_U+30FC 1
 62
   179
420
  2234388
370
    25
  0
POLYLINE
  5
49
330
1F
100
AcDbEntity
  8
_U+30EC_U+30A4_U+30E4_U+30FC 1
 62
   179
420
  2234388
370
    25
100
AcDb2dPolyline
 66
     1
 10
0.0
 20
0.0
 30
0.0
  0
VERTEX
  5
4A
330
49
100
AcDbEntity
  8
_U+30EC_U+30A4_U+30E4_U+30FC 1
 62
   179
420
  2234388
370
    25
100
AcDbVertex
100
AcDb2dVertex
 10
102.0261555300492
 20
-122.9776630248112
 30
0.0
  0
VERTEX
  5
4B
330
49
100
AcDbEntity
  8
_U+30EC_U+30A4_U+30E4_U+30FC 1
 62
   179
420
  2234388
370
    25
100
AcDbVertex
100
AcDb2dVertex
 10
102.0261555300492
 20
-126.4778888572696
 30
0.0
  0
SEQEND
  5
4C
330
49
100
AcDbEntity
  8
_U+30EC_U+30A4_U+30E4_U+30FC 1
 62
   179
420
  2234388
370
    25
  0
POLYLINE
  5
4D
330
1F
100
AcDbEntity
  8
_U+30EC_U+30A4_U+30E4_U+30FC 1
 62
   179
420
  2234388
370
    25
100
AcDb2dPolyline
 66
     1
 10
0.0
 20
0.0
 30
0.0
  0
VERTEX
  5
4E
330
4D
100
AcDbEntity
  8
_U+30EC_U+30A4_U+30E4_U+30FC 1
 62
   179
420
  2234388
370
    25
100
AcDbVertex
100
AcDb2dVertex
 10
79.52623380445009
 20
-133.9776974665056
 30
0.0
  0
VERTEX
  5
4F
330
4D
100
AcDbEntity
  8
_U+30EC_U+30A4_U+30E4_U+30FC 1
 62
   179
420
  2234388
370
    25
100
AcDbVertex
100
AcDb2dVertex
 10
79.52623380445009
 20
-136.4774455214363
 30
0.0
  0
SEQEND
  5
50
330
4D
100
AcDbEntity
  8
_U+30EC_U+30A4_U+30E4_U+30FC 1
 62
   179
420
  2234388
370
    25
  0
POLYLINE
  5
51
330
1F
100
AcDbEntity
  8
_U+30EC_U+30A4_U+30E4_U+30FC 1
 62
   179
420
  2234388
370
    25
100
AcDb2dPolyline
 66
     1
 10
0.0
 20
0.0
 30
0.0
  0
VERTEX
  5
52
330
51
100
AcDbEntity
  8
_U+30EC_U+30A4_U+30E4_U+30FC 1
 62
   179
420
  2234388
370
    25
100
AcDbVertex
100
AcDb2dVertex
 10
100.5261771575858
 20
-126.4778888572696
 30
0.0
  0
VERTEX
  5
53
330
51
100
AcDbEntity
  8
_U+30EC_U+30A4_U+30E4_U+30FC 1
 62
   179
420
  2234388
370
    25
100
AcDbVertex
100
AcDb2dVertex
 10
102.0261555300492
 20
-126.4778888572696
 30
0.0
  0
SEQEND
  5
54
330
51
100
AcDbEntity
  8
_U+30EC_U+30A4_U+30E4_U+30FC 1
 62
   179
420
  2234388
370
    25
  0
POLYLINE
  5
55
330
1F
100
AcDbEntity
  8
_U+30EC_U+30A4_U+30E4_U+30FC 1
 62
   179
420
  2234388
370
    25
100
AcDb2dPolyline
 66
     1
 10
0.0
 20
0.0
 30
0.0
  0
VERTEX
  5
56
330
55
100
AcDbEntity
  8
_U+30EC_U+30A4_U+30E4_U+30FC 1
 62
   179
420
  2234388
370
    25
100
AcDbVertex
100
AcDb2dVertex
 10
79.52623380445009
 20
-136.4774455214363
 30
0.0
  0
VERTEX
  5
57
330
55
100
AcDbEntity
  8
_U+30EC_U+30A4_U+30E4_U+30FC 1
 62
   179
420
  2234388
370
    25
100
AcDbVertex
100
AcDb2dVertex
 10
97.02595141355064
 20
-136.4774455214363
 30
0.0
  0
SEQEND
  5
58
330
55
100
AcDbEntity
  8
_U+30EC_U+30A4_U+30E4_U+30FC 1
 62
   179
420
  2234388
370
    25
  0
POLYLINE
  5
59
330
1F
100
AcDbEntity
  8
_U+30EC_U+30A4_U+30E4_U+30FC 1
 62
   179
420
  2234388
370
    25
100
AcDb2dPolyline
 66
     1
 10
0.0
 20
0.0
 30
0.0
  0
VERTEX
  5
5A
330
59
100
AcDbEntity
  8
_U+30EC_U+30A4_U+30E4_U+30FC 1
 62
   179
420
  2234388
370
    25
100
AcDbVertex
100
AcDb2dVertex
 10
79.52623380445009
 20
-133.9776974665056
 30
0.0
  0
VERTEX
  5
5B
330
59
100
AcDbEntity
  8
_U+30EC_U+30A4_U+30E4_U+30FC 1
 62
   179
420
  2234388
370
    25
100
AcDbVertex
100
AcDb2dVertex
 10
80.526006001166
 20
-133.9776974665056
 30
0.0
  0
SEQEND
  5
5C
330
59
100
AcDbEntity
  8
_U+30EC_U+30A4_U+30E4_U+30FC 1
 62
   179
420
  2234388
370
    25
  0
POLYLINE
  5
5D
330
1F
100
AcDbEntity
  8
_U+30EC_U+30A4_U+30E4_U+30FC 1
 62
   179
420
  2234388
370
    25
100
AcDb2dPolyline
 66
     1
 10
0.0
 20
0.0
 30
0.0
  0
VERTEX
  5
5E
330
5D
100
AcDbEntity
  8
_U+30EC_U+30A4_U+30E4_U+30FC 1
 62
   179
420
  2234388
370
    25
100
AcDbVertex
100
AcDb2dVertex
 10
80.526006001166
 20
-133.9776974665056
 30
0.0
  0
VERTEX
  5
5F
330
5D
100
AcDbEntity
  8
_U+30EC_U+30A4_U+30E4_U+30FC 1
 62
   179
420
  2234388
370
    25
100
AcDbVertex
100
AcDb2dVertex
 10
80.526006001166
 20
-135.4777085772419
 30
0.0
  0
SEQEND
  5
60
330
5D
100
AcDbEntity
  8
_U+30EC_U+30A4_U+30E4_U+30FC 1
 62
   179
420
  2234388
370
    25
  0
POLYLINE
  5
61
330
1F
100
AcDbEntity
  8
_U+30EC_U+30A4_U+30E4_U+30FC 1
 62
   179
420
  2234388
370
    25
100
AcDb2dPolyline
 66
     1
 10
0.0
 20
0.0
 30
0.0
  0
VERTEX
  5
62
330
61
100
AcDbEntity
  8
_U+30EC_U+30A4_U+30E4_U+30FC 1
 62
   179
420
  2234388
370
    25
100
AcDbVertex
100
AcDb2dVertex
 10
80.526006001166
 20
-135.4777085772419
 30
0.0
  0
VERTEX
  5
63
330
61
100
AcDbEntity
  8
_U+30EC_U+30A4_U+30E4_U+30FC 1
 62
   179
420
  2234388
370
    25
100
AcDbVertex
100
AcDb2dVertex
 10
84.65117756259076
 20
-135.4777085772419
 30
0.0
  0
SEQEND
  5
64
330
61
100
AcDbEntity
  8
_U+30EC_U+30A4_U+30E4_U+30FC 1
 62
   179
420
  2234388
370
    25
  0
POLYLINE
  5
65
330
1F
100
AcDbEntity
  8
_U+30EC_U+30A4_U+30E4_U+30FC 1
 62
   179
420
  2234388
370
    25
100
AcDb2dPolyline
 66
     1
 10
0.0
 20
0.0
 30
0.0
  0
VERTEX
  5
66
330
65
100
AcDbEntity
  8
_U+30EC_U+30A4_U+30E4_U+30FC 1
 62
   179
420
  2234388
370
    25
100
AcDbVertex
100
AcDb2dVertex
 10
89.5259666048912
 20
-133.9776974665056
 30
0.0
  0
VERTEX
  5
67
330
65
100
AcDbEntity
  8
_U+30EC_U+30A4_U+30E4_U+30FC 1
 62
   179
420
  2234388
370
    25
100
AcDbVertex
100
AcDb2dVertex
 10
89.5259666048912
 20
-135.4777085772419
 30
0.0
  0
SEQEND
  5
68
330
65
100
AcDbEntity
  8
_U+30EC_U+30A4_U+30E4_U+30FC 1
 62
   179
420
  2234388
370
    25
  0
POLYLINE
  5
69
330
1F
100
AcDbEntity
  8
_U+30EC_U+30A4_U+30E4_U+30FC 1
 62
   179
420
  2234388
370
    25
100
AcDb2dPolyline
 66
     1
 10
0.0
 20
0.0
 30
0.0
  0
VERTEX
  5
6A
330
69
100
AcDbEntity
  8
_U+30EC_U+30A4_U+30E4_U+30FC 1
 62
   179
420
  2234388
370
    25
100
AcDbVertex
100
AcDb2dVertex
 10
90.5257388016071
 20
-133.9776974665056
 30
0.0
  0
VERTEX
  5
6B
330
69
100
AcDbEntity
  8
_U+30EC_U+30A4_U+30E4_U+30FC 1
 62
   179
420
  2234388
370
    25
100
AcDbVertex
100
AcDb2dVertex
 10
90.5257388016071
 20
-135.4777085772419
 30
0.0
  0
SEQEND
  5
6C
330
69
100
AcDbEntity
  8
_U+30EC_U+30A4_U+30E4_U+30FC 1
 62
   179
420
  2234388
370
    25
  0
POLYLINE
  5
6D
330
1F
100
AcDbEntity
  8
_U+30EC_U+30A4_U+30E4_U+30FC 1
 62
   179
420
  2234388
370
    25
100
AcDb2dPolyline
 66
     1
 10
0.0
 20
0.0
 30
0.0
  0
VERTEX
  5
6E
330
6D
100
AcDbEntity
  8
_U+30EC_U+30A4_U+30E4_U+30FC 1
 62
   179
420
  2234388
370
    25
100
AcDbVertex
100
AcDb2dVertex
 10
89.5259666048912
 20
-133.9776974665056
 30
0.0
  0
VERTEX
  5
6F
330
6D
100
AcDbEntity
  8
_U+30EC_U+30A4_U+30E4_U+30FC 1
 62
   179
420
  2234388
370
    25
100
AcDbVertex
100
AcDb2dVertex
 10
90.5257388016071
 20
-133.9776974665056
 30
0.0
  0
SEQEND
  5
70
330
6D
100
AcDbEntity
  8
_U+30EC_U+30A4_U+30E4_U+30FC 1
 62
   179
420
  2234388
370
    25
  0
POLYLINE
  5
71
330
1F
100
AcDbEntity
  8
_U+30EC_U+30A4_U+30E4_U+30FC 1
 62
   179
420
  2234388
370
    25
100
AcDb2dPolyline
 66
     1
 10
0.0
 20
0.0
 30
0.0
  0
VERTEX
  5
72
330
71
100
AcDbEntity
  8
_U+30EC_U+30A4_U+30E4_U+30FC 1
 62
   179
420
  2234388
370
    25
100
AcDbVertex
100
AcDb2dVertex
 10
95.02573674235815
 20
-129.477699412075
 30
0.0
  0
VERTEX
  5
73
330
71
100
AcDbEntity
  8
_U+30EC_U+30A4_U+30E4_U+30FC 1
 62
   179
420
  2234388
370
    25
100
AcDbVertex
100
AcDb2dVertex
 10
95.02573674235815
 20
-134.9774696884782
 30
0.0
  0
SEQEND
  5
74
330
71
100
AcDbEntity
  8
_U+30EC_U+30A4_U+30E4_U+30FC 1
 62
   179
420
  2234388
370
    25
  0
POLYLINE
  5
75
330
1F
100
AcDbEntity
  8
_U+30EC_U+30A4_U+30E4_U+30FC 1
 62
   179
420
  2234388
370
    25
100
AcDb2dPolyline
 66
     1
 10
0.0
 20
0.0
 30
0.0
  0
VERTEX
  5
76
330
75
100
AcDbEntity
  8
_U+30EC_U+30A4_U+30E4_U+30FC 1
 62
   179
420
  2234388
370
    25
100
AcDbVertex
100
AcDb2dVertex
 10
90.5257388016071
 20
-135.4777085772419
 30
0.0
  0
VERTEX
  5
77
330
75
100
AcDbEntity
  8
_U+30EC_U+30A4_U+30E4_U+30FC 1
 62
   179
420
  2234388
370
    25
100
AcDbVertex
100
AcDb2dVertex
 10
94.5261681439921
 20
-135.4777085772419
 30
0.0
  0
SEQEND
  5
78
330
75
100
AcDbEntity
  8
_U+30EC_U+30A4_U+30E4_U+30FC 1
 62
   179
420
  2234388
370
    25
  0
POLYLINE
  5
79
330
1F
100
AcDbEntity
  8
_U+30EC_U+30A4_U+30E4_U+30FC 1
 62
   179
420
  2234388
370
    25
100
AcDb2dPolyline
 66
     1
 10
0.0
 20
0.0
 30
0.0
  0
VERTEX
  5
7A
330
79
100
AcDbEntity
  8
_U+30EC_U+30A4_U+30E4_U+30FC 1
 62
   179
420
  2234388
370
    25
100
AcDbVertex
100
AcDb2dVertex
 10
85.4008303212433
 20
-135.4777085772419
 30
0.0
  0
VERTEX
  5
7B
330
79
100
AcDbEntity
  8
_U+30EC_U+30A4_U+30E4_U+30FC 1
 62
   179
420
  2234388
370
    25
100
AcDbVertex
100
AcDb2dVertex
 10
89.5259666048912
 20
-135.4777085772419
 30
0.0
  0
SEQEND
  5
7C
330
79
100
AcDbEntity
  8
_U+30EC_U+30A4_U+30E4_U+30FC 1
 62
   179
420
  2234388
370
    25
  0
POLYLINE
  5
7D
330
1F
100
AcDbEntity
  8
_U+30EC_U+30A4_U+30E4_U+30FC 1
  6
AI-Linetype-1
 62
   179
420
  2234388
370
     9
100
AcDb2dPolyline
 66
     1
 10
0.0
 20
0.0
 30
0.0
  0
VERTEX
  5
7E
330
7D
100
AcDbEntity
  8
_U+30EC_U+30A4_U+30E4_U+30FC 1
  6
AI-Linetype-1
 62
   179
420
  2234388
370
     9
100
AcDbVertex
100
AcDb2dVertex
 10
85.02600394191704
 20
-132.3330121891392
 30
0.0
  0
VERTEX
  5
7F
330
7D
100
AcDbEntity
  8
_U+30EC_U+30A4_U+30E4_U+30FC 1
  6
AI-Linetype-1
 62
   179
420
  2234388
370
     9
100
AcDbVertex
100
AcDb2dVertex
 10
85.02600394191704
 20
-135.9351907993498
 30
0.0
  0
SEQEND
  5
81
330
7D
100
AcDbEntity
  8
_U+30EC_U+30A4_U+30E4_U+30FC 1
  6
AI-Linetype-1
 62
   179
420
  2234388
370
     9
  0
POLYLINE
  5
82
330
1F
100
AcDbEntity
  8
_U+30EC_U+30A4_U+30E4_U+30FC 1
 62
   179
420
  2234388
370
    25
100
AcDb2dPolyline
 66
     1
 10
0.0
 20
0.0
 30
0.0
  0
VERTEX
  5
83
330
82
100
AcDbEntity
  8
_U+30EC_U+30A4_U+30E4_U+30FC 1
 62
   179
420
  2234388
370
    25
100
AcDbVertex
100
AcDb2dVertex
 10
100.5261771575858
 20
-125.4774463575197
 30
0.0
  0
VERTEX
  5
84
330
82
100
AcDbEntity
  8
_U+30EC_U+30A4_U+30E4_U+30FC 1
 62
   179
420
  2234388
370
    25
100
AcDbVertex
100
AcDb2dVertex
 10
100.5261771575858
 20
-126.4778888572696
 30
0.0
  0
SEQEND
  5
85
330
82
100
AcDbEntity
  8
_U+30EC_U+30A4_U+30E4_U+30FC 1
 62
   179
420
  2234388
370
    25
  0
POLYLINE
  5
86
330
1F
100
AcDbEntity
  8
_U+30EC_U+30A4_U+30E4_U+30FC 1
 62
   179
420
  2234388
370
    25
100
AcDb2dPolyline
 66
     1
 10
0.0
 20
0.0
 30
0.0
  0
VERTEX
  5
87
330
86
100
AcDbEntity
  8
_U+30EC_U+30A4_U+30E4_U+30FC 1
 62
   179
420
  2234388
370
    25
100
AcDbVertex
100
AcDb2dVertex
 10
97.02595141355064
 20
-125.4774463575197
 30
0.0
  0
VERTEX
  5
88
330
86
100
AcDbEntity
  8
_U+30EC_U+30A4_U+30E4_U+30FC 1
 62
   179
420
  2234388
370
    25
100
AcDbVertex
100
AcDb2dVertex
 10
100.5261771575858
 20
-125.4774463575197
 30
0.0
  0
SEQEND
  5
89
330
86
100
AcDbEntity
  8
_U+30EC_U+30A4_U+30E4_U+30FC 1
 62
   179
420
  2234388
370
    25
  0
POLYLINE
  5
8A
330
1F
100
AcDbEntity
  8
_U+30EC_U+30A4_U+30E4_U+30FC 1
 62
   179
420
  2234388
370
    25
100
AcDb2dPolyline
 66
     1
 10
0.0
 20
0.0
 30
0.0
  0
VERTEX
  5
8B
330
8A
100
AcDbEntity
  8
_U+30EC_U+30A4_U+30E4_U+30FC 1
 62
   179
420
  2234388
370
    25
100
AcDbVertex
100
AcDb2dVertex
 10
92.5259534727996
 20
-129.477699412075
 30
0.0
  0
VERTEX
  5
8C
330
8A
100
AcDbEntity
  8
_U+30EC_U+30A4_U+30E4_U+30FC 1
 62
   179
420
  2234388
370
    25
100
AcDbVertex
100
AcDb2dVertex
 10
95.02573674235815
 20
-129.477699412075
 30
0.0
  0
SEQEND
  5
8D
330
8A
100
AcDbEntity
  8
_U+30EC_U+30A4_U+30E4_U+30FC 1
 62
   179
420
  2234388
370
    25
  0
POLYLINE
  5
8E
330
1F
100
AcDbEntity
  8
_U+30EC_U+30A4_U+30E4_U+30FC 1
 62
   179
420
  2234388
370
    25
100
AcDb2dPolyline
 66
     1
 10
0.0
 20
0.0
 30
0.0
  0
VERTEX
  5
8F
330
8E
100
AcDbEntity
  8
_U+30EC_U+30A4_U+30E4_U+30FC 1
 62
   179
420
  2234388
370
    25
100
AcDbVertex
100
AcDb2dVertex
 10
87.02621861310953
 20
-122.477459413825
 30
0.0
  0
VERTEX
  5
90
330
8E
100
AcDbEntity
  8
_U+30EC_U+30A4_U+30E4_U+30FC 1
 62
   179
420
  2234388
370
    25
100
AcDbVertex
100
AcDb2dVertex
 10
87.02621861310953
 20
-123.1775116358723
 30
0.0
  0
SEQEND
  5
91
330
8E
100
AcDbEntity
  8
_U+30EC_U+30A4_U+30E4_U+30FC 1
 62
   179
420
  2234388
370
    25
  0
POLYLINE
  5
92
330
1F
100
AcDbEntity
  8
_U+30EC_U+30A4_U+30E4_U+30FC 1
 62
   179
420
  2234388
370
    25
100
AcDb2dPolyline
 66
     1
 10
0.0
 20
0.0
 30
0.0
  0
VERTEX
  5
93
330
92
100
AcDbEntity
  8
_U+30EC_U+30A4_U+30E4_U+30FC 1
 62
   179
420
  2234388
370
    25
100
AcDbVertex
100
AcDb2dVertex
 10
92.02574987444974
 20
-124.4776741355471
 30
0.0
  0
VERTEX
  5
94
330
92
100
AcDbEntity
  8
_U+30EC_U+30A4_U+30E4_U+30FC 1
 62
   179
420
  2234388
370
    25
100
AcDbVertex
100
AcDb2dVertex
 10
92.02574987444974
 20
-128.9774958010888
 30
0.0
  0
SEQEND
  5
95
330
92
100
AcDbEntity
  8
_U+30EC_U+30A4_U+30E4_U+30FC 1
 62
   179
420
  2234388
370
    25
  0
POLYLINE
  5
96
330
1F
100
AcDbEntity
  8
_U+30EC_U+30A4_U+30E4_U+30FC 1
 62
   179
420
  2234388
370
    25
100
AcDb2dPolyline
 66
     1
 10
0.0
 20
0.0
 30
0.0
  0
VERTEX
  5
97
330
96
100
AcDbEntity
  8
_U+30EC_U+30A4_U+30E4_U+30FC 1
 62
   179
420
  2234388
370
    25
100
AcDbVertex
100
AcDb2dVertex
 10
93.02619234892633
 20
-128.477433301214
 30
0.0
  0
VERTEX
  5
98
330
96
100
AcDbEntity
  8
_U+30EC_U+30A4_U+30E4_U+30FC 1
 62
   179
420
  2234388
370
    25
100
AcDbVertex
100
AcDb2dVertex
 10
96.02617921683473
 20
-128.477433301214
 30
0.0
  0
SEQEND
  5
99
330
96
100
AcDbEntity
  8
_U+30EC_U+30A4_U+30E4_U+30FC 1
 62
   179
420
  2234388
370
    25
  0
POLYLINE
  5
9A
330
1F
100
AcDbEntity
  8
_U+30EC_U+30A4_U+30E4_U+30FC 1
 62
   179
420
  2234388
370
    25
100
AcDb2dPolyline
 66
     1
 10
0.0
 20
0.0
 30
0.0
  0
VERTEX
  5
9B
330
9A
100
AcDbEntity
  8
_U+30EC_U+30A4_U+30E4_U+30FC 1
 62
   179
420
  2234388
370
    25
100
AcDbVertex
100
AcDb2dVertex
 10
93.02619234892633
 20
-125.7778366352223
 30
0.0
  0
VERTEX
  5
9C
330
9A
100
AcDbEntity
  8
_U+30EC_U+30A4_U+30E4_U+30FC 1
 62
   179
420
  2234388
370
    25
100
AcDbVertex
100
AcDb2dVertex
 10
93.02619234892633
 20
-128.477433301214
 30
0.0
  0
SEQEND
  5
9D
330
9A
100
AcDbEntity
  8
_U+30EC_U+30A4_U+30E4_U+30FC 1
 62
   179
420
  2234388
370
    25
  0
POLYLINE
  5
9E
330
1F
100
AcDbEntity
  8
_U+30EC_U+30A4_U+30E4_U+30FC 1
 62
   179
420
  2234388
370
    25
100
AcDb2dPolyline
 66
     1
 10
0.0
 20
0.0
 30
0.0
  0
VERTEX
  5
9F
330
9E
100
AcDbEntity
  8
_U+30EC_U+30A4_U+30E4_U+30FC 1
 62
   179
420
  2234388
370
    25
100
AcDbVertex
100
AcDb2dVertex
 10
96.02617921683473
 20
-126.1774985795667
 30
0.0
  0
VERTEX
  5
A0
330
9E
100
AcDbEntity
  8
_U+30EC_U+30A4_U+30E4_U+30FC 1
 62
   179
420
  2234388
370
    25
100
AcDbVertex
100
AcDb2dVertex
 10
96.02617921683473
 20
-128.477433301214
 30
0.0
  0
SEQEND
  5
A1
330
9E
100
AcDbEntity
  8
_U+30EC_U+30A4_U+30E4_U+30FC 1
 62
   179
420
  2234388
370
    25
  0
POLYLINE
  5
A2
330
1F
100
AcDbEntity
  8
_U+30EC_U+30A4_U+30E4_U+30FC 1
 62
   179
420
  2234388
370
    25
100
AcDb2dPolyline
 66
     1
 10
0.0
 20
0.0
 30
0.0
  0
VERTEX
  5
A3
330
A2
100
AcDbEntity
  8
_U+30EC_U+30A4_U+30E4_U+30FC 1
 62
   179
420
  2234388
370
    25
100
AcDbVertex
100
AcDb2dVertex
 10
96.02617921683473
 20
-124.4776741355471
 30
0.0
  0
VERTEX
  5
A4
330
A2
100
AcDbEntity
  8
_U+30EC_U+30A4_U+30E4_U+30FC 1
 62
   179
420
  2234388
370
    25
100
AcDbVertex
100
AcDb2dVertex
 10
100.2760577195224
 20
-124.4776741355471
 30
0.0
  0
SEQEND
  5
A5
330
A2
100
AcDbEntity
  8
_U+30EC_U+30A4_U+30E4_U+30FC 1
 62
   179
420
  2234388
370
    25
  0
POLYLINE
  5
A6
330
1F
100
AcDbEntity
  8
_U+30EC_U+30A4_U+30E4_U+30FC 1
 62
   179
420
  2234388
370
    25
100
AcDb2dPolyline
 66
     1
 10
0.0
 20
0.0
 30
0.0
  0
VERTEX
  5
A7
330
A6
100
AcDbEntity
  8
_U+30EC_U+30A4_U+30E4_U+30FC 1
 62
   179
420
  2234388
370
    25
100
AcDbVertex
100
AcDb2dVertex
 10
94.02596454564224
 20
-124.4776741355471
 30
0.0
  0
VERTEX
  5
A8
330
A6
100
AcDbEntity
  8
_U+30EC_U+30A4_U+30E4_U+30FC 1
 62
   179
420
  2234388
370
    25
100
AcDbVertex
100
AcDb2dVertex
 10
94.02596454564224
 20
-125.9701005240631
 30
0.0
  0
SEQEND
  5
A9
330
A6
100
AcDbEntity
  8
_U+30EC_U+30A4_U+30E4_U+30FC 1
 62
   179
420
  2234388
370
    25
  0
POLYLINE
  5
AA
330
1F
100
AcDbEntity
  8
_U+30EC_U+30A4_U+30E4_U+30FC 1
 62
   179
420
  2234388
370
    25
100
AcDb2dPolyline
 66
     1
 10
0.0
 20
0.0
 30
0.0
  0
VERTEX
  5
AB
330
AA
100
AcDbEntity
  8
_U+30EC_U+30A4_U+30E4_U+30FC 1
 62
   179
420
  2234388
370
    25
100
AcDbVertex
100
AcDb2dVertex
 10
95.02573674235815
 20
-124.4776741355471
 30
0.0
  0
VERTEX
  5
AC
330
AA
100
AcDbEntity
  8
_U+30EC_U+30A4_U+30E4_U+30FC 1
 62
   179
420
  2234388
370
    25
100
AcDbVertex
100
AcDb2dVertex
 10
95.02573674235815
 20
-125.9701005240631
 30
0.0
  0
SEQEND
  5
AD
330
AA
100
AcDbEntity
  8
_U+30EC_U+30A4_U+30E4_U+30FC 1
 62
   179
420
  2234388
370
    25
  0
POLYLINE
  5
AE
330
1F
100
AcDbEntity
  8
_U+30EC_U+30A4_U+30E4_U+30FC 1
 62
   179
420
  2234388
370
    25
100
AcDb2dPolyline
 66
     1
 10
0.0
 20
0.0
 30
0.0
  0
VERTEX
  5
AF
330
AE
100
AcDbEntity
  8
_U+30EC_U+30A4_U+30E4_U+30FC 1
 62
   179
420
  2234388
370
    25
100
AcDbVertex
100
AcDb2dVertex
 10
87.02621861310953
 20
-122.477459413825
 30
0.0
  0
VERTEX
  5
B0
330
AE
100
AcDbEntity
  8
_U+30EC_U+30A4_U+30E4_U+30FC 1
 62
   179
420
  2234388
370
    25
100
AcDbVertex
100
AcDb2dVertex
 10
98.66030275311252
 20
-122.477459413825
 30
0.0
  0
SEQEND
  5
B1
330
AE
100
AcDbEntity
  8
_U+30EC_U+30A4_U+30E4_U+30FC 1
 62
   179
420
  2234388
370
    25
  0
POLYLINE
  5
B2
330
1F
100
AcDbEntity
  8
_U+30EC_U+30A4_U+30E4_U+30FC 1
 62
   179
420
  2234388
370
    25
100
AcDb2dPolyline
 66
     1
 10
0.0
 20
0.0
 30
0.0
  0
VERTEX
  5
B3
330
B2
100
AcDbEntity
  8
_U+30EC_U+30A4_U+30E4_U+30FC 1
 62
   179
420
  2234388
370
    25
100
AcDbVertex
100
AcDb2dVertex
 10
88.02599080982543
 20
-123.9774352467834
 30
0.0
  0
VERTEX
  5
B4
330
B2
100
AcDbEntity
  8
_U+30EC_U+30A4_U+30E4_U+30FC 1
 62
   179
420
  2234388
370
    25
100
AcDbVertex
100
AcDb2dVertex
 10
93.52572566951551
 20
-123.9774352467834
 30
0.0
  0
SEQEND
  5
B5
330
B2
100
AcDbEntity
  8
_U+30EC_U+30A4_U+30E4_U+30FC 1
 62
   179
420
  2234388
370
    25
  0
POLYLINE
  5
B6
330
1F
100
AcDbEntity
  8
_U+30EC_U+30A4_U+30E4_U+30FC 1
 62
   179
420
  2234388
370
    25
100
AcDb2dPolyline
 66
     1
 10
0.0
 20
0.0
 30
0.0
  0
VERTEX
  5
B7
330
B6
100
AcDbEntity
  8
_U+30EC_U+30A4_U+30E4_U+30FC 1
 62
   179
420
  2234388
370
    25
100
AcDbVertex
100
AcDb2dVertex
 10
87.02621861310953
 20
-123.1775116358723
 30
0.0
  0
VERTEX
  5
B8
330
B6
100
AcDbEntity
  8
_U+30EC_U+30A4_U+30E4_U+30FC 1
 62
   179
420
  2234388
370
    25
100
AcDbVertex
100
AcDb2dVertex
 10
88.02599080982543
 20
-123.1775116358723
 30
0.0
  0
SEQEND
  5
B9
330
B6
100
AcDbEntity
  8
_U+30EC_U+30A4_U+30E4_U+30FC 1
 62
   179
420
  2234388
370
    25
  0
POLYLINE
  5
BA
330
1F
100
AcDbEntity
  8
_U+30EC_U+30A4_U+30E4_U+30FC 1
 62
   179
420
  2234388
370
    25
100
AcDb2dPolyline
 66
     1
 10
0.0
 20
0.0
 30
0.0
  0
VERTEX
  5
BB
330
BA
100
AcDbEntity
  8
_U+30EC_U+30A4_U+30E4_U+30FC 1
 62
   179
420
  2234388
370
    25
100
AcDbVertex
100
AcDb2dVertex
 10
88.02599080982543
 20
-123.1775116358723
 30
0.0
  0
VERTEX
  5
BC
330
BA
100
AcDbEntity
  8
_U+30EC_U+30A4_U+30E4_U+30FC 1
 62
   179
420
  2234388
370
    25
100
AcDbVertex
100
AcDb2dVertex
 10
88.02599080982543
 20
-123.9774352467834
 30
0.0
  0
SEQEND
  5
BD
330
BA
100
AcDbEntity
  8
_U+30EC_U+30A4_U+30E4_U+30FC 1
 62
   179
420
  2234388
370
    25
  0
POLYLINE
  5
BE
330
1F
100
AcDbEntity
  8
_U+30EC_U+30A4_U+30E4_U+30FC 1
 62
   179
420
  2234388
370
    25
100
AcDb2dPolyline
 66
     1
 10
0.0
 20
0.0
 30
0.0
  0
VERTEX
  5
BF
330
BE
100
AcDbEntity
  8
_U+30EC_U+30A4_U+30E4_U+30FC 1
 62
   179
420
  2234388
370
    25
100
AcDbVertex
100
AcDb2dVertex
 10
95.525940340708
 20
-123.9774352467834
 30
0.0
  0
VERTEX
  5
C0
330
BE
100
AcDbEntity
  8
_U+30EC_U+30A4_U+30E4_U+30FC 1
 62
   179
420
  2234388
370
    25
100
AcDbVertex
100
AcDb2dVertex
 10
98.66030275311252
 20
-123.9774352467834
 30
0.0
  0
SEQEND
  5
C1
330
BE
100
AcDbEntity
  8
_U+30EC_U+30A4_U+30E4_U+30FC 1
 62
   179
420
  2234388
370
    25
  0
POLYLINE
  5
C2
330
1F
100
AcDbEntity
  8
_U+30EC_U+30A4_U+30E4_U+30FC 1
 62
   179
420
  2234388
370
    25
100
AcDb2dPolyline
 66
     1
 10
0.0
 20
0.0
 30
0.0
  0
VERTEX
  5
C3
330
C2
100
AcDbEntity
  8
_U+30EC_U+30A4_U+30E4_U+30FC 1
 62
   179
420
  2234388
370
    25
100
AcDbVertex
100
AcDb2dVertex
 10
92.02574987444974
 20
-124.4776741355471
 30
0.0
  0
VERTEX
  5
C4
330
C2
100
AcDbEntity
  8
_U+30EC_U+30A4_U+30E4_U+30FC 1
 62
   179
420
  2234388
370
    25
100
AcDbVertex
100
AcDb2dVertex
 10
93.02619234892633
 20
-124.4776741355471
 30
0.0
  0
SEQEND
  5
C5
330
C2
100
AcDbEntity
  8
_U+30EC_U+30A4_U+30E4_U+30FC 1
 62
   179
420
  2234388
370
    25
  0
POLYLINE
  5
C6
330
1F
100
AcDbEntity
  8
_U+30EC_U+30A4_U+30E4_U+30FC 1
 62
   179
420
  2234388
370
    25
100
AcDb2dPolyline
 66
     1
 10
0.0
 20
0.0
 30
0.0
  0
VERTEX
  5
C7
330
C6
100
AcDbEntity
  8
_U+30EC_U+30A4_U+30E4_U+30FC 1
 62
   179
420
  2234388
370
    25
100
AcDbVertex
100
AcDb2dVertex
 10
99.52569940533232
 20
-122.9776630248112
 30
0.0
  0
VERTEX
  5
C8
330
C6
100
AcDbEntity
  8
_U+30EC_U+30A4_U+30E4_U+30FC 1
 62
   179
420
  2234388
370
    25
100
AcDbVertex
100
AcDb2dVertex
 10
99.52569940533232
 20
-123.4779019135749
 30
0.0
  0
SEQEND
  5
C9
330
C6
100
AcDbEntity
  8
_U+30EC_U+30A4_U+30E4_U+30FC 1
 62
   179
420
  2234388
370
    25
  0
POLYLINE
  5
CA
330
1F
100
AcDbEntity
  8
_U+30EC_U+30A4_U+30E4_U+30FC 1
 62
   179
420
  2234388
370
    25
100
AcDb2dPolyline
 66
     1
 10
0.0
 20
0.0
 30
0.0
  0
VERTEX
  5
CB
330
CA
100
AcDbEntity
  8
_U+30EC_U+30A4_U+30E4_U+30FC 1
 62
   179
420
  2234388
370
    25
100
AcDbVertex
100
AcDb2dVertex
 10
100.2760577195224
 20
-123.4779019135749
 30
0.0
  0
VERTEX
  5
CC
330
CA
100
AcDbEntity
  8
_U+30EC_U+30A4_U+30E4_U+30FC 1
 62
   179
420
  2234388
370
    25
100
AcDbVertex
100
AcDb2dVertex
 10
100.2760577195224
 20
-124.4776741355471
 30
0.0
  0
SEQEND
  5
CD
330
CA
100
AcDbEntity
  8
_U+30EC_U+30A4_U+30E4_U+30FC 1
 62
   179
420
  2234388
370
    25
  0
POLYLINE
  5
CE
330
1F
100
AcDbEntity
  8
_U+30EC_U+30A4_U+30E4_U+30FC 1
 62
   179
420
  2234388
370
    25
100
AcDb2dPolyline
 66
     1
 10
0.0
 20
0.0
 30
0.0
  0
VERTEX
  5
CF
330
CE
100
AcDbEntity
  8
_U+30EC_U+30A4_U+30E4_U+30FC 1
 62
   179
420
  2234388
370
    25
100
AcDbVertex
100
AcDb2dVertex
 10
99.52569940533232
 20
-123.4779019135749
 30
0.0
  0
VERTEX
  5
D0
330
CE
100
AcDbEntity
  8
_U+30EC_U+30A4_U+30E4_U+30FC 1
 62
   179
420
  2234388
370
    25
100
AcDbVertex
100
AcDb2dVertex
 10
101.2758299162383
 20
-123.4779019135749
 30
0.0
  0
SEQEND
  5
D1
330
CE
100
AcDbEntity
  8
_U+30EC_U+30A4_U+30E4_U+30FC 1
 62
   179
420
  2234388
370
    25
  0
POLYLINE
  5
D2
330
1F
100
AcDbEntity
  8
_U+30EC_U+30A4_U+30E4_U+30FC 1
 62
   179
420
  2234388
370
    25
100
AcDb2dPolyline
 66
     1
 10
0.0
 20
0.0
 30
0.0
  0
VERTEX
  5
D3
330
D2
100
AcDbEntity
  8
_U+30EC_U+30A4_U+30E4_U+30FC 1
 62
   179
420
  2234388
370
    25
100
AcDbVertex
100
AcDb2dVertex
 10
101.2758299162383
 20
-122.9776630248112
 30
0.0
  0
VERTEX
  5
D4
330
D2
100
AcDbEntity
  8
_U+30EC_U+30A4_U+30E4_U+30FC 1
 62
   179
420
  2234388
370
    25
100
AcDbVertex
100
AcDb2dVertex
 10
101.2758299162383
 20
-123.4779019135749
 30
0.0
  0
SEQEND
  5
D5
330
D2
100
AcDbEntity
  8
_U+30EC_U+30A4_U+30E4_U+30FC 1
 62
   179
420
  2234388
370
    25
  0
POLYLINE
  5
D6
330
1F
100
AcDbEntity
  8
_U+30EC_U+30A4_U+30E4_U+30FC 1
 62
   179
420
  2234388
370
    25
100
AcDb2dPolyline
 66
     1
 10
0.0
 20
0.0
 30
0.0
  0
VERTEX
  5
D7
330
D6
100
AcDbEntity
  8
_U+30EC_U+30A4_U+30E4_U+30FC 1
 62
   179
420
  2234388
370
    25
100
AcDbVertex
100
AcDb2dVertex
 10
98.66030275311252
 20
-122.477459413825
 30
0.0
  0
VERTEX
  5
D8
330
D6
100
AcDbEntity
  8
_U+30EC_U+30A4_U+30E4_U+30FC 1
 62
   179
420
  2234388
370
    25
100
AcDbVertex
100
AcDb2dVertex
 10
99.52569940533232
 20
-122.9776630248112
 30
0.0
  0
SEQEND
  5
D9
330
D6
100
AcDbEntity
  8
_U+30EC_U+30A4_U+30E4_U+30FC 1
 62
   179
420
  2234388
370
    25
  0
POLYLINE
  5
DA
330
1F
100
AcDbEntity
  8
_U+30EC_U+30A4_U+30E4_U+30FC 1
 62
   179
420
  2234388
370
    25
100
AcDb2dPolyline
 66
     1
 10
0.0
 20
0.0
 30
0.0
  0
VERTEX
  5
DB
330
DA
100
AcDbEntity
  8
_U+30EC_U+30A4_U+30E4_U+30FC 1
 62
   179
420
  2234388
370
    25
100
AcDbVertex
100
AcDb2dVertex
 10
98.66030275311252
 20
-123.9774352467834
 30
0.0
  0
VERTEX
  5
DC
330
DA
100
AcDbEntity
  8
_U+30EC_U+30A4_U+30E4_U+30FC 1
 62
   179
420
  2234388
370
    25
100
AcDbVertex
100
AcDb2dVertex
 10
99.52569940533232
 20
-123.4779019135749
 30
0.0
  0
SEQEND
  5
DD
330
DA
100
AcDbEntity
  8
_U+30EC_U+30A4_U+30E4_U+30FC 1
 62
   179
420
  2234388
370
    25
  0
POLYLINE
  5
DE
330
1F
100
AcDbEntity
  8
_U+30EC_U+30A4_U+30E4_U+30FC 1
 62
   179
420
  2234388
370
     9
100
AcDb2dPolyline
 66
     1
 10
0.0
 20
0.0
 30
0.0
  0
VERTEX
  5
DF
330
DE
100
AcDbEntity
  8
_U+30EC_U+30A4_U+30E4_U+30FC 1
 62
   179
420
  2234388
370
     9
100
AcDbVertex
100
AcDb2dVertex
 10
100.4958382694709
 20
-122.819195247073
 30
0.0
  0
VERTEX
  5
E0
330
DE
100
AcDbEntity
  8
_U+30EC_U+30A4_U+30E4_U+30FC 1
 62
   179
420
  2234388
370
     9
100
AcDbVertex
100
AcDb2dVertex
 10
101.2592846388826
 20
-114.9333771934889
 30
0.0
  0
SEQEND
  5
E1
330
DE
100
AcDbEntity
  8
_U+30EC_U+30A4_U+30E4_U+30FC 1
 62
   179
420
  2234388
370
     9
  0
POLYLINE
  5
E2
330
1F
100
AcDbEntity
  8
_U+30EC_U+30A4_U+30E4_U+30FC 1
 62
   179
420
  2234388
370
     9
100
AcDb2dPolyline
 66
     1
 10
0.0
 20
0.0
 30
0.0
  0
VERTEX
  5
E3
330
E2
100
AcDbEntity
  8
_U+30EC_U+30A4_U+30E4_U+30FC 1
 62
   179
420
  2234388
370
     9
100
AcDbVertex
100
AcDb2dVertex
 10
101.2592846388826
 20
-114.9333771934889
 30
0.0
  0
VERTEX
  5
E4
330
E2
100
AcDbEntity
  8
_U+30EC_U+30A4_U+30E4_U+30FC 1
 62
   179
420
  2234388
370
     9
100
AcDbVertex
100
AcDb2dVertex
 10
106.3463047868797
 20
-114.9333771934889
 30
0.0
  0
SEQEND
  5
E5
330
E2
100
AcDbEntity
  8
_U+30EC_U+30A4_U+30E4_U+30FC 1
 62
   179
420
  2234388
370
     9
  0
POLYLINE
  5
E6
330
1F
100
AcDbEntity
  8
_U+30EC_U+30A4_U+30E4_U+30FC 1
 62
   179
420
  2234388
370
    25
100
AcDb2dPolyline
 66
     1
 10
0.0
 20
0.0
 30
0.0
  0
VERTEX
  5
E7
330
E6
100
AcDbEntity
  8
_U+30EC_U+30A4_U+30E4_U+30FC 1
 62
   179
420
  2234388
370
    25
100
AcDbVertex
100
AcDb2dVertex
 10
93.02619234892633
 20
-125.7778366352223
 30
0.0
  0
VERTEX
  5
E8
330
E6
100
AcDbEntity
  8
_U+30EC_U+30A4_U+30E4_U+30FC 1
 62
   179
420
  2234388
370
    25
100
AcDbVertex
100
AcDb2dVertex
 10
93.52572566951551
 20
-125.7778366352223
 30
0.0
  0
SEQEND
  5
E9
330
E6
100
AcDbEntity
  8
_U+30EC_U+30A4_U+30E4_U+30FC 1
 62
   179
420
  2234388
370
    25
  0
POLYLINE
  5
EA
330
1F
100
AcDbEntity
  8
_U+30EC_U+30A4_U+30E4_U+30FC 1
 62
   179
420
  2234388
370
    25
100
AcDb2dPolyline
 66
     1
 10
0.0
 20
0.0
 30
0.0
  0
VERTEX
  5
EB
330
EA
100
AcDbEntity
  8
_U+30EC_U+30A4_U+30E4_U+30FC 1
 62
   179
420
  2234388
370
    25
100
AcDbVertex
100
AcDb2dVertex
 10
93.52572566951551
 20
-125.7778366352223
 30
0.0
  0
VERTEX
  5
EC
330
EA
100
AcDbEntity
  8
_U+30EC_U+30A4_U+30E4_U+30FC 1
 62
   179
420
  2234388
370
    25
100
AcDbVertex
100
AcDb2dVertex
 10
93.02619234892633
 20
-124.4776741355471
 30
0.0
  0
SEQEND
  5
ED
330
EA
100
AcDbEntity
  8
_U+30EC_U+30A4_U+30E4_U+30FC 1
 62
   179
420
  2234388
370
    25
  0
SPLINE
  5
EE
330
1F
100
AcDbEntity
  8
_U+30EC_U+30A4_U+30E4_U+30FC 1
 62
   179
420
  2234388
370
    25
100
AcDbSpline
210
0.0
220
0.0
230
1.0
 70
     8
 71
     3
 72
     8
 73
     4
 74
     0
 42
0.0000000001
 43
0.0000000001
 12
1.0
 22
0.0
 32
0.0
 13
1.0
 23
0.0
 33
0.0
 40
0.0
 40
0.0
 40
0.0
 40
0.0
 40
1.0
 40
1.0
 40
1.0
 40
1.0
 10
94.5261681439921
 20
-135.4777085772419
 30
0.0
 10
94.80246369249876
 20
-135.4777085772419
 30
0.0
 10
95.02573674235815
 20
-135.2537652439646
 30
0.0
 10
95.02573674235815
 20
-134.9774696884782
 30
0.0
  0
SPLINE
  5
EF
330
1F
100
AcDbEntity
  8
_U+30EC_U+30A4_U+30E4_U+30FC 1
 62
   179
420
  2234388
370
    25
100
AcDbSpline
210
0.0
220
0.0
230
1.0
 70
     8
 71
     3
 72
    11
 73
     7
 74
     0
 42
0.0000000001
 43
0.0000000001
 12
1.0
 22
0.0
 32
0.0
 13
1.0
 23
0.0
 33
0.0
 40
0.0
 40
0.0
 40
0.0
 40
0.0
 40
1.0
 40
1.0
 40
1.0
 40
2.0
 40
2.0
 40
2.0
 40
2.0
 10
84.65117756259076
 20
-135.4777085772419
 30
0.0
 10
84.73729061594939
 20
-135.6844010771902
 30
0.0
 10
84.97499442320063
 20
-135.7822263549434
 30
0.0
 10
85.18239032681618
 20
-135.6961132994095
 30
0.0
 10
85.28092115763577
 20
-135.654767743864
 30
0.0
 10
85.35948476674257
 20
-135.5762041327725
 30
0.0
 10
85.4008303212433
 20
-135.4777085772419
 30
0.0
  0
SPLINE
  5
F0
330
1F
100
AcDbEntity
  8
_U+30EC_U+30A4_U+30E4_U+30FC 1
 62
   179
420
  2234388
370
    25
100
AcDbSpline
210
0.0
220
0.0
230
1.0
 70
     8
 71
     3
 72
     8
 73
     4
 74
     0
 42
0.0000000001
 43
0.0000000001
 12
1.0
 22
0.0
 32
0.0
 13
1.0
 23
0.0
 33
0.0
 40
0.0
 40
0.0
 40
0.0
 40
0.0
 40
1.0
 40
1.0
 40
1.0
 40
1.0
 10
92.02574987444974
 20
-128.9774958010888
 30
0.0
 10
92.02574987444974
 20
-129.2537913565753
 30
0.0
 10
92.24965792429293
 20
-129.477699412075
 30
0.0
 10
92.5259534727996
 20
-129.477699412075
 30
0.0
  0
SPLINE
  5
F1
330
1F
100
AcDbEntity
  8
_U+30EC_U+30A4_U+30E4_U+30FC 1
 62
   179
420
  2234388
370
    25
100
AcDbSpline
210
0.0
220
0.0
230
1.0
 70
     8
 71
     3
 72
     8
 73
     4
 74
     0
 42
0.0000000001
 43
0.0000000001
 12
1.0
 22
0.0
 32
0.0
 13
1.0
 23
0.0
 33
0.0
 40
0.0
 40
0.0
 40
0.0
 40
0.0
 40
1.0
 40
1.0
 40
1.0
 40
1.0
 10
95.525940340708
 20
-123.9774352467834
 30
0.0
 10
95.24964719840975
 20
-123.9774352467834
 30
0.0
 10
95.02573674235815
 20
-124.2013785800607
 30
0.0
 10
95.02573674235815
 20
-124.4776741355471
 30
0.0
  0
SPLINE
  5
F2
330
1F
100
AcDbEntity
  8
_U+30EC_U+30A4_U+30E4_U+30FC 1
 62
   179
420
  2234388
370
    25
100
AcDbSpline
210
0.0
220
0.0
230
1.0
 70
     8
 71
     3
 72
     8
 73
     4
 74
     0
 42
0.0000000001
 43
0.0000000001
 12
1.0
 22
0.0
 32
0.0
 13
1.0
 23
0.0
 33
0.0
 40
0.0
 40
0.0
 40
0.0
 40
0.0
 40
1.0
 40
1.0
 40
1.0
 40
1.0
 10
94.02596454564224
 20
-124.4776741355471
 30
0.0
 10
94.02596454564224
 20
-124.2013785800607
 30
0.0
 10
93.80202121802218
 20
-123.9774352467834
 30
0.0
 10
93.52572566951551
 20
-123.9774352467834
 30
0.0
  0
SPLINE
  5
F3
330
1F
100
AcDbEntity
  8
_U+30EC_U+30A4_U+30E4_U+30FC 1
 62
   179
420
  2234388
370
    25
100
AcDbSpline
210
0.0
220
0.0
230
1.0
 70
     8
 71
     3
 72
    17
 73
    13
 74
     0
 42
0.0000000001
 43
0.0000000001
 12
1.0
 22
0.0
 32
0.0
 13
1.0
 23
0.0
 33
0.0
 40
0.0
 40
0.0
 40
0.0
 40
0.0
 40
1.0
 40
1.0
 40
1.0
 40
2.0
 40
2.0
 40
2.0
 40
3.0
 40
3.0
 40
3.0
 40
4.0
 40
4.0
 40
4.0
 40
4.0
 10
94.02596454564224
 20
-125.9701005240631
 30
0.0
 10
93.46921067095732
 20
-126.2463960795495
 30
0.0
 10
93.24184539898012
 20
-126.9209424682696
 30
0.0
 10
93.51814094748678
 20
-127.4776610792418
 30
0.0
 10
93.79443886544021
 20
-128.0343796902136
 30
0.0
 10
94.4696884232108
 20
-128.2617802457122
 30
0.0
 10
95.02573674235815
 20
-127.9854846902258
 30
0.0
 10
95.58245533926619
 20
-127.7091891347393
 30
0.0
 10
95.8098206112434
 20
-127.0346074682414
 30
0.0
 10
95.53352506273673
 20
-126.4778888572696
 30
0.0
 10
95.42465784329194
 20
-126.2574027462136
 30
0.0
 10
95.2462228478442
 20
-126.0789677462579
 30
0.0
 10
95.02573674235815
 20
-125.9701005240631
 30
0.0
  0
SPLINE
  5
F4
330
1F
100
AcDbEntity
  8
_U+30EC_U+30A4_U+30E4_U+30FC 1
 62
   179
420
  2234388
370
    25
100
AcDbSpline
210
0.0
220
0.0
230
1.0
 70
     8
 71
     3
 72
    11
 73
     7
 74
     0
 42
0.0000000001
 43
0.0000000001
 12
1.0
 22
0.0
 32
0.0
 13
1.0
 23
0.0
 33
0.0
 40
0.0
 40
0.0
 40
0.0
 40
0.0
 40
1.0
 40
1.0
 40
1.0
 40
2.0
 40
2.0
 40
2.0
 40
2.0
 10
96.02617921683473
 20
-124.4776741355471
 30
0.0
 10
95.55627922882289
 20
-124.4776741355471
 30
0.0
 10
95.175916642873
 20
-124.8580038576745
 30
0.0
 10
95.175916642873
 20
-125.3279391353347
 30
0.0
 10
95.175916642873
 20
-125.7971335796618
 30
0.0
 10
95.55627922882289
 20
-126.1774985795667
 30
0.0
 10
96.02617921683473
 20
-126.1774985795667
 30
0.0
  0
SPLINE
  5
F5
330
1F
100
AcDbEntity
  8
_U+30EC_U+30A4_U+30E4_U+30FC 1
 62
   179
420
  2234388
370
     9
100
AcDbSpline
210
0.0
220
0.0
230
1.0
 70
    11
 71
     3
 72
    17
 73
    13
 74
     0
 42
0.0000000001
 43
0.0000000001
 12
1.0
 22
0.0
 32
0.0
 13
1.0
 23
0.0
 33
0.0
 40
0.0
 40
0.0
 40
0.0
 40
0.0
 40
1.0
 40
1.0
 40
1.0
 40
2.0
 40
2.0
 40
2.0
 40
3.0
 40
3.0
 40
3.0
 40
4.0
 40
4.0
 40
4.0
 40
4.0
 10
92.12632681632826
 20
-132.4776863557694
 30
0.0
 10
92.12632681632826
 20
-132.4225824668945
 30
0.0
 10
92.08155931747038
 20
-132.3777796891277
 30
0.0
 10
92.02574987444974
 20
-132.3777796891277
 30
0.0
 10
91.9706107091898
 20
-132.3777796891277
 30
0.0
 10
91.92580793255503
 20
-132.4225824668945
 30
0.0
 10
91.92580793255503
 20
-132.4776863557694
 30
0.0
 10
91.92580793255503
 20
-132.5328255224225
 30
0.0
 10
91.9706107091898
 20
-132.577593022411
 30
0.0
 10
92.02574987444974
 20
-132.577593022411
 30
0.0
 10
92.08155931747038
 20
-132.577593022411
 30
0.0
 10
92.12632681632826
 20
-132.5328255224225
 30
0.0
 10
92.12632681632826
 20
-132.4776863557694
 30
0.0
  0
SPLINE
  5
F6
330
1F
100
AcDbEntity
  8
_U+30EC_U+30A4_U+30E4_U+30FC 1
 62
   179
420
  2234388
370
     9
100
AcDbSpline
210
0.0
220
0.0
230
1.0
 70
    11
 71
     3
 72
    17
 73
    13
 74
     0
 42
0.0000000001
 43
0.0000000001
 12
1.0
 22
0.0
 32
0.0
 13
1.0
 23
0.0
 33
0.0
 40
0.0
 40
0.0
 40
0.0
 40
0.0
 40
1.0
 40
1.0
 40
1.0
 40
2.0
 40
2.0
 40
2.0
 40
3.0
 40
3.0
 40
3.0
 40
4.0
 40
4.0
 40
4.0
 40
4.0
 10
87.12612527722736
 20
-132.4776863557694
 30
0.0
 10
87.12612527722736
 20
-132.4225824668945
 30
0.0
 10
87.0813225005926
 20
-132.3777796891277
 30
0.0
 10
87.02621861310953
 20
-132.3777796891277
 30
0.0
 10
86.97107944784958
 20
-132.3777796891277
 30
0.0
 10
86.9263119489917
 20
-132.4225824668945
 30
0.0
 10
86.9263119489917
 20
-132.4776863557694
 30
0.0
 10
86.9263119489917
 20
-132.5328255224225
 30
0.0
 10
86.97107944784958
 20
-132.577593022411
 30
0.0
 10
87.02621861310953
 20
-132.577593022411
 30
0.0
 10
87.0813225005926
 20
-132.577593022411
 30
0.0
 10
87.12612527722736
 20
-132.5328255224225
 30
0.0
 10
87.12612527722736
 20
-132.4776863557694
 30
0.0
  0
SPLINE
  5
F7
330
1F
100
AcDbEntity
  8
_U+30EC_U+30A4_U+30E4_U+30FC 1
 62
   179
420
  2234388
370
     9
100
AcDbSpline
210
0.0
220
0.0
230
1.0
 70
    11
 71
     3
 72
    17
 73
    13
 74
     0
 42
0.0000000001
 43
0.0000000001
 12
1.0
 22
0.0
 32
0.0
 13
1.0
 23
0.0
 33
0.0
 40
0.0
 40
0.0
 40
0.0
 40
0.0
 40
1.0
 40
1.0
 40
1.0
 40
2.0
 40
2.0
 40
2.0
 40
3.0
 40
3.0
 40
3.0
 40
4.0
 40
4.0
 40
4.0
 40
4.0
 10
89.62587326900903
 20
-140.4772046871032
 30
0.0
 10
89.62587326900903
 20
-140.4221007982276
 30
0.0
 10
89.58110577015115
 20
-140.3772980204615
 30
0.0
 10
89.5259666048912
 20
-140.3772980204615
 30
0.0
 10
89.47086271740812
 20
-140.3772980204615
 30
0.0
 10
89.42605994077337
 20
-140.4221007982276
 30
0.0
 10
89.42605994077337
 20
-140.4772046871032
 30
0.0
 10
89.42605994077337
 20
-140.5330141315336
 30
0.0
 10
89.47086271740812
 20
-140.5778169093003
 30
0.0
 10
89.5259666048912
 20
-140.5778169093003
 30
0.0
 10
89.58110577015115
 20
-140.5778169093003
 30
0.0
 10
89.62587326900903
 20
-140.5330141315336
 30
0.0
 10
89.62587326900903
 20
-140.4772046871032
 30
0.0
  0
SPLINE
  5
F8
330
1F
100
AcDbEntity
  8
_U+30EC_U+30A4_U+30E4_U+30FC 1
 62
   179
420
  2234388
370
     9
100
AcDbSpline
210
0.0
220
0.0
230
1.0
 70
    11
 71
     3
 72
    17
 73
    13
 74
     0
 42
0.0000000001
 43
0.0000000001
 12
1.0
 22
0.0
 32
0.0
 13
1.0
 23
0.0
 33
0.0
 40
0.0
 40
0.0
 40
0.0
 40
0.0
 40
1.0
 40
1.0
 40
1.0
 40
2.0
 40
2.0
 40
2.0
 40
3.0
 40
3.0
 40
3.0
 40
4.0
 40
4.0
 40
4.0
 40
4.0
 10
80.62591266528382
 20
-140.4772046871032
 30
0.0
 10
80.62591266528382
 20
-140.4221007982276
 30
0.0
 10
80.58110988864907
 20
-140.3772980204615
 30
0.0
 10
80.526006001166
 20
-140.3772980204615
 30
0.0
 10
80.47086683590604
 20
-140.3772980204615
 30
0.0
 10
80.42609933704816
 20
-140.4221007982276
 30
0.0
 10
80.42609933704816
 20
-140.4772046871032
 30
0.0
 10
80.42609933704816
 20
-140.5330141315336
 30
0.0
 10
80.47086683590604
 20
-140.5778169093003
 30
0.0
 10
80.526006001166
 20
-140.5778169093003
 30
0.0
 10
80.58110988864907
 20
-140.5778169093003
 30
0.0
 10
80.62591266528382
 20
-140.5330141315336
 30
0.0
 10
80.62591266528382
 20
-140.4772046871032
 30
0.0
  0
SPLINE
  5
F9
330
1F
100
AcDbEntity
  8
_U+30EC_U+30A4_U+30E4_U+30FC 1
 62
   179
420
  2234388
370
     9
100
AcDbSpline
210
0.0
220
0.0
230
1.0
 70
    11
 71
     3
 72
    17
 73
    13
 74
     0
 42
0.0000000001
 43
0.0000000001
 12
1.0
 22
0.0
 32
0.0
 13
1.0
 23
0.0
 33
0.0
 40
0.0
 40
0.0
 40
0.0
 40
0.0
 40
1.0
 40
1.0
 40
1.0
 40
2.0
 40
2.0
 40
2.0
 40
3.0
 40
3.0
 40
3.0
 40
4.0
 40
4.0
 40
4.0
 40
4.0
 10
86.73164917618017
 20
-134.7590296885324
 30
0.0
 10
86.73164917618017
 20
-134.7039257996575
 30
0.0
 10
86.68688167732229
 20
-134.6591230218908
 30
0.0
 10
86.63174251206235
 20
-134.6591230218908
 30
0.0
 10
86.57663862457927
 20
-134.6591230218908
 30
0.0
 10
86.5318358479445
 20
-134.7039257996575
 30
0.0
 10
86.5318358479445
 20
-134.7590296885324
 30
0.0
 10
86.5318358479445
 20
-134.8148391329629
 30
0.0
 10
86.57663862457927
 20
-134.8596419107296
 30
0.0
 10
86.63174251206235
 20
-134.8596419107296
 30
0.0
 10
86.68688167732229
 20
-134.8596419107296
 30
0.0
 10
86.73164917618017
 20
-134.8148391329629
 30
0.0
 10
86.73164917618017
 20
-134.7590296885324
 30
0.0
  0
SPLINE
  5
FA
330
1F
100
AcDbEntity
  8
_U+30EC_U+30A4_U+30E4_U+30FC 1
 62
   179
420
  2234388
370
     9
100
AcDbSpline
210
0.0
220
0.0
230
1.0
 70
    11
 71
     3
 72
    17
 73
    13
 74
     0
 42
0.0000000001
 43
0.0000000001
 12
1.0
 22
0.0
 32
0.0
 13
1.0
 23
0.0
 33
0.0
 40
0.0
 40
0.0
 40
0.0
 40
0.0
 40
1.0
 40
1.0
 40
1.0
 40
2.0
 40
2.0
 40
2.0
 40
3.0
 40
3.0
 40
3.0
 40
4.0
 40
4.0
 40
4.0
 40
4.0
 10
79.62614046856791
 20
-144.4776694083249
 30
0.0
 10
79.62614046856791
 20
-144.4225302416718
 30
0.0
 10
79.58137498010467
 20
-144.3777627416833
 30
0.0
 10
79.52623380445009
 20
-144.3777627416833
 30
0.0
 10
79.47042436142945
 20
-144.3777627416833
 30
0.0
 10
79.42632714033225
 20
-144.4225302416718
 30
0.0
 10
79.42632714033225
 20
-144.4776694083249
 30
0.0
 10
79.42632714033225
 20
-144.5327732971998
 30
0.0
 10
79.47042436142945
 20
-144.5775760749665
 30
0.0
 10
79.52623380445009
 20
-144.5775760749665
 30
0.0
 10
79.58137498010467
 20
-144.5775760749665
 30
0.0
 10
79.62614046856791
 20
-144.5327732971998
 30
0.0
 10
79.62614046856791
 20
-144.4776694083249
 30
0.0
  0
SPLINE
  5
FB
330
1F
100
AcDbEntity
  8
_U+30EC_U+30A4_U+30E4_U+30FC 1
 62
   179
420
  2234388
370
     9
100
AcDbSpline
210
0.0
220
0.0
230
1.0
 70
    11
 71
     3
 72
    17
 73
    13
 74
     0
 42
0.0000000001
 43
0.0000000001
 12
1.0
 22
0.0
 32
0.0
 13
1.0
 23
0.0
 33
0.0
 40
0.0
 40
0.0
 40
0.0
 40
0.0
 40
1.0
 40
1.0
 40
1.0
 40
2.0
 40
2.0
 40
2.0
 40
3.0
 40
3.0
 40
3.0
 40
4.0
 40
4.0
 40
4.0
 40
4.0
 10
97.12585807766848
 20
-144.4776694083249
 30
0.0
 10
97.12585807766848
 20
-144.4225302416718
 30
0.0
 10
97.08105530103371
 20
-144.3777627416833
 30
0.0
 10
97.02595141355064
 20
-144.3777627416833
 30
0.0
 10
96.9708122482907
 20
-144.3777627416833
 30
0.0
 10
96.92604719799078
 20
-144.4225302416718
 30
0.0
 10
96.92604719799078
 20
-144.4776694083249
 30
0.0
 10
96.92604719799078
 20
-144.5327732971998
 30
0.0
 10
96.9708122482907
 20
-144.5775760749665
 30
0.0
 10
97.02595141355064
 20
-144.5775760749665
 30
0.0
 10
97.08105530103371
 20
-144.5775760749665
 30
0.0
 10
97.12585807766848
 20
-144.5327732971998
 30
0.0
 10
97.12585807766848
 20
-144.4776694083249
 30
0.0
  0
SPLINE
  5
FC
330
1F
100
AcDbEntity
  8
_U+30EC_U+30A4_U+30E4_U+30FC 1
 62
   179
420
  2234388
370
     9
100
AcDbSpline
210
0.0
220
0.0
230
1.0
 70
    11
 71
     3
 72
    17
 73
    13
 74
     0
 42
0.0000000001
 43
0.0000000001
 12
1.0
 22
0.0
 32
0.0
 13
1.0
 23
0.0
 33
0.0
 40
0.0
 40
0.0
 40
0.0
 40
0.0
 40
1.0
 40
1.0
 40
1.0
 40
2.0
 40
2.0
 40
2.0
 40
3.0
 40
3.0
 40
3.0
 40
4.0
 40
4.0
 40
4.0
 40
4.0
 10
77.03682220129359
 20
-136.4774455214363
 30
0.0
 10
77.03682220129359
 20
-136.4223416325613
 30
0.0
 10
76.99201942465884
 20
-136.3775388547946
 30
0.0
 10
76.93691553717576
 20
-136.3775388547946
 30
0.0
 10
76.8817763719158
 20
-136.3775388547946
 30
0.0
 10
76.83700887305793
 20
-136.4223416325613
 30
0.0
 10
76.83700887305793
 20
-136.4774455214363
 30
0.0
 10
76.83700887305793
 20
-136.5325846880893
 30
0.0
 10
76.8817763719158
 20
-136.5773521880779
 30
0.0
 10
76.93691553717576
 20
-136.5773521880779
 30
0.0
 10
76.99201942465884
 20
-136.5773521880779
 30
0.0
 10
77.03682220129359
 20
-136.5325846880893
 30
0.0
 10
77.03682220129359
 20
-136.4774455214363
 30
0.0
  0
SPLINE
  5
FD
330
1F
100
AcDbEntity
  8
_U+30EC_U+30A4_U+30E4_U+30FC 1
 62
   179
420
  2234388
370
     9
100
AcDbSpline
210
0.0
220
0.0
230
1.0
 70
    11
 71
     3
 72
    17
 73
    13
 74
     0
 42
0.0000000001
 43
0.0000000001
 12
1.0
 22
0.0
 32
0.0
 13
1.0
 23
0.0
 33
0.0
 40
0.0
 40
0.0
 40
0.0
 40
0.0
 40
1.0
 40
1.0
 40
1.0
 40
2.0
 40
2.0
 40
2.0
 40
3.0
 40
3.0
 40
3.0
 40
4.0
 40
4.0
 40
4.0
 40
4.0
 10
77.03682220129359
 20
-133.9776974665056
 30
0.0
 10
77.03682220129359
 20
-133.9225582998526
 30
0.0
 10
76.99201942465884
 20
-133.877790799864
 30
0.0
 10
76.93691553717576
 20
-133.877790799864
 30
0.0
 10
76.8817763719158
 20
-133.877790799864
 30
0.0
 10
76.83700887305793
 20
-133.9225582998526
 30
0.0
 10
76.83700887305793
 20
-133.9776974665056
 30
0.0
 10
76.83700887305793
 20
-134.0328013553805
 30
0.0
 10
76.8817763719158
 20
-134.0776041331473
 30
0.0
 10
76.93691553717576
 20
-134.0776041331473
 30
0.0
 10
76.99201942465884
 20
-134.0776041331473
 30
0.0
 10
77.03682220129359
 20
-134.0328013553805
 30
0.0
 10
77.03682220129359
 20
-133.9776974665056
 30
0.0
  0
SPLINE
  5
FE
330
1F
100
AcDbEntity
  8
_U+30EC_U+30A4_U+30E4_U+30FC 1
 62
   179
420
  2234388
370
     9
100
AcDbSpline
210
0.0
220
0.0
230
1.0
 70
    11
 71
     3
 72
    17
 73
    13
 74
     0
 42
0.0000000001
 43
0.0000000001
 12
1.0
 22
0.0
 32
0.0
 13
1.0
 23
0.0
 33
0.0
 40
0.0
 40
0.0
 40
0.0
 40
0.0
 40
1.0
 40
1.0
 40
1.0
 40
2.0
 40
2.0
 40
2.0
 40
3.0
 40
3.0
 40
3.0
 40
4.0
 40
4.0
 40
4.0
 40
4.0
 10
77.03682220129359
 20
-123.9774352467834
 30
0.0
 10
77.03682220129359
 20
-123.9223313579082
 30
0.0
 10
76.99201942465884
 20
-123.8775285801418
 30
0.0
 10
76.93691553717576
 20
-123.8775285801418
 30
0.0
 10
76.8817763719158
 20
-123.8775285801418
 30
0.0
 10
76.83700887305793
 20
-123.9223313579082
 30
0.0
 10
76.83700887305793
 20
-123.9774352467834
 30
0.0
 10
76.83700887305793
 20
-124.0332446912139
 30
0.0
 10
76.8817763719158
 20
-124.0780474689806
 30
0.0
 10
76.93691553717576
 20
-124.0780474689806
 30
0.0
 10
76.99201942465884
 20
-124.0780474689806
 30
0.0
 10
77.03682220129359
 20
-124.0332446912139
 30
0.0
 10
77.03682220129359
 20
-123.9774352467834
 30
0.0
  0
SPLINE
  5
FF
330
1F
100
AcDbEntity
  8
_U+30EC_U+30A4_U+30E4_U+30FC 1
 62
   179
420
  2234388
370
     9
100
AcDbSpline
210
0.0
220
0.0
230
1.0
 70
    11
 71
     3
 72
    17
 73
    13
 74
     0
 42
0.0000000001
 43
0.0000000001
 12
1.0
 22
0.0
 32
0.0
 13
1.0
 23
0.0
 33
0.0
 40
0.0
 40
0.0
 40
0.0
 40
0.0
 40
1.0
 40
1.0
 40
1.0
 40
2.0
 40
2.0
 40
2.0
 40
3.0
 40
3.0
 40
3.0
 40
4.0
 40
4.0
 40
4.0
 40
4.0
 10
77.03682220129359
 20
-122.477459413825
 30
0.0
 10
77.03682220129359
 20
-122.4223202471723
 30
0.0
 10
76.99201942465884
 20
-122.3775527471834
 30
0.0
 10
76.93691553717576
 20
-122.3775527471834
 30
0.0
 10
76.8817763719158
 20
-122.3775527471834
 30
0.0
 10
76.83700887305793
 20
-122.4223202471723
 30
0.0
 10
76.83700887305793
 20
-122.477459413825
 30
0.0
 10
76.83700887305793
 20
-122.5332688582555
 30
0.0
 10
76.8817763719158
 20
-122.5773660804666
 30
0.0
 10
76.93691553717576
 20
-122.5773660804666
 30
0.0
 10
76.99201942465884
 20
-122.5773660804666
 30
0.0
 10
77.03682220129359
 20
-122.5332688582555
 30
0.0
 10
77.03682220129359
 20
-122.477459413825
 30
0.0
  0
SPLINE
  5
100
330
1F
100
AcDbEntity
  8
_U+30EC_U+30A4_U+30E4_U+30FC 1
 62
   179
420
  2234388
370
     9
100
AcDbSpline
210
0.0
220
0.0
230
1.0
 70
    11
 71
     3
 72
    17
 73
    13
 74
     0
 42
0.0000000001
 43
0.0000000001
 12
1.0
 22
0.0
 32
0.0
 13
1.0
 23
0.0
 33
0.0
 40
0.0
 40
0.0
 40
0.0
 40
0.0
 40
1.0
 40
1.0
 40
1.0
 40
2.0
 40
2.0
 40
2.0
 40
3.0
 40
3.0
 40
3.0
 40
4.0
 40
4.0
 40
4.0
 40
4.0
 10
87.12612527722736
 20
-118.4777002481584
 30
0.0
 10
87.12612527722736
 20
-118.4225610815054
 30
0.0
 10
87.0813225005926
 20
-118.3777935815168
 30
0.0
 10
87.02621861310953
 20
-118.3777935815168
 30
0.0
 10
86.97107944784958
 20
-118.3777935815168
 30
0.0
 10
86.9263119489917
 20
-118.4225610815054
 30
0.0
 10
86.9263119489917
 20
-118.4777002481584
 30
0.0
 10
86.9263119489917
 20
-118.5328041370334
 30
0.0
 10
86.97107944784958
 20
-118.5776069148001
 30
0.0
 10
87.02621861310953
 20
-118.5776069148001
 30
0.0
 10
87.0813225005926
 20
-118.5776069148001
 30
0.0
 10
87.12612527722736
 20
-118.5328041370334
 30
0.0
 10
87.12612527722736
 20
-118.4777002481584
 30
0.0
  0
SPLINE
  5
101
330
1F
100
AcDbEntity
  8
_U+30EC_U+30A4_U+30E4_U+30FC 1
 62
   179
420
  2234388
370
     9
100
AcDbSpline
210
0.0
220
0.0
230
1.0
 70
    11
 71
     3
 72
    17
 73
    13
 74
     0
 42
0.0000000001
 43
0.0000000001
 12
1.0
 22
0.0
 32
0.0
 13
1.0
 23
0.0
 33
0.0
 40
0.0
 40
0.0
 40
0.0
 40
0.0
 40
1.0
 40
1.0
 40
1.0
 40
2.0
 40
2.0
 40
2.0
 40
3.0
 40
3.0
 40
3.0
 40
4.0
 40
4.0
 40
4.0
 40
4.0
 10
102.1260596167694
 20
-118.4777002481584
 30
0.0
 10
102.1260596167694
 20
-118.4225610815054
 30
0.0
 10
102.0812921179115
 20
-118.3777935815168
 30
0.0
 10
102.0261555300492
 20
-118.3777935815168
 30
0.0
 10
101.9710490651685
 20
-118.3777935815168
 30
0.0
 10
101.9262462885337
 20
-118.4225610815054
 30
0.0
 10
101.9262462885337
 20
-118.4777002481584
 30
0.0
 10
101.9262462885337
 20
-118.5328041370334
 30
0.0
 10
101.9710490651685
 20
-118.5776069148001
 30
0.0
 10
102.0261555300492
 20
-118.5776069148001
 30
0.0
 10
102.0812921179115
 20
-118.5776069148001
 30
0.0
 10
102.1260596167694
 20
-118.5328041370334
 30
0.0
 10
102.1260596167694
 20
-118.4777002481584
 30
0.0
  0
SPLINE
  5
102
330
1F
100
AcDbEntity
  8
_U+30EC_U+30A4_U+30E4_U+30FC 1
 62
   179
420
  2234388
370
     9
100
AcDbSpline
210
0.0
220
0.0
230
1.0
 70
    11
 71
     3
 72
    17
 73
    13
 74
     0
 42
0.0000000001
 43
0.0000000001
 12
1.0
 22
0.0
 32
0.0
 13
1.0
 23
0.0
 33
0.0
 40
0.0
 40
0.0
 40
0.0
 40
0.0
 40
1.0
 40
1.0
 40
1.0
 40
2.0
 40
2.0
 40
2.0
 40
3.0
 40
3.0
 40
3.0
 40
4.0
 40
4.0
 40
4.0
 40
4.0
 10
105.4202631438384
 20
-122.9776630248112
 30
0.0
 10
105.4202631438384
 20
-122.922559135936
 30
0.0
 10
105.3754603672036
 20
-122.8777563581696
 30
0.0
 10
105.3203564797205
 20
-122.8777563581696
 30
0.0
 10
105.2652173144606
 20
-122.8777563581696
 30
0.0
 10
105.2204498156027
 20
-122.922559135936
 30
0.0
 10
105.2204498156027
 20
-122.9776630248112
 30
0.0
 10
105.2204498156027
 20
-123.032802191464
 30
0.0
 10
105.2652173144606
 20
-123.0775696914528
 30
0.0
 10
105.3203564797205
 20
-123.0775696914528
 30
0.0
 10
105.3754603672036
 20
-123.0775696914528
 30
0.0
 10
105.4202631438384
 20
-123.032802191464
 30
0.0
 10
105.4202631438384
 20
-122.9776630248112
 30
0.0
  0
SPLINE
  5
103
330
1F
100
AcDbEntity
  8
_U+30EC_U+30A4_U+30E4_U+30FC 1
 62
   179
420
  2234388
370
     9
100
AcDbSpline
210
0.0
220
0.0
230
1.0
 70
    11
 71
     3
 72
    17
 73
    13
 74
     0
 42
0.0000000001
 43
0.0000000001
 12
1.0
 22
0.0
 32
0.0
 13
1.0
 23
0.0
 33
0.0
 40
0.0
 40
0.0
 40
0.0
 40
0.0
 40
1.0
 40
1.0
 40
1.0
 40
2.0
 40
2.0
 40
2.0
 40
3.0
 40
3.0
 40
3.0
 40
4.0
 40
4.0
 40
4.0
 40
4.0
 10
105.4202631438384
 20
-126.4778888572696
 30
0.0
 10
105.4202631438384
 20
-126.4227849683943
 30
0.0
 10
105.3754603672036
 20
-126.3779821906276
 30
0.0
 10
105.3203564797205
 20
-126.3779821906276
 30
0.0
 10
105.2652173144606
 20
-126.3779821906276
 30
0.0
 10
105.2204498156027
 20
-126.4227849683943
 30
0.0
 10
105.2204498156027
 20
-126.4778888572696
 30
0.0
 10
105.2204498156027
 20
-126.5330280239223
 30
0.0
 10
105.2652173144606
 20
-126.5777955239112
 30
0.0
 10
105.3203564797205
 20
-126.5777955239112
 30
0.0
 10
105.3754603672036
 20
-126.5777955239112
 30
0.0
 10
105.4202631438384
 20
-126.5330280239223
 30
0.0
 10
105.4202631438384
 20
-126.4778888572696
 30
0.0
  0
SPLINE
  5
104
330
1F
100
AcDbEntity
  8
_U+30EC_U+30A4_U+30E4_U+30FC 1
 62
   179
420
  2234388
370
     9
100
AcDbSpline
210
0.0
220
0.0
230
1.0
 70
    11
 71
     3
 72
    17
 73
    13
 74
     0
 42
0.0000000001
 43
0.0000000001
 12
1.0
 22
0.0
 32
0.0
 13
1.0
 23
0.0
 33
0.0
 40
0.0
 40
0.0
 40
0.0
 40
0.0
 40
1.0
 40
1.0
 40
1.0
 40
2.0
 40
2.0
 40
2.0
 40
3.0
 40
3.0
 40
3.0
 40
4.0
 40
4.0
 40
4.0
 40
4.0
 10
105.4202631438384
 20
-136.4774455214363
 30
0.0
 10
105.4202631438384
 20
-136.4223416325613
 30
0.0
 10
105.3754603672036
 20
-136.3775388547946
 30
0.0
 10
105.3203564797205
 20
-136.3775388547946
 30
0.0
 10
105.2652173144606
 20
-136.3775388547946
 30
0.0
 10
105.2204498156027
 20
-136.4223416325613
 30
0.0
 10
105.2204498156027
 20
-136.4774455214363
 30
0.0
 10
105.2204498156027
 20
-136.5325846880893
 30
0.0
 10
105.2652173144606
 20
-136.5773521880779
 30
0.0
 10
105.3203564797205
 20
-136.5773521880779
 30
0.0
 10
105.3754603672036
 20
-136.5773521880779
 30
0.0
 10
105.4202631438384
 20
-136.5325846880893
 30
0.0
 10
105.4202631438384
 20
-136.4774455214363
 30
0.0
  0
SPLINE
  5
105
330
1F
100
AcDbEntity
  8
_U+30EC_U+30A4_U+30E4_U+30FC 1
 62
   179
420
  2234388
370
     9
100
AcDbSpline
210
0.0
220
0.0
230
1.0
 70
    11
 71
     3
 72
    17
 73
    13
 74
     0
 42
0.0000000001
 43
0.0000000001
 12
1.0
 22
0.0
 32
0.0
 13
1.0
 23
0.0
 33
0.0
 40
0.0
 40
0.0
 40
0.0
 40
0.0
 40
1.0
 40
1.0
 40
1.0
 40
2.0
 40
2.0
 40
2.0
 40
3.0
 40
3.0
 40
3.0
 40
4.0
 40
4.0
 40
4.0
 40
4.0
 10
102.1539643382797
 20
-144.5313974638669
 30
0.0
 10
102.1539643382797
 20
-144.476293574992
 30
0.0
 10
102.1091968394218
 20
-144.4314907972253
 30
0.0
 10
102.0533873964012
 20
-144.4314907972253
 30
0.0
 10
101.9982482311412
 20
-144.4314907972253
 30
0.0
 10
101.9534833078451
 20
-144.476293574992
 30
0.0
 10
101.9534833078451
 20
-144.5313974638669
 30
0.0
 10
101.9534833078451
 20
-144.58653663052
 30
0.0
 10
101.9982482311412
 20
-144.6313041305086
 30
0.0
 10
102.0533873964012
 20
-144.6313041305086
 30
0.0
 10
102.1091968394218
 20
-144.6313041305086
 30
0.0
 10
102.1539643382797
 20
-144.58653663052
 30
0.0
 10
102.1539643382797
 20
-144.5313974638669
 30
0.0
  0
INSERT
  5
107
330
1F
100
AcDbEntity
  8
_U+30EC_U+30A4_U+30E4_U+30FC 1
100
AcDbBlockReference
  2
block 2
 10
0.0
 20
0.0
 30
0.0
  0
POLYLINE
  5
142
330
1F
100
AcDbEntity
  8
_U+30EC_U+30A4_U+30E4_U+30FC 1
 62
   179
420
  2234388
370
     9
100
AcDb2dPolyline
 66
     1
 10
0.0
 20
0.0
 30
0.0
  0
VERTEX
  5
143
330
142
100
AcDbEntity
  8
_U+30EC_U+30A4_U+30E4_U+30FC 1
 62
   179
420
  2234388
370
     9
100
AcDbVertex
100
AcDb2dVertex
 10
92.02574987444974
 20
-132.4776863557694
 30
0.0
  0
VERTEX
  5
144
330
142
100
AcDbEntity
  8
_U+30EC_U+30A4_U+30E4_U+30FC 1
 62
   179
420
  2234388
370
     9
100
AcDbVertex
100
AcDb2dVertex
 10
87.02621861310953
 20
-132.4776863557694
 30
0.0
  0
SEQEND
  5
145
330
142
100
AcDbEntity
  8
_U+30EC_U+30A4_U+30E4_U+30FC 1
 62
   179
420
  2234388
370
     9
  0
POLYLINE
  5
146
330
1F
100
AcDbEntity
  8
_U+30EC_U+30A4_U+30E4_U+30FC 1
 62
   179
420
  2234388
370
     9
100
AcDb2dPolyline
 66
     1
 10
0.0
 20
0.0
 30
0.0
  0
VERTEX
  5
147
330
146
100
AcDbEntity
  8
_U+30EC_U+30A4_U+30E4_U+30FC 1
 62
   179
420
  2234388
370
     9
100
AcDbVertex
100
AcDb2dVertex
 10
92.02574987444974
 20
-131.517213578232
 30
0.0
  0
VERTEX
  5
148
330
146
100
AcDbEntity
  8
_U+30EC_U+30A4_U+30E4_U+30FC 1
 62
   179
420
  2234388
370
     9
100
AcDbVertex
100
AcDb2dVertex
 10
92.02574987444974
 20
-133.4774585777419
 30
0.0
  0
SEQEND
  5
149
330
146
100
AcDbEntity
  8
_U+30EC_U+30A4_U+30E4_U+30FC 1
 62
   179
420
  2234388
370
     9
  0
POLYLINE
  5
14A
330
1F
100
AcDbEntity
  8
_U+30EC_U+30A4_U+30E4_U+30FC 1
 62
   179
420
  2234388
370
     9
100
AcDb2dPolyline
 66
     1
 10
0.0
 20
0.0
 30
0.0
  0
VERTEX
  5
14B
330
14A
100
AcDbEntity
  8
_U+30EC_U+30A4_U+30E4_U+30FC 1
 62
   179
420
  2234388
370
     9
100
AcDbVertex
100
AcDb2dVertex
 10
87.02621861310953
 20
-125.7178996907928
 30
0.0
  0
VERTEX
  5
14C
330
14A
100
AcDbEntity
  8
_U+30EC_U+30A4_U+30E4_U+30FC 1
 62
   179
420
  2234388
370
     9
100
AcDbVertex
100
AcDb2dVertex
 10
87.02621861310953
 20
-133.4774585777419
 30
0.0
  0
SEQEND
  5
14D
330
14A
100
AcDbEntity
  8
_U+30EC_U+30A4_U+30E4_U+30FC 1
 62
   179
420
  2234388
370
     9
  0
INSERT
  5
14F
330
1F
100
AcDbEntity
  8
_U+30EC_U+30A4_U+30E4_U+30FC 1
100
AcDbBlockReference
  2
block 3
 10
0.0
 20
0.0
 30
0.0
  0
INSERT
  5
155
330
1F
100
AcDbEntity
  8
_U+30EC_U+30A4_U+30E4_U+30FC 1
100
AcDbBlockReference
  2
block 4
 10
0.0
 20
0.0
 30
0.0
  0
SPLINE
  5
15A
330
1F
100
AcDbEntity
  8
_U+30EC_U+30A4_U+30E4_U+30FC 1
 62
   179
420
  2234388
370
    25
100
AcDbSpline
210
0.0
220
0.0
230
1.0
 70
    11
 71
     3
 72
    17
 73
    13
 74
     0
 42
0.0000000001
 43
0.0000000001
 12
1.0
 22
0.0
 32
0.0
 13
1.0
 23
0.0
 33
0.0
 40
0.0
 40
0.0
 40
0.0
 40
0.0
 40
1.0
 40
1.0
 40
1.0
 40
2.0
 40
2.0
 40
2.0
 40
3.0
 40
3.0
 40
3.0
 40
4.0
 40
4.0
 40
4.0
 40
4.0
 10
92.06155681798069
 20
-128.9774958010888
 30
0.0
 10
92.06155681798069
 20
-128.9967927455287
 30
0.0
 10
92.04571942143284
 20
-129.0126324677466
 30
0.0
 10
92.02574987444974
 20
-129.0126324677466
 30
0.0
 10
92.00645293049762
 20
-129.0126324677466
 30
0.0
 10
91.99057793090262
 20
-128.9967927455287
 30
0.0
 10
91.99057793090262
 20
-128.9774958010888
 30
0.0
 10
91.99057793090262
 20
-128.9581988566497
 30
0.0
 10
92.00645293049762
 20
-128.9423591344311
 30
0.0
 10
92.02574987444974
 20
-128.9423591344311
 30
0.0
 10
92.04571942143284
 20
-128.9423591344311
 30
0.0
 10
92.06155681798069
 20
-128.9581988566497
 30
0.0
 10
92.06155681798069
 20
-128.9774958010888
 30
0.0
  0
SPLINE
  5
15B
330
1F
100
AcDbEntity
  8
_U+30EC_U+30A4_U+30E4_U+30FC 1
 62
   179
420
  2234388
370
    25
100
AcDbSpline
210
0.0
220
0.0
230
1.0
 70
    11
 71
     3
 72
    17
 73
    13
 74
     0
 42
0.0000000001
 43
0.0000000001
 12
1.0
 22
0.0
 32
0.0
 13
1.0
 23
0.0
 33
0.0
 40
0.0
 40
0.0
 40
0.0
 40
0.0
 40
1.0
 40
1.0
 40
1.0
 40
2.0
 40
2.0
 40
2.0
 40
3.0
 40
3.0
 40
3.0
 40
4.0
 40
4.0
 40
4.0
 40
4.0
 10
87.06135527887979
 20
-123.1775116358723
 30
0.0
 10
87.06135527887979
 20
-123.1974788580895
 30
0.0
 10
87.04551555706166
 20
-123.21264830253
 30
0.0
 10
87.02621861310953
 20
-123.21264830253
 30
0.0
 10
87.00621611361983
 20
-123.21264830253
 30
0.0
 10
86.99037639180172
 20
-123.1974788580895
 30
0.0
 10
86.99037639180172
 20
-123.1775116358723
 30
0.0
 10
86.99037639180172
 20
-123.1582146914328
 30
0.0
 10
87.00621611361983
 20
-123.1423396914367
 30
0.0
 10
87.02621861310953
 20
-123.1423396914367
 30
0.0
 10
87.04551555706166
 20
-123.1423396914367
 30
0.0
 10
87.06135527887979
 20
-123.1582146914328
 30
0.0
 10
87.06135527887979
 20
-123.1775116358723
 30
0.0
  0
SPLINE
  5
15C
330
1F
100
AcDbEntity
  8
_U+30EC_U+30A4_U+30E4_U+30FC 1
 62
   179
420
  2234388
370
     9
100
AcDbSpline
210
0.0
220
0.0
230
1.0
 70
    11
 71
     3
 72
    17
 73
    13
 74
     0
 42
0.0000000001
 43
0.0000000001
 12
1.0
 22
0.0
 32
0.0
 13
1.0
 23
0.0
 33
0.0
 40
0.0
 40
0.0
 40
0.0
 40
0.0
 40
1.0
 40
1.0
 40
1.0
 40
2.0
 40
2.0
 40
2.0
 40
3.0
 40
3.0
 40
3.0
 40
4.0
 40
4.0
 40
4.0
 40
4.0
 10
87.06135527887979
 20
-132.4776863557694
 30
0.0
 10
87.06135527887979
 20
-132.4969833002092
 30
0.0
 10
87.04551555706166
 20
-132.5128583002053
 30
0.0
 10
87.02621861310953
 20
-132.5128583002053
 30
0.0
 10
87.00621611361983
 20
-132.5128583002053
 30
0.0
 10
86.99037639180172
 20
-132.4969833002092
 30
0.0
 10
86.99037639180172
 20
-132.4776863557694
 30
0.0
 10
86.99037639180172
 20
-132.4577191335522
 30
0.0
 10
87.00621611361983
 20
-132.4425496891116
 30
0.0
 10
87.02621861310953
 20
-132.4425496891116
 30
0.0
 10
87.04551555706166
 20
-132.4425496891116
 30
0.0
 10
87.06135527887979
 20
-132.4577191335522
 30
0.0
 10
87.06135527887979
 20
-132.4776863557694
 30
0.0
  0
POLYLINE
  5
15D
330
1F
100
AcDbEntity
  8
_U+30EC_U+30A4_U+30E4_U+30FC 1
 62
   179
420
  2234388
370
     9
100
AcDb2dPolyline
 66
     1
 10
0.0
 20
0.0
 30
0.0
  0
VERTEX
  5
15E
330
15D
100
AcDbEntity
  8
_U+30EC_U+30A4_U+30E4_U+30FC 1
 62
   179
420
  2234388
370
     9
100
AcDbVertex
100
AcDb2dVertex
 10
80.526006001166
 20
-140.4772046871032
 30
0.0
  0
VERTEX
  5
15F
330
15D
100
AcDbEntity
  8
_U+30EC_U+30A4_U+30E4_U+30FC 1
 62
   179
420
  2234388
370
     9
100
AcDbVertex
100
AcDb2dVertex
 10
89.5259666048912
 20
-140.4772046871032
 30
0.0
  0
SEQEND
  5
160
330
15D
100
AcDbEntity
  8
_U+30EC_U+30A4_U+30E4_U+30FC 1
 62
   179
420
  2234388
370
     9
  0
POLYLINE
  5
161
330
1F
100
AcDbEntity
  8
_U+30EC_U+30A4_U+30E4_U+30FC 1
 62
   179
420
  2234388
370
     9
100
AcDb2dPolyline
 66
     1
 10
0.0
 20
0.0
 30
0.0
  0
VERTEX
  5
162
330
161
100
AcDbEntity
  8
_U+30EC_U+30A4_U+30E4_U+30FC 1
 62
   179
420
  2234388
370
     9
100
AcDbVertex
100
AcDb2dVertex
 10
80.526006001166
 20
-138.0174263543844
 30
0.0
  0
VERTEX
  5
163
330
161
100
AcDbEntity
  8
_U+30EC_U+30A4_U+30E4_U+30FC 1
 62
   179
420
  2234388
370
     9
100
AcDbVertex
100
AcDb2dVertex
 10
80.526006001166
 20
-141.4776824646306
 30
0.0
  0
SEQEND
  5
164
330
161
100
AcDbEntity
  8
_U+30EC_U+30A4_U+30E4_U+30FC 1
 62
   179
420
  2234388
370
     9
  0
POLYLINE
  5
165
330
1F
100
AcDbEntity
  8
_U+30EC_U+30A4_U+30E4_U+30FC 1
 62
   179
420
  2234388
370
     9
100
AcDb2dPolyline
 66
     1
 10
0.0
 20
0.0
 30
0.0
  0
VERTEX
  5
166
330
165
100
AcDbEntity
  8
_U+30EC_U+30A4_U+30E4_U+30FC 1
 62
   179
420
  2234388
370
     9
100
AcDbVertex
100
AcDb2dVertex
 10
89.5259666048912
 20
-138.0174263543844
 30
0.0
  0
VERTEX
  5
167
330
165
100
AcDbEntity
  8
_U+30EC_U+30A4_U+30E4_U+30FC 1
 62
   179
420
  2234388
370
     9
100
AcDbVertex
100
AcDb2dVertex
 10
89.5259666048912
 20
-141.4776824646306
 30
0.0
  0
SEQEND
  5
168
330
165
100
AcDbEntity
  8
_U+30EC_U+30A4_U+30E4_U+30FC 1
 62
   179
420
  2234388
370
     9
  0
INSERT
  5
16A
330
1F
100
AcDbEntity
  8
_U+30EC_U+30A4_U+30E4_U+30FC 1
100
AcDbBlockReference
  2
block 5
 10
0.0
 20
0.0
 30
0.0
  0
SPLINE
  5
170
330
1F
100
AcDbEntity
  8
_U+30EC_U+30A4_U+30E4_U+30FC 1
 62
   179
420
  2234388
370
    25
100
AcDbSpline
210
0.0
220
0.0
230
1.0
 70
    11
 71
     3
 72
    17
 73
    13
 74
     0
 42
0.0000000001
 43
0.0000000001
 12
1.0
 22
0.0
 32
0.0
 13
1.0
 23
0.0
 33
0.0
 40
0.0
 40
0.0
 40
0.0
 40
0.0
 40
1.0
 40
1.0
 40
1.0
 40
2.0
 40
2.0
 40
2.0
 40
3.0
 40
3.0
 40
3.0
 40
4.0
 40
4.0
 40
4.0
 40
4.0
 10
80.56114266693625
 20
-135.4777085772419
 30
0.0
 10
80.56114266693625
 20
-135.4969702439035
 30
0.0
 10
80.54530294511812
 20
-135.5128452438996
 30
0.0
 10
80.526006001166
 20
-135.5128452438996
 30
0.0
 10
80.50671109098431
 20
-135.5128452438996
 30
0.0
 10
80.49086933539573
 20
-135.4969702439035
 30
0.0
 10
80.49086933539573
 20
-135.4777085772419
 30
0.0
 10
80.49086933539573
 20
-135.4577060772465
 30
0.0
 10
80.50671109098431
 20
-135.442536632806
 30
0.0
 10
80.526006001166
 20
-135.442536632806
 30
0.0
 10
80.54530294511812
 20
-135.442536632806
 30
0.0
 10
80.56114266693625
 20
-135.4577060772465
 30
0.0
 10
80.56114266693625
 20
-135.4777085772419
 30
0.0
  0
SPLINE
  5
171
330
1F
100
AcDbEntity
  8
_U+30EC_U+30A4_U+30E4_U+30FC 1
 62
   179
420
  2234388
370
    25
100
AcDbSpline
210
0.0
220
0.0
230
1.0
 70
    11
 71
     3
 72
    17
 73
    13
 74
     0
 42
0.0000000001
 43
0.0000000001
 12
1.0
 22
0.0
 32
0.0
 13
1.0
 23
0.0
 33
0.0
 40
0.0
 40
0.0
 40
0.0
 40
0.0
 40
1.0
 40
1.0
 40
1.0
 40
2.0
 40
2.0
 40
2.0
 40
3.0
 40
3.0
 40
3.0
 40
4.0
 40
4.0
 40
4.0
 40
4.0
 10
89.56110553316522
 20
-135.4777085772419
 30
0.0
 10
89.56110553316522
 20
-135.4969702439035
 30
0.0
 10
89.54526354884334
 20
-135.5128452438996
 30
0.0
 10
89.5259666048912
 20
-135.5128452438996
 30
0.0
 10
89.50666966093907
 20
-135.5128452438996
 30
0.0
 10
89.49082993912094
 20
-135.4969702439035
 30
0.0
 10
89.49082993912094
 20
-135.4777085772419
 30
0.0
 10
89.49082993912094
 20
-135.4577060772465
 30
0.0
 10
89.50666966093907
 20
-135.442536632806
 30
0.0
 10
89.5259666048912
 20
-135.442536632806
 30
0.0
 10
89.54526354884334
 20
-135.442536632806
 30
0.0
 10
89.56110553316522
 20
-135.4577060772465
 30
0.0
 10
89.56110553316522
 20
-135.4777085772419
 30
0.0
  0
SPLINE
  5
172
330
1F
100
AcDbEntity
  8
_U+30EC_U+30A4_U+30E4_U+30FC 1
 62
   179
420
  2234388
370
     9
100
AcDbSpline
210
0.0
220
0.0
230
1.0
 70
    11
 71
     3
 72
    17
 73
    13
 74
     0
 42
0.0000000001
 43
0.0000000001
 12
1.0
 22
0.0
 32
0.0
 13
1.0
 23
0.0
 33
0.0
 40
0.0
 40
0.0
 40
0.0
 40
0.0
 40
1.0
 40
1.0
 40
1.0
 40
2.0
 40
2.0
 40
2.0
 40
3.0
 40
3.0
 40
3.0
 40
4.0
 40
4.0
 40
4.0
 40
4.0
 10
89.56110553316522
 20
-140.4772046871032
 30
0.0
 10
89.56110553316522
 20
-140.4972071870979
 30
0.0
 10
89.54526354884334
 20
-140.5130469093164
 30
0.0
 10
89.5259666048912
 20
-140.5130469093164
 30
0.0
 10
89.50666966093907
 20
-140.5130469093164
 30
0.0
 10
89.49082993912094
 20
-140.4972071870979
 30
0.0
 10
89.49082993912094
 20
-140.4772046871032
 30
0.0
 10
89.49082993912094
 20
-140.4579077426633
 30
0.0
 10
89.50666966093907
 20
-140.4420680204448
 30
0.0
 10
89.5259666048912
 20
-140.4420680204448
 30
0.0
 10
89.54526354884334
 20
-140.4420680204448
 30
0.0
 10
89.56110553316522
 20
-140.4579077426633
 30
0.0
 10
89.56110553316522
 20
-140.4772046871032
 30
0.0
  0
POLYLINE
  5
173
330
1F
100
AcDbEntity
  8
_U+30EC_U+30A4_U+30E4_U+30FC 1
 62
   179
420
  2234388
370
     9
100
AcDb2dPolyline
 66
     1
 10
0.0
 20
0.0
 30
0.0
  0
VERTEX
  5
174
330
173
100
AcDbEntity
  8
_U+30EC_U+30A4_U+30E4_U+30FC 1
 62
   179
420
  2234388
370
     9
100
AcDbVertex
100
AcDb2dVertex
 10
102.0533873964012
 20
-145.6531249635867
 30
0.0
  0
VERTEX
  5
175
330
173
100
AcDbEntity
  8
_U+30EC_U+30A4_U+30E4_U+30FC 1
 62
   179
420
  2234388
370
     9
100
AcDbVertex
100
AcDb2dVertex
 10
102.0533873964012
 20
-139.0261238541323
 30
0.0
  0
SEQEND
  5
176
330
173
100
AcDbEntity
  8
_U+30EC_U+30A4_U+30E4_U+30FC 1
 62
   179
420
  2234388
370
     9
  0
SPLINE
  5
177
330
1F
100
AcDbEntity
  8
_U+30EC_U+30A4_U+30E4_U+30FC 1
 62
   179
420
  2234388
370
    25
100
AcDbSpline
210
0.0
220
0.0
230
1.0
 70
    11
 71
     3
 72
    17
 73
    13
 74
     0
 42
0.0000000001
 43
0.0000000001
 12
1.0
 22
0.0
 32
0.0
 13
1.0
 23
0.0
 33
0.0
 40
0.0
 40
0.0
 40
0.0
 40
0.0
 40
1.0
 40
1.0
 40
1.0
 40
2.0
 40
2.0
 40
2.0
 40
3.0
 40
3.0
 40
3.0
 40
4.0
 40
4.0
 40
4.0
 40
4.0
 10
94.56134008753924
 20
-135.4777085772419
 30
0.0
 10
94.56134008753924
 20
-135.4969702439035
 30
0.0
 10
94.54546508794424
 20
-135.5128452438996
 30
0.0
 10
94.5261681439921
 20
-135.5128452438996
 30
0.0
 10
94.50620092227928
 20
-135.5128452438996
 30
0.0
 10
94.49103147822184
 20
-135.4969702439035
 30
0.0
 10
94.49103147822184
 20
-135.4777085772419
 30
0.0
 10
94.49103147822184
 20
-135.4577060772465
 30
0.0
 10
94.50620092227928
 20
-135.442536632806
 30
0.0
 10
94.5261681439921
 20
-135.442536632806
 30
0.0
 10
94.54546508794424
 20
-135.442536632806
 30
0.0
 10
94.56134008753924
 20
-135.4577060772465
 30
0.0
 10
94.56134008753924
 20
-135.4777085772419
 30
0.0
  0
SPLINE
  5
178
330
1F
100
AcDbEntity
  8
_U+30EC_U+30A4_U+30E4_U+30FC 1
 62
   179
420
  2234388
370
    25
100
AcDbSpline
210
0.0
220
0.0
230
1.0
 70
    11
 71
     3
 72
    17
 73
    13
 74
     0
 42
0.0000000001
 43
0.0000000001
 12
1.0
 22
0.0
 32
0.0
 13
1.0
 23
0.0
 33
0.0
 40
0.0
 40
0.0
 40
0.0
 40
0.0
 40
1.0
 40
1.0
 40
1.0
 40
2.0
 40
2.0
 40
2.0
 40
3.0
 40
3.0
 40
3.0
 40
4.0
 40
4.0
 40
4.0
 40
4.0
 10
90.56158331069295
 20
-133.9776974665056
 30
0.0
 10
90.56158331069295
 20
-133.9969944109455
 30
0.0
 10
90.5457083106969
 20
-134.0128341331634
 30
0.0
 10
90.5257388016071
 20
-134.0128341331634
 30
0.0
 10
90.50644185765496
 20
-134.0128341331634
 30
0.0
 10
90.49060213583685
 20
-133.9969944109455
 30
0.0
 10
90.49060213583685
 20
-133.9776974665056
 30
0.0
 10
90.49060213583685
 20
-133.9577302442885
 30
0.0
 10
90.50644185765496
 20
-133.9425607998479
 30
0.0
 10
90.5257388016071
 20
-133.9425607998479
 30
0.0
 10
90.5457083106969
 20
-133.9425607998479
 30
0.0
 10
90.56158331069295
 20
-133.9577302442885
 30
0.0
 10
90.56158331069295
 20
-133.9776974665056
 30
0.0
  0
POLYLINE
  5
179
330
1F
100
AcDbEntity
  8
_U+30EC_U+30A4_U+30E4_U+30FC 1
 62
   179
420
  2234388
370
     9
100
AcDb2dPolyline
 66
     1
 10
0.0
 20
0.0
 30
0.0
  0
VERTEX
  5
17A
330
179
100
AcDbEntity
  8
_U+30EC_U+30A4_U+30E4_U+30FC 1
 62
   179
420
  2234388
370
     9
100
AcDbVertex
100
AcDb2dVertex
 10
79.52623380445009
 20
-144.4776694083249
 30
0.0
  0
VERTEX
  5
17B
330
179
100
AcDbEntity
  8
_U+30EC_U+30A4_U+30E4_U+30FC 1
 62
   179
420
  2234388
370
     9
100
AcDbVertex
100
AcDb2dVertex
 10
102.0364893412767
 20
-144.4776694083249
 30
0.0
  0
SEQEND
  5
17C
330
179
100
AcDbEntity
  8
_U+30EC_U+30A4_U+30E4_U+30FC 1
 62
   179
420
  2234388
370
     9
  0
POLYLINE
  5
17D
330
1F
100
AcDbEntity
  8
_U+30EC_U+30A4_U+30E4_U+30FC 1
 62
   179
420
  2234388
370
     9
100
AcDb2dPolyline
 66
     1
 10
0.0
 20
0.0
 30
0.0
  0
VERTEX
  5
17E
330
17D
100
AcDbEntity
  8
_U+30EC_U+30A4_U+30E4_U+30FC 1
 62
   179
420
  2234388
370
     9
100
AcDbVertex
100
AcDb2dVertex
 10
79.52623380445009
 20
-139.017198576357
 30
0.0
  0
VERTEX
  5
17F
330
17D
100
AcDbEntity
  8
_U+30EC_U+30A4_U+30E4_U+30FC 1
 62
   179
420
  2234388
370
     9
100
AcDbVertex
100
AcDb2dVertex
 10
79.52623380445009
 20
-145.4774416302974
 30
0.0
  0
SEQEND
  5
180
330
17D
100
AcDbEntity
  8
_U+30EC_U+30A4_U+30E4_U+30FC 1
 62
   179
420
  2234388
370
     9
  0
POLYLINE
  5
181
330
1F
100
AcDbEntity
  8
_U+30EC_U+30A4_U+30E4_U+30FC 1
 62
   179
420
  2234388
370
     9
100
AcDb2dPolyline
 66
     1
 10
0.0
 20
0.0
 30
0.0
  0
VERTEX
  5
182
330
181
100
AcDbEntity
  8
_U+30EC_U+30A4_U+30E4_U+30FC 1
 62
   179
420
  2234388
370
     9
100
AcDbVertex
100
AcDb2dVertex
 10
97.02595141355064
 20
-139.017198576357
 30
0.0
  0
VERTEX
  5
183
330
181
100
AcDbEntity
  8
_U+30EC_U+30A4_U+30E4_U+30FC 1
 62
   179
420
  2234388
370
     9
100
AcDbVertex
100
AcDb2dVertex
 10
97.02595141355064
 20
-145.4774416302974
 30
0.0
  0
SEQEND
  5
184
330
181
100
AcDbEntity
  8
_U+30EC_U+30A4_U+30E4_U+30FC 1
 62
   179
420
  2234388
370
     9
  0
INSERT
  5
186
330
1F
100
AcDbEntity
  8
_U+30EC_U+30A4_U+30E4_U+30FC 1
100
AcDbBlockReference
  2
block 6
 10
0.0
 20
0.0
 30
0.0
  0
SPLINE
  5
197
330
1F
100
AcDbEntity
  8
_U+30EC_U+30A4_U+30E4_U+30FC 1
 62
   179
420
  2234388
370
    25
100
AcDbSpline
210
0.0
220
0.0
230
1.0
 70
    11
 71
     3
 72
    17
 73
    13
 74
     0
 42
0.0000000001
 43
0.0000000001
 12
1.0
 22
0.0
 32
0.0
 13
1.0
 23
0.0
 33
0.0
 40
0.0
 40
0.0
 40
0.0
 40
0.0
 40
1.0
 40
1.0
 40
1.0
 40
2.0
 40
2.0
 40
2.0
 40
3.0
 40
3.0
 40
3.0
 40
4.0
 40
4.0
 40
4.0
 40
4.0
 10
79.56137047022034
 20
-136.4774455214363
 30
0.0
 10
79.56137047022034
 20
-136.4967424658761
 30
0.0
 10
79.54553074840221
 20
-136.512582188094
 30
0.0
 10
79.52623380445009
 20
-136.512582188094
 30
0.0
 10
79.50626658273727
 20
-136.512582188094
 30
0.0
 10
79.49039158314227
 20
-136.4967424658761
 30
0.0
 10
79.49039158314227
 20
-136.4774455214363
 30
0.0
 10
79.49039158314227
 20
-136.4581485769965
 30
0.0
 10
79.50626658273727
 20
-136.4423088547785
 30
0.0
 10
79.52623380445009
 20
-136.4423088547785
 30
0.0
 10
79.54553074840221
 20
-136.4423088547785
 30
0.0
 10
79.56137047022034
 20
-136.4581485769965
 30
0.0
 10
79.56137047022034
 20
-136.4774455214363
 30
0.0
  0
SPLINE
  5
198
330
1F
100
AcDbEntity
  8
_U+30EC_U+30A4_U+30E4_U+30FC 1
 62
   179
420
  2234388
370
    25
100
AcDbSpline
210
0.0
220
0.0
230
1.0
 70
    11
 71
     3
 72
    17
 73
    13
 74
     0
 42
0.0000000001
 43
0.0000000001
 12
1.0
 22
0.0
 32
0.0
 13
1.0
 23
0.0
 33
0.0
 40
0.0
 40
0.0
 40
0.0
 40
0.0
 40
1.0
 40
1.0
 40
1.0
 40
2.0
 40
2.0
 40
2.0
 40
3.0
 40
3.0
 40
3.0
 40
4.0
 40
4.0
 40
4.0
 40
4.0
 10
97.0610880793209
 20
-136.4774455214363
 30
0.0
 10
97.0610880793209
 20
-136.4967424658761
 30
0.0
 10
97.04524835750279
 20
-136.512582188094
 30
0.0
 10
97.02595141355064
 20
-136.512582188094
 30
0.0
 10
97.0066544695985
 20
-136.512582188094
 30
0.0
 10
96.99081474778039
 20
-136.4967424658761
 30
0.0
 10
96.99081474778039
 20
-136.4774455214363
 30
0.0
 10
96.99081474778039
 20
-136.4581485769965
 30
0.0
 10
97.0066544695985
 20
-136.4423088547785
 30
0.0
 10
97.02595141355064
 20
-136.4423088547785
 30
0.0
 10
97.04524835750279
 20
-136.4423088547785
 30
0.0
 10
97.0610880793209
 20
-136.4581485769965
 30
0.0
 10
97.0610880793209
 20
-136.4774455214363
 30
0.0
  0
SPLINE
  5
199
330
1F
100
AcDbEntity
  8
_U+30EC_U+30A4_U+30E4_U+30FC 1
 62
   179
420
  2234388
370
     9
100
AcDbSpline
210
0.0
220
0.0
230
1.0
 70
    11
 71
     3
 72
    17
 73
    13
 74
     0
 42
0.0000000001
 43
0.0000000001
 12
1.0
 22
0.0
 32
0.0
 13
1.0
 23
0.0
 33
0.0
 40
0.0
 40
0.0
 40
0.0
 40
0.0
 40
1.0
 40
1.0
 40
1.0
 40
2.0
 40
2.0
 40
2.0
 40
3.0
 40
3.0
 40
3.0
 40
4.0
 40
4.0
 40
4.0
 40
4.0
 10
97.0610880793209
 20
-144.4776694083249
 30
0.0
 10
97.0610880793209
 20
-144.4969663527648
 30
0.0
 10
97.04524835750279
 20
-144.5128060749826
 30
0.0
 10
97.02595141355064
 20
-144.5128060749826
 30
0.0
 10
97.0066544695985
 20
-144.5128060749826
 30
0.0
 10
96.99081474778039
 20
-144.4969663527648
 30
0.0
 10
96.99081474778039
 20
-144.4776694083249
 30
0.0
 10
96.99081474778039
 20
-144.4583724638857
 30
0.0
 10
97.0066544695985
 20
-144.4425327416672
 30
0.0
 10
97.02595141355064
 20
-144.4425327416672
 30
0.0
 10
97.04524835750279
 20
-144.4425327416672
 30
0.0
 10
97.0610880793209
 20
-144.4583724638857
 30
0.0
 10
97.0610880793209
 20
-144.4776694083249
 30
0.0
  0
POLYLINE
  5
19A
330
1F
100
AcDbEntity
  8
_U+30EC_U+30A4_U+30E4_U+30FC 1
 62
   179
420
  2234388
370
     9
100
AcDb2dPolyline
 66
     1
 10
0.0
 20
0.0
 30
0.0
  0
VERTEX
  5
19B
330
19A
100
AcDbEntity
  8
_U+30EC_U+30A4_U+30E4_U+30FC 1
 62
   179
420
  2234388
370
     9
100
AcDbVertex
100
AcDb2dVertex
 10
87.02621861310953
 20
-118.4777002481584
 30
0.0
  0
VERTEX
  5
19C
330
19A
100
AcDbEntity
  8
_U+30EC_U+30A4_U+30E4_U+30FC 1
 62
   179
420
  2234388
370
     9
100
AcDbVertex
100
AcDb2dVertex
 10
102.0261555300492
 20
-118.4777002481584
 30
0.0
  0
SEQEND
  5
19D
330
19A
100
AcDbEntity
  8
_U+30EC_U+30A4_U+30E4_U+30FC 1
 62
   179
420
  2234388
370
     9
  0
POLYLINE
  5
19E
330
1F
100
AcDbEntity
  8
_U+30EC_U+30A4_U+30E4_U+30FC 1
 62
   179
420
  2234388
370
     9
100
AcDb2dPolyline
 66
     1
 10
0.0
 20
0.0
 30
0.0
  0
VERTEX
  5
19F
330
19E
100
AcDbEntity
  8
_U+30EC_U+30A4_U+30E4_U+30FC 1
 62
   179
420
  2234388
370
     9
100
AcDbVertex
100
AcDb2dVertex
 10
87.02621861310953
 20
-119.9377416366821
 30
0.0
  0
VERTEX
  5
1A0
330
19E
100
AcDbEntity
  8
_U+30EC_U+30A4_U+30E4_U+30FC 1
 62
   179
420
  2234388
370
     9
100
AcDbVertex
100
AcDb2dVertex
 10
87.02621861310953
 20
-117.4779280261862
 30
0.0
  0
SEQEND
  5
1A1
330
19E
100
AcDbEntity
  8
_U+30EC_U+30A4_U+30E4_U+30FC 1
 62
   179
420
  2234388
370
     9
  0
POLYLINE
  5
1A2
330
1F
100
AcDbEntity
  8
_U+30EC_U+30A4_U+30E4_U+30FC 1
 62
   179
420
  2234388
370
     9
100
AcDb2dPolyline
 66
     1
 10
0.0
 20
0.0
 30
0.0
  0
VERTEX
  5
1A3
330
1A2
100
AcDbEntity
  8
_U+30EC_U+30A4_U+30E4_U+30FC 1
 62
   179
420
  2234388
370
     9
100
AcDbVertex
100
AcDb2dVertex
 10
102.0261555300492
 20
-120.4379452476684
 30
0.0
  0
VERTEX
  5
1A4
330
1A2
100
AcDbEntity
  8
_U+30EC_U+30A4_U+30E4_U+30FC 1
 62
   179
420
  2234388
370
     9
100
AcDbVertex
100
AcDb2dVertex
 10
102.0261555300492
 20
-117.4779280261862
 30
0.0
  0
SEQEND
  5
1A5
330
1A2
100
AcDbEntity
  8
_U+30EC_U+30A4_U+30E4_U+30FC 1
 62
   179
420
  2234388
370
     9
  0
INSERT
  5
1A7
330
1F
100
AcDbEntity
  8
_U+30EC_U+30A4_U+30E4_U+30FC 1
100
AcDbBlockReference
  2
block 7
 10
0.0
 20
0.0
 30
0.0
  0
INSERT
  5
1AF
330
1F
100
AcDbEntity
  8
_U+30EC_U+30A4_U+30E4_U+30FC 1
100
AcDbBlockReference
  2
block 8
 10
0.0
 20
0.0
 30
0.0
  0
SPLINE
  5
1BE
330
1F
100
AcDbEntity
  8
_U+30EC_U+30A4_U+30E4_U+30FC 1
 62
   179
420
  2234388
370
    25
100
AcDbSpline
210
0.0
220
0.0
230
1.0
 70
    11
 71
     3
 72
    17
 73
    13
 74
     0
 42
0.0000000001
 43
0.0000000001
 12
1.0
 22
0.0
 32
0.0
 13
1.0
 23
0.0
 33
0.0
 40
0.0
 40
0.0
 40
0.0
 40
0.0
 40
1.0
 40
1.0
 40
1.0
 40
2.0
 40
2.0
 40
2.0
 40
3.0
 40
3.0
 40
3.0
 40
4.0
 40
4.0
 40
4.0
 40
4.0
 10
87.06135527887979
 20
-122.477459413825
 30
0.0
 10
87.06135527887979
 20
-122.4974266360422
 30
0.0
 10
87.04551555706166
 20
-122.5132663582604
 30
0.0
 10
87.02621861310953
 20
-122.5132663582604
 30
0.0
 10
87.00621611361983
 20
-122.5132663582604
 30
0.0
 10
86.99037639180172
 20
-122.4974266360422
 30
0.0
 10
86.99037639180172
 20
-122.477459413825
 30
0.0
 10
86.99037639180172
 20
-122.4581624693855
 30
0.0
 10
87.00621611361983
 20
-122.4423227471673
 30
0.0
 10
87.02621861310953
 20
-122.4423227471673
 30
0.0
 10
87.04551555706166
 20
-122.4423227471673
 30
0.0
 10
87.06135527887979
 20
-122.4581624693855
 30
0.0
 10
87.06135527887979
 20
-122.477459413825
 30
0.0
  0
SPLINE
  5
1BF
330
1F
100
AcDbEntity
  8
_U+30EC_U+30A4_U+30E4_U+30FC 1
 62
   179
420
  2234388
370
    25
100
AcDbSpline
210
0.0
220
0.0
230
1.0
 70
    11
 71
     3
 72
    17
 73
    13
 74
     0
 42
0.0000000001
 43
0.0000000001
 12
1.0
 22
0.0
 32
0.0
 13
1.0
 23
0.0
 33
0.0
 40
0.0
 40
0.0
 40
0.0
 40
0.0
 40
1.0
 40
1.0
 40
1.0
 40
2.0
 40
2.0
 40
2.0
 40
3.0
 40
3.0
 40
3.0
 40
4.0
 40
4.0
 40
4.0
 40
4.0
 10
102.0612896184218
 20
-122.9776630248112
 30
0.0
 10
102.0612896184218
 20
-122.9969599692507
 30
0.0
 10
102.0454498966037
 20
-123.0128349692468
 30
0.0
 10
102.0261555300492
 20
-123.0128349692468
 30
0.0
 10
102.0061857309387
 20
-123.0128349692468
 30
0.0
 10
101.9910162868813
 20
-122.9969599692507
 30
0.0
 10
101.9910162868813
 20
-122.9776630248112
 30
0.0
 10
101.9910162868813
 20
-122.9584013581492
 30
0.0
 10
102.0061857309387
 20
-122.9425263581532
 30
0.0
 10
102.0261555300492
 20
-122.9425263581532
 30
0.0
 10
102.0454498966037
 20
-122.9425263581532
 30
0.0
 10
102.0612896184218
 20
-122.9584013581492
 30
0.0
 10
102.0612896184218
 20
-122.9776630248112
 30
0.0
  0
SPLINE
  5
1C0
330
1F
100
AcDbEntity
  8
_U+30EC_U+30A4_U+30E4_U+30FC 1
 62
   179
420
  2234388
370
     9
100
AcDbSpline
210
0.0
220
0.0
230
1.0
 70
    11
 71
     3
 72
    17
 73
    13
 74
     0
 42
0.0000000001
 43
0.0000000001
 12
1.0
 22
0.0
 32
0.0
 13
1.0
 23
0.0
 33
0.0
 40
0.0
 40
0.0
 40
0.0
 40
0.0
 40
1.0
 40
1.0
 40
1.0
 40
2.0
 40
2.0
 40
2.0
 40
3.0
 40
3.0
 40
3.0
 40
4.0
 40
4.0
 40
4.0
 40
4.0
 10
102.0612896184218
 20
-118.4777002481584
 30
0.0
 10
102.0612896184218
 20
-118.496997192598
 30
0.0
 10
102.0454498966037
 20
-118.5128369148162
 30
0.0
 10
102.0261555300492
 20
-118.5128369148162
 30
0.0
 10
102.0061857309387
 20
-118.5128369148162
 30
0.0
 10
101.9910162868813
 20
-118.496997192598
 30
0.0
 10
101.9910162868813
 20
-118.4777002481584
 30
0.0
 10
101.9910162868813
 20
-118.4584033037186
 30
0.0
 10
102.0061857309387
 20
-118.4425635815004
 30
0.0
 10
102.0261555300492
 20
-118.4425635815004
 30
0.0
 10
102.0454498966037
 20
-118.4425635815004
 30
0.0
 10
102.0612896184218
 20
-118.4584033037186
 30
0.0
 10
102.0612896184218
 20
-118.4777002481584
 30
0.0
  0
POLYLINE
  5
1C1
330
1F
100
AcDbEntity
  8
_U+30EC_U+30A4_U+30E4_U+30FC 1
 62
   179
420
  2234388
370
     9
100
AcDb2dPolyline
 66
     1
 10
0.0
 20
0.0
 30
0.0
  0
VERTEX
  5
1C2
330
1C1
100
AcDbEntity
  8
_U+30EC_U+30A4_U+30E4_U+30FC 1
 62
   179
420
  2234388
370
     9
100
AcDbVertex
100
AcDb2dVertex
 10
105.3203564797205
 20
-122.9776630248112
 30
0.0
  0
VERTEX
  5
1C3
330
1C1
100
AcDbEntity
  8
_U+30EC_U+30A4_U+30E4_U+30FC 1
 62
   179
420
  2234388
370
     9
100
AcDbVertex
100
AcDb2dVertex
 10
105.3203564797205
 20
-117.7197571927923
 30
0.0
  0
SEQEND
  5
1C4
330
1C1
100
AcDbEntity
  8
_U+30EC_U+30A4_U+30E4_U+30FC 1
 62
   179
420
  2234388
370
     9
  0
POLYLINE
  5
1C5
330
1F
100
AcDbEntity
  8
_U+30EC_U+30A4_U+30E4_U+30FC 1
 62
   179
420
  2234388
370
     9
100
AcDb2dPolyline
 66
     1
 10
0.0
 20
0.0
 30
0.0
  0
VERTEX
  5
1C6
330
1C5
100
AcDbEntity
  8
_U+30EC_U+30A4_U+30E4_U+30FC 1
 62
   179
420
  2234388
370
     9
100
AcDbVertex
100
AcDb2dVertex
 10
105.3203564797205
 20
-122.9776630248112
 30
0.0
  0
VERTEX
  5
1C7
330
1C5
100
AcDbEntity
  8
_U+30EC_U+30A4_U+30E4_U+30FC 1
 62
   179
420
  2234388
370
     9
100
AcDbVertex
100
AcDb2dVertex
 10
105.3203564797205
 20
-126.4778888572696
 30
0.0
  0
SEQEND
  5
1C8
330
1C5
100
AcDbEntity
  8
_U+30EC_U+30A4_U+30E4_U+30FC 1
 62
   179
420
  2234388
370
     9
  0
POLYLINE
  5
1C9
330
1F
100
AcDbEntity
  8
_U+30EC_U+30A4_U+30E4_U+30FC 1
 62
   179
420
  2234388
370
     9
100
AcDb2dPolyline
 66
     1
 10
0.0
 20
0.0
 30
0.0
  0
VERTEX
  5
1CA
330
1C9
100
AcDbEntity
  8
_U+30EC_U+30A4_U+30E4_U+30FC 1
 62
   179
420
  2234388
370
     9
100
AcDbVertex
100
AcDb2dVertex
 10
103.8603151280804
 20
-122.9776630248112
 30
0.0
  0
VERTEX
  5
1CB
330
1C9
100
AcDbEntity
  8
_U+30EC_U+30A4_U+30E4_U+30FC 1
 62
   179
420
  2234388
370
     9
100
AcDbVertex
100
AcDb2dVertex
 10
105.9673509076588
 20
-122.9776630248112
 30
0.0
  0
SEQEND
  5
1CC
330
1C9
100
AcDbEntity
  8
_U+30EC_U+30A4_U+30E4_U+30FC 1
 62
   179
420
  2234388
370
     9
  0
POLYLINE
  5
1CD
330
1F
100
AcDbEntity
  8
_U+30EC_U+30A4_U+30E4_U+30FC 1
 62
   179
420
  2234388
370
     9
100
AcDb2dPolyline
 66
     1
 10
0.0
 20
0.0
 30
0.0
  0
VERTEX
  5
1CE
330
1CD
100
AcDbEntity
  8
_U+30EC_U+30A4_U+30E4_U+30FC 1
 62
   179
420
  2234388
370
     9
100
AcDbVertex
100
AcDb2dVertex
 10
103.8603151280804
 20
-126.4778888572696
 30
0.0
  0
VERTEX
  5
1CF
330
1CD
100
AcDbEntity
  8
_U+30EC_U+30A4_U+30E4_U+30FC 1
 62
   179
420
  2234388
370
     9
100
AcDbVertex
100
AcDb2dVertex
 10
105.9673509076588
 20
-126.4778888572696
 30
0.0
  0
SEQEND
  5
1D0
330
1CD
100
AcDbEntity
  8
_U+30EC_U+30A4_U+30E4_U+30FC 1
 62
   179
420
  2234388
370
     9
  0
INSERT
  5
1D2
330
1F
100
AcDbEntity
  8
_U+30EC_U+30A4_U+30E4_U+30FC 1
100
AcDbBlockReference
  2
block 9
 10
0.0
 20
0.0
 30
0.0
  0
SPLINE
  5
1E1
330
1F
100
AcDbEntity
  8
_U+30EC_U+30A4_U+30E4_U+30FC 1
 62
   179
420
  2234388
370
    25
100
AcDbSpline
210
0.0
220
0.0
230
1.0
 70
    11
 71
     3
 72
    17
 73
    13
 74
     0
 42
0.0000000001
 43
0.0000000001
 12
1.0
 22
0.0
 32
0.0
 13
1.0
 23
0.0
 33
0.0
 40
0.0
 40
0.0
 40
0.0
 40
0.0
 40
1.0
 40
1.0
 40
1.0
 40
2.0
 40
2.0
 40
2.0
 40
3.0
 40
3.0
 40
3.0
 40
4.0
 40
4.0
 40
4.0
 40
4.0
 10
102.0612896184218
 20
-122.9776630248112
 30
0.0
 10
102.0612896184218
 20
-122.9969599692507
 30
0.0
 10
102.0454498966037
 20
-123.0128349692468
 30
0.0
 10
102.0261555300492
 20
-123.0128349692468
 30
0.0
 10
102.0061857309387
 20
-123.0128349692468
 30
0.0
 10
101.9910162868813
 20
-122.9969599692507
 30
0.0
 10
101.9910162868813
 20
-122.9776630248112
 30
0.0
 10
101.9910162868813
 20
-122.9584013581492
 30
0.0
 10
102.0061857309387
 20
-122.9425263581532
 30
0.0
 10
102.0261555300492
 20
-122.9425263581532
 30
0.0
 10
102.0454498966037
 20
-122.9425263581532
 30
0.0
 10
102.0612896184218
 20
-122.9584013581492
 30
0.0
 10
102.0612896184218
 20
-122.9776630248112
 30
0.0
  0
SPLINE
  5
1E2
330
1F
100
AcDbEntity
  8
_U+30EC_U+30A4_U+30E4_U+30FC 1
 62
   179
420
  2234388
370
    25
100
AcDbSpline
210
0.0
220
0.0
230
1.0
 70
    11
 71
     3
 72
    17
 73
    13
 74
     0
 42
0.0000000001
 43
0.0000000001
 12
1.0
 22
0.0
 32
0.0
 13
1.0
 23
0.0
 33
0.0
 40
0.0
 40
0.0
 40
0.0
 40
0.0
 40
1.0
 40
1.0
 40
1.0
 40
2.0
 40
2.0
 40
2.0
 40
3.0
 40
3.0
 40
3.0
 40
4.0
 40
4.0
 40
4.0
 40
4.0
 10
102.0612896184218
 20
-126.4778888572696
 30
0.0
 10
102.0612896184218
 20
-126.4971858017091
 30
0.0
 10
102.0454498966037
 20
-126.5130255239273
 30
0.0
 10
102.0261555300492
 20
-126.5130255239273
 30
0.0
 10
102.0061857309387
 20
-126.5130255239273
 30
0.0
 10
101.9910162868813
 20
-126.4971858017091
 30
0.0
 10
101.9910162868813
 20
-126.4778888572696
 30
0.0
 10
101.9910162868813
 20
-126.4579216350521
 30
0.0
 10
102.0061857309387
 20
-126.4427521906115
 30
0.0
 10
102.0261555300492
 20
-126.4427521906115
 30
0.0
 10
102.0454498966037
 20
-126.4427521906115
 30
0.0
 10
102.0612896184218
 20
-126.4579216350521
 30
0.0
 10
102.0612896184218
 20
-126.4778888572696
 30
0.0
  0
SPLINE
  5
1E3
330
1F
100
AcDbEntity
  8
_U+30EC_U+30A4_U+30E4_U+30FC 1
 62
   179
420
  2234388
370
     9
100
AcDbSpline
210
0.0
220
0.0
230
1.0
 70
    11
 71
     3
 72
    17
 73
    13
 74
     0
 42
0.0000000001
 43
0.0000000001
 12
1.0
 22
0.0
 32
0.0
 13
1.0
 23
0.0
 33
0.0
 40
0.0
 40
0.0
 40
0.0
 40
0.0
 40
1.0
 40
1.0
 40
1.0
 40
2.0
 40
2.0
 40
2.0
 40
3.0
 40
3.0
 40
3.0
 40
4.0
 40
4.0
 40
4.0
 40
4.0
 10
105.3554931454908
 20
-126.4778888572696
 30
0.0
 10
105.3554931454908
 20
-126.4971858017091
 30
0.0
 10
105.3396534236727
 20
-126.5130255239273
 30
0.0
 10
105.3203564797205
 20
-126.5130255239273
 30
0.0
 10
105.3010595357684
 20
-126.5130255239273
 30
0.0
 10
105.2852198139503
 20
-126.4971858017091
 30
0.0
 10
105.2852198139503
 20
-126.4778888572696
 30
0.0
 10
105.2852198139503
 20
-126.4579216350521
 30
0.0
 10
105.3010595357684
 20
-126.4427521906115
 30
0.0
 10
105.3203564797205
 20
-126.4427521906115
 30
0.0
 10
105.3396534236727
 20
-126.4427521906115
 30
0.0
 10
105.3554931454908
 20
-126.4579216350521
 30
0.0
 10
105.3554931454908
 20
-126.4778888572696
 30
0.0
  0
POLYLINE
  5
1E4
330
1F
100
AcDbEntity
  8
_U+30EC_U+30A4_U+30E4_U+30FC 1
 62
   179
420
  2234388
370
     9
100
AcDb2dPolyline
 66
     1
 10
0.0
 20
0.0
 30
0.0
  0
VERTEX
  5
1E5
330
1E4
100
AcDbEntity
  8
_U+30EC_U+30A4_U+30E4_U+30FC 1
 62
   179
420
  2234388
370
     9
100
AcDbVertex
100
AcDb2dVertex
 10
105.3203564797205
 20
-126.4778888572696
 30
0.0
  0
VERTEX
  5
1E6
330
1E4
100
AcDbEntity
  8
_U+30EC_U+30A4_U+30E4_U+30FC 1
 62
   179
420
  2234388
370
     9
100
AcDbVertex
100
AcDb2dVertex
 10
105.3203564797205
 20
-136.4774455214363
 30
0.0
  0
SEQEND
  5
1E7
330
1E4
100
AcDbEntity
  8
_U+30EC_U+30A4_U+30E4_U+30FC 1
 62
   179
420
  2234388
370
     9
  0
POLYLINE
  5
1E8
330
1F
100
AcDbEntity
  8
_U+30EC_U+30A4_U+30E4_U+30FC 1
 62
   179
420
  2234388
370
     9
100
AcDb2dPolyline
 66
     1
 10
0.0
 20
0.0
 30
0.0
  0
VERTEX
  5
1E9
330
1E8
100
AcDbEntity
  8
_U+30EC_U+30A4_U+30E4_U+30FC 1
 62
   179
420
  2234388
370
     9
100
AcDbVertex
100
AcDb2dVertex
 10
98.86011358897949
 20
-136.4774455214363
 30
0.0
  0
VERTEX
  5
1EA
330
1E8
100
AcDbEntity
  8
_U+30EC_U+30A4_U+30E4_U+30FC 1
 62
   179
420
  2234388
370
     9
100
AcDbVertex
100
AcDb2dVertex
 10
106.3201286764364
 20
-136.4774455214363
 30
0.0
  0
SEQEND
  5
1EB
330
1E8
100
AcDbEntity
  8
_U+30EC_U+30A4_U+30E4_U+30FC 1
 62
   179
420
  2234388
370
     9
  0
INSERT
  5
1ED
330
1F
100
AcDbEntity
  8
_U+30EC_U+30A4_U+30E4_U+30FC 1
100
AcDbBlockReference
  2
block 10
 10
0.0
 20
0.0
 30
0.0
  0
SPLINE
  5
1F5
330
1F
100
AcDbEntity
  8
_U+30EC_U+30A4_U+30E4_U+30FC 1
 62
   179
420
  2234388
370
    25
100
AcDbSpline
210
0.0
220
0.0
230
1.0
 70
    11
 71
     3
 72
    17
 73
    13
 74
     0
 42
0.0000000001
 43
0.0000000001
 12
1.0
 22
0.0
 32
0.0
 13
1.0
 23
0.0
 33
0.0
 40
0.0
 40
0.0
 40
0.0
 40
0.0
 40
1.0
 40
1.0
 40
1.0
 40
2.0
 40
2.0
 40
2.0
 40
3.0
 40
3.0
 40
3.0
 40
4.0
 40
4.0
 40
4.0
 40
4.0
 10
102.0612896184218
 20
-126.4778888572696
 30
0.0
 10
102.0612896184218
 20
-126.4971858017091
 30
0.0
 10
102.0454498966037
 20
-126.5130255239273
 30
0.0
 10
102.0261555300492
 20
-126.5130255239273
 30
0.0
 10
102.0061857309387
 20
-126.5130255239273
 30
0.0
 10
101.9910162868813
 20
-126.4971858017091
 30
0.0
 10
101.9910162868813
 20
-126.4778888572696
 30
0.0
 10
101.9910162868813
 20
-126.4579216350521
 30
0.0
 10
102.0061857309387
 20
-126.4427521906115
 30
0.0
 10
102.0261555300492
 20
-126.4427521906115
 30
0.0
 10
102.0454498966037
 20
-126.4427521906115
 30
0.0
 10
102.0612896184218
 20
-126.4579216350521
 30
0.0
 10
102.0612896184218
 20
-126.4778888572696
 30
0.0
  0
SPLINE
  5
1F6
330
1F
100
AcDbEntity
  8
_U+30EC_U+30A4_U+30E4_U+30FC 1
 62
   179
420
  2234388
370
    25
100
AcDbSpline
210
0.0
220
0.0
230
1.0
 70
    11
 71
     3
 72
    17
 73
    13
 74
     0
 42
0.0000000001
 43
0.0000000001
 12
1.0
 22
0.0
 32
0.0
 13
1.0
 23
0.0
 33
0.0
 40
0.0
 40
0.0
 40
0.0
 40
0.0
 40
1.0
 40
1.0
 40
1.0
 40
2.0
 40
2.0
 40
2.0
 40
3.0
 40
3.0
 40
3.0
 40
4.0
 40
4.0
 40
4.0
 40
4.0
 10
97.0610880793209
 20
-136.4774455214363
 30
0.0
 10
97.0610880793209
 20
-136.4967424658761
 30
0.0
 10
97.04524835750279
 20
-136.512582188094
 30
0.0
 10
97.02595141355064
 20
-136.512582188094
 30
0.0
 10
97.0066544695985
 20
-136.512582188094
 30
0.0
 10
96.99081474778039
 20
-136.4967424658761
 30
0.0
 10
96.99081474778039
 20
-136.4774455214363
 30
0.0
 10
96.99081474778039
 20
-136.4581485769965
 30
0.0
 10
97.0066544695985
 20
-136.4423088547785
 30
0.0
 10
97.02595141355064
 20
-136.4423088547785
 30
0.0
 10
97.04524835750279
 20
-136.4423088547785
 30
0.0
 10
97.0610880793209
 20
-136.4581485769965
 30
0.0
 10
97.0610880793209
 20
-136.4774455214363
 30
0.0
  0
SPLINE
  5
1F7
330
1F
100
AcDbEntity
  8
_U+30EC_U+30A4_U+30E4_U+30FC 1
 62
   179
420
  2234388
370
     9
100
AcDbSpline
210
0.0
220
0.0
230
1.0
 70
    11
 71
     3
 72
    17
 73
    13
 74
     0
 42
0.0000000001
 43
0.0000000001
 12
1.0
 22
0.0
 32
0.0
 13
1.0
 23
0.0
 33
0.0
 40
0.0
 40
0.0
 40
0.0
 40
0.0
 40
1.0
 40
1.0
 40
1.0
 40
2.0
 40
2.0
 40
2.0
 40
3.0
 40
3.0
 40
3.0
 40
4.0
 40
4.0
 40
4.0
 40
4.0
 10
105.3554931454908
 20
-136.4774455214363
 30
0.0
 10
105.3554931454908
 20
-136.4967424658761
 30
0.0
 10
105.3396534236727
 20
-136.512582188094
 30
0.0
 10
105.3203564797205
 20
-136.512582188094
 30
0.0
 10
105.3010595357684
 20
-136.512582188094
 30
0.0
 10
105.2852198139503
 20
-136.4967424658761
 30
0.0
 10
105.2852198139503
 20
-136.4774455214363
 30
0.0
 10
105.2852198139503
 20
-136.4581485769965
 30
0.0
 10
105.3010595357684
 20
-136.4423088547785
 30
0.0
 10
105.3203564797205
 20
-136.4423088547785
 30
0.0
 10
105.3396534236727
 20
-136.4423088547785
 30
0.0
 10
105.3554931454908
 20
-136.4581485769965
 30
0.0
 10
105.3554931454908
 20
-136.4774455214363
 30
0.0
  0
POLYLINE
  5
1F8
330
1F
100
AcDbEntity
  8
_U+30EC_U+30A4_U+30E4_U+30FC 1
 62
   179
420
  2234388
370
     9
100
AcDb2dPolyline
 66
     1
 10
0.0
 20
0.0
 30
0.0
  0
VERTEX
  5
1F9
330
1F8
100
AcDbEntity
  8
_U+30EC_U+30A4_U+30E4_U+30FC 1
 62
   179
420
  2234388
370
     9
100
AcDbVertex
100
AcDb2dVertex
 10
76.93691553717576
 20
-136.4774455214363
 30
0.0
  0
VERTEX
  5
1FA
330
1F8
100
AcDbEntity
  8
_U+30EC_U+30A4_U+30E4_U+30FC 1
 62
   179
420
  2234388
370
     9
100
AcDbVertex
100
AcDb2dVertex
 10
76.93691553717576
 20
-141.7353513534552
 30
0.0
  0
SEQEND
  5
1FB
330
1F8
100
AcDbEntity
  8
_U+30EC_U+30A4_U+30E4_U+30FC 1
 62
   179
420
  2234388
370
     9
  0
POLYLINE
  5
1FC
330
1F
100
AcDbEntity
  8
_U+30EC_U+30A4_U+30E4_U+30FC 1
 62
   179
420
  2234388
370
     9
100
AcDb2dPolyline
 66
     1
 10
0.0
 20
0.0
 30
0.0
  0
VERTEX
  5
1FD
330
1FC
100
AcDbEntity
  8
_U+30EC_U+30A4_U+30E4_U+30FC 1
 62
   179
420
  2234388
370
     9
100
AcDbVertex
100
AcDb2dVertex
 10
76.93691553717576
 20
-133.9776974665056
 30
0.0
  0
VERTEX
  5
1FE
330
1FC
100
AcDbEntity
  8
_U+30EC_U+30A4_U+30E4_U+30FC 1
 62
   179
420
  2234388
370
     9
100
AcDbVertex
100
AcDb2dVertex
 10
76.93691553717576
 20
-136.4774455214363
 30
0.0
  0
SEQEND
  5
1FF
330
1FC
100
AcDbEntity
  8
_U+30EC_U+30A4_U+30E4_U+30FC 1
 62
   179
420
  2234388
370
     9
  0
POLYLINE
  5
200
330
1F
100
AcDbEntity
  8
_U+30EC_U+30A4_U+30E4_U+30FC 1
 62
   179
420
  2234388
370
     9
100
AcDb2dPolyline
 66
     1
 10
0.0
 20
0.0
 30
0.0
  0
VERTEX
  5
201
330
200
100
AcDbEntity
  8
_U+30EC_U+30A4_U+30E4_U+30FC 1
 62
   179
420
  2234388
370
     9
100
AcDbVertex
100
AcDb2dVertex
 10
78.39692161103902
 20
-133.9776974665056
 30
0.0
  0
VERTEX
  5
202
330
200
100
AcDbEntity
  8
_U+30EC_U+30A4_U+30E4_U+30FC 1
 62
   179
420
  2234388
370
     9
100
AcDbVertex
100
AcDb2dVertex
 10
75.93714334045985
 20
-133.9776974665056
 30
0.0
  0
SEQEND
  5
203
330
200
100
AcDbEntity
  8
_U+30EC_U+30A4_U+30E4_U+30FC 1
 62
   179
420
  2234388
370
     9
  0
POLYLINE
  5
204
330
1F
100
AcDbEntity
  8
_U+30EC_U+30A4_U+30E4_U+30FC 1
 62
   179
420
  2234388
370
     9
100
AcDb2dPolyline
 66
     1
 10
0.0
 20
0.0
 30
0.0
  0
VERTEX
  5
205
330
204
100
AcDbEntity
  8
_U+30EC_U+30A4_U+30E4_U+30FC 1
 62
   179
420
  2234388
370
     9
100
AcDbVertex
100
AcDb2dVertex
 10
78.39692161103902
 20
-136.4774455214363
 30
0.0
  0
VERTEX
  5
206
330
204
100
AcDbEntity
  8
_U+30EC_U+30A4_U+30E4_U+30FC 1
 62
   179
420
  2234388
370
     9
100
AcDbVertex
100
AcDb2dVertex
 10
75.93714334045985
 20
-136.4774455214363
 30
0.0
  0
SEQEND
  5
207
330
204
100
AcDbEntity
  8
_U+30EC_U+30A4_U+30E4_U+30FC 1
 62
   179
420
  2234388
370
     9
  0
INSERT
  5
209
330
1F
100
AcDbEntity
  8
_U+30EC_U+30A4_U+30E4_U+30FC 1
100
AcDbBlockReference
  2
block 11
 10
0.0
 20
0.0
 30
0.0
  0
SPLINE
  5
218
330
1F
100
AcDbEntity
  8
_U+30EC_U+30A4_U+30E4_U+30FC 1
 62
   179
420
  2234388
370
    25
100
AcDbSpline
210
0.0
220
0.0
230
1.0
 70
    11
 71
     3
 72
    17
 73
    13
 74
     0
 42
0.0000000001
 43
0.0000000001
 12
1.0
 22
0.0
 32
0.0
 13
1.0
 23
0.0
 33
0.0
 40
0.0
 40
0.0
 40
0.0
 40
0.0
 40
1.0
 40
1.0
 40
1.0
 40
2.0
 40
2.0
 40
2.0
 40
3.0
 40
3.0
 40
3.0
 40
4.0
 40
4.0
 40
4.0
 40
4.0
 10
79.56137047022034
 20
-133.9776974665056
 30
0.0
 10
79.56137047022034
 20
-133.9969944109455
 30
0.0
 10
79.54553074840221
 20
-134.0128341331634
 30
0.0
 10
79.52623380445009
 20
-134.0128341331634
 30
0.0
 10
79.50626658273727
 20
-134.0128341331634
 30
0.0
 10
79.49039158314227
 20
-133.9969944109455
 30
0.0
 10
79.49039158314227
 20
-133.9776974665056
 30
0.0
 10
79.49039158314227
 20
-133.9577302442885
 30
0.0
 10
79.50626658273727
 20
-133.9425607998479
 30
0.0
 10
79.52623380445009
 20
-133.9425607998479
 30
0.0
 10
79.54553074840221
 20
-133.9425607998479
 30
0.0
 10
79.56137047022034
 20
-133.9577302442885
 30
0.0
 10
79.56137047022034
 20
-133.9776974665056
 30
0.0
  0
SPLINE
  5
219
330
1F
100
AcDbEntity
  8
_U+30EC_U+30A4_U+30E4_U+30FC 1
 62
   179
420
  2234388
370
    25
100
AcDbSpline
210
0.0
220
0.0
230
1.0
 70
    11
 71
     3
 72
    17
 73
    13
 74
     0
 42
0.0000000001
 43
0.0000000001
 12
1.0
 22
0.0
 32
0.0
 13
1.0
 23
0.0
 33
0.0
 40
0.0
 40
0.0
 40
0.0
 40
0.0
 40
1.0
 40
1.0
 40
1.0
 40
2.0
 40
2.0
 40
2.0
 40
3.0
 40
3.0
 40
3.0
 40
4.0
 40
4.0
 40
4.0
 40
4.0
 10
79.56137047022034
 20
-136.4774455214363
 30
0.0
 10
79.56137047022034
 20
-136.4967424658761
 30
0.0
 10
79.54553074840221
 20
-136.512582188094
 30
0.0
 10
79.52623380445009
 20
-136.512582188094
 30
0.0
 10
79.50626658273727
 20
-136.512582188094
 30
0.0
 10
79.49039158314227
 20
-136.4967424658761
 30
0.0
 10
79.49039158314227
 20
-136.4774455214363
 30
0.0
 10
79.49039158314227
 20
-136.4581485769965
 30
0.0
 10
79.50626658273727
 20
-136.4423088547785
 30
0.0
 10
79.52623380445009
 20
-136.4423088547785
 30
0.0
 10
79.54553074840221
 20
-136.4423088547785
 30
0.0
 10
79.56137047022034
 20
-136.4581485769965
 30
0.0
 10
79.56137047022034
 20
-136.4774455214363
 30
0.0
  0
SPLINE
  5
21A
330
1F
100
AcDbEntity
  8
_U+30EC_U+30A4_U+30E4_U+30FC 1
 62
   179
420
  2234388
370
     9
100
AcDbSpline
210
0.0
220
0.0
230
1.0
 70
    11
 71
     3
 72
    17
 73
    13
 74
     0
 42
0.0000000001
 43
0.0000000001
 12
1.0
 22
0.0
 32
0.0
 13
1.0
 23
0.0
 33
0.0
 40
0.0
 40
0.0
 40
0.0
 40
0.0
 40
1.0
 40
1.0
 40
1.0
 40
2.0
 40
2.0
 40
2.0
 40
3.0
 40
3.0
 40
3.0
 40
4.0
 40
4.0
 40
4.0
 40
4.0
 10
76.97205220294602
 20
-136.4774455214363
 30
0.0
 10
76.97205220294602
 20
-136.4967424658761
 30
0.0
 10
76.95688275888858
 20
-136.512582188094
 30
0.0
 10
76.93691553717576
 20
-136.512582188094
 30
0.0
 10
76.91761859322362
 20
-136.512582188094
 30
0.0
 10
76.90177887140551
 20
-136.4967424658761
 30
0.0
 10
76.90177887140551
 20
-136.4774455214363
 30
0.0
 10
76.90177887140551
 20
-136.4581485769965
 30
0.0
 10
76.91761859322362
 20
-136.4423088547785
 30
0.0
 10
76.93691553717576
 20
-136.4423088547785
 30
0.0
 10
76.95688275888858
 20
-136.4423088547785
 30
0.0
 10
76.97205220294602
 20
-136.4581485769965
 30
0.0
 10
76.97205220294602
 20
-136.4774455214363
 30
0.0
  0
POLYLINE
  5
21B
330
1F
100
AcDbEntity
  8
_U+30EC_U+30A4_U+30E4_U+30FC 1
 62
   179
420
  2234388
370
     9
100
AcDb2dPolyline
 66
     1
 10
0.0
 20
0.0
 30
0.0
  0
VERTEX
  5
21C
330
21B
100
AcDbEntity
  8
_U+30EC_U+30A4_U+30E4_U+30FC 1
 62
   179
420
  2234388
370
     9
100
AcDbVertex
100
AcDb2dVertex
 10
76.93691553717576
 20
-133.9776974665056
 30
0.0
  0
VERTEX
  5
21D
330
21B
100
AcDbEntity
  8
_U+30EC_U+30A4_U+30E4_U+30FC 1
 62
   179
420
  2234388
370
     9
100
AcDbVertex
100
AcDb2dVertex
 10
76.93691553717576
 20
-123.9774352467834
 30
0.0
  0
SEQEND
  5
21E
330
21B
100
AcDbEntity
  8
_U+30EC_U+30A4_U+30E4_U+30FC 1
 62
   179
420
  2234388
370
     9
  0
POLYLINE
  5
21F
330
1F
100
AcDbEntity
  8
_U+30EC_U+30A4_U+30E4_U+30FC 1
 62
   179
420
  2234388
370
     9
100
AcDb2dPolyline
 66
     1
 10
0.0
 20
0.0
 30
0.0
  0
VERTEX
  5
220
330
21F
100
AcDbEntity
  8
_U+30EC_U+30A4_U+30E4_U+30FC 1
 62
   179
420
  2234388
370
     9
100
AcDbVertex
100
AcDb2dVertex
 10
85.48623781906437
 20
-123.9774352467834
 30
0.0
  0
VERTEX
  5
221
330
21F
100
AcDbEntity
  8
_U+30EC_U+30A4_U+30E4_U+30FC 1
 62
   179
420
  2234388
370
     9
100
AcDbVertex
100
AcDb2dVertex
 10
75.93714334045985
 20
-123.9774352467834
 30
0.0
  0
SEQEND
  5
222
330
21F
100
AcDbEntity
  8
_U+30EC_U+30A4_U+30E4_U+30FC 1
 62
   179
420
  2234388
370
     9
  0
INSERT
  5
224
330
1F
100
AcDbEntity
  8
_U+30EC_U+30A4_U+30E4_U+30FC 1
100
AcDbBlockReference
  2
block 12
 10
0.0
 20
0.0
 30
0.0
  0
SPLINE
  5
22C
330
1F
100
AcDbEntity
  8
_U+30EC_U+30A4_U+30E4_U+30FC 1
 62
   179
420
  2234388
370
    25
100
AcDbSpline
210
0.0
220
0.0
230
1.0
 70
    11
 71
     3
 72
    17
 73
    13
 74
     0
 42
0.0000000001
 43
0.0000000001
 12
1.0
 22
0.0
 32
0.0
 13
1.0
 23
0.0
 33
0.0
 40
0.0
 40
0.0
 40
0.0
 40
0.0
 40
1.0
 40
1.0
 40
1.0
 40
2.0
 40
2.0
 40
2.0
 40
3.0
 40
3.0
 40
3.0
 40
4.0
 40
4.0
 40
4.0
 40
4.0
 10
79.56137047022034
 20
-133.9776974665056
 30
0.0
 10
79.56137047022034
 20
-133.9969944109455
 30
0.0
 10
79.54553074840221
 20
-134.0128341331634
 30
0.0
 10
79.52623380445009
 20
-134.0128341331634
 30
0.0
 10
79.50626658273727
 20
-134.0128341331634
 30
0.0
 10
79.49039158314227
 20
-133.9969944109455
 30
0.0
 10
79.49039158314227
 20
-133.9776974665056
 30
0.0
 10
79.49039158314227
 20
-133.9577302442885
 30
0.0
 10
79.50626658273727
 20
-133.9425607998479
 30
0.0
 10
79.52623380445009
 20
-133.9425607998479
 30
0.0
 10
79.54553074840221
 20
-133.9425607998479
 30
0.0
 10
79.56137047022034
 20
-133.9577302442885
 30
0.0
 10
79.56137047022034
 20
-133.9776974665056
 30
0.0
  0
SPLINE
  5
22D
330
1F
100
AcDbEntity
  8
_U+30EC_U+30A4_U+30E4_U+30FC 1
 62
   179
420
  2234388
370
    25
100
AcDbSpline
210
0.0
220
0.0
230
1.0
 70
    11
 71
     3
 72
    17
 73
    13
 74
     0
 42
0.0000000001
 43
0.0000000001
 12
1.0
 22
0.0
 32
0.0
 13
1.0
 23
0.0
 33
0.0
 40
0.0
 40
0.0
 40
0.0
 40
0.0
 40
1.0
 40
1.0
 40
1.0
 40
2.0
 40
2.0
 40
2.0
 40
3.0
 40
3.0
 40
3.0
 40
4.0
 40
4.0
 40
4.0
 40
4.0
 10
88.0611274755957
 20
-123.9774352467834
 30
0.0
 10
88.0611274755957
 20
-123.9974377467785
 30
0.0
 10
88.0452524760007
 20
-124.0132774689967
 30
0.0
 10
88.02599080982543
 20
-124.0132774689967
 30
0.0
 10
88.0066938658733
 20
-124.0132774689967
 30
0.0
 10
87.99085414405518
 20
-123.9974377467785
 30
0.0
 10
87.99085414405518
 20
-123.9774352467834
 30
0.0
 10
87.99085414405518
 20
-123.9581383023439
 30
0.0
 10
88.0066938658733
 20
-123.9422985801257
 30
0.0
 10
88.02599080982543
 20
-123.9422985801257
 30
0.0
 10
88.0452524760007
 20
-123.9422985801257
 30
0.0
 10
88.0611274755957
 20
-123.9581383023439
 30
0.0
 10
88.0611274755957
 20
-123.9774352467834
 30
0.0
  0
SPLINE
  5
22E
330
1F
100
AcDbEntity
  8
_U+30EC_U+30A4_U+30E4_U+30FC 1
 62
   179
420
  2234388
370
     9
100
AcDbSpline
210
0.0
220
0.0
230
1.0
 70
    11
 71
     3
 72
    17
 73
    13
 74
     0
 42
0.0000000001
 43
0.0000000001
 12
1.0
 22
0.0
 32
0.0
 13
1.0
 23
0.0
 33
0.0
 40
0.0
 40
0.0
 40
0.0
 40
0.0
 40
1.0
 40
1.0
 40
1.0
 40
2.0
 40
2.0
 40
2.0
 40
3.0
 40
3.0
 40
3.0
 40
4.0
 40
4.0
 40
4.0
 40
4.0
 10
76.97205220294602
 20
-123.9774352467834
 30
0.0
 10
76.97205220294602
 20
-123.9974377467785
 30
0.0
 10
76.95688275888858
 20
-124.0132774689967
 30
0.0
 10
76.93691553717576
 20
-124.0132774689967
 30
0.0
 10
76.91761859322362
 20
-124.0132774689967
 30
0.0
 10
76.90177887140551
 20
-123.9974377467785
 30
0.0
 10
76.90177887140551
 20
-123.9774352467834
 30
0.0
 10
76.90177887140551
 20
-123.9581383023439
 30
0.0
 10
76.91761859322362
 20
-123.9422985801257
 30
0.0
 10
76.93691553717576
 20
-123.9422985801257
 30
0.0
 10
76.95688275888858
 20
-123.9422985801257
 30
0.0
 10
76.97205220294602
 20
-123.9581383023439
 30
0.0
 10
76.97205220294602
 20
-123.9774352467834
 30
0.0
  0
POLYLINE
  5
22F
330
1F
100
AcDbEntity
  8
_U+30EC_U+30A4_U+30E4_U+30FC 1
 62
   179
420
  2234388
370
     9
100
AcDb2dPolyline
 66
     1
 10
0.0
 20
0.0
 30
0.0
  0
VERTEX
  5
230
330
22F
100
AcDbEntity
  8
_U+30EC_U+30A4_U+30E4_U+30FC 1
 62
   179
420
  2234388
370
     9
100
AcDbVertex
100
AcDb2dVertex
 10
76.93691553717576
 20
-122.477459413825
 30
0.0
  0
VERTEX
  5
231
330
22F
100
AcDbEntity
  8
_U+30EC_U+30A4_U+30E4_U+30FC 1
 62
   179
420
  2234388
370
     9
100
AcDbVertex
100
AcDb2dVertex
 10
76.93691553717576
 20
-117.2195535818061
 30
0.0
  0
SEQEND
  5
232
330
22F
100
AcDbEntity
  8
_U+30EC_U+30A4_U+30E4_U+30FC 1
 62
   179
420
  2234388
370
     9
  0
POLYLINE
  5
233
330
1F
100
AcDbEntity
  8
_U+30EC_U+30A4_U+30E4_U+30FC 1
 62
   179
420
  2234388
370
     9
100
AcDb2dPolyline
 66
     1
 10
0.0
 20
0.0
 30
0.0
  0
VERTEX
  5
234
330
233
100
AcDbEntity
  8
_U+30EC_U+30A4_U+30E4_U+30FC 1
 62
   179
420
  2234388
370
     9
100
AcDbVertex
100
AcDb2dVertex
 10
76.93691553717576
 20
-123.9774352467834
 30
0.0
  0
VERTEX
  5
235
330
233
100
AcDbEntity
  8
_U+30EC_U+30A4_U+30E4_U+30FC 1
 62
   179
420
  2234388
370
     9
100
AcDbVertex
100
AcDb2dVertex
 10
76.93691553717576
 20
-122.477459413825
 30
0.0
  0
SEQEND
  5
236
330
233
100
AcDbEntity
  8
_U+30EC_U+30A4_U+30E4_U+30FC 1
 62
   179
420
  2234388
370
     9
  0
POLYLINE
  5
237
330
1F
100
AcDbEntity
  8
_U+30EC_U+30A4_U+30E4_U+30FC 1
 62
   179
420
  2234388
370
     9
100
AcDb2dPolyline
 66
     1
 10
0.0
 20
0.0
 30
0.0
  0
VERTEX
  5
238
330
237
100
AcDbEntity
  8
_U+30EC_U+30A4_U+30E4_U+30FC 1
 62
   179
420
  2234388
370
     9
100
AcDbVertex
100
AcDb2dVertex
 10
84.48579534458779
 20
-122.477459413825
 30
0.0
  0
VERTEX
  5
239
330
237
100
AcDbEntity
  8
_U+30EC_U+30A4_U+30E4_U+30FC 1
 62
   179
420
  2234388
370
     9
100
AcDbVertex
100
AcDb2dVertex
 10
75.93714334045985
 20
-122.477459413825
 30
0.0
  0
SEQEND
  5
23A
330
237
100
AcDbEntity
  8
_U+30EC_U+30A4_U+30E4_U+30FC 1
 62
   179
420
  2234388
370
     9
  0
INSERT
  5
23C
330
1F
100
AcDbEntity
  8
_U+30EC_U+30A4_U+30E4_U+30FC 1
100
AcDbBlockReference
  2
block 13
 10
0.0
 20
0.0
 30
0.0
  0
SPLINE
  5
24B
330
1F
100
AcDbEntity
  8
_U+30EC_U+30A4_U+30E4_U+30FC 1
 62
   179
420
  2234388
370
    25
100
AcDbSpline
210
0.0
220
0.0
230
1.0
 70
    11
 71
     3
 72
    17
 73
    13
 74
     0
 42
0.0000000001
 43
0.0000000001
 12
1.0
 22
0.0
 32
0.0
 13
1.0
 23
0.0
 33
0.0
 40
0.0
 40
0.0
 40
0.0
 40
0.0
 40
1.0
 40
1.0
 40
1.0
 40
2.0
 40
2.0
 40
2.0
 40
3.0
 40
3.0
 40
3.0
 40
4.0
 40
4.0
 40
4.0
 40
4.0
 10
88.0611274755957
 20
-123.9774352467834
 30
0.0
 10
88.0611274755957
 20
-123.9974377467785
 30
0.0
 10
88.0452524760007
 20
-124.0132774689967
 30
0.0
 10
88.02599080982543
 20
-124.0132774689967
 30
0.0
 10
88.0066938658733
 20
-124.0132774689967
 30
0.0
 10
87.99085414405518
 20
-123.9974377467785
 30
0.0
 10
87.99085414405518
 20
-123.9774352467834
 30
0.0
 10
87.99085414405518
 20
-123.9581383023439
 30
0.0
 10
88.0066938658733
 20
-123.9422985801257
 30
0.0
 10
88.02599080982543
 20
-123.9422985801257
 30
0.0
 10
88.0452524760007
 20
-123.9422985801257
 30
0.0
 10
88.0611274755957
 20
-123.9581383023439
 30
0.0
 10
88.0611274755957
 20
-123.9774352467834
 30
0.0
  0
SPLINE
  5
24C
330
1F
100
AcDbEntity
  8
_U+30EC_U+30A4_U+30E4_U+30FC 1
 62
   179
420
  2234388
370
    25
100
AcDbSpline
210
0.0
220
0.0
230
1.0
 70
    11
 71
     3
 72
    17
 73
    13
 74
     0
 42
0.0000000001
 43
0.0000000001
 12
1.0
 22
0.0
 32
0.0
 13
1.0
 23
0.0
 33
0.0
 40
0.0
 40
0.0
 40
0.0
 40
0.0
 40
1.0
 40
1.0
 40
1.0
 40
2.0
 40
2.0
 40
2.0
 40
3.0
 40
3.0
 40
3.0
 40
4.0
 40
4.0
 40
4.0
 40
4.0
 10
87.06135527887979
 20
-122.477459413825
 30
0.0
 10
87.06135527887979
 20
-122.4974266360422
 30
0.0
 10
87.04551555706166
 20
-122.5132663582604
 30
0.0
 10
87.02621861310953
 20
-122.5132663582604
 30
0.0
 10
87.00621611361983
 20
-122.5132663582604
 30
0.0
 10
86.99037639180172
 20
-122.4974266360422
 30
0.0
 10
86.99037639180172
 20
-122.477459413825
 30
0.0
 10
86.99037639180172
 20
-122.4581624693855
 30
0.0
 10
87.00621611361983
 20
-122.4423227471673
 30
0.0
 10
87.02621861310953
 20
-122.4423227471673
 30
0.0
 10
87.04551555706166
 20
-122.4423227471673
 30
0.0
 10
87.06135527887979
 20
-122.4581624693855
 30
0.0
 10
87.06135527887979
 20
-122.477459413825
 30
0.0
  0
SPLINE
  5
24D
330
1F
100
AcDbEntity
  8
_U+30EC_U+30A4_U+30E4_U+30FC 1
 62
   179
420
  2234388
370
     9
100
AcDbSpline
210
0.0
220
0.0
230
1.0
 70
    11
 71
     3
 72
    17
 73
    13
 74
     0
 42
0.0000000001
 43
0.0000000001
 12
1.0
 22
0.0
 32
0.0
 13
1.0
 23
0.0
 33
0.0
 40
0.0
 40
0.0
 40
0.0
 40
0.0
 40
1.0
 40
1.0
 40
1.0
 40
2.0
 40
2.0
 40
2.0
 40
3.0
 40
3.0
 40
3.0
 40
4.0
 40
4.0
 40
4.0
 40
4.0
 10
76.97205220294602
 20
-122.477459413825
 30
0.0
 10
76.97205220294602
 20
-122.4974266360422
 30
0.0
 10
76.95688275888858
 20
-122.5132663582604
 30
0.0
 10
76.93691553717576
 20
-122.5132663582604
 30
0.0
 10
76.91761859322362
 20
-122.5132663582604
 30
0.0
 10
76.90177887140551
 20
-122.4974266360422
 30
0.0
 10
76.90177887140551
 20
-122.477459413825
 30
0.0
 10
76.90177887140551
 20
-122.4581624693855
 30
0.0
 10
76.91761859322362
 20
-122.4423227471673
 30
0.0
 10
76.93691553717576
 20
-122.4423227471673
 30
0.0
 10
76.95688275888858
 20
-122.4423227471673
 30
0.0
 10
76.97205220294602
 20
-122.4581624693855
 30
0.0
 10
76.97205220294602
 20
-122.477459413825
 30
0.0
  0
POLYLINE
  5
24E
330
1F
100
AcDbEntity
  8
_U+30EC_U+30A4_U+30E4_U+30FC 1
 62
   179
420
  2234388
370
     9
100
AcDb2dPolyline
 66
     1
 10
0.0
 20
0.0
 30
0.0
  0
VERTEX
  5
24F
330
24E
100
AcDbEntity
  8
_U+30EC_U+30A4_U+30E4_U+30FC 1
 62
   179
420
  2234388
370
     9
100
AcDbVertex
100
AcDb2dVertex
 10
89.10118689350601
 20
-133.9356816331828
 30
0.0
  0
VERTEX
  5
250
330
24E
100
AcDbEntity
  8
_U+30EC_U+30A4_U+30E4_U+30FC 1
 62
   179
420
  2234388
370
     9
100
AcDbVertex
100
AcDb2dVertex
 10
86.63174251206235
 20
-133.9356816331828
 30
0.0
  0
VERTEX
  5
251
330
24E
100
AcDbEntity
  8
_U+30EC_U+30A4_U+30E4_U+30FC 1
 62
   179
420
  2234388
370
     9
100
AcDbVertex
100
AcDb2dVertex
 10
86.63174251206235
 20
-135.3467927439412
 30
0.0
  0
SEQEND
  5
252
330
24E
100
AcDbEntity
  8
_U+30EC_U+30A4_U+30E4_U+30FC 1
 62
   179
420
  2234388
370
     9
  0
POLYLINE
  5
253
330
1F
100
AcDbEntity
  8
_U+30EC_U+30A4_U+30E4_U+30FC 1
 62
   179
420
  2234388
370
     9
100
AcDb2dPolyline
 66
     1
 10
0.0
 20
0.0
 30
0.0
  0
VERTEX
  5
254
330
253
100
AcDbEntity
  8
_U+30EC_U+30A4_U+30E4_U+30FC 1
 62
   179
420
  2234388
370
     9
100
AcDbVertex
100
AcDb2dVertex
 10
80.16426767706137
 20
-130.643524134006
 30
0.0
  0
VERTEX
  5
255
330
253
100
AcDbEntity
  8
_U+30EC_U+30A4_U+30E4_U+30FC 1
 62
   179
420
  2234388
370
     9
100
AcDbVertex
100
AcDb2dVertex
 10
84.867853668174
 20
-130.643524134006
 30
0.0
  0
VERTEX
  5
256
330
253
100
AcDbEntity
  8
_U+30EC_U+30A4_U+30E4_U+30FC 1
 62
   179
420
  2234388
370
     9
100
AcDbVertex
100
AcDb2dVertex
 10
86.63174251206235
 20
-134.7590296885324
 30
0.0
  0
SEQEND
  5
257
330
253
100
AcDbEntity
  8
_U+30EC_U+30A4_U+30E4_U+30FC 1
 62
   179
420
  2234388
370
     9
  0
ENDSEC
  0
SECTION
  2
OBJECTS
  0
DICTIONARY
  5
C
330
0
100
AcDbDictionary
281
     1
  3
ACAD_GROUP
350
D
  3
ACAD_LAYOUT
350
1A
  3
ACAD_MATERIAL
350
3B
  3
ACAD_MLEADERSTYLE
350
259
  3
ACAD_MLINESTYLE
350
17
  3
ACAD_PLOTSETTINGS
350
19
  3
ACAD_PLOTSTYLENAME
350
E
  3
ACAD_TABLESTYLE
350
258
  3
ACAD_VISUALSTYLE
350
2A
  0
SUN
  5
3F
330
29
100
AcDbSun
 90
        1
290
     0
 63
     7
421
 16777215
 40
1.0
291
     1
 91
  2455826
 92
 54000000
292
     0
 70
     2
 71
   256
280
     1
  0
DICTIONARY
  5
D
102
{ACAD_REACTORS
330
C
102
}
330
C
100
AcDbDictionary
281
     1
  0
DICTIONARY
  5
1A
102
{ACAD_REACTORS
330
C
102
}
330
C
100
AcDbDictionary
281
     1
  3
Layout1
350
1E
  3
Layout2
350
26
  3
Model
350
22
  0
DICTIONARY
  5
3B
102
{ACAD_REACTORS
330
C
102
}
330
C
100
AcDbDictionary
281
     1
  3
ByBlock
350
3D
  3
ByLayer
350
3C
  3
Global
350
3E
  0
DICTIONARY
  5
259
102
{ACAD_REACTORS
330
C
102
}
330
C
100
AcDbDictionary
281
     1
  0
DICTIONARY
  5
17
102
{ACAD_REACTORS
330
C
102
}
330
C
100
AcDbDictionary
281
     1
  3
Standard
350
18
  0
DICTIONARY
  5
19
102
{ACAD_REACTORS
330
C
102
}
330
C
100
AcDbDictionary
281
     1
  0
ACDBDICTIONARYWDFLT
  5
E
102
{ACAD_REACTORS
330
C
102
}
330
C
100
AcDbDictionary
281
     1
  3
Normal
350
F
100
AcDbDictionaryWithDefault
340
F
  0
DICTIONARY
  5
258
102
{ACAD_REACTORS
330
C
102
}
330
C
100
AcDbDictionary
281
     1
  0
DICTIONARY
  5
2A
102
{ACAD_REACTORS
330
C
102
}
330
C
100
AcDbDictionary
281
     1
  3
2dWireframe
350
2F
  3
3D Hidden
350
31
  3
3dWireframe
350
30
  3
Basic
350
32
  3
Brighten
350
36
  3
ColorChange
350
3A
  3
Conceptual
350
34
  3
Dim
350
35
  3
Facepattern
350
39
  3
Flat
350
2B
  3
FlatWithEdges
350
2C
  3
Gouraud
350
2D
  3
GouraudWithEdges
350
2E
  3
Linepattern
350
38
  3
Realistic
350
33
  3
Thicken
350
37
  0
LAYOUT
  5
1E
102
{ACAD_REACTORS
330
1A
102
}
330
1A
100
AcDbPlotSettings
  1

  2
none_device
  4

  6

 40
0.0
 41
0.0
 42
0.0
 43
0.0
 44
0.0
 45
0.0
 46
0.0
 47
0.0
 48
0.0
 49
0.0
140
0.0
141
0.0
142
1.0
143
1.0
 70
   688
 72
     0
 73
     0
 74
     5
  7

 75
    16
 76
     0
 77
     2
 78
   300
147
1.0
148
0.0
149
0.0
100
AcDbLayout
  1
Layout1
 70
     1
 71
     1
 10
0.0
 20
0.0
 11
12.0
 21
9.0
 12
0.0
 22
0.0
 32
0.0
 14
1.000000000000000E+20
 24
1.000000000000000E+20
 34
1.000000000000000E+20
 15
-1.000000000000000E+20
 25
-1.000000000000000E+20
 35
-1.000000000000000E+20
146
0.0
 13
0.0
 23
0.0
 33
0.0
 16
1.0
 26
0.0
 36
0.0
 17
0.0
 27
1.0
 37
0.0
 76
     0
330
1B
  0
LAYOUT
  5
26
102
{ACAD_REACTORS
330
1A
102
}
330
1A
100
AcDbPlotSettings
  1

  2
none_device
  4

  6

 40
0.0
 41
0.0
 42
0.0
 43
0.0
 44
0.0
 45
0.0
 46
0.0
 47
0.0
 48
0.0
 49
0.0
140
0.0
141
0.0
142
1.0
143
1.0
 70
   688
 72
     0
 73
     0
 74
     5
  7

 75
    16
 76
     0
 77
     2
 78
   300
147
1.0
148
0.0
149
0.0
100
AcDbLayout
  1
Layout2
 70
     1
 71
     2
 10
0.0
 20
0.0
 11
0.0
 21
0.0
 12
0.0
 22
0.0
 32
0.0
 14
0.0
 24
0.0
 34
0.0
 15
0.0
 25
0.0
 35
0.0
146
0.0
 13
0.0
 23
0.0
 33
0.0
 16
1.0
 26
0.0
 36
0.0
 17
0.0
 27
1.0
 37
0.0
 76
     0
330
23
  0
LAYOUT
  5
22
102
{ACAD_REACTORS
330
1A
102
}
330
1A
100
AcDbPlotSettings
  1

  2
none_device
  4

  6

 40
0.0
 41
0.0
 42
0.0
 43
0.0
 44
0.0
 45
0.0
 46
0.0
 47
0.0
 48
0.0
 49
0.0
140
0.0
141
0.0
142
1.0
143
1.0
 70
  1712
 72
     0
 73
     0
 74
     0
  7

 75
     0
 76
     0
 77
     2
 78
   300
147
1.0
148
0.0
149
0.0
100
AcDbLayout
  1
Model
 70
     1
 71
     0
 10
0.0
 20
0.0
 11
12.0
 21
9.0
 12
0.0
 22
0.0
 32
0.0
 14
1.000000000000000E+20
 24
1.000000000000000E+20
 34
1.000000000000000E+20
 15
-1.000000000000000E+20
 25
-1.000000000000000E+20
 35
-1.000000000000000E+20
146
0.0
 13
0.0
 23
0.0
 33
0.0
 16
1.0
 26
0.0
 36
0.0
 17
0.0
 27
1.0
 37
0.0
 76
     0
330
1F
331
29
  0
MATERIAL
  5
3D
102
{ACAD_REACTORS
330
3B
102
}
330
3B
100
AcDbMaterial
  1
ByBlock
 72
     1
 94
      127
  0
MATERIAL
  5
3C
102
{ACAD_REACTORS
330
3B
102
}
330
3B
100
AcDbMaterial
  1
ByLayer
 72
     1
 94
      127
  0
MATERIAL
  5
3E
102
{ACAD_REACTORS
330
3B
102
}
330
3B
100
AcDbMaterial
  1
Global
 72
     1
 94
      127
  0
MLINESTYLE
  5
18
102
{ACAD_REACTORS
330
17
102
}
330
17
100
AcDbMlineStyle
  2
Standard
 70
     0
  3

 62
   256
 51
90.0
 52
90.0
 71
     2
 49
0.5
 62
   256
  6
BYLAYER
 49
-0.5
 62
   256
  6
BYLAYER
  0
ACDBPLACEHOLDER
  5
F
102
{ACAD_REACTORS
330
E
102
}
330
E
  0
VISUALSTYLE
  5
2F
102
{ACAD_REACTORS
330
2A
102
}
330
2A
100
AcDbVisualStyle
  2
2dWireframe
 70
     4
177
     2
291
     0
 71
     0
176
     1
 72
     2
176
     1
 73
     0
176
     1
 90
        0
176
     1
 40
-0.6
176
     1
 41
-30.0
176
     1
 62
     5
 63
     7
421
 16777215
176
     1
 74
     1
176
     1
 91
        4
176
     1
 64
     7
176
     1
 65
   257
176
     1
 75
     1
176
     1
175
     1
176
     1
 42
1.0
176
     1
 92
        0
176
     1
 66
   257
176
     1
 43
1.0
176
     1
 76
     1
176
     1
 77
     6
176
     1
 78
     2
176
     1
 67
     7
176
     1
 79
     5
176
     1
170
     0
176
     1
171
     0
176
     1
290
     0
176
     1
 93
        1
176
     1
 44
0.0
176
     1
173
     0
176
     1
  0
VISUALSTYLE
  5
31
102
{ACAD_REACTORS
330
2A
102
}
330
2A
100
AcDbVisualStyle
  2
3D Hidden
 70
     6
177
     2
291
     0
 71
     1
176
     1
 72
     2
176
     1
 73
     2
176
     1
 90
        0
176
     1
 40
-0.6
176
     1
 41
-30.0
176
     1
 62
     5
 63
     7
421
 16777215
176
     1
 74
     2
176
     1
 91
        2
176
     1
 64
     7
176
     1
 65
   257
176
     1
 75
     2
176
     1
175
     1
176
     1
 42
40.0
176
     1
 92
        0
176
     1
 66
   257
176
     1
 43
1.0
176
     1
 76
     1
176
     1
 77
     6
176
     1
 78
     2
176
     1
 67
     7
176
     1
 79
     3
176
     1
170
     0
176
     1
171
     0
176
     1
290
     0
176
     1
 93
        1
176
     1
 44
0.0
176
     1
173
     0
176
     1
  0
VISUALSTYLE
  5
30
102
{ACAD_REACTORS
330
2A
102
}
330
2A
100
AcDbVisualStyle
  2
3dWireframe
 70
     5
177
     2
291
     0
 71
     0
176
     1
 72
     2
176
     1
 73
     0
176
     1
 90
        0
176
     1
 40
-0.6
176
     1
 41
-30.0
176
     1
 62
     5
 63
     7
421
 16777215
176
     1
 74
     1
176
     1
 91
        4
176
     1
 64
     7
176
     1
 65
   257
176
     1
 75
     1
176
     1
175
     1
176
     1
 42
1.0
176
     1
 92
        0
176
     1
 66
   257
176
     1
 43
1.0
176
     1
 76
     1
176
     1
 77
     6
176
     1
 78
     2
176
     1
 67
     7
176
     1
 79
     5
176
     1
170
     0
176
     1
171
     0
176
     1
290
     0
176
     1
 93
        1
176
     1
 44
0.0
176
     1
173
     0
176
     1
  0
VISUALSTYLE
  5
32
102
{ACAD_REACTORS
330
2A
102
}
330
2A
100
AcDbVisualStyle
  2
Basic
 70
     7
177
     2
291
     1
 71
     1
176
     1
 72
     0
176
     1
 73
     1
176
     1
 90
        0
176
     1
 40
-0.6
176
     1
 41
-30.0
176
     1
 62
     5
 63
     7
421
 16777215
176
     1
 74
     0
176
     1
 91
        4
176
     1
 64
     7
176
     1
 65
   257
176
     1
 75
     1
176
     1
175
     1
176
     1
 42
1.0
176
     1
 92
        8
176
     1
 66
     7
176
     1
 43
1.0
176
     1
 76
     1
176
     1
 77
     6
176
     1
 78
     2
176
     1
 67
     7
176
     1
 79
     5
176
     1
170
     0
176
     1
171
     0
176
     1
290
     0
176
     1
 93
        1
176
     1
 44
0.0
176
     1
173
     0
176
     1
  0
VISUALSTYLE
  5
36
102
{ACAD_REACTORS
330
2A
102
}
330
2A
100
AcDbVisualStyle
  2
Brighten
 70
    12
177
     2
291
     1
 71
     2
176
     1
 72
     2
176
     1
 73
     0
176
     1
 90
        0
176
     1
 40
-0.6
176
     1
 41
-30.0
176
     1
 62
     5
 63
     7
421
 16777215
176
     1
 74
     1
176
     1
 91
        4
176
     1
 64
     7
176
     1
 65
   257
176
     1
 75
     1
176
     1
175
     1
176
     1
 42
1.0
176
     1
 92
        8
176
     1
 66
     7
176
     1
 43
1.0
176
     1
 76
     1
176
     1
 77
     6
176
     1
 78
     2
176
     1
 67
     7
176
     1
 79
     5
176
     1
170
     0
176
     1
171
     0
176
     1
290
     0
176
     1
 93
        1
176
     1
 44
50.0
176
     1
173
     0
176
     1
  0
VISUALSTYLE
  5
3A
102
{ACAD_REACTORS
330
2A
102
}
330
2A
100
AcDbVisualStyle
  2
ColorChange
 70
    16
177
     2
291
     1
 71
     2
176
     1
 72
     2
176
     1
 73
     3
176
     1
 90
        0
176
     1
 40
-0.6
176
     1
 41
-30.0
176
     1
 62
     5
 63
     8
421
  8421504
176
     1
 74
     1
176
     1
 91
        4
176
     1
 64
     7
176
     1
 65
   257
176
     1
 75
     1
176
     1
175
     1
176
     1
 42
1.0
176
     1
 92
        8
176
     1
 66
     8
424
  8421504
176
     1
 43
1.0
176
     1
 76
     1
176
     1
 77
     6
176
     1
 78
     2
176
     1
 67
     7
176
     1
 79
     5
176
     1
170
     0
176
     1
171
     0
176
     1
290
     0
176
     1
 93
        1
176
     1
 44
0.0
176
     1
173
     0
176
     1
  0
VISUALSTYLE
  5
34
102
{ACAD_REACTORS
330
2A
102
}
330
2A
100
AcDbVisualStyle
  2
Conceptual
 70
     9
177
     2
291
     0
 71
     3
176
     1
 72
     2
176
     1
 73
     0
176
     1
 90
        0
176
     1
 40
-0.6
176
     1
 41
-30.0
176
     1
 62
     5
 63
     7
421
 16777215
176
     1
 74
     2
176
     1
 91
        2
176
     1
 64
     7
176
     1
 65
   257
176
     1
 75
     1
176
     1
175
     1
176
     1
 42
40.0
176
     1
 92
        8
176
     1
 66
     7
176
     1
 43
1.0
176
     1
 76
     1
176
     1
 77
     6
176
     1
 78
     2
176
     1
 67
     7
176
     1
 79
     3
176
     1
170
     0
176
     1
171
     0
176
     1
290
     0
176
     1
 93
        1
176
     1
 44
0.0
176
     1
173
     0
176
     1
  0
VISUALSTYLE
  5
35
102
{ACAD_REACTORS
330
2A
102
}
330
2A
100
AcDbVisualStyle
  2
Dim
 70
    11
177
     2
291
     1
 71
     2
176
     1
 72
     2
176
     1
 73
     0
176
     1
 90
        0
176
     1
 40
-0.6
176
     1
 41
-30.0
176
     1
 62
     5
 63
     7
421
 16777215
176
     1
 74
     1
176
     1
 91
        4
176
     1
 64
     7
176
     1
 65
   257
176
     1
 75
     1
176
     1
175
     1
176
     1
 42
1.0
176
     1
 92
        8
176
     1
 66
     7
176
     1
 43
1.0
176
     1
 76
     1
176
     1
 77
     6
176
     1
 78
     2
176
     1
 67
     7
176
     1
 79
     5
176
     1
170
     0
176
     1
171
     0
176
     1
290
     0
176
     1
 93
        1
176
     1
 44
-50.0
176
     1
173
     0
176
     1
  0
VISUALSTYLE
  5
39
102
{ACAD_REACTORS
330
2A
102
}
330
2A
100
AcDbVisualStyle
  2
Facepattern
 70
    15
177
     2
291
     1
 71
     2
176
     1
 72
     2
176
     1
 73
     0
176
     1
 90
        0
176
     1
 40
-0.6
176
     1
 41
-30.0
176
     1
 62
     5
 63
     7
421
 16777215
176
     1
 74
     1
176
     1
 91
        4
176
     1
 64
     7
176
     1
 65
   257
176
     1
 75
     1
176
     1
175
     1
176
     1
 42
1.0
176
     1
 92
        8
176
     1
 66
     7
176
     1
 43
1.0
176
     1
 76
     1
176
     1
 77
     6
176
     1
 78
     2
176
     1
 67
     7
176
     1
 79
     5
176
     1
170
     0
176
     1
171
     0
176
     1
290
     0
176
     1
 93
        1
176
     1
 44
0.0
176
     1
173
     0
176
     1
  0
VISUALSTYLE
  5
2B
102
{ACAD_REACTORS
330
2A
102
}
330
2A
100
AcDbVisualStyle
  2
Flat
 70
     0
177
     2
291
     1
 71
     2
176
     1
 72
     1
176
     1
 73
     1
176
     1
 90
        2
176
     1
 40
-0.6
176
     1
 41
30.0
176
     1
 62
     5
 63
     7
421
 16777215
176
     1
 74
     0
176
     1
 91
        4
176
     1
 64
     7
176
     1
 65
   257
176
     1
 75
     1
176
     1
175
     1
176
     1
 42
1.0
176
     1
 92
        8
176
     1
 66
     7
176
     1
 43
1.0
176
     1
 76
     1
176
     1
 77
     6
176
     1
 78
     2
176
     1
 67
     7
176
     1
 79
     5
176
     1
170
     0
176
     1
171
     0
176
     1
290
     0
176
     1
 93
       13
176
     1
 44
0.0
176
     1
173
     0
176
     1
  0
VISUALSTYLE
  5
2C
102
{ACAD_REACTORS
330
2A
102
}
330
2A
100
AcDbVisualStyle
  2
FlatWithEdges
 70
     1
177
     2
291
     1
 71
     2
176
     1
 72
     1
176
     1
 73
     1
176
     1
 90
        2
176
     1
 40
-0.6
176
     1
 41
30.0
176
     1
 62
     5
 63
     7
421
 16777215
176
     1
 74
     1
176
     1
 91
        4
176
     1
 64
     7
176
     1
 65
   257
176
     1
 75
     1
176
     1
175
     1
176
     1
 42
1.0
176
     1
 92
        0
176
     1
 66
   257
176
     1
 43
1.0
176
     1
 76
     1
176
     1
 77
     6
176
     1
 78
     2
176
     1
 67
     7
176
     1
 79
     5
176
     1
170
     0
176
     1
171
     0
176
     1
290
     0
176
     1
 93
       13
176
     1
 44
0.0
176
     1
173
     0
176
     1
  0
VISUALSTYLE
  5
2D
102
{ACAD_REACTORS
330
2A
102
}
330
2A
100
AcDbVisualStyle
  2
Gouraud
 70
     2
177
     2
291
     1
 71
     2
176
     1
 72
     2
176
     1
 73
     1
176
     1
 90
        2
176
     1
 40
-0.6
176
     1
 41
30.0
176
     1
 62
     5
 63
     7
421
 16777215
176
     1
 74
     0
176
     1
 91
        4
176
     1
 64
     7
176
     1
 65
   257
176
     1
 75
     1
176
     1
175
     1
176
     1
 42
1.0
176
     1
 92
        0
176
     1
 66
     7
176
     1
 43
1.0
176
     1
 76
     1
176
     1
 77
     6
176
     1
 78
     2
176
     1
 67
     7
176
     1
 79
     5
176
     1
170
     0
176
     1
171
     0
176
     1
290
     0
176
     1
 93
       13
176
     1
 44
0.0
176
     1
173
     0
176
     1
  0
VISUALSTYLE
  5
2E
102
{ACAD_REACTORS
330
2A
102
}
330
2A
100
AcDbVisualStyle
  2
GouraudWithEdges
 70
     3
177
     2
291
     1
 71
     2
176
     1
 72
     2
176
     1
 73
     1
176
     1
 90
        2
176
     1
 40
-0.6
176
     1
 41
30.0
176
     1
 62
     5
 63
     7
421
 16777215
176
     1
 74
     1
176
     1
 91
        4
176
     1
 64
     7
176
     1
 65
   257
176
     1
 75
     1
176
     1
175
     1
176
     1
 42
1.0
176
     1
 92
        0
176
     1
 66
   257
176
     1
 43
1.0
176
     1
 76
     1
176
     1
 77
     6
176
     1
 78
     2
176
     1
 67
     7
176
     1
 79
     5
176
     1
170
     0
176
     1
171
     0
176
     1
290
     0
176
     1
 93
       13
176
     1
 44
0.0
176
     1
173
     0
176
     1
  0
VISUALSTYLE
  5
38
102
{ACAD_REACTORS
330
2A
102
}
330
2A
100
AcDbVisualStyle
  2
Linepattern
 70
    14
177
     2
291
     1
 71
     2
176
     1
 72
     2
176
     1
 73
     0
176
     1
 90
        0
176
     1
 40
-0.6
176
     1
 41
-30.0
176
     1
 62
     5
 63
     7
421
 16777215
176
     1
 74
     1
176
     1
 91
        4
176
     1
 64
     7
176
     1
 65
   257
176
     1
 75
     7
176
     1
175
     7
176
     1
 42
1.0
176
     1
 92
        8
176
     1
 66
     7
176
     1
 43
1.0
176
     1
 76
     1
176
     1
 77
     6
176
     1
 78
     2
176
     1
 67
     7
176
     1
 79
     5
176
     1
170
     0
176
     1
171
     0
176
     1
290
     0
176
     1
 93
        1
176
     1
 44
0.0
176
     1
173
     0
176
     1
  0
VISUALSTYLE
  5
33
102
{ACAD_REACTORS
330
2A
102
}
330
2A
100
AcDbVisualStyle
  2
Realistic
 70
     8
177
     2
291
     0
 71
     2
176
     1
 72
     2
176
     1
 73
     0
176
     1
 90
        0
176
     1
 40
-0.6
176
     1
 41
-30.0
176
     1
 62
     5
 63
     7
421
 16777215
176
     1
 74
     1
176
     1
 91
        0
176
     1
 64
     7
176
     1
 65
   257
176
     1
 75
     1
176
     1
175
     1
176
     1
 42
1.0
176
     1
 92
        8
176
     1
 66
     8
424
  7895160
176
     1
 43
1.0
176
     1
 76
     1
176
     1
 77
     6
176
     1
 78
     2
176
     1
 67
     7
176
     1
 79
     5
176
     1
170
     0
176
     1
171
     0
176
     1
290
     0
176
     1
 93
       13
176
     1
 44
0.0
176
     1
173
     0
176
     1
  0
VISUALSTYLE
  5
37
102
{ACAD_REACTORS
330
2A
102
}
330
2A
100
AcDbVisualStyle
  2
Thicken
 70
    13
177
     2
291
     1
 71
     2
176
     1
 72
     2
176
     1
 73
     0
176
     1
 90
        0
176
     1
 40
-0.6
176
     1
 41
-30.0
176
     1
 62
     5
 63
     7
421
 16777215
176
     1
 74
     1
176
     1
 91
        4
176
     1
 64
     7
176
     1
 65
   257
176
     1
 75
     1
176
     1
175
     1
176
     1
 42
1.0
176
     1
 92
       12
176
     1
 66
     7
176
     1
 43
1.0
176
     1
 76
     1
176
     1
 77
     6
176
     1
 78
     2
176
     1
 67
     7
176
     1
 79
     5
176
     1
170
     0
176
     1
171
     0
176
     1
290
     0
176
     1
 93
        1
176
     1
 44
0.0
176
     1
173
     0
176
     1
  0
ENDSEC
  0
EOF
