  0
SECTION
  2
HEADER
  9
$ACADVER
  1
AC1024
  9
$ACADMAINTVER
 70
     6
  9
$DWGCODEPAGE
  3
UNDEFINED
  9
$INSBASE
 10
0.0
 20
0.0
 30
0.0
  9
$EXTMIN
 10
1.000000000000000E+20
 20
1.000000000000000E+20
 30
1.000000000000000E+20
  9
$EXTMAX
 10
-1.000000000000000E+20
 20
-1.000000000000000E+20
 30
-1.000000000000000E+20
  9
$LIMMIN
 10
0.0
 20
0.0
  9
$LIMMAX
 10
12.0
 20
9.0
  9
$ORTHOMODE
 70
     0
  9
$REGENMODE
 70
     1
  9
$FILLMODE
 70
     1
  9
$QTEXTMODE
 70
     0
  9
$MIRRTEXT
 70
     1
  9
$LTSCALE
 40
1.0
  9
$ATTMODE
 70
     1
  9
$TEXTSIZE
 40
0.2
  9
$TRACEWID
 40
0.05
  9
$TEXTSTYLE
  7
Standard
  9
$CLAYER
  8
0
  9
$CELTYPE
  6
ByLayer
  9
$CECOLOR
 62
   256
  9
$CELTSCALE
 40
1.0
  9
$DISPSILH
 70
     0
  9
$DIMSCALE
 40
1.0
  9
$DIMASZ
 40
0.18
  9
$DIMEXO
 40
0.0625
  9
$DIMDLI
 40
0.38
  9
$DIMRND
 40
0.0
  9
$DIMDLE
 40
0.0
  9
$DIMEXE
 40
0.18
  9
$DIMTP
 40
0.0
  9
$DIMTM
 40
0.0
  9
$DIMTXT
 40
0.18
  9
$DIMCEN
 40
0.09
  9
$DIMTSZ
 40
0.0
  9
$DIMTOL
 70
     0
  9
$DIMLIM
 70
     0
  9
$DIMTIH
 70
     1
  9
$DIMTOH
 70
     1
  9
$DIMSE1
 70
     0
  9
$DIMSE2
 70
     0
  9
$DIMTAD
 70
     0
  9
$DIMZIN
 70
     0
  9
$DIMBLK
  1

  9
$DIMASO
 70
     1
  9
$DIMSHO
 70
     1
  9
$DIMPOST
  1

  9
$DIMAPOST
  1

  9
$DIMALT
 70
     0
  9
$DIMALTD
 70
     2
  9
$DIMALTF
 40
25.4
  9
$DIMLFAC
 40
1.0
  9
$DIMTOFL
 70
     0
  9
$DIMTVP
 40
0.0
  9
$DIMTIX
 70
     0
  9
$DIMSOXD
 70
     0
  9
$DIMSAH
 70
     0
  9
$DIMBLK1
  1

  9
$DIMBLK2
  1

  9
$DIMSTYLE
  2
Standard
  9
$DIMCLRD
 70
     0
  9
$DIMCLRE
 70
     0
  9
$DIMCLRT
 70
     0
  9
$DIMTFAC
 40
1.0
  9
$DIMGAP
 40
0.09
  9
$DIMJUST
 70
     0
  9
$DIMSD1
 70
     0
  9
$DIMSD2
 70
     0
  9
$DIMTOLJ
 70
     1
  9
$DIMTZIN
 70
     0
  9
$DIMALTZ
 70
     0
  9
$DIMALTTZ
 70
     0
  9
$DIMUPT
 70
     0
  9
$DIMDEC
 70
     4
  9
$DIMTDEC
 70
     4
  9
$DIMALTU
 70
     2
  9
$DIMALTTD
 70
     2
  9
$DIMTXSTY
  7
Standard
  9
$DIMAUNIT
 70
     0
  9
$DIMADEC
 70
     0
  9
$DIMALTRND
 40
0.0
  9
$DIMAZIN
 70
     0
  9
$DIMDSEP
 70
    46
  9
$DIMATFIT
 70
     3
  9
$DIMFRAC
 70
     0
  9
$DIMLDRBLK
  1

  9
$DIMLUNIT
 70
     2
  9
$DIMLWD
 70
    -2
  9
$DIMLWE
 70
    -2
  9
$DIMTMOVE
 70
     0
  9
$DIMFXL
 40
1.0
  9
$DIMFXLON
 70
     0
  9
$DIMJOGANG
 40
0.7853981633974483
  9
$DIMTFILL
 70
     0
  9
$DIMTFILLCLR
 70
     0
  9
$DIMARCSYM
 70
     0
  9
$DIMLTYPE
  6

  9
$DIMLTEX1
  6

  9
$DIMLTEX2
  6

  9
$DIMTXTDIRECTION
 70
     0
  9
$LUNITS
 70
     2
  9
$LUPREC
 70
     4
  9
$SKETCHINC
 40
0.1
  9
$FILLETRAD
 40
0.5
  9
$AUNITS
 70
     0
  9
$AUPREC
 70
     0
  9
$MENU
  1
.
  9
$ELEVATION
 40
0.0
  9
$PELEVATION
 40
0.0
  9
$THICKNESS
 40
0.0
  9
$LIMCHECK
 70
     0
  9
$CHAMFERA
 40
0.5
  9
$CHAMFERB
 40
0.5
  9
$CHAMFERC
 40
1.0
  9
$CHAMFERD
 40
0.0
  9
$SKPOLY
 70
     0
  9
$TDCREATE
 40
2457917.638645833
  9
$TDUCREATE
 40
2457917.263645833
  9
$TDUPDATE
 40
2457917.638645833
  9
$TDUUPDATE
 40
2457917.263645833
  9
$TDINDWG
 40
0.0000000116
  9
$TDUSRTIMER
 40
0.0000000116
  9
$USRTIMER
 70
     1
  9
$ANGBASE
 50
0.0
  9
$ANGDIR
 70
     0
  9
$PDMODE
 70
     0
  9
$PDSIZE
 40
0.0
  9
$PLINEWID
 40
0.0
  9
$SPLFRAME
 70
     0
  9
$SPLINETYPE
 70
     6
  9
$SPLINESEGS
 70
     8
  9
$HANDSEED
  5
25D
  9
$SURFTAB1
 70
     6
  9
$SURFTAB2
 70
     6
  9
$SURFTYPE
 70
     6
  9
$SURFU
 70
     6
  9
$SURFV
 70
     6
  9
$UCSBASE
  2

  9
$UCSNAME
  2

  9
$UCSORG
 10
0.0
 20
0.0
 30
0.0
  9
$UCSXDIR
 10
1.0
 20
0.0
 30
0.0
  9
$UCSYDIR
 10
0.0
 20
1.0
 30
0.0
  9
$UCSORTHOREF
  2

  9
$UCSORTHOVIEW
 70
     0
  9
$UCSORGTOP
 10
0.0
 20
0.0
 30
0.0
  9
$UCSORGBOTTOM
 10
0.0
 20
0.0
 30
0.0
  9
$UCSORGLEFT
 10
0.0
 20
0.0
 30
0.0
  9
$UCSORGRIGHT
 10
0.0
 20
0.0
 30
0.0
  9
$UCSORGFRONT
 10
0.0
 20
0.0
 30
0.0
  9
$UCSORGBACK
 10
0.0
 20
0.0
 30
0.0
  9
$PUCSBASE
  2

  9
$PUCSNAME
  2

  9
$PUCSORG
 10
0.0
 20
0.0
 30
0.0
  9
$PUCSXDIR
 10
1.0
 20
0.0
 30
0.0
  9
$PUCSYDIR
 10
0.0
 20
1.0
 30
0.0
  9
$PUCSORTHOREF
  2

  9
$PUCSORTHOVIEW
 70
     0
  9
$PUCSORGTOP
 10
0.0
 20
0.0
 30
0.0
  9
$PUCSORGBOTTOM
 10
0.0
 20
0.0
 30
0.0
  9
$PUCSORGLEFT
 10
0.0
 20
0.0
 30
0.0
  9
$PUCSORGRIGHT
 10
0.0
 20
0.0
 30
0.0
  9
$PUCSORGFRONT
 10
0.0
 20
0.0
 30
0.0
  9
$PUCSORGBACK
 10
0.0
 20
0.0
 30
0.0
  9
$USERI1
 70
     0
  9
$USERI2
 70
     0
  9
$USERI3
 70
     0
  9
$USERI4
 70
     0
  9
$USERI5
 70
     0
  9
$USERR1
 40
0.0
  9
$USERR2
 40
0.0
  9
$USERR3
 40
0.0
  9
$USERR4
 40
0.0
  9
$USERR5
 40
0.0
  9
$WORLDVIEW
 70
     1
  9
$SHADEDGE
 70
     3
  9
$SHADEDIF
 70
    70
  9
$TILEMODE
 70
     1
  9
$MAXACTVP
 70
    64
  9
$PINSBASE
 10
0.0
 20
0.0
 30
0.0
  9
$PLIMCHECK
 70
     0
  9
$PEXTMIN
 10
1.000000000000000E+20
 20
1.000000000000000E+20
 30
1.000000000000000E+20
  9
$PEXTMAX
 10
-1.000000000000000E+20
 20
-1.000000000000000E+20
 30
-1.000000000000000E+20
  9
$PLIMMIN
 10
0.0
 20
0.0
  9
$PLIMMAX
 10
12.0
 20
9.0
  9
$UNITMODE
 70
     0
  9
$VISRETAIN
 70
     1
  9
$PLINEGEN
 70
     0
  9
$PSLTSCALE
 70
     1
  9
$TREEDEPTH
 70
  3020
  9
$CMLSTYLE
  2
Standard
  9
$CMLJUST
 70
     0
  9
$CMLSCALE
 40
1.0
  9
$PROXYGRAPHICS
 70
     1
  9
$MEASUREMENT
 70
     0
  9
$CELWEIGHT
370
    -1
  9
$ENDCAPS
280
     0
  9
$JOINSTYLE
280
     0
  9
$LWDISPLAY
290
     1
  9
$INSUNITS
 70
     1
  9
$HYPERLINKBASE
  1

  9
$STYLESHEET
  1

  9
$XEDIT
290
     1
  9
$CEPSNTYPE
380
     0
  9
$PSTYLEMODE
290
     1
  9
$FINGERPRINTGUID
  2
{C273E213-402B-B83E-1DDD-1C6C839EEDAE}
  9
$VERSIONGUID
  2
{FAEB1C32-E019-11D5-929B-00C0DF256EC4}
  9
$EXTNAMES
290
     1
  9
$PSVPSCALE
 40
0.0
  9
$OLESTARTUP
290
     0
  9
$SORTENTS
280
   127
  9
$INDEXCTL
280
     0
  9
$HIDETEXT
280
     1
  9
$XCLIPFRAME
280
     2
  9
$HALOGAP
280
     0
  9
$OBSCOLOR
 70
   257
  9
$OBSLTYPE
280
     0
  9
$INTERSECTIONDISPLAY
280
     0
  9
$INTERSECTIONCOLOR
 70
   257
  9
$DIMASSOC
280
     2
  9
$PROJECTNAME
  1

  9
$CAMERADISPLAY
290
     0
  9
$LENSLENGTH
 40
50.0
  9
$CAMERAHEIGHT
 40
0.0
  9
$STEPSPERSEC
 40
2.0
  9
$STEPSIZE
 40
6.0
  9
$3DDWFPREC
 40
2.0
  9
$PSOLWIDTH
 40
0.25
  9
$PSOLHEIGHT
 40
4.0
  9
$LOFTANG1
 40
1.570796326794897
  9
$LOFTANG2
 40
1.570796326794897
  9
$LOFTMAG1
 40
0.0
  9
$LOFTMAG2
 40
0.0
  9
$LOFTPARAM
 70
     7
  9
$LOFTNORMALS
280
     1
  9
$LATITUDE
 40
37.795
  9
$LONGITUDE
 40
-122.394
  9
$NORTHDIRECTION
 40
0.0
  9
$TIMEZONE
 70
 -8000
  9
$LIGHTGLYPHDISPLAY
280
     1
  9
$TILEMODELIGHTSYNCH
280
     1
  9
$CMATERIAL
347
3C
  9
$SOLIDHIST
280
     1
  9
$SHOWHIST
280
     1
  9
$DWFFRAME
280
     2
  9
$DGNFRAME
280
     2
  9
$REALWORLDSCALE
290
     1
  9
$INTERFERECOLOR
 62
   256
  9
$CSHADOW
280
     0
  9
$SHADOWPLANELOCATION
 40
0.0
  0
ENDSEC
  0
SECTION
  2
CLASSES
  0
CLASS
  1
ACDBDICTIONARYWDFLT
  2
AcDbDictionaryWithDefault
  3
ObjectDBX Classes
 90
        0
 91
        4
280
     0
281
     0
  0
CLASS
  1
VISUALSTYLE
  2
AcDbVisualStyle
  3
ObjectDBX Classes
 90
     4095
 91
        4
280
     0
281
     0
  0
CLASS
  1
MATERIAL
  2
AcDbMaterial
  3
ObjectDBX Classes
 90
     1153
 91
        4
280
     0
281
     0
  0
CLASS
  1
SUN
  2
AcDbSun
  3
SCENEOE
 90
     1024
 91
        4
280
     0
281
     0
  0
ENDSEC
  0
SECTION
  2
TABLES
  0
TABLE
  2
VPORT
  5
8
330
0
100
AcDbSymbolTable
 70
     1
  0
VPORT
  5
29
330
8
100
AcDbSymbolTableRecord
100
AcDbViewportTableRecord
  2
*Active
 70
     0
 10
0.0
 20
0.0
 11
1.0
 21
1.0
 12
0.0
 22
0.0
 13
0.0
 23
0.0
 14
0.5
 24
0.5
 15
0.5
 25
0.5
 16
0.0
 26
0.0
 36
1.0
 17
91.00082462281999
 27
-128.4993055234307
 37
0.0
 40
256.9986110468615
 41
0.7081814508812795
 42
50.0
 43
0.0
 44
0.0
 50
0.0
 51
0.0
 71
     0
 72
   100
 73
     1
 74
     3
 75
     0
 76
     0
 77
     0
 78
     0
281
     0
 65
     1
110
0.0
120
0.0
130
0.0
111
1.0
121
0.0
131
0.0
112
0.0
122
1.0
132
0.0
 79
     0
146
0.0
 60
     3
 61
     5
292
     1
282
     1
141
0.0
142
0.0
 63
   250
361
3F
  0
ENDTAB
  0
TABLE
  2
LTYPE
  5
5
330
0
100
AcDbSymbolTable
 70
     2
  0
LTYPE
  5
14
330
5
100
AcDbSymbolTableRecord
100
AcDbLinetypeTableRecord
  2
ByBlock
 70
     0
  3

 72
    65
 73
     0
 40
0.0
  0
LTYPE
  5
15
330
5
100
AcDbSymbolTableRecord
100
AcDbLinetypeTableRecord
  2
ByLayer
 70
     0
  3

 72
    65
 73
     0
 40
0.0
  0
LTYPE
  5
16
330
5
100
AcDbSymbolTableRecord
100
AcDbLinetypeTableRecord
  2
Continuous
 70
     0
  3
Solid line
 72
    65
 73
     0
 40
0.0
  0
LTYPE
  5
81
330
5
100
AcDbSymbolTableRecord
100
AcDbLinetypeTableRecord
  2
AI-Linetype-1
 70
     0
  3
Adobe Illustrator Linetype No. 1
 72
    65
 73
     4
 40
2.1166666661375
 49
1.05833333306875
 74
     0
 49
-0.3527777776895833
 74
     0
 49
0.3527777776895833
 74
     0
 49
-0.3527777776895833
 74
     0
  0
ENDTAB
  0
TABLE
  2
LAYER
  5
2
330
0
100
AcDbSymbolTable
 70
     2
  0
LAYER
  5
10
330
2
100
AcDbSymbolTableRecord
100
AcDbLayerTableRecord
  2
0
 70
     0
 62
     7
  6
Continuous
370
    -3
390
F
347
3E
  0
LAYER
  5
40
330
2
100
AcDbSymbolTableRecord
100
AcDbLayerTableRecord
  2
_U+30EC_U+30A4_U+30E4_U+30FC 1
 70
     0
 62
     7
  6
Continuous
370
    -3
390
F
347
3E
  0
ENDTAB
  0
TABLE
  2
STYLE
  5
3
330
0
100
AcDbSymbolTable
 70
     1
  0
STYLE
  5
11
330
3
100
AcDbSymbolTableRecord
100
AcDbTextStyleTableRecord
  2
Standard
 70
     0
 40
0.0
 41
1.0
 50
0.0
 71
     0
 42
0.2
  3
txt
  4

  0
ENDTAB
  0
TABLE
  2
VIEW
  5
6
330
0
100
AcDbSymbolTable
 70
     0
  0
ENDTAB
  0
TABLE
  2
UCS
  5
7
330
0
100
AcDbSymbolTable
 70
     0
  0
ENDTAB
  0
TABLE
  2
APPID
  5
9
330
0
100
AcDbSymbolTable
 70
     1
  0
APPID
  5
12
330
9
100
AcDbSymbolTableRecord
100
AcDbRegAppTableRecord
  2
ACAD
 70
     0
  0
ENDTAB
  0
TABLE
  2
DIMSTYLE
  5
A
330
0
100
AcDbSymbolTable
 70
     1
100
AcDbDimStyleTable
  0
DIMSTYLE
105
27
330
A
100
AcDbSymbolTableRecord
100
AcDbDimStyleTableRecord
  2
Standard
 70
     0
178
     0
340
11
  0
ENDTAB
  0
TABLE
  2
BLOCK_RECORD
  5
1
330
0
100
AcDbSymbolTable
 70
    13
  0
BLOCK_RECORD
  5
1F
330
1
100
AcDbSymbolTableRecord
100
AcDbBlockTableRecord
  2
*Model_Space
340
22
 70
     0
280
     1
281
     0
  0
BLOCK_RECORD
  5
1B
330
1
100
AcDbSymbolTableRecord
100
AcDbBlockTableRecord
  2
*Paper_Space
340
1E
 70
     0
280
     1
281
     0
  0
BLOCK_RECORD
  5
23
330
1
100
AcDbSymbolTableRecord
100
AcDbBlockTableRecord
  2
*Paper_Space0
340
26
 70
     0
280
     1
281
     0
  0
BLOCK_RECORD
  5
106
330
1
100
AcDbSymbolTableRecord
100
AcDbBlockTableRecord
  2
block 2
340
0
102
{BLKREFS
331
107
102
}
 70
     0
280
     1
281
     0
  0
BLOCK_RECORD
  5
14E
330
1
100
AcDbSymbolTableRecord
100
AcDbBlockTableRecord
  2
block 3
340
0
102
{BLKREFS
331
14F
102
}
 70
     0
280
     1
281
     0
  0
BLOCK_RECORD
  5
154
330
1
100
AcDbSymbolTableRecord
100
AcDbBlockTableRecord
  2
block 4
340
0
102
{BLKREFS
331
155
102
}
 70
     0
280
     1
281
     0
  0
BLOCK_RECORD
  5
169
330
1
100
AcDbSymbolTableRecord
100
AcDbBlockTableRecord
  2
block 5
340
0
102
{BLKREFS
331
16A
102
}
 70
     0
280
     1
281
     0
  0
BLOCK_RECORD
  5
186
330
1
100
AcDbSymbolTableRecord
100
AcDbBlockTableRecord
  2
block 6
340
0
102
{BLKREFS
331
187
102
}
 70
     0
280
     1
281
     0
  0
BLOCK_RECORD
  5
1A7
330
1
100
AcDbSymbolTableRecord
100
AcDbBlockTableRecord
  2
block 7
340
0
102
{BLKREFS
331
1A8
102
}
 70
     0
280
     1
281
     0
  0
BLOCK_RECORD
  5
1AF
330
1
100
AcDbSymbolTableRecord
100
AcDbBlockTableRecord
  2
block 8
340
0
102
{BLKREFS
331
1B0
102
}
 70
     0
280
     1
281
     0
  0
BLOCK_RECORD
  5
1D2
330
1
100
AcDbSymbolTableRecord
100
AcDbBlockTableRecord
  2
block 9
340
0
102
{BLKREFS
331
1D3
102
}
 70
     0
280
     1
281
     0
  0
BLOCK_RECORD
  5
1F5
330
1
100
AcDbSymbolTableRecord
100
AcDbBlockTableRecord
  2
block 10
340
0
102
{BLKREFS
331
1F6
102
}
 70
     0
280
     1
281
     0
  0
BLOCK_RECORD
  5
214
330
1
100
AcDbSymbolTableRecord
100
AcDbBlockTableRecord
  2
block 11
340
0
102
{BLKREFS
331
215
102
}
 70
     0
280
     1
281
     0
  0
BLOCK_RECORD
  5
233
330
1
100
AcDbSymbolTableRecord
100
AcDbBlockTableRecord
  2
block 12
340
0
102
{BLKREFS
331
234
102
}
 70
     0
280
     1
281
     0
  0
BLOCK_RECORD
  5
246
330
1
100
AcDbSymbolTableRecord
100
AcDbBlockTableRecord
  2
block 13
340
0
102
{BLKREFS
331
247
102
}
 70
     0
280
     1
281
     0
  0
ENDTAB
  0
ENDSEC
  0
SECTION
  2
BLOCKS
  0
BLOCK
  5
20
330
1F
100
AcDbEntity
  8
0
100
AcDbBlockBegin
  2
*Model_Space
 70
     0
 10
0.0
 20
0.0
 30
0.0
  3
*Model_Space
  1

  0
ENDBLK
  5
21
330
1F
100
AcDbEntity
  8
0
100
AcDbBlockEnd
  0
BLOCK
  5
1C
330
1B
100
AcDbEntity
 67
     1
  8
0
100
AcDbBlockBegin
  2
*Paper_Space
 70
     0
 10
0.0
 20
0.0
 30
0.0
  3
*Paper_Space
  1

  0
ENDBLK
  5
1D
330
1B
100
AcDbEntity
 67
     1
  8
0
100
AcDbBlockEnd
  0
BLOCK
  5
24
330
23
100
AcDbEntity
  8
0
100
AcDbBlockBegin
  2
*Paper_Space0
 70
     0
 10
0.0
 20
0.0
 30
0.0
  3
*Paper_Space0
  1

  0
ENDBLK
  5
25
330
23
100
AcDbEntity
  8
0
100
AcDbBlockEnd
  0
BLOCK
  5
108
330
106
100
AcDbEntity
  8
0
100
AcDbBlockBegin
  2
block 2
 70
     0
 10
0.0
 20
0.0
 30
0.0
  3
block 2
  1

  0
SPLINE
  5
10A
330
106
100
AcDbEntity
  8
_U+30EC_U+30A4_U+30E4_U+30FC 1
370
     0
100
AcDbSpline
210
0.0
220
0.0
230
1.0
 70
    11
 71
     3
 72
   197
 73
   193
 74
     0
 42
0.0000000001
 43
0.0000000001
 12
1.0
 22
0.0
 32
0.0
 13
1.0
 23
0.0
 33
0.0
 40
0.0
 40
0.0
 40
0.0
 40
0.0
 40
1.0
 40
1.0
 40
1.0
 40
2.0
 40
2.0
 40
2.0
 40
3.0
 40
3.0
 40
3.0
 40
4.0
 40
4.0
 40
4.0
 40
5.0
 40
5.0
 40
5.0
 40
6.0
 40
6.0
 40
6.0
 40
7.0
 40
7.0
 40
7.0
 40
8.0
 40
8.0
 40
8.0
 40
9.0
 40
9.0
 40
9.0
 40
10.0
 40
10.0
 40
10.0
 40
11.0
 40
11.0
 40
11.0
 40
12.0
 40
12.0
 40
12.0
 40
13.0
 40
13.0
 40
13.0
 40
14.0
 40
14.0
 40
14.0
 40
15.0
 40
15.0
 40
15.0
 40
16.0
 40
16.0
 40
16.0
 40
17.0
 40
17.0
 40
17.0
 40
18.0
 40
18.0
 40
18.0
 40
19.0
 40
19.0
 40
19.0
 40
20.0
 40
20.0
 40
20.0
 40
21.0
 40
21.0
 40
21.0
 40
22.0
 40
22.0
 40
22.0
 40
23.0
 40
23.0
 40
23.0
 40
24.0
 40
24.0
 40
24.0
 40
25.0
 40
25.0
 40
25.0
 40
26.0
 40
26.0
 40
26.0
 40
27.0
 40
27.0
 40
27.0
 40
28.0
 40
28.0
 40
28.0
 40
29.0
 40
29.0
 40
29.0
 40
30.0
 40
30.0
 40
30.0
 40
31.0
 40
31.0
 40
31.0
 40
32.0
 40
32.0
 40
32.0
 40
33.0
 40
33.0
 40
33.0
 40
34.0
 40
34.0
 40
34.0
 40
35.0
 40
35.0
 40
35.0
 40
36.0
 40
36.0
 40
36.0
 40
37.0
 40
37.0
 40
37.0
 40
38.0
 40
38.0
 40
38.0
 40
39.0
 40
39.0
 40
39.0
 40
40.0
 40
40.0
 40
40.0
 40
41.0
 40
41.0
 40
41.0
 40
42.0
 40
42.0
 40
42.0
 40
43.0
 40
43.0
 40
43.0
 40
44.0
 40
44.0
 40
44.0
 40
45.0
 40
45.0
 40
45.0
 40
46.0
 40
46.0
 40
46.0
 40
47.0
 40
47.0
 40
47.0
 40
48.0
 40
48.0
 40
48.0
 40
49.0
 40
49.0
 40
49.0
 40
50.0
 40
50.0
 40
50.0
 40
51.0
 40
51.0
 40
51.0
 40
52.0
 40
52.0
 40
52.0
 40
53.0
 40
53.0
 40
53.0
 40
54.0
 40
54.0
 40
54.0
 40
55.0
 40
55.0
 40
55.0
 40
56.0
 40
56.0
 40
56.0
 40
57.0
 40
57.0
 40
57.0
 40
58.0
 40
58.0
 40
58.0
 40
59.0
 40
59.0
 40
59.0
 40
60.0
 40
60.0
 40
60.0
 40
61.0
 40
61.0
 40
61.0
 40
62.0
 40
62.0
 40
62.0
 40
63.0
 40
63.0
 40
63.0
 40
64.0
 40
64.0
 40
64.0
 40
64.0
 10
104.0456732595789
 20
-111.4888020554611
 30
0.0
 10
104.0349934635746
 20
-111.5184298766343
 30
0.0
 10
104.0115668142749
 20
-111.5649386656852
 30
0.0
 10
104.0012315278191
 20
-111.5924994295672
 30
0.0
 10
104.0012315278191
 20
-111.5924994295672
 30
0.0
 10
103.9399088281817
 20
-111.7447726500152
 30
0.0
 10
103.9399088281817
 20
-111.7447726500152
 30
0.0
 10
103.9292290321774
 20
-111.7700941018318
 30
0.0
 10
103.8806531858354
 20
-111.8822319598767
 30
0.0
 10
103.86790633254
 20
-111.9054863544021
 30
0.0
 10
103.8658392752488
 20
-111.9118597810498
 30
0.0
 10
103.861360651118
 20
-111.9203002649887
 30
0.0
 10
103.8592935938268
 20
-111.9266736916364
 30
0.0
 10
103.8592935938268
 20
-111.9266736916364
 30
0.0
 10
103.6498317883237
 20
-111.8737914759378
 30
0.0
 10
103.6498317883237
 20
-111.8737914759378
 30
0.0
 10
103.7283799653873
 20
-111.7637206751841
 30
0.0
 10
103.7897026650248
 20
-111.6283284226138
 30
0.0
 10
103.8213975434891
 20
-111.5184298766343
 30
0.0
 10
103.8213975434891
 20
-111.5184298766343
 30
0.0
 10
103.3559651434318
 20
-111.5184298766343
 30
0.0
 10
103.3559651434318
 20
-111.5184298766343
 30
0.0
 10
103.275349909077
 20
-111.6834499503777
 30
0.0
 10
103.2078260375661
 20
-111.7616536178929
 30
0.0
 10
103.1740641018107
 20
-111.8017889802961
 30
0.0
 10
103.1740641018107
 20
-111.8017889802961
 30
0.0
 10
103.0514187025358
 20
-111.7363321660763
 30
0.0
 10
103.0514187025358
 20
-111.7363321660763
 30
0.0
 10
103.0514187025358
 20
-111.7363321660763
 30
0.0
 10
103.0514187025358
 20
-111.9075534116933
 30
0.0
 10
103.0514187025358
 20
-111.9075534116933
 30
0.0
 10
103.0514187025358
 20
-112.0155571551558
 30
0.0
 10
103.0534857598269
 20
-112.0641330014979
 30
0.0
 10
103.0638210462827
 20
-112.169897432895
 30
0.0
 10
102.9921630601895
 20
-112.1678303756039
 30
0.0
 10
102.9708034681809
 20
-112.1678303756039
 30
0.0
 10
102.7658202868085
 20
-112.1678303756039
 30
0.0
 10
102.7658202868085
 20
-112.1678303756039
 30
0.0
 10
102.7106987590445
 20
-112.1678303756039
 30
0.0
 10
102.7106987590445
 20
-112.1678303756039
 30
0.0
 10
102.7106987590445
 20
-112.1678303756039
 30
0.0
 10
102.7106987590445
 20
-112.3032226281742
 30
0.0
 10
102.7106987590445
 20
-112.3032226281742
 30
0.0
 10
102.7106987590445
 20
-112.3032226281742
 30
0.0
 10
102.7827012546863
 20
-112.3032226281742
 30
0.0
 10
102.7827012546863
 20
-112.3032226281742
 30
0.0
 10
102.848158068906
 20
-112.3032226281742
 30
0.0
 10
102.9942301174806
 20
-112.2989162588176
 30
0.0
 10
103.0999945488778
 20
-112.2904757748788
 30
0.0
 10
103.0999945488778
 20
-112.2904757748788
 30
0.0
 10
103.0999945488778
 20
-112.4682427019177
 30
0.0
 10
103.0999945488778
 20
-112.4682427019177
 30
0.0
 10
103.0024983466452
 20
-112.46186927527
 30
0.0
 10
102.8440239543237
 20
-112.4577351606876
 30
0.0
 10
102.7827012546863
 20
-112.4577351606876
 30
0.0
 10
102.7827012546863
 20
-112.4577351606876
 30
0.0
 10
102.7106987590445
 20
-112.4577351606876
 30
0.0
 10
102.7106987590445
 20
-112.4577351606876
 30
0.0
 10
102.7127658163357
 20
-112.5464463694328
 30
0.0
 10
102.716899930918
 20
-112.7855359961092
 30
0.0
 10
102.7189669882091
 20
-112.859605549042
 30
0.0
 10
102.7189669882091
 20
-112.859605549042
 30
0.0
 10
102.5181179214191
 20
-112.859605549042
 30
0.0
 10
102.5181179214191
 20
-112.859605549042
 30
0.0
 10
102.5308647747145
 20
-112.6460096289566
 30
0.0
 10
102.5308647747145
 20
-112.6163818077834
 30
0.0
 10
102.5349988892968
 20
-112.4577351606876
 30
0.0
 10
102.5349988892968
 20
-112.4577351606876
 30
0.0
 10
102.4654079604948
 20
-112.4577351606876
 30
0.0
 10
102.4654079604948
 20
-112.4577351606876
 30
0.0
 10
102.4082193754396
 20
-112.4577351606876
 30
0.0
 10
102.2559461549916
 20
-112.46186927527
 30
0.0
 10
102.1457030994636
 20
-112.4682427019177
 30
0.0
 10
102.1457030994636
 20
-112.4682427019177
 30
0.0
 10
102.1457030994636
 20
-112.2904757748788
 30
0.0
 10
102.1457030994636
 20
-112.2904757748788
 30
0.0
 10
102.2514675308608
 20
-112.2989162588176
 30
0.0
 10
102.3954725221442
 20
-112.3032226281742
 30
0.0
 10
102.4654079604948
 20
-112.3032226281742
 30
0.0
 10
102.4654079604948
 20
-112.3032226281742
 30
0.0
 10
102.5391330038791
 20
-112.3032226281742
 30
0.0
 10
102.5391330038791
 20
-112.3032226281742
 30
0.0
 10
102.5391330038791
 20
-112.3032226281742
 30
0.0
 10
102.5391330038791
 20
-112.1678303756039
 30
0.0
 10
102.5391330038791
 20
-112.1678303756039
 30
0.0
 10
102.5391330038791
 20
-112.1678303756039
 30
0.0
 10
102.4950357816679
 20
-112.1678303756039
 30
0.0
 10
102.4950357816679
 20
-112.1678303756039
 30
0.0
 10
102.4185546618954
 20
-112.1678303756039
 30
0.0
 10
102.2263183338184
 20
-112.169897432895
 30
0.0
 10
102.1922118885144
 20
-112.169897432895
 30
0.0
 10
102.1987575699364
 20
-112.0980671920276
 30
0.0
 10
102.207025799101
 20
-112.017624212447
 30
0.0
 10
102.207025799101
 20
-111.8970458704632
 30
0.0
 10
102.207025799101
 20
-111.8970458704632
 30
0.0
 10
102.207025799101
 20
-111.7235853127809
 30
0.0
 10
102.207025799101
 20
-111.7235853127809
 30
0.0
 10
102.207025799101
 20
-111.6515828171392
 30
0.0
 10
102.1987575699364
 20
-111.5310044751554
 30
0.0
 10
102.1922118885144
 20
-111.4507337503491
 30
0.0
 10
102.2707600655781
 20
-111.4548678649314
 30
0.0
 10
102.3086561159159
 20
-111.4571071769968
 30
0.0
 10
102.4357801393216
 20
-111.4571071769968
 30
0.0
 10
102.4357801393216
 20
-111.4571071769968
 30
0.0
 10
102.5391330038791
 20
-111.4571071769968
 30
0.0
 10
102.5391330038791
 20
-111.4571071769968
 30
0.0
 10
102.5391330038791
 20
-111.4571071769968
 30
0.0
 10
102.5391330038791
 20
-111.3110351284222
 30
0.0
 10
102.5391330038791
 20
-111.3110351284222
 30
0.0
 10
102.5391330038791
 20
-111.3110351284222
 30
0.0
 10
102.4609293363639
 20
-111.3110351284222
 30
0.0
 10
102.4609293363639
 20
-111.3110351284222
 30
0.0
 10
102.4061523181485
 20
-111.3110351284222
 30
0.0
 10
102.234586562983
 20
-111.3153414977788
 30
0.0
 10
102.1501817235944
 20
-111.3217149244265
 30
0.0
 10
102.1501817235944
 20
-111.3217149244265
 30
0.0
 10
102.1501817235944
 20
-111.1439479973876
 30
0.0
 10
102.1501817235944
 20
-111.1439479973876
 30
0.0
 10
102.2325195056919
 20
-111.1503214240353
 30
0.0
 10
102.3954725221442
 20
-111.1544555386176
 30
0.0
 10
102.4609293363639
 20
-111.1544555386176
 30
0.0
 10
102.4609293363639
 20
-111.1544555386176
 30
0.0
 10
102.5391330038791
 20
-111.1544555386176
 30
0.0
 10
102.5391330038791
 20
-111.1544555386176
 30
0.0
 10
102.5391330038791
 20
-111.1206936028622
 30
0.0
 10
102.5349988892968
 20
-110.9661810703487
 30
0.0
 10
102.5349988892968
 20
-110.9344861918844
 30
0.0
 10
102.5349988892968
 20
-110.9344861918844
 30
0.0
 10
102.7317138415046
 20
-110.9513671597622
 30
0.0
 10
102.7317138415046
 20
-110.9513671597622
 30
0.0
 10
102.7485948093823
 20
-110.9536064718276
 30
0.0
 10
102.7699544013908
 20
-110.9556735291187
 30
0.0
 10
102.7699544013908
 20
-110.976860866353
 30
0.0
 10
102.7699544013908
 20
-111.0001152608784
 30
0.0
 10
102.7485948093823
 20
-111.0085557448173
 30
0.0
 10
102.7213785550488
 20
-111.0213025981127
 30
0.0
 10
102.7213785550488
 20
-111.0423176805728
 30
0.0
 10
102.7189669882091
 20
-111.1375745707399
 30
0.0
 10
102.7189669882091
 20
-111.1544555386176
 30
0.0
 10
102.7189669882091
 20
-111.1544555386176
 30
0.0
 10
102.7782226305554
 20
-111.1544555386176
 30
0.0
 10
102.7782226305554
 20
-111.1544555386176
 30
0.0
 10
102.8460910116149
 20
-111.1544555386176
 30
0.0
 10
102.9897514933498
 20
-111.1503214240353
 30
0.0
 10
103.095515924747
 20
-111.1439479973876
 30
0.0
 10
103.095515924747
 20
-111.1439479973876
 30
0.0
 10
103.095515924747
 20
-111.3217149244265
 30
0.0
 10
103.095515924747
 20
-111.3217149244265
 30
0.0
 10
102.9983642320629
 20
-111.3153414977788
 30
0.0
 10
102.8419568970326
 20
-111.3110351284222
 30
0.0
 10
102.7782226305554
 20
-111.3110351284222
 30
0.0
 10
102.7782226305554
 20
-111.3110351284222
 30
0.0
 10
102.7106987590445
 20
-111.3110351284222
 30
0.0
 10
102.7106987590445
 20
-111.3110351284222
 30
0.0
 10
102.7106987590445
 20
-111.3110351284222
 30
0.0
 10
102.7106987590445
 20
-111.4571071769968
 30
0.0
 10
102.7106987590445
 20
-111.4571071769968
 30
0.0
 10
102.7106987590445
 20
-111.4571071769968
 30
0.0
 10
102.7806341973951
 20
-111.4571071769968
 30
0.0
 10
102.7806341973951
 20
-111.4571071769968
 30
0.0
 10
102.9304958510035
 20
-111.4571071769968
 30
0.0
 10
103.0024983466452
 20
-111.4528008076403
 30
0.0
 10
103.0638210462827
 20
-111.4507337503491
 30
0.0
 10
103.0555528171181
 20
-111.545818385742
 30
0.0
 10
103.0534857598269
 20
-111.6241943080315
 30
0.0
 10
103.0514187025358
 20
-111.6622626131435
 30
0.0
 10
103.205758980275
 20
-111.4507337503491
 30
0.0
 10
103.3115234116721
 20
-111.2032036397339
 30
0.0
 10
103.3284043795499
 20
-110.9408596185321
 30
0.0
 10
103.3284043795499
 20
-110.9408596185321
 30
0.0
 10
103.5440673569265
 20
-110.9916747769396
 30
0.0
 10
103.5440673569265
 20
-110.9916747769396
 30
0.0
 10
103.5588812675131
 20
-110.9958088915219
 30
0.0
 10
103.5736951780996
 20
-111.0021823181696
 30
0.0
 10
103.5736951780996
 20
-111.0190632860473
 30
0.0
 10
103.5736951780996
 20
-111.0361165086993
 30
0.0
 10
103.5695610635173
 20
-111.0381835659905
 30
0.0
 10
103.5189181598842
 20
-111.0593709032247
 30
0.0
 10
103.5016926824579
 20
-111.1355075134488
 30
0.0
 10
103.4765434854156
 20
-111.2264580342594
 30
0.0
 10
103.4279676390736
 20
-111.3534098028908
 30
0.0
 10
103.4279676390736
 20
-111.3534098028908
 30
0.0
 10
103.7662760157251
 20
-111.3534098028908
 30
0.0
 10
103.7662760157251
 20
-111.3534098028908
 30
0.0
 10
103.8045165756114
 20
-111.3534098028908
 30
0.0
 10
103.9333631467597
 20
-111.3491034335343
 30
0.0
 10
103.9819389931017
 20
-111.3427300068865
 30
0.0
 10
103.9819389931017
 20
-111.3427300068865
 30
0.0
 10
104.075301080752
 20
-111.4126654452371
 30
0.0
 10
104.075301080752
 20
-111.4126654452371
 30
0.0
 10
104.0666883420389
 20
-111.4336805276971
 30
0.0
 10
104.0604871701654
 20
-111.4528008076403
 30
0.0
 10
104.0456732595789
 20
-111.4888020554611
 30
0.0
  0
POLYLINE
  5
10B
330
106
100
AcDbEntity
  8
_U+30EC_U+30A4_U+30E4_U+30FC 1
370
     0
100
AcDb2dPolyline
 66
     1
 10
0.0
 20
0.0
 30
0.0
  0
VERTEX
  5
10C
330
10B
100
AcDbEntity
  8
_U+30EC_U+30A4_U+30E4_U+30FC 1
370
     0
100
AcDbVertex
100
AcDb2dVertex
 10
102.5391330038791
 20
-111.6135145120272
 30
0.0
  0
VERTEX
  5
10D
330
10B
100
AcDbEntity
  8
_U+30EC_U+30A4_U+30E4_U+30FC 1
370
     0
100
AcDbVertex
100
AcDb2dVertex
 10
102.3806586115576
 20
-111.6135145120272
 30
0.0
  0
VERTEX
  5
10E
330
10B
100
AcDbEntity
  8
_U+30EC_U+30A4_U+30E4_U+30FC 1
370
     0
100
AcDbVertex
100
AcDb2dVertex
 10
102.3806586115576
 20
-111.7427055927241
 30
0.0
  0
VERTEX
  5
10F
330
10B
100
AcDbEntity
  8
_U+30EC_U+30A4_U+30E4_U+30FC 1
370
     0
100
AcDbVertex
100
AcDb2dVertex
 10
102.5391330038791
 20
-111.7427055927241
 30
0.0
  0
VERTEX
  5
110
330
10B
100
AcDbEntity
  8
_U+30EC_U+30A4_U+30E4_U+30FC 1
370
     0
100
AcDbVertex
100
AcDb2dVertex
 10
102.5391330038791
 20
-111.6135145120272
 30
0.0
  0
SEQEND
  5
111
330
10B
100
AcDbEntity
  8
_U+30EC_U+30A4_U+30E4_U+30FC 1
370
     0
  0
POLYLINE
  5
112
330
106
100
AcDbEntity
  8
_U+30EC_U+30A4_U+30E4_U+30FC 1
370
     0
100
AcDb2dPolyline
 66
     1
 10
0.0
 20
0.0
 30
0.0
  0
VERTEX
  5
113
330
112
100
AcDbEntity
  8
_U+30EC_U+30A4_U+30E4_U+30FC 1
370
     0
100
AcDbVertex
100
AcDb2dVertex
 10
102.5391330038791
 20
-111.8865383292332
 30
0.0
  0
VERTEX
  5
114
330
112
100
AcDbEntity
  8
_U+30EC_U+30A4_U+30E4_U+30FC 1
370
     0
100
AcDbVertex
100
AcDb2dVertex
 10
102.3806586115576
 20
-111.8865383292332
 30
0.0
  0
VERTEX
  5
115
330
112
100
AcDbEntity
  8
_U+30EC_U+30A4_U+30E4_U+30FC 1
370
     0
100
AcDbVertex
100
AcDb2dVertex
 10
102.3806586115576
 20
-112.0155571551558
 30
0.0
  0
VERTEX
  5
116
330
112
100
AcDbEntity
  8
_U+30EC_U+30A4_U+30E4_U+30FC 1
370
     0
100
AcDbVertex
100
AcDb2dVertex
 10
102.5391330038791
 20
-112.0155571551558
 30
0.0
  0
VERTEX
  5
117
330
112
100
AcDbEntity
  8
_U+30EC_U+30A4_U+30E4_U+30FC 1
370
     0
100
AcDbVertex
100
AcDb2dVertex
 10
102.5391330038791
 20
-111.8865383292332
 30
0.0
  0
SEQEND
  5
118
330
112
100
AcDbEntity
  8
_U+30EC_U+30A4_U+30E4_U+30FC 1
370
     0
  0
POLYLINE
  5
119
330
106
100
AcDbEntity
  8
_U+30EC_U+30A4_U+30E4_U+30FC 1
370
     0
100
AcDb2dPolyline
 66
     1
 10
0.0
 20
0.0
 30
0.0
  0
VERTEX
  5
11A
330
119
100
AcDbEntity
  8
_U+30EC_U+30A4_U+30E4_U+30FC 1
370
     0
100
AcDbVertex
100
AcDb2dVertex
 10
102.8715847182057
 20
-111.6135145120272
 30
0.0
  0
VERTEX
  5
11B
330
119
100
AcDbEntity
  8
_U+30EC_U+30A4_U+30E4_U+30FC 1
370
     0
100
AcDbVertex
100
AcDb2dVertex
 10
102.7106987590445
 20
-111.6135145120272
 30
0.0
  0
VERTEX
  5
11C
330
119
100
AcDbEntity
  8
_U+30EC_U+30A4_U+30E4_U+30FC 1
370
     0
100
AcDbVertex
100
AcDb2dVertex
 10
102.7106987590445
 20
-111.7427055927241
 30
0.0
  0
VERTEX
  5
11D
330
119
100
AcDbEntity
  8
_U+30EC_U+30A4_U+30E4_U+30FC 1
370
     0
100
AcDbVertex
100
AcDb2dVertex
 10
102.8715847182057
 20
-111.7427055927241
 30
0.0
  0
VERTEX
  5
11E
330
119
100
AcDbEntity
  8
_U+30EC_U+30A4_U+30E4_U+30FC 1
370
     0
100
AcDbVertex
100
AcDb2dVertex
 10
102.8715847182057
 20
-111.6135145120272
 30
0.0
  0
SEQEND
  5
11F
330
119
100
AcDbEntity
  8
_U+30EC_U+30A4_U+30E4_U+30FC 1
370
     0
  0
POLYLINE
  5
120
330
106
100
AcDbEntity
  8
_U+30EC_U+30A4_U+30E4_U+30FC 1
370
     0
100
AcDb2dPolyline
 66
     1
 10
0.0
 20
0.0
 30
0.0
  0
VERTEX
  5
121
330
120
100
AcDbEntity
  8
_U+30EC_U+30A4_U+30E4_U+30FC 1
370
     0
100
AcDbVertex
100
AcDb2dVertex
 10
102.8715847182057
 20
-111.8865383292332
 30
0.0
  0
VERTEX
  5
122
330
120
100
AcDbEntity
  8
_U+30EC_U+30A4_U+30E4_U+30FC 1
370
     0
100
AcDbVertex
100
AcDb2dVertex
 10
102.7106987590445
 20
-111.8865383292332
 30
0.0
  0
VERTEX
  5
123
330
120
100
AcDbEntity
  8
_U+30EC_U+30A4_U+30E4_U+30FC 1
370
     0
100
AcDbVertex
100
AcDb2dVertex
 10
102.7106987590445
 20
-112.0155571551558
 30
0.0
  0
VERTEX
  5
124
330
120
100
AcDbEntity
  8
_U+30EC_U+30A4_U+30E4_U+30FC 1
370
     0
100
AcDbVertex
100
AcDb2dVertex
 10
102.8715847182057
 20
-112.0155571551558
 30
0.0
  0
VERTEX
  5
125
330
120
100
AcDbEntity
  8
_U+30EC_U+30A4_U+30E4_U+30FC 1
370
     0
100
AcDbVertex
100
AcDb2dVertex
 10
102.8715847182057
 20
-111.8865383292332
 30
0.0
  0
SEQEND
  5
126
330
120
100
AcDbEntity
  8
_U+30EC_U+30A4_U+30E4_U+30FC 1
370
     0
  0
SPLINE
  5
127
330
106
100
AcDbEntity
  8
_U+30EC_U+30A4_U+30E4_U+30FC 1
370
     0
100
AcDbSpline
210
0.0
220
0.0
230
1.0
 70
    11
 71
     3
 72
    41
 73
    37
 74
     0
 42
0.0000000001
 43
0.0000000001
 12
1.0
 22
0.0
 32
0.0
 13
1.0
 23
0.0
 33
0.0
 40
0.0
 40
0.0
 40
0.0
 40
0.0
 40
1.0
 40
1.0
 40
1.0
 40
2.0
 40
2.0
 40
2.0
 40
3.0
 40
3.0
 40
3.0
 40
4.0
 40
4.0
 40
4.0
 40
5.0
 40
5.0
 40
5.0
 40
6.0
 40
6.0
 40
6.0
 40
7.0
 40
7.0
 40
7.0
 40
8.0
 40
8.0
 40
8.0
 40
9.0
 40
9.0
 40
9.0
 40
10.0
 40
10.0
 40
10.0
 40
11.0
 40
11.0
 40
11.0
 40
12.0
 40
12.0
 40
12.0
 40
12.0
 10
103.9609239106417
 20
-112.8447916384555
 30
0.0
 10
103.7197672266742
 20
-112.7093993858851
 30
0.0
 10
103.5420002996353
 20
-112.4132934289279
 30
0.0
 10
103.5016926824579
 20
-112.2842746030053
 30
0.0
 10
103.3811143404742
 20
-112.5486856814983
 30
0.0
 10
103.2185058335704
 20
-112.7262803537629
 30
0.0
 10
103.0366047919492
 20
-112.8404852690989
 30
0.0
 10
103.0366047919492
 20
-112.8404852690989
 30
0.0
 10
102.8395453301929
 20
-112.7030259592374
 30
0.0
 10
102.8395453301929
 20
-112.7030259592374
 30
0.0
 10
102.9094807685435
 20
-112.6777045074209
 30
0.0
 10
103.0555528171181
 20
-112.6163818077834
 30
0.0
 10
103.178198216393
 20
-112.46186927527
 30
0.0
 10
103.302910672959
 20
-112.3052896854654
 30
0.0
 10
103.3917941364784
 20
-112.0725734854367
 30
0.0
 10
103.3917941364784
 20
-111.8124687763004
 30
0.0
 10
103.3917941364784
 20
-111.7108384594855
 30
0.0
 10
103.379047283183
 20
-111.639008218618
 30
0.0
 10
103.3687119967273
 20
-111.5924994295672
 30
0.0
 10
103.3687119967273
 20
-111.5924994295672
 30
0.0
 10
103.5736951780996
 20
-111.6135145120272
 30
0.0
 10
103.5736951780996
 20
-111.6135145120272
 30
0.0
 10
103.5950547701082
 20
-111.6157538240926
 30
0.0
 10
103.6160698525682
 20
-111.6178208813838
 30
0.0
 10
103.6160698525682
 20
-111.639008218618
 30
0.0
 10
103.6160698525682
 20
-111.6579562437869
 30
0.0
 10
103.6053900565639
 20
-111.6663967277258
 30
0.0
 10
103.5716281208085
 20
-111.68758406496
 30
0.0
 10
103.5633598916439
 20
-111.8886053865244
 30
0.0
 10
103.6202039671505
 20
-112.131829127783
 30
0.0
 10
103.681526666788
 20
-112.2524074697668
 30
0.0
 10
103.7724771875986
 20
-112.4281073395145
 30
0.0
 10
103.9671250825152
 20
-112.6079413238445
 30
0.0
 10
104.1025173350855
 20
-112.6649576541254
 30
0.0
 10
104.1025173350855
 20
-112.6649576541254
 30
0.0
 10
103.9609239106417
 20
-112.8447916384555
 30
0.0
 10
103.9609239106417
 20
-112.8447916384555
 30
0.0
  0
HATCH
  5
128
330
106
100
AcDbEntity
  8
_U+30EC_U+30A4_U+30E4_U+30FC 1
 62
   179
420
  2234388
100
AcDbHatch
 10
0.0
 20
0.0
 30
0.0
210
0.0
220
0.0
230
1.0
  2
SOLID
 70
     1
 71
     0
 91
        6
 92
        1
 93
        1
 72
     4
 94
        3
 73
     0
 74
     1
 95
      197
 96
      193
 40
0.0
 40
0.0
 40
0.0
 40
0.0
 40
1.0
 40
1.0
 40
1.0
 40
2.0
 40
2.0
 40
2.0
 40
3.0
 40
3.0
 40
3.0
 40
4.0
 40
4.0
 40
4.0
 40
5.0
 40
5.0
 40
5.0
 40
6.0
 40
6.0
 40
6.0
 40
7.0
 40
7.0
 40
7.0
 40
8.0
 40
8.0
 40
8.0
 40
9.0
 40
9.0
 40
9.0
 40
10.0
 40
10.0
 40
10.0
 40
11.0
 40
11.0
 40
11.0
 40
12.0
 40
12.0
 40
12.0
 40
13.0
 40
13.0
 40
13.0
 40
14.0
 40
14.0
 40
14.0
 40
15.0
 40
15.0
 40
15.0
 40
16.0
 40
16.0
 40
16.0
 40
17.0
 40
17.0
 40
17.0
 40
18.0
 40
18.0
 40
18.0
 40
19.0
 40
19.0
 40
19.0
 40
20.0
 40
20.0
 40
20.0
 40
21.0
 40
21.0
 40
21.0
 40
22.0
 40
22.0
 40
22.0
 40
23.0
 40
23.0
 40
23.0
 40
24.0
 40
24.0
 40
24.0
 40
25.0
 40
25.0
 40
25.0
 40
26.0
 40
26.0
 40
26.0
 40
27.0
 40
27.0
 40
27.0
 40
28.0
 40
28.0
 40
28.0
 40
29.0
 40
29.0
 40
29.0
 40
30.0
 40
30.0
 40
30.0
 40
31.0
 40
31.0
 40
31.0
 40
32.0
 40
32.0
 40
32.0
 40
33.0
 40
33.0
 40
33.0
 40
34.0
 40
34.0
 40
34.0
 40
35.0
 40
35.0
 40
35.0
 40
36.0
 40
36.0
 40
36.0
 40
37.0
 40
37.0
 40
37.0
 40
38.0
 40
38.0
 40
38.0
 40
39.0
 40
39.0
 40
39.0
 40
40.0
 40
40.0
 40
40.0
 40
41.0
 40
41.0
 40
41.0
 40
42.0
 40
42.0
 40
42.0
 40
43.0
 40
43.0
 40
43.0
 40
44.0
 40
44.0
 40
44.0
 40
45.0
 40
45.0
 40
45.0
 40
46.0
 40
46.0
 40
46.0
 40
47.0
 40
47.0
 40
47.0
 40
48.0
 40
48.0
 40
48.0
 40
49.0
 40
49.0
 40
49.0
 40
50.0
 40
50.0
 40
50.0
 40
51.0
 40
51.0
 40
51.0
 40
52.0
 40
52.0
 40
52.0
 40
53.0
 40
53.0
 40
53.0
 40
54.0
 40
54.0
 40
54.0
 40
55.0
 40
55.0
 40
55.0
 40
56.0
 40
56.0
 40
56.0
 40
57.0
 40
57.0
 40
57.0
 40
58.0
 40
58.0
 40
58.0
 40
59.0
 40
59.0
 40
59.0
 40
60.0
 40
60.0
 40
60.0
 40
61.0
 40
61.0
 40
61.0
 40
62.0
 40
62.0
 40
62.0
 40
63.0
 40
63.0
 40
63.0
 40
64.0
 40
64.0
 40
64.0
 40
64.0
 10
104.0456732595789
 20
-111.4888020554611
 10
104.0349934635746
 20
-111.5184298766343
 10
104.0115668142749
 20
-111.5649386656852
 10
104.0012315278191
 20
-111.5924994295672
 10
104.0012315278191
 20
-111.5924994295672
 10
103.9399088281817
 20
-111.7447726500152
 10
103.9399088281817
 20
-111.7447726500152
 10
103.9292290321774
 20
-111.7700941018318
 10
103.8806531858354
 20
-111.8822319598767
 10
103.86790633254
 20
-111.9054863544021
 10
103.8658392752488
 20
-111.9118597810498
 10
103.861360651118
 20
-111.9203002649887
 10
103.8592935938268
 20
-111.9266736916364
 10
103.8592935938268
 20
-111.9266736916364
 10
103.6498317883237
 20
-111.8737914759378
 10
103.6498317883237
 20
-111.8737914759378
 10
103.7283799653873
 20
-111.7637206751841
 10
103.7897026650248
 20
-111.6283284226138
 10
103.8213975434891
 20
-111.5184298766343
 10
103.8213975434891
 20
-111.5184298766343
 10
103.3559651434318
 20
-111.5184298766343
 10
103.3559651434318
 20
-111.5184298766343
 10
103.275349909077
 20
-111.6834499503777
 10
103.2078260375661
 20
-111.7616536178929
 10
103.1740641018107
 20
-111.8017889802961
 10
103.1740641018107
 20
-111.8017889802961
 10
103.0514187025358
 20
-111.7363321660763
 10
103.0514187025358
 20
-111.7363321660763
 10
103.0514187025358
 20
-111.7363321660763
 10
103.0514187025358
 20
-111.9075534116933
 10
103.0514187025358
 20
-111.9075534116933
 10
103.0514187025358
 20
-112.0155571551558
 10
103.0534857598269
 20
-112.0641330014979
 10
103.0638210462827
 20
-112.169897432895
 10
102.9921630601895
 20
-112.1678303756039
 10
102.9708034681809
 20
-112.1678303756039
 10
102.7658202868085
 20
-112.1678303756039
 10
102.7658202868085
 20
-112.1678303756039
 10
102.7106987590445
 20
-112.1678303756039
 10
102.7106987590445
 20
-112.1678303756039
 10
102.7106987590445
 20
-112.1678303756039
 10
102.7106987590445
 20
-112.3032226281742
 10
102.7106987590445
 20
-112.3032226281742
 10
102.7106987590445
 20
-112.3032226281742
 10
102.7827012546863
 20
-112.3032226281742
 10
102.7827012546863
 20
-112.3032226281742
 10
102.848158068906
 20
-112.3032226281742
 10
102.9942301174806
 20
-112.2989162588176
 10
103.0999945488778
 20
-112.2904757748788
 10
103.0999945488778
 20
-112.2904757748788
 10
103.0999945488778
 20
-112.4682427019177
 10
103.0999945488778
 20
-112.4682427019177
 10
103.0024983466452
 20
-112.46186927527
 10
102.8440239543237
 20
-112.4577351606876
 10
102.7827012546863
 20
-112.4577351606876
 10
102.7827012546863
 20
-112.4577351606876
 10
102.7106987590445
 20
-112.4577351606876
 10
102.7106987590445
 20
-112.4577351606876
 10
102.7127658163357
 20
-112.5464463694328
 10
102.716899930918
 20
-112.7855359961092
 10
102.7189669882091
 20
-112.859605549042
 10
102.7189669882091
 20
-112.859605549042
 10
102.5181179214191
 20
-112.859605549042
 10
102.5181179214191
 20
-112.859605549042
 10
102.5308647747145
 20
-112.6460096289566
 10
102.5308647747145
 20
-112.6163818077834
 10
102.5349988892968
 20
-112.4577351606876
 10
102.5349988892968
 20
-112.4577351606876
 10
102.4654079604948
 20
-112.4577351606876
 10
102.4654079604948
 20
-112.4577351606876
 10
102.4082193754396
 20
-112.4577351606876
 10
102.2559461549916
 20
-112.46186927527
 10
102.1457030994636
 20
-112.4682427019177
 10
102.1457030994636
 20
-112.4682427019177
 10
102.1457030994636
 20
-112.2904757748788
 10
102.1457030994636
 20
-112.2904757748788
 10
102.2514675308608
 20
-112.2989162588176
 10
102.3954725221442
 20
-112.3032226281742
 10
102.4654079604948
 20
-112.3032226281742
 10
102.4654079604948
 20
-112.3032226281742
 10
102.5391330038791
 20
-112.3032226281742
 10
102.5391330038791
 20
-112.3032226281742
 10
102.5391330038791
 20
-112.3032226281742
 10
102.5391330038791
 20
-112.1678303756039
 10
102.5391330038791
 20
-112.1678303756039
 10
102.5391330038791
 20
-112.1678303756039
 10
102.4950357816679
 20
-112.1678303756039
 10
102.4950357816679
 20
-112.1678303756039
 10
102.4185546618954
 20
-112.1678303756039
 10
102.2263183338184
 20
-112.169897432895
 10
102.1922118885144
 20
-112.169897432895
 10
102.1987575699364
 20
-112.0980671920276
 10
102.207025799101
 20
-112.017624212447
 10
102.207025799101
 20
-111.8970458704632
 10
102.207025799101
 20
-111.8970458704632
 10
102.207025799101
 20
-111.7235853127809
 10
102.207025799101
 20
-111.7235853127809
 10
102.207025799101
 20
-111.6515828171392
 10
102.1987575699364
 20
-111.5310044751554
 10
102.1922118885144
 20
-111.4507337503491
 10
102.2707600655781
 20
-111.4548678649314
 10
102.3086561159159
 20
-111.4571071769968
 10
102.4357801393216
 20
-111.4571071769968
 10
102.4357801393216
 20
-111.4571071769968
 10
102.5391330038791
 20
-111.4571071769968
 10
102.5391330038791
 20
-111.4571071769968
 10
102.5391330038791
 20
-111.4571071769968
 10
102.5391330038791
 20
-111.3110351284222
 10
102.5391330038791
 20
-111.3110351284222
 10
102.5391330038791
 20
-111.3110351284222
 10
102.4609293363639
 20
-111.3110351284222
 10
102.4609293363639
 20
-111.3110351284222
 10
102.4061523181485
 20
-111.3110351284222
 10
102.234586562983
 20
-111.3153414977788
 10
102.1501817235944
 20
-111.3217149244265
 10
102.1501817235944
 20
-111.3217149244265
 10
102.1501817235944
 20
-111.1439479973876
 10
102.1501817235944
 20
-111.1439479973876
 10
102.2325195056919
 20
-111.1503214240353
 10
102.3954725221442
 20
-111.1544555386176
 10
102.4609293363639
 20
-111.1544555386176
 10
102.4609293363639
 20
-111.1544555386176
 10
102.5391330038791
 20
-111.1544555386176
 10
102.5391330038791
 20
-111.1544555386176
 10
102.5391330038791
 20
-111.1206936028622
 10
102.5349988892968
 20
-110.9661810703487
 10
102.5349988892968
 20
-110.9344861918844
 10
102.5349988892968
 20
-110.9344861918844
 10
102.7317138415046
 20
-110.9513671597622
 10
102.7317138415046
 20
-110.9513671597622
 10
102.7485948093823
 20
-110.9536064718276
 10
102.7699544013908
 20
-110.9556735291187
 10
102.7699544013908
 20
-110.976860866353
 10
102.7699544013908
 20
-111.0001152608784
 10
102.7485948093823
 20
-111.0085557448173
 10
102.7213785550488
 20
-111.0213025981127
 10
102.7213785550488
 20
-111.0423176805728
 10
102.7189669882091
 20
-111.1375745707399
 10
102.7189669882091
 20
-111.1544555386176
 10
102.7189669882091
 20
-111.1544555386176
 10
102.7782226305554
 20
-111.1544555386176
 10
102.7782226305554
 20
-111.1544555386176
 10
102.8460910116149
 20
-111.1544555386176
 10
102.9897514933498
 20
-111.1503214240353
 10
103.095515924747
 20
-111.1439479973876
 10
103.095515924747
 20
-111.1439479973876
 10
103.095515924747
 20
-111.3217149244265
 10
103.095515924747
 20
-111.3217149244265
 10
102.9983642320629
 20
-111.3153414977788
 10
102.8419568970326
 20
-111.3110351284222
 10
102.7782226305554
 20
-111.3110351284222
 10
102.7782226305554
 20
-111.3110351284222
 10
102.7106987590445
 20
-111.3110351284222
 10
102.7106987590445
 20
-111.3110351284222
 10
102.7106987590445
 20
-111.3110351284222
 10
102.7106987590445
 20
-111.4571071769968
 10
102.7106987590445
 20
-111.4571071769968
 10
102.7106987590445
 20
-111.4571071769968
 10
102.7806341973951
 20
-111.4571071769968
 10
102.7806341973951
 20
-111.4571071769968
 10
102.9304958510035
 20
-111.4571071769968
 10
103.0024983466452
 20
-111.4528008076403
 10
103.0638210462827
 20
-111.4507337503491
 10
103.0555528171181
 20
-111.545818385742
 10
103.0534857598269
 20
-111.6241943080315
 10
103.0514187025358
 20
-111.6622626131435
 10
103.205758980275
 20
-111.4507337503491
 10
103.3115234116721
 20
-111.2032036397339
 10
103.3284043795499
 20
-110.9408596185321
 10
103.3284043795499
 20
-110.9408596185321
 10
103.5440673569265
 20
-110.9916747769396
 10
103.5440673569265
 20
-110.9916747769396
 10
103.5588812675131
 20
-110.9958088915219
 10
103.5736951780996
 20
-111.0021823181696
 10
103.5736951780996
 20
-111.0190632860473
 10
103.5736951780996
 20
-111.0361165086993
 10
103.5695610635173
 20
-111.0381835659905
 10
103.5189181598842
 20
-111.0593709032247
 10
103.5016926824579
 20
-111.1355075134488
 10
103.4765434854156
 20
-111.2264580342594
 10
103.4279676390736
 20
-111.3534098028908
 10
103.4279676390736
 20
-111.3534098028908
 10
103.7662760157251
 20
-111.3534098028908
 10
103.7662760157251
 20
-111.3534098028908
 10
103.8045165756114
 20
-111.3534098028908
 10
103.9333631467597
 20
-111.3491034335343
 10
103.9819389931017
 20
-111.3427300068865
 10
103.9819389931017
 20
-111.3427300068865
 10
104.075301080752
 20
-111.4126654452371
 10
104.075301080752
 20
-111.4126654452371
 10
104.0666883420389
 20
-111.4336805276971
 10
104.0604871701654
 20
-111.4528008076403
 10
104.0456732595789
 20
-111.4888020554611
 97
        0
 97
        0
 92
        1
 93
        4
 72
     1
 10
102.5391330038791
 20
-111.6135145120272
 11
102.3806586115576
 21
-111.6135145120272
 72
     1
 10
102.3806586115576
 20
-111.6135145120272
 11
102.3806586115576
 21
-111.7427055927241
 72
     1
 10
102.3806586115576
 20
-111.7427055927241
 11
102.5391330038791
 21
-111.7427055927241
 72
     1
 10
102.5391330038791
 20
-111.7427055927241
 11
102.5391330038791
 21
-111.6135145120272
 97
        0
 92
        1
 93
        4
 72
     1
 10
102.5391330038791
 20
-111.8865383292332
 11
102.3806586115576
 21
-111.8865383292332
 72
     1
 10
102.3806586115576
 20
-111.8865383292332
 11
102.3806586115576
 21
-112.0155571551558
 72
     1
 10
102.3806586115576
 20
-112.0155571551558
 11
102.5391330038791
 21
-112.0155571551558
 72
     1
 10
102.5391330038791
 20
-112.0155571551558
 11
102.5391330038791
 21
-111.8865383292332
 97
        0
 92
        1
 93
        4
 72
     1
 10
102.8715847182057
 20
-111.6135145120272
 11
102.7106987590445
 21
-111.6135145120272
 72
     1
 10
102.7106987590445
 20
-111.6135145120272
 11
102.7106987590445
 21
-111.7427055927241
 72
     1
 10
102.7106987590445
 20
-111.7427055927241
 11
102.8715847182057
 21
-111.7427055927241
 72
     1
 10
102.8715847182057
 20
-111.7427055927241
 11
102.8715847182057
 21
-111.6135145120272
 97
        0
 92
        1
 93
        4
 72
     1
 10
102.8715847182057
 20
-111.8865383292332
 11
102.7106987590445
 21
-111.8865383292332
 72
     1
 10
102.7106987590445
 20
-111.8865383292332
 11
102.7106987590445
 21
-112.0155571551558
 72
     1
 10
102.7106987590445
 20
-112.0155571551558
 11
102.8715847182057
 21
-112.0155571551558
 72
     1
 10
102.8715847182057
 20
-112.0155571551558
 11
102.8715847182057
 21
-111.8865383292332
 97
        0
 92
        1
 93
        1
 72
     4
 94
        3
 73
     0
 74
     1
 95
       41
 96
       37
 40
0.0
 40
0.0
 40
0.0
 40
0.0
 40
1.0
 40
1.0
 40
1.0
 40
2.0
 40
2.0
 40
2.0
 40
3.0
 40
3.0
 40
3.0
 40
4.0
 40
4.0
 40
4.0
 40
5.0
 40
5.0
 40
5.0
 40
6.0
 40
6.0
 40
6.0
 40
7.0
 40
7.0
 40
7.0
 40
8.0
 40
8.0
 40
8.0
 40
9.0
 40
9.0
 40
9.0
 40
10.0
 40
10.0
 40
10.0
 40
11.0
 40
11.0
 40
11.0
 40
12.0
 40
12.0
 40
12.0
 40
12.0
 10
103.9609239106417
 20
-112.8447916384555
 10
103.7197672266742
 20
-112.7093993858851
 10
103.5420002996353
 20
-112.4132934289279
 10
103.5016926824579
 20
-112.2842746030053
 10
103.3811143404742
 20
-112.5486856814983
 10
103.2185058335704
 20
-112.7262803537629
 10
103.0366047919492
 20
-112.8404852690989
 10
103.0366047919492
 20
-112.8404852690989
 10
102.8395453301929
 20
-112.7030259592374
 10
102.8395453301929
 20
-112.7030259592374
 10
102.9094807685435
 20
-112.6777045074209
 10
103.0555528171181
 20
-112.6163818077834
 10
103.178198216393
 20
-112.46186927527
 10
103.302910672959
 20
-112.3052896854654
 10
103.3917941364784
 20
-112.0725734854367
 10
103.3917941364784
 20
-111.8124687763004
 10
103.3917941364784
 20
-111.7108384594855
 10
103.379047283183
 20
-111.639008218618
 10
103.3687119967273
 20
-111.5924994295672
 10
103.3687119967273
 20
-111.5924994295672
 10
103.5736951780996
 20
-111.6135145120272
 10
103.5736951780996
 20
-111.6135145120272
 10
103.5950547701082
 20
-111.6157538240926
 10
103.6160698525682
 20
-111.6178208813838
 10
103.6160698525682
 20
-111.639008218618
 10
103.6160698525682
 20
-111.6579562437869
 10
103.6053900565639
 20
-111.6663967277258
 10
103.5716281208085
 20
-111.68758406496
 10
103.5633598916439
 20
-111.8886053865244
 10
103.6202039671505
 20
-112.131829127783
 10
103.681526666788
 20
-112.2524074697668
 10
103.7724771875986
 20
-112.4281073395145
 10
103.9671250825152
 20
-112.6079413238445
 10
104.1025173350855
 20
-112.6649576541254
 10
104.1025173350855
 20
-112.6649576541254
 10
103.9609239106417
 20
-112.8447916384555
 10
103.9609239106417
 20
-112.8447916384555
 97
        0
 97
        0
 75
     2
 76
     1
 98
        0
  0
SPLINE
  5
129
330
106
100
AcDbEntity
  8
_U+30EC_U+30A4_U+30E4_U+30FC 1
370
     0
100
AcDbSpline
210
0.0
220
0.0
230
1.0
 70
    11
 71
     3
 72
    71
 73
    67
 74
     0
 42
0.0000000001
 43
0.0000000001
 12
1.0
 22
0.0
 32
0.0
 13
1.0
 23
0.0
 33
0.0
 40
0.0
 40
0.0
 40
0.0
 40
0.0
 40
1.0
 40
1.0
 40
1.0
 40
2.0
 40
2.0
 40
2.0
 40
3.0
 40
3.0
 40
3.0
 40
4.0
 40
4.0
 40
4.0
 40
5.0
 40
5.0
 40
5.0
 40
6.0
 40
6.0
 40
6.0
 40
7.0
 40
7.0
 40
7.0
 40
8.0
 40
8.0
 40
8.0
 40
9.0
 40
9.0
 40
9.0
 40
10.0
 40
10.0
 40
10.0
 40
11.0
 40
11.0
 40
11.0
 40
12.0
 40
12.0
 40
12.0
 40
13.0
 40
13.0
 40
13.0
 40
14.0
 40
14.0
 40
14.0
 40
15.0
 40
15.0
 40
15.0
 40
16.0
 40
16.0
 40
16.0
 40
17.0
 40
17.0
 40
17.0
 40
18.0
 40
18.0
 40
18.0
 40
19.0
 40
19.0
 40
19.0
 40
20.0
 40
20.0
 40
20.0
 40
21.0
 40
21.0
 40
21.0
 40
22.0
 40
22.0
 40
22.0
 40
22.0
 10
105.1553385153778
 20
-111.1122531189233
 30
0.0
 10
105.1405246047913
 20
-111.1122531189233
 30
0.0
 10
105.1277777514958
 20
-111.1079467495668
 30
0.0
 10
105.102284044905
 20
-111.0995062656279
 30
0.0
 10
104.9606906204612
 20
-111.1460150546788
 30
0.0
 10
104.7870578080046
 20
-111.1628960225565
 30
0.0
 10
104.647531440852
 20
-111.1672023919131
 30
0.0
 10
104.647531440852
 20
-111.1672023919131
 30
0.0
 10
104.6454643835609
 20
-111.2560858554325
 30
0.0
 10
104.6454643835609
 20
-111.2560858554325
 30
0.0
 10
104.6454643835609
 20
-111.2560858554325
 30
0.0
 10
104.9055690926972
 20
-111.2560858554325
 30
0.0
 10
104.9055690926972
 20
-111.2560858554325
 30
0.0
 10
104.9586235631701
 20
-111.2560858554325
 30
0.0
 10
105.1405246047913
 20
-111.2476453714936
 30
0.0
 10
105.184966336551
 20
-111.2412719448459
 30
0.0
 10
105.184966336551
 20
-111.2412719448459
 30
0.0
 10
105.184966336551
 20
-111.4019856492328
 30
0.0
 10
105.184966336551
 20
-111.4019856492328
 30
0.0
 10
105.129844808787
 20
-111.3956122225851
 30
0.0
 10
105.0051323522209
 20
-111.393545165294
 30
0.0
 10
104.9668917923347
 20
-111.3956122225851
 30
0.0
 10
104.9668917923347
 20
-111.3956122225851
 30
0.0
 10
104.9668917923347
 20
-111.5056830233389
 30
0.0
 10
104.9668917923347
 20
-111.5056830233389
 30
0.0
 10
104.9668917923347
 20
-111.5521918123897
 30
0.0
 10
104.9689588496258
 20
-111.6157538240926
 30
0.0
 10
104.9755045310478
 20
-111.6538221292046
 30
0.0
 10
104.9755045310478
 20
-111.6538221292046
 30
0.0
 10
104.7829236934223
 20
-111.6538221292046
 30
0.0
 10
104.7829236934223
 20
-111.6538221292046
 30
0.0
 10
104.7891248652958
 20
-111.6135145120272
 30
0.0
 10
104.7956705467178
 20
-111.5310044751554
 30
0.0
 10
104.7956705467178
 20
-111.5161905645689
 30
0.0
 10
104.7956705467178
 20
-111.5161905645689
 30
0.0
 10
104.7956705467178
 20
-111.3956122225851
 30
0.0
 10
104.7956705467178
 20
-111.3956122225851
 30
0.0
 10
104.7956705467178
 20
-111.3956122225851
 30
0.0
 10
104.6306504729743
 20
-111.3956122225851
 30
0.0
 10
104.6306504729743
 20
-111.3956122225851
 30
0.0
 10
104.5882757985057
 20
-111.6157538240926
 30
0.0
 10
104.5331542707417
 20
-111.6960245488989
 30
0.0
 10
104.4273898393445
 20
-111.7955878084226
 30
0.0
 10
104.4273898393445
 20
-111.7955878084226
 30
0.0
 10
104.2603027083099
 20
-111.6812106383123
 30
0.0
 10
104.2603027083099
 20
-111.6812106383123
 30
0.0
 10
104.3236924652385
 20
-111.6326347919703
 30
0.0
 10
104.4738986283954
 20
-111.5204969339254
 30
0.0
 10
104.4738986283954
 20
-111.1715087612696
 30
0.0
 10
104.4738986283954
 20
-111.0889987243979
 30
0.0
 10
104.4656303992308
 20
-111.0423176805728
 30
0.0
 10
104.4570176605177
 20
-110.9937418342307
 30
0.0
 10
104.6030897090923
 20
-111.0085557448173
 30
0.0
 10
104.6179036196789
 20
-111.0085557448173
 30
0.0
 10
104.6537326127255
 20
-111.0085557448173
 30
0.0
 10
104.7619086109623
 20
-111.0085557448173
 30
0.0
 10
104.9035020354061
 20
-110.9916747769396
 30
0.0
 10
105.0643879945672
 20
-110.9303520773021
 30
0.0
 10
105.0643879945672
 20
-110.9303520773021
 30
0.0
 10
105.178420655129
 20
-111.0614379605159
 30
0.0
 10
105.178420655129
 20
-111.0614379605159
 30
0.0
 10
105.184966336551
 20
-111.0678113871636
 30
0.0
 10
105.1891004511333
 20
-111.0762518711025
 30
0.0
 10
105.1891004511333
 20
-111.0846923550413
 30
0.0
 10
105.1891004511333
 20
-111.1079467495668
 30
0.0
 10
105.1701524259644
 20
-111.1122531189233
 30
0.0
 10
105.1553385153778
 20
-111.1122531189233
 30
0.0
  0
SPLINE
  5
12A
330
106
100
AcDbEntity
  8
_U+30EC_U+30A4_U+30E4_U+30FC 1
370
     0
100
AcDbSpline
210
0.0
220
0.0
230
1.0
 70
    11
 71
     3
 72
    74
 73
    70
 74
     0
 42
0.0000000001
 43
0.0000000001
 12
1.0
 22
0.0
 32
0.0
 13
1.0
 23
0.0
 33
0.0
 40
0.0
 40
0.0
 40
0.0
 40
0.0
 40
1.0
 40
1.0
 40
1.0
 40
2.0
 40
2.0
 40
2.0
 40
3.0
 40
3.0
 40
3.0
 40
4.0
 40
4.0
 40
4.0
 40
5.0
 40
5.0
 40
5.0
 40
6.0
 40
6.0
 40
6.0
 40
7.0
 40
7.0
 40
7.0
 40
8.0
 40
8.0
 40
8.0
 40
9.0
 40
9.0
 40
9.0
 40
10.0
 40
10.0
 40
10.0
 40
11.0
 40
11.0
 40
11.0
 40
12.0
 40
12.0
 40
12.0
 40
13.0
 40
13.0
 40
13.0
 40
14.0
 40
14.0
 40
14.0
 40
15.0
 40
15.0
 40
15.0
 40
16.0
 40
16.0
 40
16.0
 40
17.0
 40
17.0
 40
17.0
 40
18.0
 40
18.0
 40
18.0
 40
19.0
 40
19.0
 40
19.0
 40
20.0
 40
20.0
 40
20.0
 40
21.0
 40
21.0
 40
21.0
 40
22.0
 40
22.0
 40
22.0
 40
23.0
 40
23.0
 40
23.0
 40
23.0
 10
105.9928412278421
 20
-112.8787258289852
 30
0.0
 10
105.7792453077566
 20
-112.8680460329809
 30
0.0
 10
105.5783962409665
 20
-112.7814018815269
 30
0.0
 10
105.4026963712188
 20
-112.6608235395431
 30
0.0
 10
105.4026963712188
 20
-112.6608235395431
 30
0.0
 10
105.5001925734513
 20
-112.5740071333148
 30
0.0
 10
105.5001925734513
 20
-112.5740071333148
 30
0.0
 10
105.5001925734513
 20
-112.5740071333148
 30
0.0
 10
104.9479437671658
 20
-112.5740071333148
 30
0.0
 10
104.9479437671658
 20
-112.5740071333148
 30
0.0
 10
104.9479437671658
 20
-112.5740071333148
 30
0.0
 10
105.0282144919721
 20
-112.6373968902434
 30
0.0
 10
105.0282144919721
 20
-112.6373968902434
 30
0.0
 10
105.0347601733941
 20
-112.6417032596
 30
0.0
 10
105.0450954598498
 20
-112.65221080083
 30
0.0
 10
105.0450954598498
 20
-112.6670247114166
 30
0.0
 10
105.0450954598498
 20
-112.707332328594
 30
0.0
 10
104.971025906917
 20
-112.7009589019463
 30
0.0
 10
104.9562119963304
 20
-112.6988918446551
 30
0.0
 10
104.7257351083672
 20
-112.8384182118078
 30
0.0
 10
104.5820746266323
 20
-112.8701130902721
 30
0.0
 10
104.4783772525262
 20
-112.8871663129241
 30
0.0
 10
104.4783772525262
 20
-112.8871663129241
 30
0.0
 10
104.3491861718294
 20
-112.7093993858851
 30
0.0
 10
104.3491861718294
 20
-112.7093993858851
 30
0.0
 10
104.5968885372188
 20
-112.6777045074209
 30
0.0
 10
104.6981743444852
 20
-112.63119571837
 30
0.0
 10
104.7870578080046
 20
-112.5783135026714
 30
0.0
 10
104.7129882550718
 20
-112.5803805599625
 30
0.0
 10
104.59895559451
 20
-112.5824476172537
 30
0.0
 10
104.5672607160457
 20
-112.5845146745448
 30
0.0
 10
104.5820746266323
 20
-112.4958034657997
 30
0.0
 10
104.5841416839234
 20
-112.3666123851028
 30
0.0
 10
104.5841416839234
 20
-112.2927150869442
 30
0.0
 10
104.5841416839234
 20
-112.2927150869442
 30
0.0
 10
104.5841416839234
 20
-111.9923027606304
 30
0.0
 10
104.5841416839234
 20
-111.9923027606304
 30
0.0
 10
104.5841416839234
 20
-111.8927395011067
 30
0.0
 10
104.5775960025014
 20
-111.7933484963572
 30
0.0
 10
104.5672607160457
 20
-111.6960245488989
 30
0.0
 10
104.668546523312
 20
-111.7023979755466
 30
0.0
 10
104.8993679208238
 20
-111.7087714021943
 30
0.0
 10
105.0071994095121
 20
-111.7087714021943
 30
0.0
 10
105.0071994095121
 20
-111.7087714021943
 30
0.0
 10
105.4302571351008
 20
-111.7087714021943
 30
0.0
 10
105.4302571351008
 20
-111.7087714021943
 30
0.0
 10
105.5487684197934
 20
-111.7087714021943
 30
0.0
 10
105.5911430942619
 20
-111.7087714021943
 30
0.0
 10
105.6734808763594
 20
-111.7044650328378
 30
0.0
 10
105.8216199822252
 20
-111.6982638609643
 30
0.0
 10
105.8385009501029
 20
-111.6982638609643
 30
0.0
 10
105.8850097391538
 20
-111.6960245488989
 30
0.0
 10
105.8767415099892
 20
-111.7764675284795
 30
0.0
 10
105.8722628858583
 20
-111.9351141755753
 30
0.0
 10
105.8722628858583
 20
-112.017624212447
 30
0.0
 10
105.8722628858583
 20
-112.017624212447
 30
0.0
 10
105.8722628858583
 20
-112.3032226281742
 30
0.0
 10
105.8722628858583
 20
-112.3032226281742
 30
0.0
 10
105.8722628858583
 20
-112.3752251238159
 30
0.0
 10
105.8743299431495
 20
-112.5063110070297
 30
0.0
 10
105.8850097391538
 20
-112.5845146745448
 30
0.0
 10
105.813007243512
 20
-112.5803805599625
 30
0.0
 10
105.6903618442371
 20
-112.5783135026714
 30
0.0
 10
105.612158176722
 20
-112.576074190606
 30
0.0
 10
105.7220567227014
 20
-112.6437703168911
 30
0.0
 10
105.8743299431495
 20
-112.6945854752986
 30
0.0
 10
106.0862033154923
 20
-112.6988918446551
 30
0.0
 10
106.0862033154923
 20
-112.6988918446551
 30
0.0
 10
105.9928412278421
 20
-112.8787258289852
 30
0.0
 10
105.9928412278421
 20
-112.8787258289852
 30
0.0
  0
POLYLINE
  5
12B
330
106
100
AcDbEntity
  8
_U+30EC_U+30A4_U+30E4_U+30FC 1
370
     0
100
AcDb2dPolyline
 66
     1
 10
0.0
 20
0.0
 30
0.0
  0
VERTEX
  5
12C
330
12B
100
AcDbEntity
  8
_U+30EC_U+30A4_U+30E4_U+30FC 1
370
     0
100
AcDbVertex
100
AcDb2dVertex
 10
105.688294786946
 20
-111.8441636547647
 30
0.0
  0
VERTEX
  5
12D
330
12B
100
AcDbEntity
  8
_U+30EC_U+30A4_U+30E4_U+30FC 1
370
     0
100
AcDbVertex
100
AcDb2dVertex
 10
104.7763780120004
 20
-111.8441636547647
 30
0.0
  0
VERTEX
  5
12E
330
12B
100
AcDbEntity
  8
_U+30EC_U+30A4_U+30E4_U+30FC 1
370
     0
100
AcDbVertex
100
AcDb2dVertex
 10
104.7763780120004
 20
-111.9563015128095
 30
0.0
  0
VERTEX
  5
12F
330
12B
100
AcDbEntity
  8
_U+30EC_U+30A4_U+30E4_U+30FC 1
370
     0
100
AcDbVertex
100
AcDb2dVertex
 10
105.688294786946
 20
-111.9563015128095
 30
0.0
  0
VERTEX
  5
130
330
12B
100
AcDbEntity
  8
_U+30EC_U+30A4_U+30E4_U+30FC 1
370
     0
100
AcDbVertex
100
AcDb2dVertex
 10
105.688294786946
 20
-111.8441636547647
 30
0.0
  0
SEQEND
  5
131
330
12B
100
AcDbEntity
  8
_U+30EC_U+30A4_U+30E4_U+30FC 1
370
     0
  0
POLYLINE
  5
132
330
106
100
AcDbEntity
  8
_U+30EC_U+30A4_U+30E4_U+30FC 1
370
     0
100
AcDb2dPolyline
 66
     1
 10
0.0
 20
0.0
 30
0.0
  0
VERTEX
  5
133
330
132
100
AcDbEntity
  8
_U+30EC_U+30A4_U+30E4_U+30FC 1
370
     0
100
AcDbVertex
100
AcDb2dVertex
 10
105.688294786946
 20
-112.0896267080887
 30
0.0
  0
VERTEX
  5
134
330
132
100
AcDbEntity
  8
_U+30EC_U+30A4_U+30E4_U+30FC 1
370
     0
100
AcDbVertex
100
AcDb2dVertex
 10
104.7763780120004
 20
-112.0896267080887
 30
0.0
  0
VERTEX
  5
135
330
132
100
AcDbEntity
  8
_U+30EC_U+30A4_U+30E4_U+30FC 1
370
     0
100
AcDbVertex
100
AcDb2dVertex
 10
104.7763780120004
 20
-112.1995252540682
 30
0.0
  0
VERTEX
  5
136
330
132
100
AcDbEntity
  8
_U+30EC_U+30A4_U+30E4_U+30FC 1
370
     0
100
AcDbVertex
100
AcDb2dVertex
 10
105.688294786946
 20
-112.1995252540682
 30
0.0
  0
VERTEX
  5
137
330
132
100
AcDbEntity
  8
_U+30EC_U+30A4_U+30E4_U+30FC 1
370
     0
100
AcDbVertex
100
AcDb2dVertex
 10
105.688294786946
 20
-112.0896267080887
 30
0.0
  0
SEQEND
  5
138
330
132
100
AcDbEntity
  8
_U+30EC_U+30A4_U+30E4_U+30FC 1
370
     0
  0
POLYLINE
  5
139
330
106
100
AcDbEntity
  8
_U+30EC_U+30A4_U+30E4_U+30FC 1
370
     0
100
AcDb2dPolyline
 66
     1
 10
0.0
 20
0.0
 30
0.0
  0
VERTEX
  5
13A
330
139
100
AcDbEntity
  8
_U+30EC_U+30A4_U+30E4_U+30FC 1
370
     0
100
AcDbVertex
100
AcDb2dVertex
 10
105.688294786946
 20
-112.3349175066385
 30
0.0
  0
VERTEX
  5
13B
330
139
100
AcDbEntity
  8
_U+30EC_U+30A4_U+30E4_U+30FC 1
370
     0
100
AcDbVertex
100
AcDb2dVertex
 10
104.7763780120004
 20
-112.3349175066385
 30
0.0
  0
VERTEX
  5
13C
330
139
100
AcDbEntity
  8
_U+30EC_U+30A4_U+30E4_U+30FC 1
370
     0
100
AcDbVertex
100
AcDb2dVertex
 10
104.7763780120004
 20
-112.4429212501011
 30
0.0
  0
VERTEX
  5
13D
330
139
100
AcDbEntity
  8
_U+30EC_U+30A4_U+30E4_U+30FC 1
370
     0
100
AcDbVertex
100
AcDb2dVertex
 10
105.688294786946
 20
-112.4429212501011
 30
0.0
  0
VERTEX
  5
13E
330
139
100
AcDbEntity
  8
_U+30EC_U+30A4_U+30E4_U+30FC 1
370
     0
100
AcDbVertex
100
AcDb2dVertex
 10
105.688294786946
 20
-112.3349175066385
 30
0.0
  0
SEQEND
  5
13F
330
139
100
AcDbEntity
  8
_U+30EC_U+30A4_U+30E4_U+30FC 1
370
     0
  0
SPLINE
  5
140
330
106
100
AcDbEntity
  8
_U+30EC_U+30A4_U+30E4_U+30FC 1
370
     0
100
AcDbSpline
210
0.0
220
0.0
230
1.0
 70
    11
 71
     3
 72
    74
 73
    70
 74
     0
 42
0.0000000001
 43
0.0000000001
 12
1.0
 22
0.0
 32
0.0
 13
1.0
 23
0.0
 33
0.0
 40
0.0
 40
0.0
 40
0.0
 40
0.0
 40
1.0
 40
1.0
 40
1.0
 40
2.0
 40
2.0
 40
2.0
 40
3.0
 40
3.0
 40
3.0
 40
4.0
 40
4.0
 40
4.0
 40
5.0
 40
5.0
 40
5.0
 40
6.0
 40
6.0
 40
6.0
 40
7.0
 40
7.0
 40
7.0
 40
8.0
 40
8.0
 40
8.0
 40
9.0
 40
9.0
 40
9.0
 40
10.0
 40
10.0
 40
10.0
 40
11.0
 40
11.0
 40
11.0
 40
12.0
 40
12.0
 40
12.0
 40
13.0
 40
13.0
 40
13.0
 40
14.0
 40
14.0
 40
14.0
 40
15.0
 40
15.0
 40
15.0
 40
16.0
 40
16.0
 40
16.0
 40
17.0
 40
17.0
 40
17.0
 40
18.0
 40
18.0
 40
18.0
 40
19.0
 40
19.0
 40
19.0
 40
20.0
 40
20.0
 40
20.0
 40
21.0
 40
21.0
 40
21.0
 40
22.0
 40
22.0
 40
22.0
 40
23.0
 40
23.0
 40
23.0
 40
23.0
 10
106.0055880811375
 20
-111.3914781080028
 30
0.0
 10
106.0055880811375
 20
-111.3914781080028
 30
0.0
 10
105.8450466315249
 20
-111.3914781080028
 30
0.0
 10
105.8450466315249
 20
-111.3914781080028
 30
0.0
 10
105.8450466315249
 20
-111.3914781080028
 30
0.0
 10
105.8450466315249
 20
-111.5056830233389
 30
0.0
 10
105.8450466315249
 20
-111.5056830233389
 30
0.0
 10
105.8450466315249
 20
-111.545818385742
 30
0.0
 10
105.8512478033983
 20
-111.6198879386749
 30
0.0
 10
105.8553819179806
 20
-111.6453816452657
 30
0.0
 10
105.8553819179806
 20
-111.6453816452657
 30
0.0
 10
105.6438530551863
 20
-111.6453816452657
 30
0.0
 10
105.6438530551863
 20
-111.6453816452657
 30
0.0
 10
105.6545328511905
 20
-111.5797525762717
 30
0.0
 10
105.6565999084817
 20
-111.5204969339254
 30
0.0
 10
105.6565999084817
 20
-111.5184298766343
 30
0.0
 10
105.6565999084817
 20
-111.5184298766343
 30
0.0
 10
105.6565999084817
 20
-111.3956122225851
 30
0.0
 10
105.6565999084817
 20
-111.3956122225851
 30
0.0
 10
105.6565999084817
 20
-111.3956122225851
 30
0.0
 10
105.4767659241516
 20
-111.3956122225851
 30
0.0
 10
105.4767659241516
 20
-111.3956122225851
 30
0.0
 10
105.4578178989828
 20
-111.4548678649314
 30
0.0
 10
105.4113091099319
 20
-111.600939913506
 30
0.0
 10
105.2969319398216
 20
-111.6834499503777
 30
0.0
 10
105.2969319398216
 20
-111.6834499503777
 30
0.0
 10
105.1405246047913
 20
-111.5776855189806
 30
0.0
 10
105.1405246047913
 20
-111.5776855189806
 30
0.0
 10
105.2145941577241
 20
-111.5310044751554
 30
0.0
 10
105.3306938755771
 20
-111.4571071769968
 30
0.0
 10
105.3306938755771
 20
-111.1355075134488
 30
0.0
 10
105.3306938755771
 20
-111.0803859856848
 30
0.0
 10
105.3265597609948
 20
-111.0361165086993
 30
0.0
 10
105.3244927037036
 20
-110.997875948813
 30
0.0
 10
105.4006293139276
 20
-111.0064886875262
 30
0.0
 10
105.4746988668605
 20
-111.0126898593996
 30
0.0
 10
105.5380886237891
 20
-111.0126898593996
 30
0.0
 10
105.715855550828
 20
-111.0126898593996
 30
0.0
 10
105.9146375603269
 20
-110.9536064718276
 30
0.0
 10
105.9759602599644
 20
-110.9239786506544
 30
0.0
 10
105.9759602599644
 20
-110.9239786506544
 30
0.0
 10
106.1030842833701
 20
-111.0593709032247
 30
0.0
 10
106.1030842833701
 20
-111.0593709032247
 30
0.0
 10
106.1072183979524
 20
-111.063505017807
 30
0.0
 10
106.1092854552435
 20
-111.0719455017459
 30
0.0
 10
106.1092854552435
 20
-111.0783189283936
 30
0.0
 10
106.1092854552435
 20
-111.0995062656279
 30
0.0
 10
106.0944715446569
 20
-111.1058796922756
 30
0.0
 10
106.0775905767792
 20
-111.1058796922756
 30
0.0
 10
106.0565754943192
 20
-111.1058796922756
 30
0.0
 10
106.0417615837326
 20
-111.0974392083368
 30
0.0
 10
106.0224690490152
 20
-111.0867594123325
 30
0.0
 10
105.8491807461072
 20
-111.1439479973876
 30
0.0
 10
105.6311062018908
 20
-111.1692694492042
 30
0.0
 10
105.4977810066117
 20
-111.1715087612696
 30
0.0
 10
105.4977810066117
 20
-111.1715087612696
 30
0.0
 10
105.4936468920294
 20
-111.2540187981414
 30
0.0
 10
105.4936468920294
 20
-111.2540187981414
 30
0.0
 10
105.4936468920294
 20
-111.2540187981414
 30
0.0
 10
105.7664984544612
 20
-111.2540187981414
 30
0.0
 10
105.7664984544612
 20
-111.2540187981414
 30
0.0
 10
105.8236870395163
 20
-111.2540187981414
 30
0.0
 10
106.0862033154923
 20
-111.2348985181982
 30
0.0
 10
106.1303005377035
 20
-111.2285250915505
 30
0.0
 10
106.1303005377035
 20
-111.2285250915505
 30
0.0
 10
106.1303005377035
 20
-111.3978515346505
 30
0.0
 10
106.1303005377035
 20
-111.3978515346505
 30
0.0
 10
106.0965386019481
 20
-111.393545165294
 30
0.0
 10
106.0837917486527
 20
-111.3914781080028
 30
0.0
 10
106.0055880811375
 20
-111.3914781080028
 30
0.0
  0
HATCH
  5
141
330
106
100
AcDbEntity
  8
_U+30EC_U+30A4_U+30E4_U+30FC 1
 62
   179
420
  2234388
100
AcDbHatch
 10
0.0
 20
0.0
 30
0.0
210
0.0
220
0.0
230
1.0
  2
SOLID
 70
     1
 71
     0
 91
        6
 92
        1
 93
        1
 72
     4
 94
        3
 73
     0
 74
     1
 95
       71
 96
       67
 40
0.0
 40
0.0
 40
0.0
 40
0.0
 40
1.0
 40
1.0
 40
1.0
 40
2.0
 40
2.0
 40
2.0
 40
3.0
 40
3.0
 40
3.0
 40
4.0
 40
4.0
 40
4.0
 40
5.0
 40
5.0
 40
5.0
 40
6.0
 40
6.0
 40
6.0
 40
7.0
 40
7.0
 40
7.0
 40
8.0
 40
8.0
 40
8.0
 40
9.0
 40
9.0
 40
9.0
 40
10.0
 40
10.0
 40
10.0
 40
11.0
 40
11.0
 40
11.0
 40
12.0
 40
12.0
 40
12.0
 40
13.0
 40
13.0
 40
13.0
 40
14.0
 40
14.0
 40
14.0
 40
15.0
 40
15.0
 40
15.0
 40
16.0
 40
16.0
 40
16.0
 40
17.0
 40
17.0
 40
17.0
 40
18.0
 40
18.0
 40
18.0
 40
19.0
 40
19.0
 40
19.0
 40
20.0
 40
20.0
 40
20.0
 40
21.0
 40
21.0
 40
21.0
 40
22.0
 40
22.0
 40
22.0
 40
22.0
 10
105.1553385153778
 20
-111.1122531189233
 10
105.1405246047913
 20
-111.1122531189233
 10
105.1277777514958
 20
-111.1079467495668
 10
105.102284044905
 20
-111.0995062656279
 10
104.9606906204612
 20
-111.1460150546788
 10
104.7870578080046
 20
-111.1628960225565
 10
104.647531440852
 20
-111.1672023919131
 10
104.647531440852
 20
-111.1672023919131
 10
104.6454643835609
 20
-111.2560858554325
 10
104.6454643835609
 20
-111.2560858554325
 10
104.6454643835609
 20
-111.2560858554325
 10
104.9055690926972
 20
-111.2560858554325
 10
104.9055690926972
 20
-111.2560858554325
 10
104.9586235631701
 20
-111.2560858554325
 10
105.1405246047913
 20
-111.2476453714936
 10
105.184966336551
 20
-111.2412719448459
 10
105.184966336551
 20
-111.2412719448459
 10
105.184966336551
 20
-111.4019856492328
 10
105.184966336551
 20
-111.4019856492328
 10
105.129844808787
 20
-111.3956122225851
 10
105.0051323522209
 20
-111.393545165294
 10
104.9668917923347
 20
-111.3956122225851
 10
104.9668917923347
 20
-111.3956122225851
 10
104.9668917923347
 20
-111.5056830233389
 10
104.9668917923347
 20
-111.5056830233389
 10
104.9668917923347
 20
-111.5521918123897
 10
104.9689588496258
 20
-111.6157538240926
 10
104.9755045310478
 20
-111.6538221292046
 10
104.9755045310478
 20
-111.6538221292046
 10
104.7829236934223
 20
-111.6538221292046
 10
104.7829236934223
 20
-111.6538221292046
 10
104.7891248652958
 20
-111.6135145120272
 10
104.7956705467178
 20
-111.5310044751554
 10
104.7956705467178
 20
-111.5161905645689
 10
104.7956705467178
 20
-111.5161905645689
 10
104.7956705467178
 20
-111.3956122225851
 10
104.7956705467178
 20
-111.3956122225851
 10
104.7956705467178
 20
-111.3956122225851
 10
104.6306504729743
 20
-111.3956122225851
 10
104.6306504729743
 20
-111.3956122225851
 10
104.5882757985057
 20
-111.6157538240926
 10
104.5331542707417
 20
-111.6960245488989
 10
104.4273898393445
 20
-111.7955878084226
 10
104.4273898393445
 20
-111.7955878084226
 10
104.2603027083099
 20
-111.6812106383123
 10
104.2603027083099
 20
-111.6812106383123
 10
104.3236924652385
 20
-111.6326347919703
 10
104.4738986283954
 20
-111.5204969339254
 10
104.4738986283954
 20
-111.1715087612696
 10
104.4738986283954
 20
-111.0889987243979
 10
104.4656303992308
 20
-111.0423176805728
 10
104.4570176605177
 20
-110.9937418342307
 10
104.6030897090923
 20
-111.0085557448173
 10
104.6179036196789
 20
-111.0085557448173
 10
104.6537326127255
 20
-111.0085557448173
 10
104.7619086109623
 20
-111.0085557448173
 10
104.9035020354061
 20
-110.9916747769396
 10
105.0643879945672
 20
-110.9303520773021
 10
105.0643879945672
 20
-110.9303520773021
 10
105.178420655129
 20
-111.0614379605159
 10
105.178420655129
 20
-111.0614379605159
 10
105.184966336551
 20
-111.0678113871636
 10
105.1891004511333
 20
-111.0762518711025
 10
105.1891004511333
 20
-111.0846923550413
 10
105.1891004511333
 20
-111.1079467495668
 10
105.1701524259644
 20
-111.1122531189233
 10
105.1553385153778
 20
-111.1122531189233
 97
        0
 97
        0
 92
        1
 93
        1
 72
     4
 94
        3
 73
     0
 74
     1
 95
       74
 96
       70
 40
0.0
 40
0.0
 40
0.0
 40
0.0
 40
1.0
 40
1.0
 40
1.0
 40
2.0
 40
2.0
 40
2.0
 40
3.0
 40
3.0
 40
3.0
 40
4.0
 40
4.0
 40
4.0
 40
5.0
 40
5.0
 40
5.0
 40
6.0
 40
6.0
 40
6.0
 40
7.0
 40
7.0
 40
7.0
 40
8.0
 40
8.0
 40
8.0
 40
9.0
 40
9.0
 40
9.0
 40
10.0
 40
10.0
 40
10.0
 40
11.0
 40
11.0
 40
11.0
 40
12.0
 40
12.0
 40
12.0
 40
13.0
 40
13.0
 40
13.0
 40
14.0
 40
14.0
 40
14.0
 40
15.0
 40
15.0
 40
15.0
 40
16.0
 40
16.0
 40
16.0
 40
17.0
 40
17.0
 40
17.0
 40
18.0
 40
18.0
 40
18.0
 40
19.0
 40
19.0
 40
19.0
 40
20.0
 40
20.0
 40
20.0
 40
21.0
 40
21.0
 40
21.0
 40
22.0
 40
22.0
 40
22.0
 40
23.0
 40
23.0
 40
23.0
 40
23.0
 10
105.9928412278421
 20
-112.8787258289852
 10
105.7792453077566
 20
-112.8680460329809
 10
105.5783962409665
 20
-112.7814018815269
 10
105.4026963712188
 20
-112.6608235395431
 10
105.4026963712188
 20
-112.6608235395431
 10
105.5001925734513
 20
-112.5740071333148
 10
105.5001925734513
 20
-112.5740071333148
 10
105.5001925734513
 20
-112.5740071333148
 10
104.9479437671658
 20
-112.5740071333148
 10
104.9479437671658
 20
-112.5740071333148
 10
104.9479437671658
 20
-112.5740071333148
 10
105.0282144919721
 20
-112.6373968902434
 10
105.0282144919721
 20
-112.6373968902434
 10
105.0347601733941
 20
-112.6417032596
 10
105.0450954598498
 20
-112.65221080083
 10
105.0450954598498
 20
-112.6670247114166
 10
105.0450954598498
 20
-112.707332328594
 10
104.971025906917
 20
-112.7009589019463
 10
104.9562119963304
 20
-112.6988918446551
 10
104.7257351083672
 20
-112.8384182118078
 10
104.5820746266323
 20
-112.8701130902721
 10
104.4783772525262
 20
-112.8871663129241
 10
104.4783772525262
 20
-112.8871663129241
 10
104.3491861718294
 20
-112.7093993858851
 10
104.3491861718294
 20
-112.7093993858851
 10
104.5968885372188
 20
-112.6777045074209
 10
104.6981743444852
 20
-112.63119571837
 10
104.7870578080046
 20
-112.5783135026714
 10
104.7129882550718
 20
-112.5803805599625
 10
104.59895559451
 20
-112.5824476172537
 10
104.5672607160457
 20
-112.5845146745448
 10
104.5820746266323
 20
-112.4958034657997
 10
104.5841416839234
 20
-112.3666123851028
 10
104.5841416839234
 20
-112.2927150869442
 10
104.5841416839234
 20
-112.2927150869442
 10
104.5841416839234
 20
-111.9923027606304
 10
104.5841416839234
 20
-111.9923027606304
 10
104.5841416839234
 20
-111.8927395011067
 10
104.5775960025014
 20
-111.7933484963572
 10
104.5672607160457
 20
-111.6960245488989
 10
104.668546523312
 20
-111.7023979755466
 10
104.8993679208238
 20
-111.7087714021943
 10
105.0071994095121
 20
-111.7087714021943
 10
105.0071994095121
 20
-111.7087714021943
 10
105.4302571351008
 20
-111.7087714021943
 10
105.4302571351008
 20
-111.7087714021943
 10
105.5487684197934
 20
-111.7087714021943
 10
105.5911430942619
 20
-111.7087714021943
 10
105.6734808763594
 20
-111.7044650328378
 10
105.8216199822252
 20
-111.6982638609643
 10
105.8385009501029
 20
-111.6982638609643
 10
105.8850097391538
 20
-111.6960245488989
 10
105.8767415099892
 20
-111.7764675284795
 10
105.8722628858583
 20
-111.9351141755753
 10
105.8722628858583
 20
-112.017624212447
 10
105.8722628858583
 20
-112.017624212447
 10
105.8722628858583
 20
-112.3032226281742
 10
105.8722628858583
 20
-112.3032226281742
 10
105.8722628858583
 20
-112.3752251238159
 10
105.8743299431495
 20
-112.5063110070297
 10
105.8850097391538
 20
-112.5845146745448
 10
105.813007243512
 20
-112.5803805599625
 10
105.6903618442371
 20
-112.5783135026714
 10
105.612158176722
 20
-112.576074190606
 10
105.7220567227014
 20
-112.6437703168911
 10
105.8743299431495
 20
-112.6945854752986
 10
106.0862033154923
 20
-112.6988918446551
 10
106.0862033154923
 20
-112.6988918446551
 10
105.9928412278421
 20
-112.8787258289852
 10
105.9928412278421
 20
-112.8787258289852
 97
        0
 97
        0
 92
        1
 93
        4
 72
     1
 10
105.688294786946
 20
-111.8441636547647
 11
104.7763780120004
 21
-111.8441636547647
 72
     1
 10
104.7763780120004
 20
-111.8441636547647
 11
104.7763780120004
 21
-111.9563015128095
 72
     1
 10
104.7763780120004
 20
-111.9563015128095
 11
105.688294786946
 21
-111.9563015128095
 72
     1
 10
105.688294786946
 20
-111.9563015128095
 11
105.688294786946
 21
-111.8441636547647
 97
        0
 92
        1
 93
        4
 72
     1
 10
105.688294786946
 20
-112.0896267080887
 11
104.7763780120004
 21
-112.0896267080887
 72
     1
 10
104.7763780120004
 20
-112.0896267080887
 11
104.7763780120004
 21
-112.1995252540682
 72
     1
 10
104.7763780120004
 20
-112.1995252540682
 11
105.688294786946
 21
-112.1995252540682
 72
     1
 10
105.688294786946
 20
-112.1995252540682
 11
105.688294786946
 21
-112.0896267080887
 97
        0
 92
        1
 93
        4
 72
     1
 10
105.688294786946
 20
-112.3349175066385
 11
104.7763780120004
 21
-112.3349175066385
 72
     1
 10
104.7763780120004
 20
-112.3349175066385
 11
104.7763780120004
 21
-112.4429212501011
 72
     1
 10
104.7763780120004
 20
-112.4429212501011
 11
105.688294786946
 21
-112.4429212501011
 72
     1
 10
105.688294786946
 20
-112.4429212501011
 11
105.688294786946
 21
-112.3349175066385
 97
        0
 92
        1
 93
        1
 72
     4
 94
        3
 73
     0
 74
     1
 95
       74
 96
       70
 40
0.0
 40
0.0
 40
0.0
 40
0.0
 40
1.0
 40
1.0
 40
1.0
 40
2.0
 40
2.0
 40
2.0
 40
3.0
 40
3.0
 40
3.0
 40
4.0
 40
4.0
 40
4.0
 40
5.0
 40
5.0
 40
5.0
 40
6.0
 40
6.0
 40
6.0
 40
7.0
 40
7.0
 40
7.0
 40
8.0
 40
8.0
 40
8.0
 40
9.0
 40
9.0
 40
9.0
 40
10.0
 40
10.0
 40
10.0
 40
11.0
 40
11.0
 40
11.0
 40
12.0
 40
12.0
 40
12.0
 40
13.0
 40
13.0
 40
13.0
 40
14.0
 40
14.0
 40
14.0
 40
15.0
 40
15.0
 40
15.0
 40
16.0
 40
16.0
 40
16.0
 40
17.0
 40
17.0
 40
17.0
 40
18.0
 40
18.0
 40
18.0
 40
19.0
 40
19.0
 40
19.0
 40
20.0
 40
20.0
 40
20.0
 40
21.0
 40
21.0
 40
21.0
 40
22.0
 40
22.0
 40
22.0
 40
23.0
 40
23.0
 40
23.0
 40
23.0
 10
106.0055880811375
 20
-111.3914781080028
 10
106.0055880811375
 20
-111.3914781080028
 10
105.8450466315249
 20
-111.3914781080028
 10
105.8450466315249
 20
-111.3914781080028
 10
105.8450466315249
 20
-111.3914781080028
 10
105.8450466315249
 20
-111.5056830233389
 10
105.8450466315249
 20
-111.5056830233389
 10
105.8450466315249
 20
-111.545818385742
 10
105.8512478033983
 20
-111.6198879386749
 10
105.8553819179806
 20
-111.6453816452657
 10
105.8553819179806
 20
-111.6453816452657
 10
105.6438530551863
 20
-111.6453816452657
 10
105.6438530551863
 20
-111.6453816452657
 10
105.6545328511905
 20
-111.5797525762717
 10
105.6565999084817
 20
-111.5204969339254
 10
105.6565999084817
 20
-111.5184298766343
 10
105.6565999084817
 20
-111.5184298766343
 10
105.6565999084817
 20
-111.3956122225851
 10
105.6565999084817
 20
-111.3956122225851
 10
105.6565999084817
 20
-111.3956122225851
 10
105.4767659241516
 20
-111.3956122225851
 10
105.4767659241516
 20
-111.3956122225851
 10
105.4578178989828
 20
-111.4548678649314
 10
105.4113091099319
 20
-111.600939913506
 10
105.2969319398216
 20
-111.6834499503777
 10
105.2969319398216
 20
-111.6834499503777
 10
105.1405246047913
 20
-111.5776855189806
 10
105.1405246047913
 20
-111.5776855189806
 10
105.2145941577241
 20
-111.5310044751554
 10
105.3306938755771
 20
-111.4571071769968
 10
105.3306938755771
 20
-111.1355075134488
 10
105.3306938755771
 20
-111.0803859856848
 10
105.3265597609948
 20
-111.0361165086993
 10
105.3244927037036
 20
-110.997875948813
 10
105.4006293139276
 20
-111.0064886875262
 10
105.4746988668605
 20
-111.0126898593996
 10
105.5380886237891
 20
-111.0126898593996
 10
105.715855550828
 20
-111.0126898593996
 10
105.9146375603269
 20
-110.9536064718276
 10
105.9759602599644
 20
-110.9239786506544
 10
105.9759602599644
 20
-110.9239786506544
 10
106.1030842833701
 20
-111.0593709032247
 10
106.1030842833701
 20
-111.0593709032247
 10
106.1072183979524
 20
-111.063505017807
 10
106.1092854552435
 20
-111.0719455017459
 10
106.1092854552435
 20
-111.0783189283936
 10
106.1092854552435
 20
-111.0995062656279
 10
106.0944715446569
 20
-111.1058796922756
 10
106.0775905767792
 20
-111.1058796922756
 10
106.0565754943192
 20
-111.1058796922756
 10
106.0417615837326
 20
-111.0974392083368
 10
106.0224690490152
 20
-111.0867594123325
 10
105.8491807461072
 20
-111.1439479973876
 10
105.6311062018908
 20
-111.1692694492042
 10
105.4977810066117
 20
-111.1715087612696
 10
105.4977810066117
 20
-111.1715087612696
 10
105.4936468920294
 20
-111.2540187981414
 10
105.4936468920294
 20
-111.2540187981414
 10
105.4936468920294
 20
-111.2540187981414
 10
105.7664984544612
 20
-111.2540187981414
 10
105.7664984544612
 20
-111.2540187981414
 10
105.8236870395163
 20
-111.2540187981414
 10
106.0862033154923
 20
-111.2348985181982
 10
106.1303005377035
 20
-111.2285250915505
 10
106.1303005377035
 20
-111.2285250915505
 10
106.1303005377035
 20
-111.3978515346505
 10
106.1303005377035
 20
-111.3978515346505
 10
106.0965386019481
 20
-111.393545165294
 10
106.0837917486527
 20
-111.3914781080028
 10
106.0055880811375
 20
-111.3914781080028
 97
        0
 97
        0
 75
     2
 76
     1
 98
        0
  0
ENDBLK
  5
109
330
106
100
AcDbEntity
  8
0
100
AcDbBlockEnd
  0
BLOCK
  5
150
330
14E
100
AcDbEntity
  8
0
100
AcDbBlockBegin
  2
block 3
 70
     0
 10
0.0
 20
0.0
 30
0.0
  3
block 3
  1

  0
SPLINE
  5
152
330
14E
100
AcDbEntity
  8
_U+30EC_U+30A4_U+30E4_U+30FC 1
370
     0
100
AcDbSpline
210
0.0
220
0.0
230
1.0
 70
    11
 71
     3
 72
    53
 73
    49
 74
     0
 42
0.0000000001
 43
0.0000000001
 12
1.0
 22
0.0
 32
0.0
 13
1.0
 23
0.0
 33
0.0
 40
0.0
 40
0.0
 40
0.0
 40
0.0
 40
1.0
 40
1.0
 40
1.0
 40
2.0
 40
2.0
 40
2.0
 40
3.0
 40
3.0
 40
3.0
 40
4.0
 40
4.0
 40
4.0
 40
5.0
 40
5.0
 40
5.0
 40
6.0
 40
6.0
 40
6.0
 40
7.0
 40
7.0
 40
7.0
 40
8.0
 40
8.0
 40
8.0
 40
9.0
 40
9.0
 40
9.0
 40
10.0
 40
10.0
 40
10.0
 40
11.0
 40
11.0
 40
11.0
 40
12.0
 40
12.0
 40
12.0
 40
13.0
 40
13.0
 40
13.0
 40
14.0
 40
14.0
 40
14.0
 40
15.0
 40
15.0
 40
15.0
 40
16.0
 40
16.0
 40
16.0
 40
16.0
 10
89.50564776408193
 20
-130.8471380966285
 30
0.0
 10
89.42727184179249
 20
-130.8471380966285
 30
0.0
 10
89.32581377975188
 20
-130.8302571287508
 30
0.0
 10
89.22418346293702
 20
-130.7668673718222
 30
0.0
 10
89.05072290525469
 20
-130.6566243162942
 30
0.0
 10
89.02953556802039
 20
-130.5257106878547
 30
0.0
 10
89.01058754285152
 20
-130.4175346896178
 30
0.0
 10
89.01058754285152
 20
-130.4175346896178
 30
0.0
 10
89.23262394687588
 20
-130.4175346896178
 30
0.0
 10
89.23262394687588
 20
-130.4175346896178
 30
0.0
 10
89.28774547463988
 20
-130.6166612086653
 30
0.0
 10
89.41469724327133
 20
-130.6462890298384
 30
0.0
 10
89.50771482137307
 20
-130.6462890298384
 30
0.0
 10
89.6472411885257
 20
-130.6462890298384
 30
0.0
 10
89.799686663748
 20
-130.5467257703147
 30
0.0
 10
89.799686663748
 20
-130.3141818250604
 30
0.0
 10
89.799686663748
 20
-130.0582112305063
 30
0.0
 10
89.61985267941796
 20
-129.9882757921557
 30
0.0
 10
89.49927433743422
 20
-129.9882757921557
 30
0.0
 10
89.46757945896991
 20
-129.9882757921557
 30
0.0
 10
89.32581377975188
 20
-129.9882757921557
 30
0.0
 10
89.23693031623243
 20
-130.117122363304
 30
0.0
 10
89.23693031623243
 20
-130.117122363304
 30
0.0
 10
89.06140270125896
 20
-130.0981743381352
 30
0.0
 10
89.06140270125896
 20
-130.0981743381352
 30
0.0
 10
89.06140270125896
 20
-130.0981743381352
 30
0.0
 10
89.1819810432427
 20
-129.2520588869578
 30
0.0
 10
89.1819810432427
 20
-129.2520588869578
 30
0.0
 10
89.1819810432427
 20
-129.2520588869578
 30
0.0
 10
89.9604003681349
 20
-129.2520588869578
 30
0.0
 10
89.9604003681349
 20
-129.2520588869578
 30
0.0
 10
89.9604003681349
 20
-129.2520588869578
 30
0.0
 10
89.9604003681349
 20
-129.4467067818744
 30
0.0
 10
89.9604003681349
 20
-129.4467067818744
 30
0.0
 10
89.9604003681349
 20
-129.4467067818744
 30
0.0
 10
89.34476180492076
 20
-129.4467067818744
 30
0.0
 10
89.34476180492076
 20
-129.4467067818744
 30
0.0
 10
89.34476180492076
 20
-129.4467067818744
 30
0.0
 10
89.27930499070101
 20
-129.8697645074631
 30
0.0
 10
89.27930499070101
 20
-129.8697645074631
 30
0.0
 10
89.34062769033847
 20
-129.8360025717077
 30
0.0
 10
89.42313772721019
 20
-129.7956949545303
 30
0.0
 10
89.54147675712852
 20
-129.7956949545303
 30
0.0
 10
89.79538029439144
 20
-129.7956949545303
 30
0.0
 10
90.03240286377662
 20
-129.9817301107337
 30
0.0
 10
90.03240286377662
 20
-130.294889290343
 30
0.0
 10
90.03240286377662
 20
-130.6121825845345
 30
0.0
 10
89.80812714768686
 20
-130.8471380966285
 30
0.0
 10
89.50564776408193
 20
-130.8471380966285
 30
0.0
  0
HATCH
  5
153
330
14E
100
AcDbEntity
  8
_U+30EC_U+30A4_U+30E4_U+30FC 1
 62
   179
420
  2234388
100
AcDbHatch
 10
0.0
 20
0.0
 30
0.0
210
0.0
220
0.0
230
1.0
  2
SOLID
 70
     1
 71
     0
 91
        1
 92
        1
 93
        1
 72
     4
 94
        3
 73
     0
 74
     1
 95
       53
 96
       49
 40
0.0
 40
0.0
 40
0.0
 40
0.0
 40
1.0
 40
1.0
 40
1.0
 40
2.0
 40
2.0
 40
2.0
 40
3.0
 40
3.0
 40
3.0
 40
4.0
 40
4.0
 40
4.0
 40
5.0
 40
5.0
 40
5.0
 40
6.0
 40
6.0
 40
6.0
 40
7.0
 40
7.0
 40
7.0
 40
8.0
 40
8.0
 40
8.0
 40
9.0
 40
9.0
 40
9.0
 40
10.0
 40
10.0
 40
10.0
 40
11.0
 40
11.0
 40
11.0
 40
12.0
 40
12.0
 40
12.0
 40
13.0
 40
13.0
 40
13.0
 40
14.0
 40
14.0
 40
14.0
 40
15.0
 40
15.0
 40
15.0
 40
16.0
 40
16.0
 40
16.0
 40
16.0
 10
89.50564776408193
 20
-130.8471380966285
 10
89.42727184179249
 20
-130.8471380966285
 10
89.32581377975188
 20
-130.8302571287508
 10
89.22418346293702
 20
-130.7668673718222
 10
89.05072290525469
 20
-130.6566243162942
 10
89.02953556802039
 20
-130.5257106878547
 10
89.01058754285152
 20
-130.4175346896178
 10
89.01058754285152
 20
-130.4175346896178
 10
89.23262394687588
 20
-130.4175346896178
 10
89.23262394687588
 20
-130.4175346896178
 10
89.28774547463988
 20
-130.6166612086653
 10
89.41469724327133
 20
-130.6462890298384
 10
89.50771482137307
 20
-130.6462890298384
 10
89.6472411885257
 20
-130.6462890298384
 10
89.799686663748
 20
-130.5467257703147
 10
89.799686663748
 20
-130.3141818250604
 10
89.799686663748
 20
-130.0582112305063
 10
89.61985267941796
 20
-129.9882757921557
 10
89.49927433743422
 20
-129.9882757921557
 10
89.46757945896991
 20
-129.9882757921557
 10
89.32581377975188
 20
-129.9882757921557
 10
89.23693031623243
 20
-130.117122363304
 10
89.23693031623243
 20
-130.117122363304
 10
89.06140270125896
 20
-130.0981743381352
 10
89.06140270125896
 20
-130.0981743381352
 10
89.06140270125896
 20
-130.0981743381352
 10
89.1819810432427
 20
-129.2520588869578
 10
89.1819810432427
 20
-129.2520588869578
 10
89.1819810432427
 20
-129.2520588869578
 10
89.9604003681349
 20
-129.2520588869578
 10
89.9604003681349
 20
-129.2520588869578
 10
89.9604003681349
 20
-129.2520588869578
 10
89.9604003681349
 20
-129.4467067818744
 10
89.9604003681349
 20
-129.4467067818744
 10
89.9604003681349
 20
-129.4467067818744
 10
89.34476180492076
 20
-129.4467067818744
 10
89.34476180492076
 20
-129.4467067818744
 10
89.34476180492076
 20
-129.4467067818744
 10
89.27930499070101
 20
-129.8697645074631
 10
89.27930499070101
 20
-129.8697645074631
 10
89.34062769033847
 20
-129.8360025717077
 10
89.42313772721019
 20
-129.7956949545303
 10
89.54147675712852
 20
-129.7956949545303
 10
89.79538029439144
 20
-129.7956949545303
 10
90.03240286377662
 20
-129.9817301107337
 10
90.03240286377662
 20
-130.294889290343
 10
90.03240286377662
 20
-130.6121825845345
 10
89.80812714768686
 20
-130.8471380966285
 10
89.50564776408193
 20
-130.8471380966285
 97
        0
 97
        0
 75
     2
 76
     1
 98
        0
  0
ENDBLK
  5
151
330
14E
100
AcDbEntity
  8
0
100
AcDbBlockEnd
  0
BLOCK
  5
156
330
154
100
AcDbEntity
  8
0
100
AcDbBlockBegin
  2
block 4
 70
     0
 10
0.0
 20
0.0
 30
0.0
  3
block 4
  1

  0
SPLINE
  5
158
330
154
100
AcDbEntity
  8
_U+30EC_U+30A4_U+30E4_U+30FC 1
370
     0
100
AcDbSpline
210
0.0
220
0.0
230
1.0
 70
    11
 71
     3
 72
    53
 73
    49
 74
     0
 42
0.0000000001
 43
0.0000000001
 12
1.0
 22
0.0
 32
0.0
 13
1.0
 23
0.0
 33
0.0
 40
0.0
 40
0.0
 40
0.0
 40
0.0
 40
1.0
 40
1.0
 40
1.0
 40
2.0
 40
2.0
 40
2.0
 40
3.0
 40
3.0
 40
3.0
 40
4.0
 40
4.0
 40
4.0
 40
5.0
 40
5.0
 40
5.0
 40
6.0
 40
6.0
 40
6.0
 40
7.0
 40
7.0
 40
7.0
 40
8.0
 40
8.0
 40
8.0
 40
9.0
 40
9.0
 40
9.0
 40
10.0
 40
10.0
 40
10.0
 40
11.0
 40
11.0
 40
11.0
 40
12.0
 40
12.0
 40
12.0
 40
13.0
 40
13.0
 40
13.0
 40
14.0
 40
14.0
 40
14.0
 40
15.0
 40
15.0
 40
15.0
 40
16.0
 40
16.0
 40
16.0
 40
16.0
 10
99.82439776150224
 20
-145.8401936484358
 30
0.0
 10
99.74619409398707
 20
-145.8401936484358
 30
0.0
 10
99.6445637771722
 20
-145.8233126805581
 30
0.0
 10
99.54293346035733
 20
-145.7599229236295
 30
0.0
 10
99.36964515744926
 20
-145.6496798681015
 30
0.0
 10
99.3482855654407
 20
-145.518766239662
 30
0.0
 10
99.32933754027184
 20
-145.4105902414251
 30
0.0
 10
99.32933754027184
 20
-145.4105902414251
 30
0.0
 10
99.55154619907046
 20
-145.4105902414251
 30
0.0
 10
99.55154619907046
 20
-145.4105902414251
 30
0.0
 10
99.60632321728592
 20
-145.6097167604726
 30
0.0
 10
99.73344724069165
 20
-145.6393445816457
 30
0.0
 10
99.82646481879338
 20
-145.6393445816457
 30
0.0
 10
99.96599118594601
 20
-145.6393445816457
 30
0.0
 10
100.118264406394
 20
-145.539781322122
 30
0.0
 10
100.118264406394
 20
-145.3072373768676
 30
0.0
 10
100.118264406394
 20
-145.0512667823136
 30
0.0
 10
99.938430422064
 20
-144.981331343963
 30
0.0
 10
99.81785208008026
 20
-144.981331343963
 30
0.0
 10
99.78615720161596
 20
-144.981331343963
 30
0.0
 10
99.6445637771722
 20
-144.981331343963
 30
0.0
 10
99.55568031365276
 20
-145.1101779151114
 30
0.0
 10
99.55568031365276
 20
-145.1101779151114
 30
0.0
 10
99.37998044390501
 20
-145.0912298899425
 30
0.0
 10
99.37998044390501
 20
-145.0912298899425
 30
0.0
 10
99.37998044390501
 20
-145.0912298899425
 30
0.0
 10
99.50055878588876
 20
-144.2451144387651
 30
0.0
 10
99.50055878588876
 20
-144.2451144387651
 30
0.0
 10
99.50055878588876
 20
-144.2451144387651
 30
0.0
 10
100.2791503655552
 20
-144.2451144387651
 30
0.0
 10
100.2791503655552
 20
-144.2451144387651
 30
0.0
 10
100.2791503655552
 20
-144.2451144387651
 30
0.0
 10
100.2791503655552
 20
-144.4397623336817
 30
0.0
 10
100.2791503655552
 20
-144.4397623336817
 30
0.0
 10
100.2791503655552
 20
-144.4397623336817
 30
0.0
 10
99.66351180234108
 20
-144.4397623336817
 30
0.0
 10
99.66351180234108
 20
-144.4397623336817
 30
0.0
 10
99.66351180234108
 20
-144.4397623336817
 30
0.0
 10
99.59805498812132
 20
-144.8628200592704
 30
0.0
 10
99.59805498812132
 20
-144.8628200592704
 30
0.0
 10
99.65937768775878
 20
-144.829058123515
 30
0.0
 10
99.74171546985625
 20
-144.7887505063375
 30
0.0
 10
99.86022675454883
 20
-144.7887505063375
 30
0.0
 10
100.1141302918117
 20
-144.7887505063375
 30
0.0
 10
100.3511528611969
 20
-144.974785662541
 30
0.0
 10
100.3511528611969
 20
-145.2879448421502
 30
0.0
 10
100.3511528611969
 20
-145.6052381363417
 30
0.0
 10
100.1268771451072
 20
-145.8401936484358
 30
0.0
 10
99.82439776150224
 20
-145.8401936484358
 30
0.0
  0
HATCH
  5
159
330
154
100
AcDbEntity
  8
_U+30EC_U+30A4_U+30E4_U+30FC 1
 62
   179
420
  2234388
100
AcDbHatch
 10
0.0
 20
0.0
 30
0.0
210
0.0
220
0.0
230
1.0
  2
SOLID
 70
     1
 71
     0
 91
        1
 92
        1
 93
        1
 72
     4
 94
        3
 73
     0
 74
     1
 95
       53
 96
       49
 40
0.0
 40
0.0
 40
0.0
 40
0.0
 40
1.0
 40
1.0
 40
1.0
 40
2.0
 40
2.0
 40
2.0
 40
3.0
 40
3.0
 40
3.0
 40
4.0
 40
4.0
 40
4.0
 40
5.0
 40
5.0
 40
5.0
 40
6.0
 40
6.0
 40
6.0
 40
7.0
 40
7.0
 40
7.0
 40
8.0
 40
8.0
 40
8.0
 40
9.0
 40
9.0
 40
9.0
 40
10.0
 40
10.0
 40
10.0
 40
11.0
 40
11.0
 40
11.0
 40
12.0
 40
12.0
 40
12.0
 40
13.0
 40
13.0
 40
13.0
 40
14.0
 40
14.0
 40
14.0
 40
15.0
 40
15.0
 40
15.0
 40
16.0
 40
16.0
 40
16.0
 40
16.0
 10
99.82439776150224
 20
-145.8401936484358
 10
99.74619409398707
 20
-145.8401936484358
 10
99.6445637771722
 20
-145.8233126805581
 10
99.54293346035733
 20
-145.7599229236295
 10
99.36964515744926
 20
-145.6496798681015
 10
99.3482855654407
 20
-145.518766239662
 10
99.32933754027184
 20
-145.4105902414251
 10
99.32933754027184
 20
-145.4105902414251
 10
99.55154619907046
 20
-145.4105902414251
 10
99.55154619907046
 20
-145.4105902414251
 10
99.60632321728592
 20
-145.6097167604726
 10
99.73344724069165
 20
-145.6393445816457
 10
99.82646481879338
 20
-145.6393445816457
 10
99.96599118594601
 20
-145.6393445816457
 10
100.118264406394
 20
-145.539781322122
 10
100.118264406394
 20
-145.3072373768676
 10
100.118264406394
 20
-145.0512667823136
 10
99.938430422064
 20
-144.981331343963
 10
99.81785208008026
 20
-144.981331343963
 10
99.78615720161596
 20
-144.981331343963
 10
99.6445637771722
 20
-144.981331343963
 10
99.55568031365276
 20
-145.1101779151114
 10
99.55568031365276
 20
-145.1101779151114
 10
99.37998044390501
 20
-145.0912298899425
 10
99.37998044390501
 20
-145.0912298899425
 10
99.37998044390501
 20
-145.0912298899425
 10
99.50055878588876
 20
-144.2451144387651
 10
99.50055878588876
 20
-144.2451144387651
 10
99.50055878588876
 20
-144.2451144387651
 10
100.2791503655552
 20
-144.2451144387651
 10
100.2791503655552
 20
-144.2451144387651
 10
100.2791503655552
 20
-144.2451144387651
 10
100.2791503655552
 20
-144.4397623336817
 10
100.2791503655552
 20
-144.4397623336817
 10
100.2791503655552
 20
-144.4397623336817
 10
99.66351180234108
 20
-144.4397623336817
 10
99.66351180234108
 20
-144.4397623336817
 10
99.66351180234108
 20
-144.4397623336817
 10
99.59805498812132
 20
-144.8628200592704
 10
99.59805498812132
 20
-144.8628200592704
 10
99.65937768775878
 20
-144.829058123515
 10
99.74171546985625
 20
-144.7887505063375
 10
99.86022675454883
 20
-144.7887505063375
 10
100.1141302918117
 20
-144.7887505063375
 10
100.3511528611969
 20
-144.974785662541
 10
100.3511528611969
 20
-145.2879448421502
 10
100.3511528611969
 20
-145.6052381363417
 10
100.1268771451072
 20
-145.8401936484358
 10
99.82439776150224
 20
-145.8401936484358
 97
        0
 97
        0
 75
     2
 76
     1
 98
        0
  0
ENDBLK
  5
157
330
154
100
AcDbEntity
  8
0
100
AcDbBlockEnd
  0
BLOCK
  5
16B
330
169
100
AcDbEntity
  8
0
100
AcDbBlockBegin
  2
block 5
 70
     0
 10
0.0
 20
0.0
 30
0.0
  3
block 5
  1

  0
SPLINE
  5
16D
330
169
100
AcDbEntity
  8
_U+30EC_U+30A4_U+30E4_U+30FC 1
370
     0
100
AcDbSpline
210
0.0
220
0.0
230
1.0
 70
    11
 71
     3
 72
    32
 73
    28
 74
     0
 42
0.0000000001
 43
0.0000000001
 12
1.0
 22
0.0
 32
0.0
 13
1.0
 23
0.0
 33
0.0
 40
0.0
 40
0.0
 40
0.0
 40
0.0
 40
1.0
 40
1.0
 40
1.0
 40
2.0
 40
2.0
 40
2.0
 40
3.0
 40
3.0
 40
3.0
 40
4.0
 40
4.0
 40
4.0
 40
5.0
 40
5.0
 40
5.0
 40
6.0
 40
6.0
 40
6.0
 40
7.0
 40
7.0
 40
7.0
 40
8.0
 40
8.0
 40
8.0
 40
9.0
 40
9.0
 40
9.0
 40
9.0
 10
84.98223739194889
 20
-141.8473279810312
 30
0.0
 10
84.80877683426655
 20
-141.8473279810312
 30
0.0
 10
84.56348603571678
 20
-141.7773925426806
 30
0.0
 10
84.52541773060476
 20
-141.4452853379026
 30
0.0
 10
84.52541773060476
 20
-141.4452853379026
 30
0.0
 10
84.73901365069025
 20
-141.4452853379026
 30
0.0
 10
84.73901365069025
 20
-141.4452853379026
 30
0.0
 10
84.74969344669452
 20
-141.5045409802489
 30
0.0
 10
84.78138832515883
 20
-141.6526800861146
 30
0.0
 10
84.9844767040143
 20
-141.6526800861146
 30
0.0
 10
85.27644854638922
 20
-141.6526800861146
 30
0.0
 10
85.31451685150124
 20
-141.3226399386277
 30
0.0
 10
85.3270914500224
 20
-141.1173122477068
 30
0.0
 10
85.2361409292118
 20
-141.1979274820616
 30
0.0
 10
85.16844480292664
 20
-141.2551160671168
 30
0.0
 10
84.98654376130546
 20
-141.2551160671168
 30
0.0
 10
84.80670977697541
 20
-141.2551160671168
 30
0.0
 10
84.50423039337048
 20
-141.1493516357196
 30
0.0
 10
84.50423039337048
 20
-140.7431748780087
 30
0.0
 10
84.50423039337048
 20
-140.4234700169775
 30
0.0
 10
84.70301240286939
 20
-140.2036729250185
 30
0.0
 10
85.02047795183516
 20
-140.2036729250185
 30
0.0
 10
85.53448619823443
 20
-140.2036729250185
 30
0.0
 10
85.54499373946445
 20
-140.7579887885952
 30
0.0
 10
85.54499373946445
 20
-140.9715847086807
 30
0.0
 10
85.54499373946445
 20
-141.2020615966439
 30
0.0
 10
85.52604571429558
 20
-141.8473279810312
 30
0.0
 10
84.98223739194889
 20
-141.8473279810312
 30
0.0
  0
SPLINE
  5
16E
330
169
100
AcDbEntity
  8
_U+30EC_U+30A4_U+30E4_U+30FC 1
370
     0
100
AcDbSpline
210
0.0
220
0.0
230
1.0
 70
    11
 71
     3
 72
    17
 73
    13
 74
     0
 42
0.0000000001
 43
0.0000000001
 12
1.0
 22
0.0
 32
0.0
 13
1.0
 23
0.0
 33
0.0
 40
0.0
 40
0.0
 40
0.0
 40
0.0
 40
1.0
 40
1.0
 40
1.0
 40
2.0
 40
2.0
 40
2.0
 40
3.0
 40
3.0
 40
3.0
 40
4.0
 40
4.0
 40
4.0
 40
4.0
 10
85.02254500912632
 20
-140.3959092530955
 30
0.0
 10
84.90403372443372
 20
-140.3959092530955
 30
0.0
 10
84.72850610946024
 20
-140.4530978381506
 30
0.0
 10
84.72850610946024
 20
-140.7386962538778
 30
0.0
 10
84.72850610946024
 20
-140.9650390272587
 30
0.0
 10
84.86803247661285
 20
-141.0604681722002
 30
0.0
 10
85.00342472918318
 20
-141.0604681722002
 30
0.0
 10
85.26576875038495
 20
-141.0604681722002
 30
0.0
 10
85.30383705549696
 20
-140.851006366697
 30
0.0
 10
85.30383705549696
 20
-140.7345621392955
 30
0.0
 10
85.30383705549696
 20
-140.5588622695478
 30
0.0
 10
85.20875242010406
 20
-140.3959092530955
 30
0.0
 10
85.02254500912632
 20
-140.3959092530955
 30
0.0
  0
HATCH
  5
16F
330
169
100
AcDbEntity
  8
_U+30EC_U+30A4_U+30E4_U+30FC 1
 62
   179
420
  2234388
100
AcDbHatch
 10
0.0
 20
0.0
 30
0.0
210
0.0
220
0.0
230
1.0
  2
SOLID
 70
     1
 71
     0
 91
        2
 92
        1
 93
        1
 72
     4
 94
        3
 73
     0
 74
     1
 95
       32
 96
       28
 40
0.0
 40
0.0
 40
0.0
 40
0.0
 40
1.0
 40
1.0
 40
1.0
 40
2.0
 40
2.0
 40
2.0
 40
3.0
 40
3.0
 40
3.0
 40
4.0
 40
4.0
 40
4.0
 40
5.0
 40
5.0
 40
5.0
 40
6.0
 40
6.0
 40
6.0
 40
7.0
 40
7.0
 40
7.0
 40
8.0
 40
8.0
 40
8.0
 40
9.0
 40
9.0
 40
9.0
 40
9.0
 10
84.98223739194889
 20
-141.8473279810312
 10
84.80877683426655
 20
-141.8473279810312
 10
84.56348603571678
 20
-141.7773925426806
 10
84.52541773060476
 20
-141.4452853379026
 10
84.52541773060476
 20
-141.4452853379026
 10
84.73901365069025
 20
-141.4452853379026
 10
84.73901365069025
 20
-141.4452853379026
 10
84.74969344669452
 20
-141.5045409802489
 10
84.78138832515883
 20
-141.6526800861146
 10
84.9844767040143
 20
-141.6526800861146
 10
85.27644854638922
 20
-141.6526800861146
 10
85.31451685150124
 20
-141.3226399386277
 10
85.3270914500224
 20
-141.1173122477068
 10
85.2361409292118
 20
-141.1979274820616
 10
85.16844480292664
 20
-141.2551160671168
 10
84.98654376130546
 20
-141.2551160671168
 10
84.80670977697541
 20
-141.2551160671168
 10
84.50423039337048
 20
-141.1493516357196
 10
84.50423039337048
 20
-140.7431748780087
 10
84.50423039337048
 20
-140.4234700169775
 10
84.70301240286939
 20
-140.2036729250185
 10
85.02047795183516
 20
-140.2036729250185
 10
85.53448619823443
 20
-140.2036729250185
 10
85.54499373946445
 20
-140.7579887885952
 10
85.54499373946445
 20
-140.9715847086807
 10
85.54499373946445
 20
-141.2020615966439
 10
85.52604571429558
 20
-141.8473279810312
 10
84.98223739194889
 20
-141.8473279810312
 97
        0
 97
        0
 92
        1
 93
        1
 72
     4
 94
        3
 73
     0
 74
     1
 95
       17
 96
       13
 40
0.0
 40
0.0
 40
0.0
 40
0.0
 40
1.0
 40
1.0
 40
1.0
 40
2.0
 40
2.0
 40
2.0
 40
3.0
 40
3.0
 40
3.0
 40
4.0
 40
4.0
 40
4.0
 40
4.0
 10
85.02254500912632
 20
-140.3959092530955
 10
84.90403372443372
 20
-140.3959092530955
 10
84.72850610946024
 20
-140.4530978381506
 10
84.72850610946024
 20
-140.7386962538778
 10
84.72850610946024
 20
-140.9650390272587
 10
84.86803247661285
 20
-141.0604681722002
 10
85.00342472918318
 20
-141.0604681722002
 10
85.26576875038495
 20
-141.0604681722002
 10
85.30383705549696
 20
-140.851006366697
 10
85.30383705549696
 20
-140.7345621392955
 10
85.30383705549696
 20
-140.5588622695478
 10
85.20875242010406
 20
-140.3959092530955
 10
85.02254500912632
 20
-140.3959092530955
 97
        0
 97
        0
 75
     2
 76
     1
 98
        0
  0
ENDBLK
  5
16C
330
169
100
AcDbEntity
  8
0
100
AcDbBlockEnd
  0
BLOCK
  5
188
330
186
100
AcDbEntity
  8
0
100
AcDbBlockBegin
  2
block 6
 70
     0
 10
0.0
 20
0.0
 30
0.0
  3
block 6
  1

  0
SPLINE
  5
18A
330
186
100
AcDbEntity
  8
_U+30EC_U+30A4_U+30E4_U+30FC 1
370
     0
100
AcDbSpline
210
0.0
220
0.0
230
1.0
 70
    11
 71
     3
 72
    26
 73
    22
 74
     0
 42
0.0000000001
 43
0.0000000001
 12
1.0
 22
0.0
 32
0.0
 13
1.0
 23
0.0
 33
0.0
 40
0.0
 40
0.0
 40
0.0
 40
0.0
 40
1.0
 40
1.0
 40
1.0
 40
2.0
 40
2.0
 40
2.0
 40
3.0
 40
3.0
 40
3.0
 40
4.0
 40
4.0
 40
4.0
 40
5.0
 40
5.0
 40
5.0
 40
6.0
 40
6.0
 40
6.0
 40
7.0
 40
7.0
 40
7.0
 40
7.0
 10
86.7750650824729
 20
-145.7964409357731
 30
0.0
 10
86.7750650824729
 20
-145.7964409357731
 30
0.0
 10
86.7750650824729
 20
-144.691943323202
 30
0.0
 10
86.7750650824729
 20
-144.691943323202
 30
0.0
 10
86.7750650824729
 20
-144.691943323202
 30
0.0
 10
86.44502493498597
 20
-144.691943323202
 30
0.0
 10
86.44502493498597
 20
-144.691943323202
 30
0.0
 10
86.44502493498597
 20
-144.691943323202
 30
0.0
 10
86.44502493498597
 20
-144.5438042173363
 30
0.0
 10
86.44502493498597
 20
-144.5438042173363
 30
0.0
 10
86.77730439453832
 20
-144.5289903067497
 30
0.0
 10
86.8238131835892
 20
-144.3663817998459
 30
0.0
 10
86.85344100476233
 20
-144.2520046297356
 30
0.0
 10
86.85344100476233
 20
-144.2520046297356
 30
0.0
 10
86.99934079856267
 20
-144.2520046297356
 30
0.0
 10
86.99934079856267
 20
-144.2520046297356
 30
0.0
 10
86.99934079856267
 20
-144.2520046297356
 30
0.0
 10
86.99934079856267
 20
-145.7964409357731
 30
0.0
 10
86.99934079856267
 20
-145.7964409357731
 30
0.0
 10
86.99934079856267
 20
-145.7964409357731
 30
0.0
 10
86.7750650824729
 20
-145.7964409357731
 30
0.0
 10
86.7750650824729
 20
-145.7964409357731
 30
0.0
  0
HATCH
  5
18B
330
186
100
AcDbEntity
  8
_U+30EC_U+30A4_U+30E4_U+30FC 1
 62
   179
420
  2234388
100
AcDbHatch
 10
0.0
 20
0.0
 30
0.0
210
0.0
220
0.0
230
1.0
  2
SOLID
 70
     1
 71
     0
 91
        1
 92
        1
 93
        1
 72
     4
 94
        3
 73
     0
 74
     1
 95
       26
 96
       22
 40
0.0
 40
0.0
 40
0.0
 40
0.0
 40
1.0
 40
1.0
 40
1.0
 40
2.0
 40
2.0
 40
2.0
 40
3.0
 40
3.0
 40
3.0
 40
4.0
 40
4.0
 40
4.0
 40
5.0
 40
5.0
 40
5.0
 40
6.0
 40
6.0
 40
6.0
 40
7.0
 40
7.0
 40
7.0
 40
7.0
 10
86.7750650824729
 20
-145.7964409357731
 10
86.7750650824729
 20
-145.7964409357731
 10
86.7750650824729
 20
-144.691943323202
 10
86.7750650824729
 20
-144.691943323202
 10
86.7750650824729
 20
-144.691943323202
 10
86.44502493498597
 20
-144.691943323202
 10
86.44502493498597
 20
-144.691943323202
 10
86.44502493498597
 20
-144.691943323202
 10
86.44502493498597
 20
-144.5438042173363
 10
86.44502493498597
 20
-144.5438042173363
 10
86.77730439453832
 20
-144.5289903067497
 10
86.8238131835892
 20
-144.3663817998459
 10
86.85344100476233
 20
-144.2520046297356
 10
86.85344100476233
 20
-144.2520046297356
 10
86.99934079856267
 20
-144.2520046297356
 10
86.99934079856267
 20
-144.2520046297356
 10
86.99934079856267
 20
-144.2520046297356
 10
86.99934079856267
 20
-145.7964409357731
 10
86.99934079856267
 20
-145.7964409357731
 10
86.99934079856267
 20
-145.7964409357731
 10
86.7750650824729
 20
-145.7964409357731
 10
86.7750650824729
 20
-145.7964409357731
 97
        0
 97
        0
 75
     2
 76
     1
 98
        0
  0
SPLINE
  5
18C
330
186
100
AcDbEntity
  8
_U+30EC_U+30A4_U+30E4_U+30FC 1
370
     0
100
AcDbSpline
210
0.0
220
0.0
230
1.0
 70
    11
 71
     3
 72
    26
 73
    22
 74
     0
 42
0.0000000001
 43
0.0000000001
 12
1.0
 22
0.0
 32
0.0
 13
1.0
 23
0.0
 33
0.0
 40
0.0
 40
0.0
 40
0.0
 40
0.0
 40
1.0
 40
1.0
 40
1.0
 40
2.0
 40
2.0
 40
2.0
 40
3.0
 40
3.0
 40
3.0
 40
4.0
 40
4.0
 40
4.0
 40
5.0
 40
5.0
 40
5.0
 40
6.0
 40
6.0
 40
6.0
 40
7.0
 40
7.0
 40
7.0
 40
7.0
 10
87.91177433783109
 20
-145.7964409357731
 30
0.0
 10
87.91177433783109
 20
-145.7964409357731
 30
0.0
 10
87.67492402322016
 20
-145.7964409357731
 30
0.0
 10
87.67492402322016
 20
-145.7964409357731
 30
0.0
 10
87.70024547503675
 20
-145.4874158707462
 30
0.0
 10
87.89282631266221
 20
-144.9692735097646
 30
0.0
 10
88.29900307037317
 20
-144.46353349253
 30
0.0
 10
88.29900307037317
 20
-144.46353349253
 30
0.0
 10
87.4611558483604
 20
-144.46353349253
 30
0.0
 10
87.4611558483604
 20
-144.46353349253
 30
0.0
 10
87.4611558483604
 20
-144.46353349253
 30
0.0
 10
87.4611558483604
 20
-144.2520046297356
 30
0.0
 10
87.4611558483604
 20
-144.2520046297356
 30
0.0
 10
87.4611558483604
 20
-144.2520046297356
 30
0.0
 10
88.5358533849841
 20
-144.2520046297356
 30
0.0
 10
88.5358533849841
 20
-144.2520046297356
 30
0.0
 10
88.5358533849841
 20
-144.2520046297356
 30
0.0
 10
88.5358533849841
 20
-144.46353349253
 30
0.0
 10
88.5358533849841
 20
-144.46353349253
 30
0.0
 10
88.21218666414488
 20
-144.7532660228395
 30
0.0
 10
87.9457085283608
 20
-145.3458224463024
 30
0.0
 10
87.91177433783109
 20
-145.7964409357731
 30
0.0
  0
HATCH
  5
18D
330
186
100
AcDbEntity
  8
_U+30EC_U+30A4_U+30E4_U+30FC 1
 62
   179
420
  2234388
100
AcDbHatch
 10
0.0
 20
0.0
 30
0.0
210
0.0
220
0.0
230
1.0
  2
SOLID
 70
     1
 71
     0
 91
        1
 92
        1
 93
        1
 72
     4
 94
        3
 73
     0
 74
     1
 95
       26
 96
       22
 40
0.0
 40
0.0
 40
0.0
 40
0.0
 40
1.0
 40
1.0
 40
1.0
 40
2.0
 40
2.0
 40
2.0
 40
3.0
 40
3.0
 40
3.0
 40
4.0
 40
4.0
 40
4.0
 40
5.0
 40
5.0
 40
5.0
 40
6.0
 40
6.0
 40
6.0
 40
7.0
 40
7.0
 40
7.0
 40
7.0
 10
87.91177433783109
 20
-145.7964409357731
 10
87.91177433783109
 20
-145.7964409357731
 10
87.67492402322016
 20
-145.7964409357731
 10
87.67492402322016
 20
-145.7964409357731
 10
87.70024547503675
 20
-145.4874158707462
 10
87.89282631266221
 20
-144.9692735097646
 10
88.29900307037317
 20
-144.46353349253
 10
88.29900307037317
 20
-144.46353349253
 10
87.4611558483604
 20
-144.46353349253
 10
87.4611558483604
 20
-144.46353349253
 10
87.4611558483604
 20
-144.46353349253
 10
87.4611558483604
 20
-144.2520046297356
 10
87.4611558483604
 20
-144.2520046297356
 10
87.4611558483604
 20
-144.2520046297356
 10
88.5358533849841
 20
-144.2520046297356
 10
88.5358533849841
 20
-144.2520046297356
 10
88.5358533849841
 20
-144.2520046297356
 10
88.5358533849841
 20
-144.46353349253
 10
88.5358533849841
 20
-144.46353349253
 10
88.21218666414488
 20
-144.7532660228395
 10
87.9457085283608
 20
-145.3458224463024
 10
87.91177433783109
 20
-145.7964409357731
 97
        0
 97
        0
 75
     2
 76
     1
 98
        0
  0
POLYLINE
  5
18E
330
186
100
AcDbEntity
  8
_U+30EC_U+30A4_U+30E4_U+30FC 1
370
     0
100
AcDb2dPolyline
 66
     1
 10
0.0
 20
0.0
 30
0.0
  0
VERTEX
  5
18F
330
18E
100
AcDbEntity
  8
_U+30EC_U+30A4_U+30E4_U+30FC 1
370
     0
100
AcDbVertex
100
AcDb2dVertex
 10
88.73756372564547
 20
-145.7964409357731
 30
0.0
  0
VERTEX
  5
190
330
18E
100
AcDbEntity
  8
_U+30EC_U+30A4_U+30E4_U+30FC 1
370
     0
100
AcDbVertex
100
AcDb2dVertex
 10
88.73756372564547
 20
-145.5446044558014
 30
0.0
  0
VERTEX
  5
191
330
18E
100
AcDbEntity
  8
_U+30EC_U+30A4_U+30E4_U+30FC 1
370
     0
100
AcDbVertex
100
AcDb2dVertex
 10
88.98922795084297
 20
-145.5446044558014
 30
0.0
  0
VERTEX
  5
192
330
18E
100
AcDbEntity
  8
_U+30EC_U+30A4_U+30E4_U+30FC 1
370
     0
100
AcDbVertex
100
AcDb2dVertex
 10
88.98922795084297
 20
-145.7964409357731
 30
0.0
  0
VERTEX
  5
193
330
18E
100
AcDbEntity
  8
_U+30EC_U+30A4_U+30E4_U+30FC 1
370
     0
100
AcDbVertex
100
AcDb2dVertex
 10
88.73756372564547
 20
-145.7964409357731
 30
0.0
  0
SEQEND
  5
194
330
18E
100
AcDbEntity
  8
_U+30EC_U+30A4_U+30E4_U+30FC 1
370
     0
  0
HATCH
  5
195
330
186
100
AcDbEntity
  8
_U+30EC_U+30A4_U+30E4_U+30FC 1
 62
   179
420
  2234388
100
AcDbHatch
 10
0.0
 20
0.0
 30
0.0
210
0.0
220
0.0
230
1.0
  2
SOLID
 70
     1
 71
     0
 91
        1
 92
        1
 93
        4
 72
     1
 10
88.73756372564547
 20
-145.7964409357731
 11
88.73756372564547
 21
-145.5446044558014
 72
     1
 10
88.73756372564547
 20
-145.5446044558014
 11
88.98922795084297
 21
-145.5446044558014
 72
     1
 10
88.98922795084297
 20
-145.5446044558014
 11
88.98922795084297
 21
-145.7964409357731
 72
     1
 10
88.98922795084297
 20
-145.7964409357731
 11
88.73756372564547
 21
-145.7964409357731
 97
        0
 75
     2
 76
     1
 98
        0
  0
SPLINE
  5
196
330
186
100
AcDbEntity
  8
_U+30EC_U+30A4_U+30E4_U+30FC 1
370
     0
100
AcDbSpline
210
0.0
220
0.0
230
1.0
 70
    11
 71
     3
 72
    53
 73
    49
 74
     0
 42
0.0000000001
 43
0.0000000001
 12
1.0
 22
0.0
 32
0.0
 13
1.0
 23
0.0
 33
0.0
 40
0.0
 40
0.0
 40
0.0
 40
0.0
 40
1.0
 40
1.0
 40
1.0
 40
2.0
 40
2.0
 40
2.0
 40
3.0
 40
3.0
 40
3.0
 40
4.0
 40
4.0
 40
4.0
 40
5.0
 40
5.0
 40
5.0
 40
6.0
 40
6.0
 40
6.0
 40
7.0
 40
7.0
 40
7.0
 40
8.0
 40
8.0
 40
8.0
 40
9.0
 40
9.0
 40
9.0
 40
10.0
 40
10.0
 40
10.0
 40
11.0
 40
11.0
 40
11.0
 40
12.0
 40
12.0
 40
12.0
 40
13.0
 40
13.0
 40
13.0
 40
14.0
 40
14.0
 40
14.0
 40
15.0
 40
15.0
 40
15.0
 40
16.0
 40
16.0
 40
16.0
 40
16.0
 10
89.70666908564625
 20
-145.8470838394063
 30
0.0
 10
89.62846541813109
 20
-145.8470838394063
 30
0.0
 10
89.52683510131621
 20
-145.8302028715286
 30
0.0
 10
89.4253770392756
 20
-145.7668131146
 30
0.0
 10
89.25174422681901
 20
-145.656570059072
 30
0.0
 10
89.23072914435899
 20
-145.5256564306325
 30
0.0
 10
89.21160886441585
 20
-145.4174804323956
 30
0.0
 10
89.21160886441585
 20
-145.4174804323956
 30
0.0
 10
89.43381752321447
 20
-145.4174804323956
 30
0.0
 10
89.43381752321447
 20
-145.4174804323956
 30
0.0
 10
89.4887667962042
 20
-145.6166069514431
 30
0.0
 10
89.61571856483566
 20
-145.6462347726162
 30
0.0
 10
89.7087361429374
 20
-145.6462347726162
 30
0.0
 10
89.84843476486428
 20
-145.6462347726162
 30
0.0
 10
90.00070798531233
 20
-145.5466715130925
 30
0.0
 10
90.00070798531233
 20
-145.3141275678381
 30
0.0
 10
90.00070798531233
 20
-145.0581569732841
 30
0.0
 10
89.82087400098229
 20
-144.9882215349335
 30
0.0
 10
89.70029565899854
 20
-144.9882215349335
 30
0.0
 10
89.66860078053425
 20
-144.9882215349335
 30
0.0
 10
89.52683510131621
 20
-144.9882215349335
 30
0.0
 10
89.43795163779677
 20
-145.1170681060819
 30
0.0
 10
89.43795163779677
 20
-145.1170681060819
 30
0.0
 10
89.26242402282328
 20
-145.098120080913
 30
0.0
 10
89.26242402282328
 20
-145.098120080913
 30
0.0
 10
89.26242402282328
 20
-145.098120080913
 30
0.0
 10
89.38300236480703
 20
-144.2520046297356
 30
0.0
 10
89.38300236480703
 20
-144.2520046297356
 30
0.0
 10
89.38300236480703
 20
-144.2520046297356
 30
0.0
 10
90.16142168969924
 20
-144.2520046297356
 30
0.0
 10
90.16142168969924
 20
-144.2520046297356
 30
0.0
 10
90.16142168969924
 20
-144.2520046297356
 30
0.0
 10
90.16142168969924
 20
-144.4466525246522
 30
0.0
 10
90.16142168969924
 20
-144.4466525246522
 30
0.0
 10
90.16142168969924
 20
-144.4466525246522
 30
0.0
 10
89.54595538125935
 20
-144.4466525246522
 30
0.0
 10
89.54595538125935
 20
-144.4466525246522
 30
0.0
 10
89.54595538125935
 20
-144.4466525246522
 30
0.0
 10
89.48032631226533
 20
-144.8697102502409
 30
0.0
 10
89.48032631226533
 20
-144.8697102502409
 30
0.0
 10
89.54164901190279
 20
-144.8359483144855
 30
0.0
 10
89.62415904877452
 20
-144.795640697308
 30
0.0
 10
89.74267033346712
 20
-144.795640697308
 30
0.0
 10
89.99640161595576
 20
-144.795640697308
 30
0.0
 10
90.23342418534095
 20
-144.9816758535115
 30
0.0
 10
90.23342418534095
 20
-145.2948350331207
 30
0.0
 10
90.23342418534095
 20
-145.6121283273123
 30
0.0
 10
90.00914846925119
 20
-145.8470838394063
 30
0.0
 10
89.70666908564625
 20
-145.8470838394063
 30
0.0
  0
HATCH
  5
197
330
186
100
AcDbEntity
  8
_U+30EC_U+30A4_U+30E4_U+30FC 1
 62
   179
420
  2234388
100
AcDbHatch
 10
0.0
 20
0.0
 30
0.0
210
0.0
220
0.0
230
1.0
  2
SOLID
 70
     1
 71
     0
 91
        1
 92
        1
 93
        1
 72
     4
 94
        3
 73
     0
 74
     1
 95
       53
 96
       49
 40
0.0
 40
0.0
 40
0.0
 40
0.0
 40
1.0
 40
1.0
 40
1.0
 40
2.0
 40
2.0
 40
2.0
 40
3.0
 40
3.0
 40
3.0
 40
4.0
 40
4.0
 40
4.0
 40
5.0
 40
5.0
 40
5.0
 40
6.0
 40
6.0
 40
6.0
 40
7.0
 40
7.0
 40
7.0
 40
8.0
 40
8.0
 40
8.0
 40
9.0
 40
9.0
 40
9.0
 40
10.0
 40
10.0
 40
10.0
 40
11.0
 40
11.0
 40
11.0
 40
12.0
 40
12.0
 40
12.0
 40
13.0
 40
13.0
 40
13.0
 40
14.0
 40
14.0
 40
14.0
 40
15.0
 40
15.0
 40
15.0
 40
16.0
 40
16.0
 40
16.0
 40
16.0
 10
89.70666908564625
 20
-145.8470838394063
 10
89.62846541813109
 20
-145.8470838394063
 10
89.52683510131621
 20
-145.8302028715286
 10
89.4253770392756
 20
-145.7668131146
 10
89.25174422681901
 20
-145.656570059072
 10
89.23072914435899
 20
-145.5256564306325
 10
89.21160886441585
 20
-145.4174804323956
 10
89.21160886441585
 20
-145.4174804323956
 10
89.43381752321447
 20
-145.4174804323956
 10
89.43381752321447
 20
-145.4174804323956
 10
89.4887667962042
 20
-145.6166069514431
 10
89.61571856483566
 20
-145.6462347726162
 10
89.7087361429374
 20
-145.6462347726162
 10
89.84843476486428
 20
-145.6462347726162
 10
90.00070798531233
 20
-145.5466715130925
 10
90.00070798531233
 20
-145.3141275678381
 10
90.00070798531233
 20
-145.0581569732841
 10
89.82087400098229
 20
-144.9882215349335
 10
89.70029565899854
 20
-144.9882215349335
 10
89.66860078053425
 20
-144.9882215349335
 10
89.52683510131621
 20
-144.9882215349335
 10
89.43795163779677
 20
-145.1170681060819
 10
89.43795163779677
 20
-145.1170681060819
 10
89.26242402282328
 20
-145.098120080913
 10
89.26242402282328
 20
-145.098120080913
 10
89.26242402282328
 20
-145.098120080913
 10
89.38300236480703
 20
-144.2520046297356
 10
89.38300236480703
 20
-144.2520046297356
 10
89.38300236480703
 20
-144.2520046297356
 10
90.16142168969924
 20
-144.2520046297356
 10
90.16142168969924
 20
-144.2520046297356
 10
90.16142168969924
 20
-144.2520046297356
 10
90.16142168969924
 20
-144.4466525246522
 10
90.16142168969924
 20
-144.4466525246522
 10
90.16142168969924
 20
-144.4466525246522
 10
89.54595538125935
 20
-144.4466525246522
 10
89.54595538125935
 20
-144.4466525246522
 10
89.54595538125935
 20
-144.4466525246522
 10
89.48032631226533
 20
-144.8697102502409
 10
89.48032631226533
 20
-144.8697102502409
 10
89.54164901190279
 20
-144.8359483144855
 10
89.62415904877452
 20
-144.795640697308
 10
89.74267033346712
 20
-144.795640697308
 10
89.99640161595576
 20
-144.795640697308
 10
90.23342418534095
 20
-144.9816758535115
 10
90.23342418534095
 20
-145.2948350331207
 10
90.23342418534095
 20
-145.6121283273123
 10
90.00914846925119
 20
-145.8470838394063
 10
89.70666908564625
 20
-145.8470838394063
 97
        0
 97
        0
 75
     2
 76
     1
 98
        0
  0
ENDBLK
  5
189
330
186
100
AcDbEntity
  8
0
100
AcDbBlockEnd
  0
BLOCK
  5
1A9
330
1A7
100
AcDbEntity
  8
0
100
AcDbBlockBegin
  2
block 7
 70
     0
 10
0.0
 20
0.0
 30
0.0
  3
block 7
  1

  0
SPLINE
  5
1AB
330
1A7
100
AcDbEntity
  8
_U+30EC_U+30A4_U+30E4_U+30FC 1
370
     0
100
AcDbSpline
210
0.0
220
0.0
230
1.0
 70
    11
 71
     3
 72
    26
 73
    22
 74
     0
 42
0.0000000001
 43
0.0000000001
 12
1.0
 22
0.0
 32
0.0
 13
1.0
 23
0.0
 33
0.0
 40
0.0
 40
0.0
 40
0.0
 40
0.0
 40
1.0
 40
1.0
 40
1.0
 40
2.0
 40
2.0
 40
2.0
 40
3.0
 40
3.0
 40
3.0
 40
4.0
 40
4.0
 40
4.0
 40
5.0
 40
5.0
 40
5.0
 40
6.0
 40
6.0
 40
6.0
 40
7.0
 40
7.0
 40
7.0
 40
7.0
 10
93.88746471177119
 20
-116.7961439052628
 30
0.0
 10
93.88746471177119
 20
-116.7961439052628
 30
0.0
 10
93.88746471177119
 20
-115.6918185474659
 30
0.0
 10
93.88746471177119
 20
-115.6918185474659
 30
0.0
 10
93.88746471177119
 20
-115.6918185474659
 30
0.0
 10
93.55742456428426
 20
-115.6918185474659
 30
0.0
 10
93.55742456428426
 20
-115.6918185474659
 30
0.0
 10
93.55742456428426
 20
-115.6918185474659
 30
0.0
 10
93.55742456428426
 20
-115.5438516963745
 30
0.0
 10
93.55742456428426
 20
-115.5438516963745
 30
0.0
 10
93.88953176906234
 20
-115.5290377857879
 30
0.0
 10
93.93604055811322
 20
-115.3660847693356
 30
0.0
 10
93.96566837928637
 20
-115.2518798539995
 30
0.0
 10
93.96566837928637
 20
-115.2518798539995
 30
0.0
 10
94.11174042786095
 20
-115.2518798539995
 30
0.0
 10
94.11174042786095
 20
-115.2518798539995
 30
0.0
 10
94.11174042786095
 20
-115.2518798539995
 30
0.0
 10
94.11174042786095
 20
-116.7961439052628
 30
0.0
 10
94.11174042786095
 20
-116.7961439052628
 30
0.0
 10
94.11174042786095
 20
-116.7961439052628
 30
0.0
 10
93.88746471177119
 20
-116.7961439052628
 30
0.0
 10
93.88746471177119
 20
-116.7961439052628
 30
0.0
  0
HATCH
  5
1AC
330
1A7
100
AcDbEntity
  8
_U+30EC_U+30A4_U+30E4_U+30FC 1
 62
   179
420
  2234388
100
AcDbHatch
 10
0.0
 20
0.0
 30
0.0
210
0.0
220
0.0
230
1.0
  2
SOLID
 70
     1
 71
     0
 91
        1
 92
        1
 93
        1
 72
     4
 94
        3
 73
     0
 74
     1
 95
       26
 96
       22
 40
0.0
 40
0.0
 40
0.0
 40
0.0
 40
1.0
 40
1.0
 40
1.0
 40
2.0
 40
2.0
 40
2.0
 40
3.0
 40
3.0
 40
3.0
 40
4.0
 40
4.0
 40
4.0
 40
5.0
 40
5.0
 40
5.0
 40
6.0
 40
6.0
 40
6.0
 40
7.0
 40
7.0
 40
7.0
 40
7.0
 10
93.88746471177119
 20
-116.7961439052628
 10
93.88746471177119
 20
-116.7961439052628
 10
93.88746471177119
 20
-115.6918185474659
 10
93.88746471177119
 20
-115.6918185474659
 10
93.88746471177119
 20
-115.6918185474659
 10
93.55742456428426
 20
-115.6918185474659
 10
93.55742456428426
 20
-115.6918185474659
 10
93.55742456428426
 20
-115.6918185474659
 10
93.55742456428426
 20
-115.5438516963745
 10
93.55742456428426
 20
-115.5438516963745
 10
93.88953176906234
 20
-115.5290377857879
 10
93.93604055811322
 20
-115.3660847693356
 10
93.96566837928637
 20
-115.2518798539995
 10
93.96566837928637
 20
-115.2518798539995
 10
94.11174042786095
 20
-115.2518798539995
 10
94.11174042786095
 20
-115.2518798539995
 10
94.11174042786095
 20
-115.2518798539995
 10
94.11174042786095
 20
-116.7961439052628
 10
94.11174042786095
 20
-116.7961439052628
 10
94.11174042786095
 20
-116.7961439052628
 10
93.88746471177119
 20
-116.7961439052628
 10
93.88746471177119
 20
-116.7961439052628
 97
        0
 97
        0
 75
     2
 76
     1
 98
        0
  0
SPLINE
  5
1AD
330
1A7
100
AcDbEntity
  8
_U+30EC_U+30A4_U+30E4_U+30FC 1
370
     0
100
AcDbSpline
210
0.0
220
0.0
230
1.0
 70
    11
 71
     3
 72
    53
 73
    49
 74
     0
 42
0.0000000001
 43
0.0000000001
 12
1.0
 22
0.0
 32
0.0
 13
1.0
 23
0.0
 33
0.0
 40
0.0
 40
0.0
 40
0.0
 40
0.0
 40
1.0
 40
1.0
 40
1.0
 40
2.0
 40
2.0
 40
2.0
 40
3.0
 40
3.0
 40
3.0
 40
4.0
 40
4.0
 40
4.0
 40
5.0
 40
5.0
 40
5.0
 40
6.0
 40
6.0
 40
6.0
 40
7.0
 40
7.0
 40
7.0
 40
8.0
 40
8.0
 40
8.0
 40
9.0
 40
9.0
 40
9.0
 40
10.0
 40
10.0
 40
10.0
 40
11.0
 40
11.0
 40
11.0
 40
12.0
 40
12.0
 40
12.0
 40
13.0
 40
13.0
 40
13.0
 40
14.0
 40
14.0
 40
14.0
 40
15.0
 40
15.0
 40
15.0
 40
16.0
 40
16.0
 40
16.0
 40
16.0
 10
95.09393715070568
 20
-116.8469590636702
 30
0.0
 10
95.01573348319052
 20
-116.8469590636702
 30
0.0
 10
94.91410316637564
 20
-116.8300780957925
 30
0.0
 10
94.81247284956078
 20
-116.7665160840896
 30
0.0
 10
94.63918454665271
 20
-116.6566175381102
 30
0.0
 10
94.61782495464416
 20
-116.5253594001221
 30
0.0
 10
94.59887692947528
 20
-116.4175279114338
 30
0.0
 10
94.59887692947528
 20
-116.4175279114338
 30
0.0
 10
94.8210855882739
 20
-116.4175279114338
 30
0.0
 10
94.8210855882739
 20
-116.4175279114338
 30
0.0
 10
94.87586260648938
 20
-116.6163099209327
 30
0.0
 10
95.00298662989509
 20
-116.6459377421059
 30
0.0
 10
95.09600420799684
 20
-116.6459377421059
 30
0.0
 10
95.23553057514945
 20
-116.6459377421059
 30
0.0
 10
95.38780379559749
 20
-116.5465467373564
 30
0.0
 10
95.38780379559749
 20
-116.3138305373278
 30
0.0
 10
95.38780379559749
 20
-116.0578599427737
 30
0.0
 10
95.20796981126746
 20
-115.9880967591974
 30
0.0
 10
95.08739146928372
 20
-115.9880967591974
 30
0.0
 10
95.05569659081941
 20
-115.9880967591974
 30
0.0
 10
94.91410316637564
 20
-115.9880967591974
 30
0.0
 10
94.8252197028562
 20
-116.11711558512
 30
0.0
 10
94.8252197028562
 20
-116.11711558512
 30
0.0
 10
94.64951983310846
 20
-116.0979953051769
 30
0.0
 10
94.64951983310846
 20
-116.0979953051769
 30
0.0
 10
94.64951983310846
 20
-116.0979953051769
 30
0.0
 10
94.7700981750922
 20
-115.2518798539995
 30
0.0
 10
94.7700981750922
 20
-115.2518798539995
 30
0.0
 10
94.7700981750922
 20
-115.2518798539995
 30
0.0
 10
95.54868975475867
 20
-115.2518798539995
 30
0.0
 10
95.54868975475867
 20
-115.2518798539995
 30
0.0
 10
95.54868975475867
 20
-115.2518798539995
 30
0.0
 10
95.54868975475867
 20
-115.4465277489162
 30
0.0
 10
95.54868975475867
 20
-115.4465277489162
 30
0.0
 10
95.54868975475867
 20
-115.4465277489162
 30
0.0
 10
94.93305119154452
 20
-115.4465277489162
 30
0.0
 10
94.93305119154452
 20
-115.4465277489162
 30
0.0
 10
94.93305119154452
 20
-115.4465277489162
 30
0.0
 10
94.86759437732478
 20
-115.8695854745048
 30
0.0
 10
94.86759437732478
 20
-115.8695854745048
 30
0.0
 10
94.92891707696222
 20
-115.8358235387494
 30
0.0
 10
95.01125485905969
 20
-115.795515921572
 30
0.0
 10
95.12976614375229
 20
-115.795515921572
 30
0.0
 10
95.38366968101519
 20
-115.795515921572
 30
0.0
 10
95.62069225040038
 20
-115.9817233325497
 30
0.0
 10
95.62069225040038
 20
-116.2948825121589
 30
0.0
 10
95.62069225040038
 20
-116.6121758063504
 30
0.0
 10
95.39641653431062
 20
-116.8469590636702
 30
0.0
 10
95.09393715070568
 20
-116.8469590636702
 30
0.0
  0
HATCH
  5
1AE
330
1A7
100
AcDbEntity
  8
_U+30EC_U+30A4_U+30E4_U+30FC 1
 62
   179
420
  2234388
100
AcDbHatch
 10
0.0
 20
0.0
 30
0.0
210
0.0
220
0.0
230
1.0
  2
SOLID
 70
     1
 71
     0
 91
        1
 92
        1
 93
        1
 72
     4
 94
        3
 73
     0
 74
     1
 95
       53
 96
       49
 40
0.0
 40
0.0
 40
0.0
 40
0.0
 40
1.0
 40
1.0
 40
1.0
 40
2.0
 40
2.0
 40
2.0
 40
3.0
 40
3.0
 40
3.0
 40
4.0
 40
4.0
 40
4.0
 40
5.0
 40
5.0
 40
5.0
 40
6.0
 40
6.0
 40
6.0
 40
7.0
 40
7.0
 40
7.0
 40
8.0
 40
8.0
 40
8.0
 40
9.0
 40
9.0
 40
9.0
 40
10.0
 40
10.0
 40
10.0
 40
11.0
 40
11.0
 40
11.0
 40
12.0
 40
12.0
 40
12.0
 40
13.0
 40
13.0
 40
13.0
 40
14.0
 40
14.0
 40
14.0
 40
15.0
 40
15.0
 40
15.0
 40
16.0
 40
16.0
 40
16.0
 40
16.0
 10
95.09393715070568
 20
-116.8469590636702
 10
95.01573348319052
 20
-116.8469590636702
 10
94.91410316637564
 20
-116.8300780957925
 10
94.81247284956078
 20
-116.7665160840896
 10
94.63918454665271
 20
-116.6566175381102
 10
94.61782495464416
 20
-116.5253594001221
 10
94.59887692947528
 20
-116.4175279114338
 10
94.59887692947528
 20
-116.4175279114338
 10
94.8210855882739
 20
-116.4175279114338
 10
94.8210855882739
 20
-116.4175279114338
 10
94.87586260648938
 20
-116.6163099209327
 10
95.00298662989509
 20
-116.6459377421059
 10
95.09600420799684
 20
-116.6459377421059
 10
95.23553057514945
 20
-116.6459377421059
 10
95.38780379559749
 20
-116.5465467373564
 10
95.38780379559749
 20
-116.3138305373278
 10
95.38780379559749
 20
-116.0578599427737
 10
95.20796981126746
 20
-115.9880967591974
 10
95.08739146928372
 20
-115.9880967591974
 10
95.05569659081941
 20
-115.9880967591974
 10
94.91410316637564
 20
-115.9880967591974
 10
94.8252197028562
 20
-116.11711558512
 10
94.8252197028562
 20
-116.11711558512
 10
94.64951983310846
 20
-116.0979953051769
 10
94.64951983310846
 20
-116.0979953051769
 10
94.64951983310846
 20
-116.0979953051769
 10
94.7700981750922
 20
-115.2518798539995
 10
94.7700981750922
 20
-115.2518798539995
 10
94.7700981750922
 20
-115.2518798539995
 10
95.54868975475867
 20
-115.2518798539995
 10
95.54868975475867
 20
-115.2518798539995
 10
95.54868975475867
 20
-115.2518798539995
 10
95.54868975475867
 20
-115.4465277489162
 10
95.54868975475867
 20
-115.4465277489162
 10
95.54868975475867
 20
-115.4465277489162
 10
94.93305119154452
 20
-115.4465277489162
 10
94.93305119154452
 20
-115.4465277489162
 10
94.93305119154452
 20
-115.4465277489162
 10
94.86759437732478
 20
-115.8695854745048
 10
94.86759437732478
 20
-115.8695854745048
 10
94.92891707696222
 20
-115.8358235387494
 10
95.01125485905969
 20
-115.795515921572
 10
95.12976614375229
 20
-115.795515921572
 10
95.38366968101519
 20
-115.795515921572
 10
95.62069225040038
 20
-115.9817233325497
 10
95.62069225040038
 20
-116.2948825121589
 10
95.62069225040038
 20
-116.6121758063504
 10
95.39641653431062
 20
-116.8469590636702
 10
95.09393715070568
 20
-116.8469590636702
 97
        0
 97
        0
 75
     2
 76
     1
 98
        0
  0
ENDBLK
  5
1AA
330
1A7
100
AcDbEntity
  8
0
100
AcDbBlockEnd
  0
BLOCK
  5
1B1
330
1AF
100
AcDbEntity
  8
0
100
AcDbBlockBegin
  2
block 8
 70
     0
 10
0.0
 20
0.0
 30
0.0
  3
block 8
  1

  0
SPLINE
  5
1B3
330
1AF
100
AcDbEntity
  8
_U+30EC_U+30A4_U+30E4_U+30FC 1
370
     0
100
AcDbSpline
210
0.0
220
0.0
230
1.0
 70
    11
 71
     3
 72
    26
 73
    22
 74
     0
 42
0.0000000001
 43
0.0000000001
 12
1.0
 22
0.0
 32
0.0
 13
1.0
 23
0.0
 33
0.0
 40
0.0
 40
0.0
 40
0.0
 40
0.0
 40
1.0
 40
1.0
 40
1.0
 40
2.0
 40
2.0
 40
2.0
 40
3.0
 40
3.0
 40
3.0
 40
4.0
 40
4.0
 40
4.0
 40
5.0
 40
5.0
 40
5.0
 40
6.0
 40
6.0
 40
6.0
 40
7.0
 40
7.0
 40
7.0
 40
7.0
 10
81.79517955854426
 20
-131.8775661562667
 30
0.0
 10
81.79517955854426
 20
-131.8775661562667
 30
0.0
 10
81.79517955854426
 20
-130.7730685436956
 30
0.0
 10
81.79517955854426
 20
-130.7730685436956
 30
0.0
 10
81.79517955854426
 20
-130.7730685436956
 30
0.0
 10
81.46513941105734
 20
-130.7730685436956
 30
0.0
 10
81.46513941105734
 20
-130.7730685436956
 30
0.0
 10
81.46513941105734
 20
-130.7730685436956
 30
0.0
 10
81.46513941105734
 20
-130.6249294378299
 30
0.0
 10
81.46513941105734
 20
-130.6249294378299
 30
0.0
 10
81.79741887060968
 20
-130.6101155272433
 30
0.0
 10
81.84392765966055
 20
-130.4475070203395
 30
0.0
 10
81.8735554808337
 20
-130.3331298502292
 30
0.0
 10
81.8735554808337
 20
-130.3331298502292
 30
0.0
 10
82.01945527463403
 20
-130.3331298502292
 30
0.0
 10
82.01945527463403
 20
-130.3331298502292
 30
0.0
 10
82.01945527463403
 20
-130.3331298502292
 30
0.0
 10
82.01945527463403
 20
-131.8775661562667
 30
0.0
 10
82.01945527463403
 20
-131.8775661562667
 30
0.0
 10
82.01945527463403
 20
-131.8775661562667
 30
0.0
 10
81.79517955854426
 20
-131.8775661562667
 30
0.0
 10
81.79517955854426
 20
-131.8775661562667
 30
0.0
  0
HATCH
  5
1B4
330
1AF
100
AcDbEntity
  8
_U+30EC_U+30A4_U+30E4_U+30FC 1
 62
   179
420
  2234388
100
AcDbHatch
 10
0.0
 20
0.0
 30
0.0
210
0.0
220
0.0
230
1.0
  2
SOLID
 70
     1
 71
     0
 91
        1
 92
        1
 93
        1
 72
     4
 94
        3
 73
     0
 74
     1
 95
       26
 96
       22
 40
0.0
 40
0.0
 40
0.0
 40
0.0
 40
1.0
 40
1.0
 40
1.0
 40
2.0
 40
2.0
 40
2.0
 40
3.0
 40
3.0
 40
3.0
 40
4.0
 40
4.0
 40
4.0
 40
5.0
 40
5.0
 40
5.0
 40
6.0
 40
6.0
 40
6.0
 40
7.0
 40
7.0
 40
7.0
 40
7.0
 10
81.79517955854426
 20
-131.8775661562667
 10
81.79517955854426
 20
-131.8775661562667
 10
81.79517955854426
 20
-130.7730685436956
 10
81.79517955854426
 20
-130.7730685436956
 10
81.79517955854426
 20
-130.7730685436956
 10
81.46513941105734
 20
-130.7730685436956
 10
81.46513941105734
 20
-130.7730685436956
 10
81.46513941105734
 20
-130.7730685436956
 10
81.46513941105734
 20
-130.6249294378299
 10
81.46513941105734
 20
-130.6249294378299
 10
81.79741887060968
 20
-130.6101155272433
 10
81.84392765966055
 20
-130.4475070203395
 10
81.8735554808337
 20
-130.3331298502292
 10
81.8735554808337
 20
-130.3331298502292
 10
82.01945527463403
 20
-130.3331298502292
 10
82.01945527463403
 20
-130.3331298502292
 10
82.01945527463403
 20
-130.3331298502292
 10
82.01945527463403
 20
-131.8775661562667
 10
82.01945527463403
 20
-131.8775661562667
 10
82.01945527463403
 20
-131.8775661562667
 10
81.79517955854426
 20
-131.8775661562667
 10
81.79517955854426
 20
-131.8775661562667
 97
        0
 97
        0
 75
     2
 76
     1
 98
        0
  0
POLYLINE
  5
1B5
330
1AF
100
AcDbEntity
  8
_U+30EC_U+30A4_U+30E4_U+30FC 1
370
     0
100
AcDb2dPolyline
 66
     1
 10
0.0
 20
0.0
 30
0.0
  0
VERTEX
  5
1B6
330
1B5
100
AcDbEntity
  8
_U+30EC_U+30A4_U+30E4_U+30FC 1
370
     0
100
AcDbVertex
100
AcDb2dVertex
 10
82.58066132918123
 20
-131.8775661562667
 30
0.0
  0
VERTEX
  5
1B7
330
1B5
100
AcDbEntity
  8
_U+30EC_U+30A4_U+30E4_U+30FC 1
370
     0
100
AcDbVertex
100
AcDb2dVertex
 10
82.58066132918123
 20
-131.625729676295
 30
0.0
  0
VERTEX
  5
1B8
330
1B5
100
AcDbEntity
  8
_U+30EC_U+30A4_U+30E4_U+30FC 1
370
     0
100
AcDbVertex
100
AcDb2dVertex
 10
82.832497809153
 20
-131.625729676295
 30
0.0
  0
VERTEX
  5
1B9
330
1B5
100
AcDbEntity
  8
_U+30EC_U+30A4_U+30E4_U+30FC 1
370
     0
100
AcDbVertex
100
AcDb2dVertex
 10
82.832497809153
 20
-131.8775661562667
 30
0.0
  0
VERTEX
  5
1BA
330
1B5
100
AcDbEntity
  8
_U+30EC_U+30A4_U+30E4_U+30FC 1
370
     0
100
AcDbVertex
100
AcDb2dVertex
 10
82.58066132918123
 20
-131.8775661562667
 30
0.0
  0
SEQEND
  5
1BB
330
1B5
100
AcDbEntity
  8
_U+30EC_U+30A4_U+30E4_U+30FC 1
370
     0
  0
HATCH
  5
1BC
330
1AF
100
AcDbEntity
  8
_U+30EC_U+30A4_U+30E4_U+30FC 1
 62
   179
420
  2234388
100
AcDbHatch
 10
0.0
 20
0.0
 30
0.0
210
0.0
220
0.0
230
1.0
  2
SOLID
 70
     1
 71
     0
 91
        1
 92
        1
 93
        4
 72
     1
 10
82.58066132918123
 20
-131.8775661562667
 11
82.58066132918123
 21
-131.625729676295
 72
     1
 10
82.58066132918123
 20
-131.625729676295
 11
82.832497809153
 21
-131.625729676295
 72
     1
 10
82.832497809153
 20
-131.625729676295
 11
82.832497809153
 21
-131.8775661562667
 72
     1
 10
82.832497809153
 20
-131.8775661562667
 11
82.58066132918123
 21
-131.8775661562667
 97
        0
 75
     2
 76
     1
 98
        0
  0
SPLINE
  5
1BD
330
1AF
100
AcDbEntity
  8
_U+30EC_U+30A4_U+30E4_U+30FC 1
370
     0
100
AcDbSpline
210
0.0
220
0.0
230
1.0
 70
    11
 71
     3
 72
    53
 73
    49
 74
     0
 42
0.0000000001
 43
0.0000000001
 12
1.0
 22
0.0
 32
0.0
 13
1.0
 23
0.0
 33
0.0
 40
0.0
 40
0.0
 40
0.0
 40
0.0
 40
1.0
 40
1.0
 40
1.0
 40
2.0
 40
2.0
 40
2.0
 40
3.0
 40
3.0
 40
3.0
 40
4.0
 40
4.0
 40
4.0
 40
5.0
 40
5.0
 40
5.0
 40
6.0
 40
6.0
 40
6.0
 40
7.0
 40
7.0
 40
7.0
 40
8.0
 40
8.0
 40
8.0
 40
9.0
 40
9.0
 40
9.0
 40
10.0
 40
10.0
 40
10.0
 40
11.0
 40
11.0
 40
11.0
 40
12.0
 40
12.0
 40
12.0
 40
13.0
 40
13.0
 40
13.0
 40
14.0
 40
14.0
 40
14.0
 40
15.0
 40
15.0
 40
15.0
 40
16.0
 40
16.0
 40
16.0
 40
16.0
 10
83.54993894395626
 20
-131.9282090598999
 30
0.0
 10
83.47156302166684
 20
-131.9282090598999
 30
0.0
 10
83.37010495962623
 20
-131.9113280920222
 30
0.0
 10
83.26847464281136
 20
-131.8479383350936
 30
0.0
 10
83.09501408512902
 20
-131.7376952795656
 30
0.0
 10
83.073999002669
 20
-131.6067816511261
 30
0.0
 10
83.05487872272587
 20
-131.4986056528892
 30
0.0
 10
83.05487872272587
 20
-131.4986056528892
 30
0.0
 10
83.27708738152448
 20
-131.4986056528892
 30
0.0
 10
83.27708738152448
 20
-131.4986056528892
 30
0.0
 10
83.33203665451421
 20
-131.6977321719367
 30
0.0
 10
83.45898842314567
 20
-131.7273599931098
 30
0.0
 10
83.55200600124742
 20
-131.7273599931098
 30
0.0
 10
83.6917046231743
 20
-131.7273599931098
 30
0.0
 10
83.84397784362234
 20
-131.6277967335861
 30
0.0
 10
83.84397784362234
 20
-131.3952527883318
 30
0.0
 10
83.84397784362234
 20
-131.1392821937777
 30
0.0
 10
83.6641438592923
 20
-131.0693467554271
 30
0.0
 10
83.54356551730855
 20
-131.0693467554271
 30
0.0
 10
83.51187063884426
 20
-131.0693467554271
 30
0.0
 10
83.37010495962623
 20
-131.0693467554271
 30
0.0
 10
83.28122149610678
 20
-131.1981933265754
 30
0.0
 10
83.28122149610678
 20
-131.1981933265754
 30
0.0
 10
83.1056938811333
 20
-131.1792453014066
 30
0.0
 10
83.1056938811333
 20
-131.1792453014066
 30
0.0
 10
83.1056938811333
 20
-131.1792453014066
 30
0.0
 10
83.22627222311705
 20
-130.3331298502292
 30
0.0
 10
83.22627222311705
 20
-130.3331298502292
 30
0.0
 10
83.22627222311705
 20
-130.3331298502292
 30
0.0
 10
84.00469154800925
 20
-130.3331298502292
 30
0.0
 10
84.00469154800925
 20
-130.3331298502292
 30
0.0
 10
84.00469154800925
 20
-130.3331298502292
 30
0.0
 10
84.00469154800925
 20
-130.5277777451458
 30
0.0
 10
84.00469154800925
 20
-130.5277777451458
 30
0.0
 10
84.00469154800925
 20
-130.5277777451458
 30
0.0
 10
83.38922523956937
 20
-130.5277777451458
 30
0.0
 10
83.38922523956937
 20
-130.5277777451458
 30
0.0
 10
83.38922523956937
 20
-130.5277777451458
 30
0.0
 10
83.32359617057536
 20
-130.9508354707345
 30
0.0
 10
83.32359617057536
 20
-130.9508354707345
 30
0.0
 10
83.3849188702128
 20
-130.9170735349791
 30
0.0
 10
83.46742890708454
 20
-130.8767659178016
 30
0.0
 10
83.58594019177713
 20
-130.8767659178016
 30
0.0
 10
83.83967147426578
 20
-130.8767659178016
 30
0.0
 10
84.07669404365097
 20
-131.0628010740051
 30
0.0
 10
84.07669404365097
 20
-131.3759602536144
 30
0.0
 10
84.07669404365097
 20
-131.6932535478059
 30
0.0
 10
83.85241832756121
 20
-131.9282090598999
 30
0.0
 10
83.54993894395626
 20
-131.9282090598999
 30
0.0
  0
HATCH
  5
1BE
330
1AF
100
AcDbEntity
  8
_U+30EC_U+30A4_U+30E4_U+30FC 1
 62
   179
420
  2234388
100
AcDbHatch
 10
0.0
 20
0.0
 30
0.0
210
0.0
220
0.0
230
1.0
  2
SOLID
 70
     1
 71
     0
 91
        1
 92
        1
 93
        1
 72
     4
 94
        3
 73
     0
 74
     1
 95
       53
 96
       49
 40
0.0
 40
0.0
 40
0.0
 40
0.0
 40
1.0
 40
1.0
 40
1.0
 40
2.0
 40
2.0
 40
2.0
 40
3.0
 40
3.0
 40
3.0
 40
4.0
 40
4.0
 40
4.0
 40
5.0
 40
5.0
 40
5.0
 40
6.0
 40
6.0
 40
6.0
 40
7.0
 40
7.0
 40
7.0
 40
8.0
 40
8.0
 40
8.0
 40
9.0
 40
9.0
 40
9.0
 40
10.0
 40
10.0
 40
10.0
 40
11.0
 40
11.0
 40
11.0
 40
12.0
 40
12.0
 40
12.0
 40
13.0
 40
13.0
 40
13.0
 40
14.0
 40
14.0
 40
14.0
 40
15.0
 40
15.0
 40
15.0
 40
16.0
 40
16.0
 40
16.0
 40
16.0
 10
83.54993894395626
 20
-131.9282090598999
 10
83.47156302166684
 20
-131.9282090598999
 10
83.37010495962623
 20
-131.9113280920222
 10
83.26847464281136
 20
-131.8479383350936
 10
83.09501408512902
 20
-131.7376952795656
 10
83.073999002669
 20
-131.6067816511261
 10
83.05487872272587
 20
-131.4986056528892
 10
83.05487872272587
 20
-131.4986056528892
 10
83.27708738152448
 20
-131.4986056528892
 10
83.27708738152448
 20
-131.4986056528892
 10
83.33203665451421
 20
-131.6977321719367
 10
83.45898842314567
 20
-131.7273599931098
 10
83.55200600124742
 20
-131.7273599931098
 10
83.6917046231743
 20
-131.7273599931098
 10
83.84397784362234
 20
-131.6277967335861
 10
83.84397784362234
 20
-131.3952527883318
 10
83.84397784362234
 20
-131.1392821937777
 10
83.6641438592923
 20
-131.0693467554271
 10
83.54356551730855
 20
-131.0693467554271
 10
83.51187063884426
 20
-131.0693467554271
 10
83.37010495962623
 20
-131.0693467554271
 10
83.28122149610678
 20
-131.1981933265754
 10
83.28122149610678
 20
-131.1981933265754
 10
83.1056938811333
 20
-131.1792453014066
 10
83.1056938811333
 20
-131.1792453014066
 10
83.1056938811333
 20
-131.1792453014066
 10
83.22627222311705
 20
-130.3331298502292
 10
83.22627222311705
 20
-130.3331298502292
 10
83.22627222311705
 20
-130.3331298502292
 10
84.00469154800925
 20
-130.3331298502292
 10
84.00469154800925
 20
-130.3331298502292
 10
84.00469154800925
 20
-130.3331298502292
 10
84.00469154800925
 20
-130.5277777451458
 10
84.00469154800925
 20
-130.5277777451458
 10
84.00469154800925
 20
-130.5277777451458
 10
83.38922523956937
 20
-130.5277777451458
 10
83.38922523956937
 20
-130.5277777451458
 10
83.38922523956937
 20
-130.5277777451458
 10
83.32359617057536
 20
-130.9508354707345
 10
83.32359617057536
 20
-130.9508354707345
 10
83.3849188702128
 20
-130.9170735349791
 10
83.46742890708454
 20
-130.8767659178016
 10
83.58594019177713
 20
-130.8767659178016
 10
83.83967147426578
 20
-130.8767659178016
 10
84.07669404365097
 20
-131.0628010740051
 10
84.07669404365097
 20
-131.3759602536144
 10
84.07669404365097
 20
-131.6932535478059
 10
83.85241832756121
 20
-131.9282090598999
 10
83.54993894395626
 20
-131.9282090598999
 97
        0
 97
        0
 75
     2
 76
     1
 98
        0
  0
ENDBLK
  5
1B2
330
1AF
100
AcDbEntity
  8
0
100
AcDbBlockEnd
  0
BLOCK
  5
1D4
330
1D2
100
AcDbEntity
  8
0
100
AcDbBlockBegin
  2
block 9
 70
     0
 10
0.0
 20
0.0
 30
0.0
  3
block 9
  1

  0
SPLINE
  5
1D6
330
1D2
100
AcDbEntity
  8
_U+30EC_U+30A4_U+30E4_U+30FC 1
370
     0
100
AcDbSpline
210
0.0
220
0.0
230
1.0
 70
    11
 71
     3
 72
    62
 73
    58
 74
     0
 42
0.0000000001
 43
0.0000000001
 12
1.0
 22
0.0
 32
0.0
 13
1.0
 23
0.0
 33
0.0
 40
0.0
 40
0.0
 40
0.0
 40
0.0
 40
1.0
 40
1.0
 40
1.0
 40
2.0
 40
2.0
 40
2.0
 40
3.0
 40
3.0
 40
3.0
 40
4.0
 40
4.0
 40
4.0
 40
5.0
 40
5.0
 40
5.0
 40
6.0
 40
6.0
 40
6.0
 40
7.0
 40
7.0
 40
7.0
 40
8.0
 40
8.0
 40
8.0
 40
9.0
 40
9.0
 40
9.0
 40
10.0
 40
10.0
 40
10.0
 40
11.0
 40
11.0
 40
11.0
 40
12.0
 40
12.0
 40
12.0
 40
13.0
 40
13.0
 40
13.0
 40
14.0
 40
14.0
 40
14.0
 40
15.0
 40
15.0
 40
15.0
 40
16.0
 40
16.0
 40
16.0
 40
17.0
 40
17.0
 40
17.0
 40
18.0
 40
18.0
 40
18.0
 40
19.0
 40
19.0
 40
19.0
 40
19.0
 10
104.9972086326049
 20
-119.53999020449
 30
0.0
 10
104.9972086326049
 20
-119.6352470946572
 30
0.0
 10
104.9761935501448
 20
-119.8531493840992
 30
0.0
 10
104.7898138843928
 20
-119.9778618406653
 30
0.0
 10
104.6778482811222
 20
-120.0519313935981
 30
0.0
 10
104.5782850215985
 20
-120.0562377629547
 30
0.0
 10
104.4938801822099
 20
-120.060371877537
 30
0.0
 10
104.4938801822099
 20
-120.060371877537
 30
0.0
 10
104.4938801822099
 20
-119.8404025308038
 30
0.0
 10
104.4938801822099
 20
-119.8404025308038
 30
0.0
 10
104.5676052255942
 20
-119.8383354735126
 30
0.0
 10
104.8025607376883
 20
-119.8278279322826
 30
0.0
 10
104.8025607376883
 20
-119.5442965738466
 30
0.0
 10
104.8025607376883
 20
-119.4068372639851
 30
0.0
 10
104.7326252993377
 20
-119.2543917887628
 30
0.0
 10
104.5042154686656
 20
-119.2543917887628
 30
0.0
 10
104.3877712412642
 20
-119.2543917887628
 30
0.0
 10
104.3391953949222
 20
-119.2924600938748
 30
0.0
 10
104.3075005164578
 20
-119.3243272271134
 30
0.0
 10
104.233430963525
 20
-119.398224525272
 30
0.0
 10
104.2206841102296
 20
-119.5146687526734
 30
0.0
 10
104.2206841102296
 20
-119.5696180256632
 30
0.0
 10
104.2206841102296
 20
-119.5887383056063
 30
0.0
 10
104.2230956770692
 20
-119.6247395534271
 30
0.0
 10
104.2272297916515
 20
-119.6521280625349
 30
0.0
 10
104.2272297916515
 20
-119.6521280625349
 30
0.0
 10
104.0325818967349
 20
-119.6521280625349
 30
0.0
 10
104.0325818967349
 20
-119.6521280625349
 30
0.0
 10
104.0387830686084
 20
-119.6140597574229
 30
0.0
 10
104.0408501258995
 20
-119.5716850829543
 30
0.0
 10
104.0408501258995
 20
-119.5654839110809
 30
0.0
 10
104.0408501258995
 20
-119.4998548420868
 30
0.0
 10
104.0198350434395
 20
-119.3009005778137
 30
0.0
 10
103.7828124740543
 20
-119.3009005778137
 30
0.0
 10
103.6050455470154
 20
-119.3009005778137
 30
0.0
 10
103.5502685287999
 20
-119.4321587158017
 30
0.0
 10
103.5502685287999
 20
-119.5422295165554
 30
0.0
 10
103.5502685287999
 20
-119.8066405950483
 30
0.0
 10
103.7828124740543
 20
-119.8150810789872
 30
0.0
 10
103.854814969696
 20
-119.8192151935695
 30
0.0
 10
103.854814969696
 20
-119.8192151935695
 30
0.0
 10
103.854814969696
 20
-120.022303572425
 30
0.0
 10
103.854814969696
 20
-120.022303572425
 30
0.0
 10
103.73010251313
 20
-120.0138630884861
 30
0.0
 10
103.3535535765922
 20
-119.9864745793784
 30
0.0
 10
103.3535535765922
 20
-119.52948266326
 30
0.0
 10
103.3535535765922
 20
-119.3052069471702
 30
0.0
 10
103.4803330904494
 20
-119.0640502632027
 30
0.0
 10
103.7766113021809
 20
-119.0640502632027
 30
0.0
 10
103.9626464583843
 20
-119.0640502632027
 30
0.0
 10
104.0453287500303
 20
-119.1593071533699
 30
0.0
 10
104.1066514496678
 20
-119.2586981581194
 30
0.0
 10
104.1342122135498
 20
-119.1973754584819
 30
0.0
 10
104.2144829383561
 20
-119.0154744168607
 30
0.0
 10
104.4914686153702
 20
-119.0154744168607
 30
0.0
 10
104.8301215015702
 20
-119.0154744168607
 30
0.0
 10
104.9972086326049
 20
-119.2628322727017
 30
0.0
 10
104.9972086326049
 20
-119.53999020449
 30
0.0
  0
HATCH
  5
1D7
330
1D2
100
AcDbEntity
  8
_U+30EC_U+30A4_U+30E4_U+30FC 1
 62
   179
420
  2234388
100
AcDbHatch
 10
0.0
 20
0.0
 30
0.0
210
0.0
220
0.0
230
1.0
  2
SOLID
 70
     1
 71
     0
 91
        1
 92
        1
 93
        1
 72
     4
 94
        3
 73
     0
 74
     1
 95
       62
 96
       58
 40
0.0
 40
0.0
 40
0.0
 40
0.0
 40
1.0
 40
1.0
 40
1.0
 40
2.0
 40
2.0
 40
2.0
 40
3.0
 40
3.0
 40
3.0
 40
4.0
 40
4.0
 40
4.0
 40
5.0
 40
5.0
 40
5.0
 40
6.0
 40
6.0
 40
6.0
 40
7.0
 40
7.0
 40
7.0
 40
8.0
 40
8.0
 40
8.0
 40
9.0
 40
9.0
 40
9.0
 40
10.0
 40
10.0
 40
10.0
 40
11.0
 40
11.0
 40
11.0
 40
12.0
 40
12.0
 40
12.0
 40
13.0
 40
13.0
 40
13.0
 40
14.0
 40
14.0
 40
14.0
 40
15.0
 40
15.0
 40
15.0
 40
16.0
 40
16.0
 40
16.0
 40
17.0
 40
17.0
 40
17.0
 40
18.0
 40
18.0
 40
18.0
 40
19.0
 40
19.0
 40
19.0
 40
19.0
 10
104.9972086326049
 20
-119.53999020449
 10
104.9972086326049
 20
-119.6352470946572
 10
104.9761935501448
 20
-119.8531493840992
 10
104.7898138843928
 20
-119.9778618406653
 10
104.6778482811222
 20
-120.0519313935981
 10
104.5782850215985
 20
-120.0562377629547
 10
104.4938801822099
 20
-120.060371877537
 10
104.4938801822099
 20
-120.060371877537
 10
104.4938801822099
 20
-119.8404025308038
 10
104.4938801822099
 20
-119.8404025308038
 10
104.5676052255942
 20
-119.8383354735126
 10
104.8025607376883
 20
-119.8278279322826
 10
104.8025607376883
 20
-119.5442965738466
 10
104.8025607376883
 20
-119.4068372639851
 10
104.7326252993377
 20
-119.2543917887628
 10
104.5042154686656
 20
-119.2543917887628
 10
104.3877712412642
 20
-119.2543917887628
 10
104.3391953949222
 20
-119.2924600938748
 10
104.3075005164578
 20
-119.3243272271134
 10
104.233430963525
 20
-119.398224525272
 10
104.2206841102296
 20
-119.5146687526734
 10
104.2206841102296
 20
-119.5696180256632
 10
104.2206841102296
 20
-119.5887383056063
 10
104.2230956770692
 20
-119.6247395534271
 10
104.2272297916515
 20
-119.6521280625349
 10
104.2272297916515
 20
-119.6521280625349
 10
104.0325818967349
 20
-119.6521280625349
 10
104.0325818967349
 20
-119.6521280625349
 10
104.0387830686084
 20
-119.6140597574229
 10
104.0408501258995
 20
-119.5716850829543
 10
104.0408501258995
 20
-119.5654839110809
 10
104.0408501258995
 20
-119.4998548420868
 10
104.0198350434395
 20
-119.3009005778137
 10
103.7828124740543
 20
-119.3009005778137
 10
103.6050455470154
 20
-119.3009005778137
 10
103.5502685287999
 20
-119.4321587158017
 10
103.5502685287999
 20
-119.5422295165554
 10
103.5502685287999
 20
-119.8066405950483
 10
103.7828124740543
 20
-119.8150810789872
 10
103.854814969696
 20
-119.8192151935695
 10
103.854814969696
 20
-119.8192151935695
 10
103.854814969696
 20
-120.022303572425
 10
103.854814969696
 20
-120.022303572425
 10
103.73010251313
 20
-120.0138630884861
 10
103.3535535765922
 20
-119.9864745793784
 10
103.3535535765922
 20
-119.52948266326
 10
103.3535535765922
 20
-119.3052069471702
 10
103.4803330904494
 20
-119.0640502632027
 10
103.7766113021809
 20
-119.0640502632027
 10
103.9626464583843
 20
-119.0640502632027
 10
104.0453287500303
 20
-119.1593071533699
 10
104.1066514496678
 20
-119.2586981581194
 10
104.1342122135498
 20
-119.1973754584819
 10
104.2144829383561
 20
-119.0154744168607
 10
104.4914686153702
 20
-119.0154744168607
 10
104.8301215015702
 20
-119.0154744168607
 10
104.9972086326049
 20
-119.2628322727017
 10
104.9972086326049
 20
-119.53999020449
 97
        0
 97
        0
 75
     2
 76
     1
 98
        0
  0
POLYLINE
  5
1D8
330
1D2
100
AcDbEntity
  8
_U+30EC_U+30A4_U+30E4_U+30FC 1
370
     0
100
AcDb2dPolyline
 66
     1
 10
0.0
 20
0.0
 30
0.0
  0
VERTEX
  5
1D9
330
1D8
100
AcDbEntity
  8
_U+30EC_U+30A4_U+30E4_U+30FC 1
370
     0
100
AcDbVertex
100
AcDb2dVertex
 10
104.9465657289717
 20
-118.7948160510305
 30
0.0
  0
VERTEX
  5
1DA
330
1D8
100
AcDbEntity
  8
_U+30EC_U+30A4_U+30E4_U+30FC 1
370
     0
100
AcDbVertex
100
AcDb2dVertex
 10
104.6947292489999
 20
-118.7948160510305
 30
0.0
  0
VERTEX
  5
1DB
330
1D8
100
AcDbEntity
  8
_U+30EC_U+30A4_U+30E4_U+30FC 1
370
     0
100
AcDbVertex
100
AcDb2dVertex
 10
104.6947292489999
 20
-118.5429795710587
 30
0.0
  0
VERTEX
  5
1DC
330
1D8
100
AcDbEntity
  8
_U+30EC_U+30A4_U+30E4_U+30FC 1
370
     0
100
AcDbVertex
100
AcDb2dVertex
 10
104.9465657289717
 20
-118.5429795710587
 30
0.0
  0
VERTEX
  5
1DD
330
1D8
100
AcDbEntity
  8
_U+30EC_U+30A4_U+30E4_U+30FC 1
370
     0
100
AcDbVertex
100
AcDb2dVertex
 10
104.9465657289717
 20
-118.7948160510305
 30
0.0
  0
SEQEND
  5
1DE
330
1D8
100
AcDbEntity
  8
_U+30EC_U+30A4_U+30E4_U+30FC 1
370
     0
  0
HATCH
  5
1DF
330
1D2
100
AcDbEntity
  8
_U+30EC_U+30A4_U+30E4_U+30FC 1
 62
   179
420
  2234388
100
AcDbHatch
 10
0.0
 20
0.0
 30
0.0
210
0.0
220
0.0
230
1.0
  2
SOLID
 70
     1
 71
     0
 91
        1
 92
        1
 93
        4
 72
     1
 10
104.9465657289717
 20
-118.7948160510305
 11
104.6947292489999
 21
-118.7948160510305
 72
     1
 10
104.6947292489999
 20
-118.7948160510305
 11
104.6947292489999
 21
-118.5429795710587
 72
     1
 10
104.6947292489999
 20
-118.5429795710587
 11
104.9465657289717
 21
-118.5429795710587
 72
     1
 10
104.9465657289717
 20
-118.5429795710587
 11
104.9465657289717
 21
-118.7948160510305
 97
        0
 75
     2
 76
     1
 98
        0
  0
SPLINE
  5
1E0
330
1D2
100
AcDbEntity
  8
_U+30EC_U+30A4_U+30E4_U+30FC 1
370
     0
100
AcDbSpline
210
0.0
220
0.0
230
1.0
 70
    11
 71
     3
 72
    53
 73
    49
 74
     0
 42
0.0000000001
 43
0.0000000001
 12
1.0
 22
0.0
 32
0.0
 13
1.0
 23
0.0
 33
0.0
 40
0.0
 40
0.0
 40
0.0
 40
0.0
 40
1.0
 40
1.0
 40
1.0
 40
2.0
 40
2.0
 40
2.0
 40
3.0
 40
3.0
 40
3.0
 40
4.0
 40
4.0
 40
4.0
 40
5.0
 40
5.0
 40
5.0
 40
6.0
 40
6.0
 40
6.0
 40
7.0
 40
7.0
 40
7.0
 40
8.0
 40
8.0
 40
8.0
 40
9.0
 40
9.0
 40
9.0
 40
10.0
 40
10.0
 40
10.0
 40
11.0
 40
11.0
 40
11.0
 40
12.0
 40
12.0
 40
12.0
 40
13.0
 40
13.0
 40
13.0
 40
14.0
 40
14.0
 40
14.0
 40
15.0
 40
15.0
 40
15.0
 40
16.0
 40
16.0
 40
16.0
 40
16.0
 10
104.9972086326049
 20
-117.8255384362554
 30
0.0
 10
104.9972086326049
 20
-117.9039143585449
 30
0.0
 10
104.9803276647271
 20
-118.0053724205855
 30
0.0
 10
104.9169379077985
 20
-118.1070027374003
 30
0.0
 10
104.8066948522706
 20
-118.2804632950827
 30
0.0
 10
104.6757812238311
 20
-118.3014783775427
 30
0.0
 10
104.5676052255942
 20
-118.3205986574858
 30
0.0
 10
104.5676052255942
 20
-118.3205986574858
 30
0.0
 10
104.5676052255942
 20
-118.0983899986872
 30
0.0
 10
104.5676052255942
 20
-118.0983899986872
 30
0.0
 10
104.7667317446417
 20
-118.0434407256975
 30
0.0
 10
104.7963595658148
 20
-117.916488957066
 30
0.0
 10
104.7963595658148
 20
-117.8234713789643
 30
0.0
 10
104.7963595658148
 20
-117.6837727570374
 30
0.0
 10
104.6967963062911
 20
-117.5314995365894
 30
0.0
 10
104.4642523610367
 20
-117.5314995365894
 30
0.0
 10
104.2082817664827
 20
-117.5314995365894
 30
0.0
 10
104.1383463281321
 20
-117.7113335209194
 30
0.0
 10
104.1383463281321
 20
-117.8319118629031
 30
0.0
 10
104.1383463281321
 20
-117.8636067413674
 30
0.0
 10
104.1383463281321
 20
-118.0053724205855
 30
0.0
 10
104.2671928992804
 20
-118.0942558841049
 30
0.0
 10
104.2671928992804
 20
-118.0942558841049
 30
0.0
 10
104.2482448741115
 20
-118.2697834990784
 30
0.0
 10
104.2482448741115
 20
-118.2697834990784
 30
0.0
 10
104.2482448741115
 20
-118.2697834990784
 30
0.0
 10
103.4021294229342
 20
-118.1492051570946
 30
0.0
 10
103.4021294229342
 20
-118.1492051570946
 30
0.0
 10
103.4021294229342
 20
-118.1492051570946
 30
0.0
 10
103.4021294229342
 20
-117.3707858322024
 30
0.0
 10
103.4021294229342
 20
-117.3707858322024
 30
0.0
 10
103.4021294229342
 20
-117.3707858322024
 30
0.0
 10
103.5967773178508
 20
-117.3707858322024
 30
0.0
 10
103.5967773178508
 20
-117.3707858322024
 30
0.0
 10
103.5967773178508
 20
-117.3707858322024
 30
0.0
 10
103.5967773178508
 20
-117.9862521406423
 30
0.0
 10
103.5967773178508
 20
-117.9862521406423
 30
0.0
 10
103.5967773178508
 20
-117.9862521406423
 30
0.0
 10
104.0198350434395
 20
-118.0518812096363
 30
0.0
 10
104.0198350434395
 20
-118.0518812096363
 30
0.0
 10
103.986073107684
 20
-117.9905585099989
 30
0.0
 10
103.9457654905066
 20
-117.9080484731272
 30
0.0
 10
103.9457654905066
 20
-117.7895371884346
 30
0.0
 10
103.9457654905066
 20
-117.5358059059459
 30
0.0
 10
104.1318006467101
 20
-117.2987833365607
 30
0.0
 10
104.4449598263193
 20
-117.2987833365607
 30
0.0
 10
104.7622531205108
 20
-117.2987833365607
 30
0.0
 10
104.9972086326049
 20
-117.5230590526505
 30
0.0
 10
104.9972086326049
 20
-117.8255384362554
 30
0.0
  0
HATCH
  5
1E1
330
1D2
100
AcDbEntity
  8
_U+30EC_U+30A4_U+30E4_U+30FC 1
 62
   179
420
  2234388
100
AcDbHatch
 10
0.0
 20
0.0
 30
0.0
210
0.0
220
0.0
230
1.0
  2
SOLID
 70
     1
 71
     0
 91
        1
 92
        1
 93
        1
 72
     4
 94
        3
 73
     0
 74
     1
 95
       53
 96
       49
 40
0.0
 40
0.0
 40
0.0
 40
0.0
 40
1.0
 40
1.0
 40
1.0
 40
2.0
 40
2.0
 40
2.0
 40
3.0
 40
3.0
 40
3.0
 40
4.0
 40
4.0
 40
4.0
 40
5.0
 40
5.0
 40
5.0
 40
6.0
 40
6.0
 40
6.0
 40
7.0
 40
7.0
 40
7.0
 40
8.0
 40
8.0
 40
8.0
 40
9.0
 40
9.0
 40
9.0
 40
10.0
 40
10.0
 40
10.0
 40
11.0
 40
11.0
 40
11.0
 40
12.0
 40
12.0
 40
12.0
 40
13.0
 40
13.0
 40
13.0
 40
14.0
 40
14.0
 40
14.0
 40
15.0
 40
15.0
 40
15.0
 40
16.0
 40
16.0
 40
16.0
 40
16.0
 10
104.9972086326049
 20
-117.8255384362554
 10
104.9972086326049
 20
-117.9039143585449
 10
104.9803276647271
 20
-118.0053724205855
 10
104.9169379077985
 20
-118.1070027374003
 10
104.8066948522706
 20
-118.2804632950827
 10
104.6757812238311
 20
-118.3014783775427
 10
104.5676052255942
 20
-118.3205986574858
 10
104.5676052255942
 20
-118.3205986574858
 10
104.5676052255942
 20
-118.0983899986872
 10
104.5676052255942
 20
-118.0983899986872
 10
104.7667317446417
 20
-118.0434407256975
 10
104.7963595658148
 20
-117.916488957066
 10
104.7963595658148
 20
-117.8234713789643
 10
104.7963595658148
 20
-117.6837727570374
 10
104.6967963062911
 20
-117.5314995365894
 10
104.4642523610367
 20
-117.5314995365894
 10
104.2082817664827
 20
-117.5314995365894
 10
104.1383463281321
 20
-117.7113335209194
 10
104.1383463281321
 20
-117.8319118629031
 10
104.1383463281321
 20
-117.8636067413674
 10
104.1383463281321
 20
-118.0053724205855
 10
104.2671928992804
 20
-118.0942558841049
 10
104.2671928992804
 20
-118.0942558841049
 10
104.2482448741115
 20
-118.2697834990784
 10
104.2482448741115
 20
-118.2697834990784
 10
104.2482448741115
 20
-118.2697834990784
 10
103.4021294229342
 20
-118.1492051570946
 10
103.4021294229342
 20
-118.1492051570946
 10
103.4021294229342
 20
-118.1492051570946
 10
103.4021294229342
 20
-117.3707858322024
 10
103.4021294229342
 20
-117.3707858322024
 10
103.4021294229342
 20
-117.3707858322024
 10
103.5967773178508
 20
-117.3707858322024
 10
103.5967773178508
 20
-117.3707858322024
 10
103.5967773178508
 20
-117.3707858322024
 10
103.5967773178508
 20
-117.9862521406423
 10
103.5967773178508
 20
-117.9862521406423
 10
103.5967773178508
 20
-117.9862521406423
 10
104.0198350434395
 20
-118.0518812096363
 10
104.0198350434395
 20
-118.0518812096363
 10
103.986073107684
 20
-117.9905585099989
 10
103.9457654905066
 20
-117.9080484731272
 10
103.9457654905066
 20
-117.7895371884346
 10
103.9457654905066
 20
-117.5358059059459
 10
104.1318006467101
 20
-117.2987833365607
 10
104.4449598263193
 20
-117.2987833365607
 10
104.7622531205108
 20
-117.2987833365607
 10
104.9972086326049
 20
-117.5230590526505
 10
104.9972086326049
 20
-117.8255384362554
 97
        0
 97
        0
 75
     2
 76
     1
 98
        0
  0
ENDBLK
  5
1D5
330
1D2
100
AcDbEntity
  8
0
100
AcDbBlockEnd
  0
BLOCK
  5
1F7
330
1F5
100
AcDbEntity
  8
0
100
AcDbBlockBegin
  2
block 10
 70
     0
 10
0.0
 20
0.0
 30
0.0
  3
block 10
  1

  0
SPLINE
  5
1F9
330
1F5
100
AcDbEntity
  8
_U+30EC_U+30A4_U+30E4_U+30FC 1
370
     0
100
AcDbSpline
210
0.0
220
0.0
230
1.0
 70
    11
 71
     3
 72
    44
 73
    40
 74
     0
 42
0.0000000001
 43
0.0000000001
 12
1.0
 22
0.0
 32
0.0
 13
1.0
 23
0.0
 33
0.0
 40
0.0
 40
0.0
 40
0.0
 40
0.0
 40
1.0
 40
1.0
 40
1.0
 40
2.0
 40
2.0
 40
2.0
 40
3.0
 40
3.0
 40
3.0
 40
4.0
 40
4.0
 40
4.0
 40
5.0
 40
5.0
 40
5.0
 40
6.0
 40
6.0
 40
6.0
 40
7.0
 40
7.0
 40
7.0
 40
8.0
 40
8.0
 40
8.0
 40
9.0
 40
9.0
 40
9.0
 40
10.0
 40
10.0
 40
10.0
 40
11.0
 40
11.0
 40
11.0
 40
12.0
 40
12.0
 40
12.0
 40
13.0
 40
13.0
 40
13.0
 40
13.0
 10
75.98192543673369
 20
-141.9389675209389
 30
0.0
 10
76.14057208382944
 20
-142.1570420651552
 30
0.0
 10
76.21464163676231
 20
-142.2500596432569
 30
0.0
 10
76.35847437327149
 20
-142.298635489599
 30
0.0
 10
76.35847437327149
 20
-142.298635489599
 30
0.0
 10
76.35847437327149
 20
-141.520388419481
 30
0.0
 10
76.35847437327149
 20
-141.520388419481
 30
0.0
 10
76.35847437327149
 20
-141.520388419481
 30
0.0
 10
76.56362980941812
 20
-141.520388419481
 30
0.0
 10
76.56362980941812
 20
-141.520388419481
 30
0.0
 10
76.56362980941812
 20
-141.520388419481
 30
0.0
 10
76.56362980941812
 20
-142.5484049122796
 30
0.0
 10
76.56362980941812
 20
-142.5484049122796
 30
0.0
 10
76.20620115282345
 20
-142.5167100338153
 30
0.0
 10
76.12782523053401
 20
-142.450908710047
 30
0.0
 10
75.82965221628565
 20
-142.0660915443446
 30
0.0
 10
75.63069795201247
 20
-141.8101209497905
 30
0.0
 10
75.56300182572731
 20
-141.7443196260222
 30
0.0
 10
75.42554251586584
 20
-141.7443196260222
 30
0.0
 10
75.30703123117324
 20
-141.7443196260222
 30
0.0
 10
75.17594534795948
 20
-141.816322121664
 30
0.0
 10
75.17594534795948
 20
-142.0130370738717
 30
0.0
 10
75.17594534795948
 20
-142.2734862925566
 30
0.0
 10
75.4064222359227
 20
-142.2817545217212
 30
0.0
 10
75.52286646332415
 20
-142.2858886363035
 30
0.0
 10
75.52286646332415
 20
-142.2858886363035
 30
0.0
 10
75.52286646332415
 20
-142.5101643523933
 30
0.0
 10
75.52286646332415
 20
-142.5101643523933
 30
0.0
 10
75.39591469469269
 20
-142.5018961232287
 30
0.0
 10
75.2837768366478
 20
-142.4912163272244
 30
0.0
 10
75.16526555195522
 20
-142.4109456024181
 30
0.0
 10
75.00455184756831
 20
-142.3007025468901
 30
0.0
 10
74.9706176570386
 20
-142.1146673906866
 30
0.0
 10
74.9706176570386
 20
-141.9982231632852
 30
0.0
 10
74.9706176570386
 20
-141.7212374862711
 30
0.0
 10
75.1547580107252
 20
-141.5138427380591
 30
0.0
 10
75.42760957315699
 20
-141.5138427380591
 30
0.0
 10
75.65619165860332
 20
-141.5138427380591
 30
0.0
 10
75.75558266335277
 20
-141.6302869654605
 30
0.0
 10
75.98192543673369
 20
-141.9389675209389
 30
0.0
  0
HATCH
  5
1FA
330
1F5
100
AcDbEntity
  8
_U+30EC_U+30A4_U+30E4_U+30FC 1
 62
   179
420
  2234388
100
AcDbHatch
 10
0.0
 20
0.0
 30
0.0
210
0.0
220
0.0
230
1.0
  2
SOLID
 70
     1
 71
     0
 91
        1
 92
        1
 93
        1
 72
     4
 94
        3
 73
     0
 74
     1
 95
       44
 96
       40
 40
0.0
 40
0.0
 40
0.0
 40
0.0
 40
1.0
 40
1.0
 40
1.0
 40
2.0
 40
2.0
 40
2.0
 40
3.0
 40
3.0
 40
3.0
 40
4.0
 40
4.0
 40
4.0
 40
5.0
 40
5.0
 40
5.0
 40
6.0
 40
6.0
 40
6.0
 40
7.0
 40
7.0
 40
7.0
 40
8.0
 40
8.0
 40
8.0
 40
9.0
 40
9.0
 40
9.0
 40
10.0
 40
10.0
 40
10.0
 40
11.0
 40
11.0
 40
11.0
 40
12.0
 40
12.0
 40
12.0
 40
13.0
 40
13.0
 40
13.0
 40
13.0
 10
75.98192543673369
 20
-141.9389675209389
 10
76.14057208382944
 20
-142.1570420651552
 10
76.21464163676231
 20
-142.2500596432569
 10
76.35847437327149
 20
-142.298635489599
 10
76.35847437327149
 20
-142.298635489599
 10
76.35847437327149
 20
-141.520388419481
 10
76.35847437327149
 20
-141.520388419481
 10
76.35847437327149
 20
-141.520388419481
 10
76.56362980941812
 20
-141.520388419481
 10
76.56362980941812
 20
-141.520388419481
 10
76.56362980941812
 20
-141.520388419481
 10
76.56362980941812
 20
-142.5484049122796
 10
76.56362980941812
 20
-142.5484049122796
 10
76.20620115282345
 20
-142.5167100338153
 10
76.12782523053401
 20
-142.450908710047
 10
75.82965221628565
 20
-142.0660915443446
 10
75.63069795201247
 20
-141.8101209497905
 10
75.56300182572731
 20
-141.7443196260222
 10
75.42554251586584
 20
-141.7443196260222
 10
75.30703123117324
 20
-141.7443196260222
 10
75.17594534795948
 20
-141.816322121664
 10
75.17594534795948
 20
-142.0130370738717
 10
75.17594534795948
 20
-142.2734862925566
 10
75.4064222359227
 20
-142.2817545217212
 10
75.52286646332415
 20
-142.2858886363035
 10
75.52286646332415
 20
-142.2858886363035
 10
75.52286646332415
 20
-142.5101643523933
 10
75.52286646332415
 20
-142.5101643523933
 10
75.39591469469269
 20
-142.5018961232287
 10
75.2837768366478
 20
-142.4912163272244
 10
75.16526555195522
 20
-142.4109456024181
 10
75.00455184756831
 20
-142.3007025468901
 10
74.9706176570386
 20
-142.1146673906866
 10
74.9706176570386
 20
-141.9982231632852
 10
74.9706176570386
 20
-141.7212374862711
 10
75.1547580107252
 20
-141.5138427380591
 10
75.42760957315699
 20
-141.5138427380591
 10
75.65619165860332
 20
-141.5138427380591
 10
75.75558266335277
 20
-141.6302869654605
 10
75.98192543673369
 20
-141.9389675209389
 97
        0
 97
        0
 75
     2
 76
     1
 98
        0
  0
POLYLINE
  5
1FB
330
1F5
100
AcDbEntity
  8
_U+30EC_U+30A4_U+30E4_U+30FC 1
370
     0
100
AcDb2dPolyline
 66
     1
 10
0.0
 20
0.0
 30
0.0
  0
VERTEX
  5
1FC
330
1FB
100
AcDbEntity
  8
_U+30EC_U+30A4_U+30E4_U+30FC 1
370
     0
100
AcDbVertex
100
AcDb2dVertex
 10
76.56362980941812
 20
-141.2954236842942
 30
0.0
  0
VERTEX
  5
1FD
330
1FB
100
AcDbEntity
  8
_U+30EC_U+30A4_U+30E4_U+30FC 1
370
     0
100
AcDbVertex
100
AcDb2dVertex
 10
76.31196558422063
 20
-141.2954236842942
 30
0.0
  0
VERTEX
  5
1FE
330
1FB
100
AcDbEntity
  8
_U+30EC_U+30A4_U+30E4_U+30FC 1
370
     0
100
AcDbVertex
100
AcDb2dVertex
 10
76.31196558422063
 20
-141.0435872043224
 30
0.0
  0
VERTEX
  5
1FF
330
1FB
100
AcDbEntity
  8
_U+30EC_U+30A4_U+30E4_U+30FC 1
370
     0
100
AcDbVertex
100
AcDb2dVertex
 10
76.56362980941812
 20
-141.0435872043224
 30
0.0
  0
VERTEX
  5
200
330
1FB
100
AcDbEntity
  8
_U+30EC_U+30A4_U+30E4_U+30FC 1
370
     0
100
AcDbVertex
100
AcDb2dVertex
 10
76.56362980941812
 20
-141.2954236842942
 30
0.0
  0
SEQEND
  5
201
330
1FB
100
AcDbEntity
  8
_U+30EC_U+30A4_U+30E4_U+30FC 1
370
     0
  0
HATCH
  5
202
330
1F5
100
AcDbEntity
  8
_U+30EC_U+30A4_U+30E4_U+30FC 1
 62
   179
420
  2234388
100
AcDbHatch
 10
0.0
 20
0.0
 30
0.0
210
0.0
220
0.0
230
1.0
  2
SOLID
 70
     1
 71
     0
 91
        1
 92
        1
 93
        4
 72
     1
 10
76.56362980941812
 20
-141.2954236842942
 11
76.31196558422063
 21
-141.2954236842942
 72
     1
 10
76.31196558422063
 20
-141.2954236842942
 11
76.31196558422063
 21
-141.0435872043224
 72
     1
 10
76.31196558422063
 20
-141.0435872043224
 11
76.56362980941812
 21
-141.0435872043224
 72
     1
 10
76.56362980941812
 20
-141.0435872043224
 11
76.56362980941812
 21
-141.2954236842942
 97
        0
 75
     2
 76
     1
 98
        0
  0
SPLINE
  5
203
330
1F5
100
AcDbEntity
  8
_U+30EC_U+30A4_U+30E4_U+30FC 1
370
     0
100
AcDbSpline
210
0.0
220
0.0
230
1.0
 70
    11
 71
     3
 72
    53
 73
    49
 74
     0
 42
0.0000000001
 43
0.0000000001
 12
1.0
 22
0.0
 32
0.0
 13
1.0
 23
0.0
 33
0.0
 40
0.0
 40
0.0
 40
0.0
 40
0.0
 40
1.0
 40
1.0
 40
1.0
 40
2.0
 40
2.0
 40
2.0
 40
3.0
 40
3.0
 40
3.0
 40
4.0
 40
4.0
 40
4.0
 40
5.0
 40
5.0
 40
5.0
 40
6.0
 40
6.0
 40
6.0
 40
7.0
 40
7.0
 40
7.0
 40
8.0
 40
8.0
 40
8.0
 40
9.0
 40
9.0
 40
9.0
 40
10.0
 40
10.0
 40
10.0
 40
11.0
 40
11.0
 40
11.0
 40
12.0
 40
12.0
 40
12.0
 40
13.0
 40
13.0
 40
13.0
 40
14.0
 40
14.0
 40
14.0
 40
15.0
 40
15.0
 40
15.0
 40
16.0
 40
16.0
 40
16.0
 40
16.0
 10
76.61444496782556
 20
-140.3263183242934
 30
0.0
 10
76.61444496782556
 20
-140.4045219918086
 30
0.0
 10
76.59756399994784
 20
-140.5061523086235
 30
0.0
 10
76.53400198824498
 20
-140.6074381158898
 30
0.0
 10
76.4241034422655
 20
-140.7810709283464
 30
0.0
 10
76.29284530427749
 20
-140.8020860108064
 30
0.0
 10
76.18501381558917
 20
-140.8210340359753
 30
0.0
 10
76.18501381558917
 20
-140.8210340359753
 30
0.0
 10
76.18501381558917
 20
-140.5991698867252
 30
0.0
 10
76.18501381558917
 20
-140.5991698867252
 30
0.0
 10
76.38379582508809
 20
-140.5440483589612
 30
0.0
 10
76.41342364626124
 20
-140.417268845104
 30
0.0
 10
76.41342364626124
 20
-140.3239067574538
 30
0.0
 10
76.41342364626124
 20
-140.1843803903011
 30
0.0
 10
76.31403264151177
 20
-140.0321071698531
 30
0.0
 10
76.08131644148315
 20
-140.0321071698531
 30
0.0
 10
75.82534584692908
 20
-140.0321071698531
 30
0.0
 10
75.75558266335277
 20
-140.2119411541831
 30
0.0
 10
75.75558266335277
 20
-140.3325194961669
 30
0.0
 10
75.75558266335277
 20
-140.3642143746312
 30
0.0
 10
75.75558266335277
 20
-140.5061523086235
 30
0.0
 10
75.88460148927538
 20
-140.5946912625944
 30
0.0
 10
75.88460148927538
 20
-140.5946912625944
 30
0.0
 10
75.86548120933224
 20
-140.7703911323421
 30
0.0
 10
75.86548120933224
 20
-140.7703911323421
 30
0.0
 10
75.86548120933224
 20
-140.7703911323421
 30
0.0
 10
75.01936575815489
 20
-140.6498127903584
 30
0.0
 10
75.01936575815489
 20
-140.6498127903584
 30
0.0
 10
75.01936575815489
 20
-140.6498127903584
 30
0.0
 10
75.01936575815489
 20
-139.8712212106919
 30
0.0
 10
75.01936575815489
 20
-139.8712212106919
 30
0.0
 10
75.01936575815489
 20
-139.8712212106919
 30
0.0
 10
75.2140136530715
 20
-139.8712212106919
 30
0.0
 10
75.2140136530715
 20
-139.8712212106919
 30
0.0
 10
75.2140136530715
 20
-139.8712212106919
 30
0.0
 10
75.2140136530715
 20
-140.4868597739061
 30
0.0
 10
75.2140136530715
 20
-140.4868597739061
 30
0.0
 10
75.2140136530715
 20
-140.4868597739061
 30
0.0
 10
75.63707137866018
 20
-140.5526610976743
 30
0.0
 10
75.63707137866018
 20
-140.5526610976743
 30
0.0
 10
75.60330944290473
 20
-140.4913383980369
 30
0.0
 10
75.56300182572731
 20
-140.4086561063909
 30
0.0
 10
75.56300182572731
 20
-140.2901448216983
 30
0.0
 10
75.56300182572731
 20
-140.0362412844354
 30
0.0
 10
75.74920923670506
 20
-139.7995632245987
 30
0.0
 10
76.06236841631427
 20
-139.7995632245987
 30
0.0
 10
76.37966171050579
 20
-139.7995632245987
 30
0.0
 10
76.61444496782556
 20
-140.02349443114
 30
0.0
 10
76.61444496782556
 20
-140.3263183242934
 30
0.0
  0
HATCH
  5
204
330
1F5
100
AcDbEntity
  8
_U+30EC_U+30A4_U+30E4_U+30FC 1
 62
   179
420
  2234388
100
AcDbHatch
 10
0.0
 20
0.0
 30
0.0
210
0.0
220
0.0
230
1.0
  2
SOLID
 70
     1
 71
     0
 91
        1
 92
        1
 93
        1
 72
     4
 94
        3
 73
     0
 74
     1
 95
       53
 96
       49
 40
0.0
 40
0.0
 40
0.0
 40
0.0
 40
1.0
 40
1.0
 40
1.0
 40
2.0
 40
2.0
 40
2.0
 40
3.0
 40
3.0
 40
3.0
 40
4.0
 40
4.0
 40
4.0
 40
5.0
 40
5.0
 40
5.0
 40
6.0
 40
6.0
 40
6.0
 40
7.0
 40
7.0
 40
7.0
 40
8.0
 40
8.0
 40
8.0
 40
9.0
 40
9.0
 40
9.0
 40
10.0
 40
10.0
 40
10.0
 40
11.0
 40
11.0
 40
11.0
 40
12.0
 40
12.0
 40
12.0
 40
13.0
 40
13.0
 40
13.0
 40
14.0
 40
14.0
 40
14.0
 40
15.0
 40
15.0
 40
15.0
 40
16.0
 40
16.0
 40
16.0
 40
16.0
 10
76.61444496782556
 20
-140.3263183242934
 10
76.61444496782556
 20
-140.4045219918086
 10
76.59756399994784
 20
-140.5061523086235
 10
76.53400198824498
 20
-140.6074381158898
 10
76.4241034422655
 20
-140.7810709283464
 10
76.29284530427749
 20
-140.8020860108064
 10
76.18501381558917
 20
-140.8210340359753
 10
76.18501381558917
 20
-140.8210340359753
 10
76.18501381558917
 20
-140.5991698867252
 10
76.18501381558917
 20
-140.5991698867252
 10
76.38379582508809
 20
-140.5440483589612
 10
76.41342364626124
 20
-140.417268845104
 10
76.41342364626124
 20
-140.3239067574538
 10
76.41342364626124
 20
-140.1843803903011
 10
76.31403264151177
 20
-140.0321071698531
 10
76.08131644148315
 20
-140.0321071698531
 10
75.82534584692908
 20
-140.0321071698531
 10
75.75558266335277
 20
-140.2119411541831
 10
75.75558266335277
 20
-140.3325194961669
 10
75.75558266335277
 20
-140.3642143746312
 10
75.75558266335277
 20
-140.5061523086235
 10
75.88460148927538
 20
-140.5946912625944
 10
75.88460148927538
 20
-140.5946912625944
 10
75.86548120933224
 20
-140.7703911323421
 10
75.86548120933224
 20
-140.7703911323421
 10
75.86548120933224
 20
-140.7703911323421
 10
75.01936575815489
 20
-140.6498127903584
 10
75.01936575815489
 20
-140.6498127903584
 10
75.01936575815489
 20
-140.6498127903584
 10
75.01936575815489
 20
-139.8712212106919
 10
75.01936575815489
 20
-139.8712212106919
 10
75.01936575815489
 20
-139.8712212106919
 10
75.2140136530715
 20
-139.8712212106919
 10
75.2140136530715
 20
-139.8712212106919
 10
75.2140136530715
 20
-139.8712212106919
 10
75.2140136530715
 20
-140.4868597739061
 10
75.2140136530715
 20
-140.4868597739061
 10
75.2140136530715
 20
-140.4868597739061
 10
75.63707137866018
 20
-140.5526610976743
 10
75.63707137866018
 20
-140.5526610976743
 10
75.60330944290473
 20
-140.4913383980369
 10
75.56300182572731
 20
-140.4086561063909
 10
75.56300182572731
 20
-140.2901448216983
 10
75.56300182572731
 20
-140.0362412844354
 10
75.74920923670506
 20
-139.7995632245987
 10
76.06236841631427
 20
-139.7995632245987
 10
76.37966171050579
 20
-139.7995632245987
 10
76.61444496782556
 20
-140.02349443114
 10
76.61444496782556
 20
-140.3263183242934
 97
        0
 97
        0
 75
     2
 76
     1
 98
        0
  0
ENDBLK
  5
1F8
330
1F5
100
AcDbEntity
  8
0
100
AcDbBlockEnd
  0
BLOCK
  5
216
330
214
100
AcDbEntity
  8
0
100
AcDbBlockBegin
  2
block 11
 70
     0
 10
0.0
 20
0.0
 30
0.0
  3
block 11
  1

  0
SPLINE
  5
218
330
214
100
AcDbEntity
  8
_U+30EC_U+30A4_U+30E4_U+30FC 1
370
     0
100
AcDbSpline
210
0.0
220
0.0
230
1.0
 70
    11
 71
     3
 72
    26
 73
    22
 74
     0
 42
0.0000000001
 43
0.0000000001
 12
1.0
 22
0.0
 32
0.0
 13
1.0
 23
0.0
 33
0.0
 40
0.0
 40
0.0
 40
0.0
 40
0.0
 40
1.0
 40
1.0
 40
1.0
 40
2.0
 40
2.0
 40
2.0
 40
3.0
 40
3.0
 40
3.0
 40
4.0
 40
4.0
 40
4.0
 40
5.0
 40
5.0
 40
5.0
 40
6.0
 40
6.0
 40
6.0
 40
7.0
 40
7.0
 40
7.0
 40
7.0
 10
76.56362980941812
 20
-119.0802422119834
 30
0.0
 10
76.56362980941812
 20
-119.0802422119834
 30
0.0
 10
75.45930445162129
 20
-119.0802422119834
 30
0.0
 10
75.45930445162129
 20
-119.0802422119834
 30
0.0
 10
75.45930445162129
 20
-119.0802422119834
 30
0.0
 10
75.45930445162129
 20
-119.4102823594704
 30
0.0
 10
75.45930445162129
 20
-119.4102823594704
 30
0.0
 10
75.45930445162129
 20
-119.4102823594704
 30
0.0
 10
75.31133760052981
 20
-119.4102823594704
 30
0.0
 10
75.31133760052981
 20
-119.4102823594704
 30
0.0
 10
75.29652368994323
 20
-119.078002899918
 30
0.0
 10
75.13357067349092
 20
-119.0314941108671
 30
0.0
 10
75.01936575815489
 20
-119.001866289694
 30
0.0
 10
75.01936575815489
 20
-119.001866289694
 30
0.0
 10
75.01936575815489
 20
-118.8559664958937
 30
0.0
 10
75.01936575815489
 20
-118.8559664958937
 30
0.0
 10
75.01936575815489
 20
-118.8559664958937
 30
0.0
 10
76.56362980941812
 20
-118.8559664958937
 30
0.0
 10
76.56362980941812
 20
-118.8559664958937
 30
0.0
 10
76.56362980941812
 20
-118.8559664958937
 30
0.0
 10
76.56362980941812
 20
-119.0802422119834
 30
0.0
 10
76.56362980941812
 20
-119.0802422119834
 30
0.0
  0
HATCH
  5
219
330
214
100
AcDbEntity
  8
_U+30EC_U+30A4_U+30E4_U+30FC 1
 62
   179
420
  2234388
100
AcDbHatch
 10
0.0
 20
0.0
 30
0.0
210
0.0
220
0.0
230
1.0
  2
SOLID
 70
     1
 71
     0
 91
        1
 92
        1
 93
        1
 72
     4
 94
        3
 73
     0
 74
     1
 95
       26
 96
       22
 40
0.0
 40
0.0
 40
0.0
 40
0.0
 40
1.0
 40
1.0
 40
1.0
 40
2.0
 40
2.0
 40
2.0
 40
3.0
 40
3.0
 40
3.0
 40
4.0
 40
4.0
 40
4.0
 40
5.0
 40
5.0
 40
5.0
 40
6.0
 40
6.0
 40
6.0
 40
7.0
 40
7.0
 40
7.0
 40
7.0
 10
76.56362980941812
 20
-119.0802422119834
 10
76.56362980941812
 20
-119.0802422119834
 10
75.45930445162129
 20
-119.0802422119834
 10
75.45930445162129
 20
-119.0802422119834
 10
75.45930445162129
 20
-119.0802422119834
 10
75.45930445162129
 20
-119.4102823594704
 10
75.45930445162129
 20
-119.4102823594704
 10
75.45930445162129
 20
-119.4102823594704
 10
75.31133760052981
 20
-119.4102823594704
 10
75.31133760052981
 20
-119.4102823594704
 10
75.29652368994323
 20
-119.078002899918
 10
75.13357067349092
 20
-119.0314941108671
 10
75.01936575815489
 20
-119.001866289694
 10
75.01936575815489
 20
-119.001866289694
 10
75.01936575815489
 20
-118.8559664958937
 10
75.01936575815489
 20
-118.8559664958937
 10
75.01936575815489
 20
-118.8559664958937
 10
76.56362980941812
 20
-118.8559664958937
 10
76.56362980941812
 20
-118.8559664958937
 10
76.56362980941812
 20
-118.8559664958937
 10
76.56362980941812
 20
-119.0802422119834
 10
76.56362980941812
 20
-119.0802422119834
 97
        0
 97
        0
 75
     2
 76
     1
 98
        0
  0
POLYLINE
  5
21A
330
214
100
AcDbEntity
  8
_U+30EC_U+30A4_U+30E4_U+30FC 1
370
     0
100
AcDb2dPolyline
 66
     1
 10
0.0
 20
0.0
 30
0.0
  0
VERTEX
  5
21B
330
21A
100
AcDbEntity
  8
_U+30EC_U+30A4_U+30E4_U+30FC 1
370
     0
100
AcDbVertex
100
AcDb2dVertex
 10
76.56362980941812
 20
-118.2947604413465
 30
0.0
  0
VERTEX
  5
21C
330
21A
100
AcDbEntity
  8
_U+30EC_U+30A4_U+30E4_U+30FC 1
370
     0
100
AcDbVertex
100
AcDb2dVertex
 10
76.31196558422063
 20
-118.2947604413465
 30
0.0
  0
VERTEX
  5
21D
330
21A
100
AcDbEntity
  8
_U+30EC_U+30A4_U+30E4_U+30FC 1
370
     0
100
AcDbVertex
100
AcDb2dVertex
 10
76.31196558422063
 20
-118.0429239613747
 30
0.0
  0
VERTEX
  5
21E
330
21A
100
AcDbEntity
  8
_U+30EC_U+30A4_U+30E4_U+30FC 1
370
     0
100
AcDbVertex
100
AcDb2dVertex
 10
76.56362980941812
 20
-118.0429239613747
 30
0.0
  0
VERTEX
  5
21F
330
21A
100
AcDbEntity
  8
_U+30EC_U+30A4_U+30E4_U+30FC 1
370
     0
100
AcDbVertex
100
AcDb2dVertex
 10
76.56362980941812
 20
-118.2947604413465
 30
0.0
  0
SEQEND
  5
220
330
21A
100
AcDbEntity
  8
_U+30EC_U+30A4_U+30E4_U+30FC 1
370
     0
  0
HATCH
  5
221
330
214
100
AcDbEntity
  8
_U+30EC_U+30A4_U+30E4_U+30FC 1
 62
   179
420
  2234388
100
AcDbHatch
 10
0.0
 20
0.0
 30
0.0
210
0.0
220
0.0
230
1.0
  2
SOLID
 70
     1
 71
     0
 91
        1
 92
        1
 93
        4
 72
     1
 10
76.56362980941812
 20
-118.2947604413465
 11
76.31196558422063
 21
-118.2947604413465
 72
     1
 10
76.31196558422063
 20
-118.2947604413465
 11
76.31196558422063
 21
-118.0429239613747
 72
     1
 10
76.31196558422063
 20
-118.0429239613747
 11
76.56362980941812
 21
-118.0429239613747
 72
     1
 10
76.56362980941812
 20
-118.0429239613747
 11
76.56362980941812
 21
-118.2947604413465
 97
        0
 75
     2
 76
     1
 98
        0
  0
SPLINE
  5
222
330
214
100
AcDbEntity
  8
_U+30EC_U+30A4_U+30E4_U+30FC 1
370
     0
100
AcDbSpline
210
0.0
220
0.0
230
1.0
 70
    11
 71
     3
 72
    53
 73
    49
 74
     0
 42
0.0000000001
 43
0.0000000001
 12
1.0
 22
0.0
 32
0.0
 13
1.0
 23
0.0
 33
0.0
 40
0.0
 40
0.0
 40
0.0
 40
0.0
 40
1.0
 40
1.0
 40
1.0
 40
2.0
 40
2.0
 40
2.0
 40
3.0
 40
3.0
 40
3.0
 40
4.0
 40
4.0
 40
4.0
 40
5.0
 40
5.0
 40
5.0
 40
6.0
 40
6.0
 40
6.0
 40
7.0
 40
7.0
 40
7.0
 40
8.0
 40
8.0
 40
8.0
 40
9.0
 40
9.0
 40
9.0
 40
10.0
 40
10.0
 40
10.0
 40
11.0
 40
11.0
 40
11.0
 40
12.0
 40
12.0
 40
12.0
 40
13.0
 40
13.0
 40
13.0
 40
14.0
 40
14.0
 40
14.0
 40
15.0
 40
15.0
 40
15.0
 40
16.0
 40
16.0
 40
16.0
 40
16.0
 10
76.61444496782556
 20
-117.3254828265714
 30
0.0
 10
76.61444496782556
 20
-117.4038587488608
 30
0.0
 10
76.59756399994784
 20
-117.5053168109014
 30
0.0
 10
76.53400198824498
 20
-117.6069471277163
 30
0.0
 10
76.4241034422655
 20
-117.7804076853987
 30
0.0
 10
76.29284530427749
 20
-117.8014227678587
 30
0.0
 10
76.18501381558917
 20
-117.8205430478018
 30
0.0
 10
76.18501381558917
 20
-117.8205430478018
 30
0.0
 10
76.18501381558917
 20
-117.5983343890032
 30
0.0
 10
76.18501381558917
 20
-117.5983343890032
 30
0.0
 10
76.38379582508809
 20
-117.5433851160135
 30
0.0
 10
76.41342364626124
 20
-117.416433347382
 30
0.0
 10
76.41342364626124
 20
-117.3234157692803
 30
0.0
 10
76.41342364626124
 20
-117.1837171473534
 30
0.0
 10
76.31403264151177
 20
-117.0314439269053
 30
0.0
 10
76.08131644148315
 20
-117.0314439269053
 30
0.0
 10
75.82534584692908
 20
-117.0314439269053
 30
0.0
 10
75.75558266335277
 20
-117.2112779112354
 30
0.0
 10
75.75558266335277
 20
-117.3318562532191
 30
0.0
 10
75.75558266335277
 20
-117.3635511316834
 30
0.0
 10
75.75558266335277
 20
-117.5053168109014
 30
0.0
 10
75.88460148927538
 20
-117.5942002744209
 30
0.0
 10
75.88460148927538
 20
-117.5942002744209
 30
0.0
 10
75.86548120933224
 20
-117.7697278893944
 30
0.0
 10
75.86548120933224
 20
-117.7697278893944
 30
0.0
 10
75.86548120933224
 20
-117.7697278893944
 30
0.0
 10
75.01936575815489
 20
-117.6491495474106
 30
0.0
 10
75.01936575815489
 20
-117.6491495474106
 30
0.0
 10
75.01936575815489
 20
-117.6491495474106
 30
0.0
 10
75.01936575815489
 20
-116.8707302225184
 30
0.0
 10
75.01936575815489
 20
-116.8707302225184
 30
0.0
 10
75.01936575815489
 20
-116.8707302225184
 30
0.0
 10
75.2140136530715
 20
-116.8707302225184
 30
0.0
 10
75.2140136530715
 20
-116.8707302225184
 30
0.0
 10
75.2140136530715
 20
-116.8707302225184
 30
0.0
 10
75.2140136530715
 20
-117.4863687857326
 30
0.0
 10
75.2140136530715
 20
-117.4863687857326
 30
0.0
 10
75.2140136530715
 20
-117.4863687857326
 30
0.0
 10
75.63707137866018
 20
-117.5518255999523
 30
0.0
 10
75.63707137866018
 20
-117.5518255999523
 30
0.0
 10
75.60330944290473
 20
-117.4905029003149
 30
0.0
 10
75.56300182572731
 20
-117.4079928634431
 30
0.0
 10
75.56300182572731
 20
-117.2894815787506
 30
0.0
 10
75.56300182572731
 20
-117.0357502962619
 30
0.0
 10
75.74920923670506
 20
-116.7987277268767
 30
0.0
 10
76.06236841631427
 20
-116.7987277268767
 30
0.0
 10
76.37966171050579
 20
-116.7987277268767
 30
0.0
 10
76.61444496782556
 20
-117.0230034429665
 30
0.0
 10
76.61444496782556
 20
-117.3254828265714
 30
0.0
  0
HATCH
  5
223
330
214
100
AcDbEntity
  8
_U+30EC_U+30A4_U+30E4_U+30FC 1
 62
   179
420
  2234388
100
AcDbHatch
 10
0.0
 20
0.0
 30
0.0
210
0.0
220
0.0
230
1.0
  2
SOLID
 70
     1
 71
     0
 91
        1
 92
        1
 93
        1
 72
     4
 94
        3
 73
     0
 74
     1
 95
       53
 96
       49
 40
0.0
 40
0.0
 40
0.0
 40
0.0
 40
1.0
 40
1.0
 40
1.0
 40
2.0
 40
2.0
 40
2.0
 40
3.0
 40
3.0
 40
3.0
 40
4.0
 40
4.0
 40
4.0
 40
5.0
 40
5.0
 40
5.0
 40
6.0
 40
6.0
 40
6.0
 40
7.0
 40
7.0
 40
7.0
 40
8.0
 40
8.0
 40
8.0
 40
9.0
 40
9.0
 40
9.0
 40
10.0
 40
10.0
 40
10.0
 40
11.0
 40
11.0
 40
11.0
 40
12.0
 40
12.0
 40
12.0
 40
13.0
 40
13.0
 40
13.0
 40
14.0
 40
14.0
 40
14.0
 40
15.0
 40
15.0
 40
15.0
 40
16.0
 40
16.0
 40
16.0
 40
16.0
 10
76.61444496782556
 20
-117.3254828265714
 10
76.61444496782556
 20
-117.4038587488608
 10
76.59756399994784
 20
-117.5053168109014
 10
76.53400198824498
 20
-117.6069471277163
 10
76.4241034422655
 20
-117.7804076853987
 10
76.29284530427749
 20
-117.8014227678587
 10
76.18501381558917
 20
-117.8205430478018
 10
76.18501381558917
 20
-117.8205430478018
 10
76.18501381558917
 20
-117.5983343890032
 10
76.18501381558917
 20
-117.5983343890032
 10
76.38379582508809
 20
-117.5433851160135
 10
76.41342364626124
 20
-117.416433347382
 10
76.41342364626124
 20
-117.3234157692803
 10
76.41342364626124
 20
-117.1837171473534
 10
76.31403264151177
 20
-117.0314439269053
 10
76.08131644148315
 20
-117.0314439269053
 10
75.82534584692908
 20
-117.0314439269053
 10
75.75558266335277
 20
-117.2112779112354
 10
75.75558266335277
 20
-117.3318562532191
 10
75.75558266335277
 20
-117.3635511316834
 10
75.75558266335277
 20
-117.5053168109014
 10
75.88460148927538
 20
-117.5942002744209
 10
75.88460148927538
 20
-117.5942002744209
 10
75.86548120933224
 20
-117.7697278893944
 10
75.86548120933224
 20
-117.7697278893944
 10
75.86548120933224
 20
-117.7697278893944
 10
75.01936575815489
 20
-117.6491495474106
 10
75.01936575815489
 20
-117.6491495474106
 10
75.01936575815489
 20
-117.6491495474106
 10
75.01936575815489
 20
-116.8707302225184
 10
75.01936575815489
 20
-116.8707302225184
 10
75.01936575815489
 20
-116.8707302225184
 10
75.2140136530715
 20
-116.8707302225184
 10
75.2140136530715
 20
-116.8707302225184
 10
75.2140136530715
 20
-116.8707302225184
 10
75.2140136530715
 20
-117.4863687857326
 10
75.2140136530715
 20
-117.4863687857326
 10
75.2140136530715
 20
-117.4863687857326
 10
75.63707137866018
 20
-117.5518255999523
 10
75.63707137866018
 20
-117.5518255999523
 10
75.60330944290473
 20
-117.4905029003149
 10
75.56300182572731
 20
-117.4079928634431
 10
75.56300182572731
 20
-117.2894815787506
 10
75.56300182572731
 20
-117.0357502962619
 10
75.74920923670506
 20
-116.7987277268767
 10
76.06236841631427
 20
-116.7987277268767
 10
76.37966171050579
 20
-116.7987277268767
 10
76.61444496782556
 20
-117.0230034429665
 10
76.61444496782556
 20
-117.3254828265714
 97
        0
 97
        0
 75
     2
 76
     1
 98
        0
  0
ENDBLK
  5
217
330
214
100
AcDbEntity
  8
0
100
AcDbBlockEnd
  0
BLOCK
  5
235
330
233
100
AcDbEntity
  8
0
100
AcDbBlockBegin
  2
block 12
 70
     0
 10
0.0
 20
0.0
 30
0.0
  3
block 12
  1

  0
SPLINE
  5
237
330
233
100
AcDbEntity
  8
_U+30EC_U+30A4_U+30E4_U+30FC 1
370
     0
100
AcDbSpline
210
0.0
220
0.0
230
1.0
 70
    11
 71
     3
 72
    26
 73
    22
 74
     0
 42
0.0000000001
 43
0.0000000001
 12
1.0
 22
0.0
 32
0.0
 13
1.0
 23
0.0
 33
0.0
 40
0.0
 40
0.0
 40
0.0
 40
0.0
 40
1.0
 40
1.0
 40
1.0
 40
2.0
 40
2.0
 40
2.0
 40
3.0
 40
3.0
 40
3.0
 40
4.0
 40
4.0
 40
4.0
 40
5.0
 40
5.0
 40
5.0
 40
6.0
 40
6.0
 40
6.0
 40
7.0
 40
7.0
 40
7.0
 40
7.0
 10
76.56294079032108
 20
-129.806719260083
 30
0.0
 10
76.56294079032108
 20
-129.806719260083
 30
0.0
 10
75.45861543252424
 20
-129.806719260083
 30
0.0
 10
75.45861543252424
 20
-129.806719260083
 30
0.0
 10
75.45861543252424
 20
-129.806719260083
 30
0.0
 10
75.45861543252424
 20
-130.13675940757
 30
0.0
 10
75.45861543252424
 20
-130.13675940757
 30
0.0
 10
75.45861543252424
 20
-130.13675940757
 30
0.0
 10
75.31064858143276
 20
-130.13675940757
 30
0.0
 10
75.31064858143276
 20
-130.13675940757
 30
0.0
 10
75.29583467084619
 20
-129.8046522027919
 30
0.0
 10
75.13288165439387
 20
-129.758143413741
 30
0.0
 10
75.01867673905784
 20
-129.7285155925679
 30
0.0
 10
75.01867673905784
 20
-129.7285155925679
 30
0.0
 10
75.01867673905784
 20
-129.5824435439933
 30
0.0
 10
75.01867673905784
 20
-129.5824435439933
 30
0.0
 10
75.01867673905784
 20
-129.5824435439933
 30
0.0
 10
76.56294079032108
 20
-129.5824435439933
 30
0.0
 10
76.56294079032108
 20
-129.5824435439933
 30
0.0
 10
76.56294079032108
 20
-129.5824435439933
 30
0.0
 10
76.56294079032108
 20
-129.806719260083
 30
0.0
 10
76.56294079032108
 20
-129.806719260083
 30
0.0
  0
HATCH
  5
238
330
233
100
AcDbEntity
  8
_U+30EC_U+30A4_U+30E4_U+30FC 1
 62
   179
420
  2234388
100
AcDbHatch
 10
0.0
 20
0.0
 30
0.0
210
0.0
220
0.0
230
1.0
  2
SOLID
 70
     1
 71
     0
 91
        1
 92
        1
 93
        1
 72
     4
 94
        3
 73
     0
 74
     1
 95
       26
 96
       22
 40
0.0
 40
0.0
 40
0.0
 40
0.0
 40
1.0
 40
1.0
 40
1.0
 40
2.0
 40
2.0
 40
2.0
 40
3.0
 40
3.0
 40
3.0
 40
4.0
 40
4.0
 40
4.0
 40
5.0
 40
5.0
 40
5.0
 40
6.0
 40
6.0
 40
6.0
 40
7.0
 40
7.0
 40
7.0
 40
7.0
 10
76.56294079032108
 20
-129.806719260083
 10
76.56294079032108
 20
-129.806719260083
 10
75.45861543252424
 20
-129.806719260083
 10
75.45861543252424
 20
-129.806719260083
 10
75.45861543252424
 20
-129.806719260083
 10
75.45861543252424
 20
-130.13675940757
 10
75.45861543252424
 20
-130.13675940757
 10
75.45861543252424
 20
-130.13675940757
 10
75.31064858143276
 20
-130.13675940757
 10
75.31064858143276
 20
-130.13675940757
 10
75.29583467084619
 20
-129.8046522027919
 10
75.13288165439387
 20
-129.758143413741
 10
75.01867673905784
 20
-129.7285155925679
 10
75.01867673905784
 20
-129.7285155925679
 10
75.01867673905784
 20
-129.5824435439933
 10
75.01867673905784
 20
-129.5824435439933
 10
75.01867673905784
 20
-129.5824435439933
 10
76.56294079032108
 20
-129.5824435439933
 10
76.56294079032108
 20
-129.5824435439933
 10
76.56294079032108
 20
-129.5824435439933
 10
76.56294079032108
 20
-129.806719260083
 10
76.56294079032108
 20
-129.806719260083
 97
        0
 97
        0
 75
     2
 76
     1
 98
        0
  0
SPLINE
  5
239
330
233
100
AcDbEntity
  8
_U+30EC_U+30A4_U+30E4_U+30FC 1
370
     0
100
AcDbSpline
210
0.0
220
0.0
230
1.0
 70
    11
 71
     3
 72
    62
 73
    58
 74
     0
 42
0.0000000001
 43
0.0000000001
 12
1.0
 22
0.0
 32
0.0
 13
1.0
 23
0.0
 33
0.0
 40
0.0
 40
0.0
 40
0.0
 40
0.0
 40
1.0
 40
1.0
 40
1.0
 40
2.0
 40
2.0
 40
2.0
 40
3.0
 40
3.0
 40
3.0
 40
4.0
 40
4.0
 40
4.0
 40
5.0
 40
5.0
 40
5.0
 40
6.0
 40
6.0
 40
6.0
 40
7.0
 40
7.0
 40
7.0
 40
8.0
 40
8.0
 40
8.0
 40
9.0
 40
9.0
 40
9.0
 40
10.0
 40
10.0
 40
10.0
 40
11.0
 40
11.0
 40
11.0
 40
12.0
 40
12.0
 40
12.0
 40
13.0
 40
13.0
 40
13.0
 40
14.0
 40
14.0
 40
14.0
 40
15.0
 40
15.0
 40
15.0
 40
16.0
 40
16.0
 40
16.0
 40
17.0
 40
17.0
 40
17.0
 40
18.0
 40
18.0
 40
18.0
 40
19.0
 40
19.0
 40
19.0
 40
19.0
 10
76.61375594872851
 20
-128.5897392799185
 30
0.0
 10
76.61375594872851
 20
-128.6849961700857
 30
0.0
 10
76.59256861149423
 20
-128.9027262047535
 30
0.0
 10
76.40636120051647
 20
-129.027783170868
 30
0.0
 10
76.29422334247158
 20
-129.1015082142524
 30
0.0
 10
76.19483233772213
 20
-129.1059868383832
 30
0.0
 10
76.11025524355925
 20
-129.1101209529655
 30
0.0
 10
76.11025524355925
 20
-129.1101209529655
 30
0.0
 10
76.11025524355925
 20
-128.8899793514581
 30
0.0
 10
76.11025524355925
 20
-128.8899793514581
 30
0.0
 10
76.18432479649212
 20
-128.8879122941669
 30
0.0
 10
76.4191080538119
 20
-128.8775770077112
 30
0.0
 10
76.4191080538119
 20
-128.5940456492751
 30
0.0
 10
76.4191080538119
 20
-128.4564140846394
 30
0.0
 10
76.34934487023558
 20
-128.3041408641913
 30
0.0
 10
76.12076278478926
 20
-128.3041408641913
 30
0.0
 10
76.00449081216208
 20
-128.3041408641913
 30
0.0
 10
75.95574271104579
 20
-128.3422091693033
 30
0.0
 10
75.9240478325815
 20
-128.3739040477676
 30
0.0
 10
75.84997827964862
 20
-128.4479736007005
 30
0.0
 10
75.83740368112746
 20
-128.564417828102
 30
0.0
 10
75.83740368112746
 20
-128.6193671010917
 30
0.0
 10
75.83740368112746
 20
-128.6383151262606
 30
0.0
 10
75.83947073841861
 20
-128.6743163740814
 30
0.0
 10
75.84377710777517
 20
-128.7018771379634
 30
0.0
 10
75.84377710777517
 20
-128.7018771379634
 30
0.0
 10
75.64912921285855
 20
-128.7018771379634
 30
0.0
 10
75.64912921285855
 20
-128.7018771379634
 30
0.0
 10
75.65550263950627
 20
-128.6638088328514
 30
0.0
 10
75.65756969679741
 20
-128.6214341583828
 30
0.0
 10
75.65756969679741
 20
-128.6150607317351
 30
0.0
 10
75.65756969679741
 20
-128.5496039175154
 30
0.0
 10
75.63638235956313
 20
-128.3506496532422
 30
0.0
 10
75.39935979017794
 20
-128.3506496532422
 30
0.0
 10
75.22176511791331
 20
-128.3506496532422
 30
0.0
 10
75.16681584492358
 20
-128.4819077912302
 30
0.0
 10
75.16681584492358
 20
-128.5918063372097
 30
0.0
 10
75.16681584492358
 20
-128.8562174157026
 30
0.0
 10
75.39935979017794
 20
-128.8648301544158
 30
0.0
 10
75.47136228581967
 20
-128.868964268998
 30
0.0
 10
75.47136228581967
 20
-128.868964268998
 30
0.0
 10
75.47136228581967
 20
-129.0722249026278
 30
0.0
 10
75.47136228581967
 20
-129.0722249026278
 30
0.0
 10
75.34647757447935
 20
-129.0636121639147
 30
0.0
 10
74.96992863794155
 20
-129.0360514000326
 30
0.0
 10
74.96992863794155
 20
-128.5792317386885
 30
0.0
 10
74.96992863794155
 20
-128.3549560225988
 30
0.0
 10
75.096880406573
 20
-128.1137993386313
 30
0.0
 10
75.3931586183045
 20
-128.1137993386313
 30
0.0
 10
75.57919377450798
 20
-128.1137993386313
 30
0.0
 10
75.66170381137971
 20
-128.2088839740242
 30
0.0
 10
75.72319876579142
 20
-128.3084472335479
 30
0.0
 10
75.75058727489916
 20
-128.2469522791362
 30
0.0
 10
75.83103025447974
 20
-128.065051237515
 30
0.0
 10
76.1081881862681
 20
-128.065051237515
 30
0.0
 10
76.44666881769389
 20
-128.065051237515
 30
0.0
 10
76.61375594872851
 20
-128.3125813481302
 30
0.0
 10
76.61375594872851
 20
-128.5897392799185
 30
0.0
  0
HATCH
  5
23A
330
233
100
AcDbEntity
  8
_U+30EC_U+30A4_U+30E4_U+30FC 1
 62
   179
420
  2234388
100
AcDbHatch
 10
0.0
 20
0.0
 30
0.0
210
0.0
220
0.0
230
1.0
  2
SOLID
 70
     1
 71
     0
 91
        1
 92
        1
 93
        1
 72
     4
 94
        3
 73
     0
 74
     1
 95
       62
 96
       58
 40
0.0
 40
0.0
 40
0.0
 40
0.0
 40
1.0
 40
1.0
 40
1.0
 40
2.0
 40
2.0
 40
2.0
 40
3.0
 40
3.0
 40
3.0
 40
4.0
 40
4.0
 40
4.0
 40
5.0
 40
5.0
 40
5.0
 40
6.0
 40
6.0
 40
6.0
 40
7.0
 40
7.0
 40
7.0
 40
8.0
 40
8.0
 40
8.0
 40
9.0
 40
9.0
 40
9.0
 40
10.0
 40
10.0
 40
10.0
 40
11.0
 40
11.0
 40
11.0
 40
12.0
 40
12.0
 40
12.0
 40
13.0
 40
13.0
 40
13.0
 40
14.0
 40
14.0
 40
14.0
 40
15.0
 40
15.0
 40
15.0
 40
16.0
 40
16.0
 40
16.0
 40
17.0
 40
17.0
 40
17.0
 40
18.0
 40
18.0
 40
18.0
 40
19.0
 40
19.0
 40
19.0
 40
19.0
 10
76.61375594872851
 20
-128.5897392799185
 10
76.61375594872851
 20
-128.6849961700857
 10
76.59256861149423
 20
-128.9027262047535
 10
76.40636120051647
 20
-129.027783170868
 10
76.29422334247158
 20
-129.1015082142524
 10
76.19483233772213
 20
-129.1059868383832
 10
76.11025524355925
 20
-129.1101209529655
 10
76.11025524355925
 20
-129.1101209529655
 10
76.11025524355925
 20
-128.8899793514581
 10
76.11025524355925
 20
-128.8899793514581
 10
76.18432479649212
 20
-128.8879122941669
 10
76.4191080538119
 20
-128.8775770077112
 10
76.4191080538119
 20
-128.5940456492751
 10
76.4191080538119
 20
-128.4564140846394
 10
76.34934487023558
 20
-128.3041408641913
 10
76.12076278478926
 20
-128.3041408641913
 10
76.00449081216208
 20
-128.3041408641913
 10
75.95574271104579
 20
-128.3422091693033
 10
75.9240478325815
 20
-128.3739040477676
 10
75.84997827964862
 20
-128.4479736007005
 10
75.83740368112746
 20
-128.564417828102
 10
75.83740368112746
 20
-128.6193671010917
 10
75.83740368112746
 20
-128.6383151262606
 10
75.83947073841861
 20
-128.6743163740814
 10
75.84377710777517
 20
-128.7018771379634
 10
75.84377710777517
 20
-128.7018771379634
 10
75.64912921285855
 20
-128.7018771379634
 10
75.64912921285855
 20
-128.7018771379634
 10
75.65550263950627
 20
-128.6638088328514
 10
75.65756969679741
 20
-128.6214341583828
 10
75.65756969679741
 20
-128.6150607317351
 10
75.65756969679741
 20
-128.5496039175154
 10
75.63638235956313
 20
-128.3506496532422
 10
75.39935979017794
 20
-128.3506496532422
 10
75.22176511791331
 20
-128.3506496532422
 10
75.16681584492358
 20
-128.4819077912302
 10
75.16681584492358
 20
-128.5918063372097
 10
75.16681584492358
 20
-128.8562174157026
 10
75.39935979017794
 20
-128.8648301544158
 10
75.47136228581967
 20
-128.868964268998
 10
75.47136228581967
 20
-128.868964268998
 10
75.47136228581967
 20
-129.0722249026278
 10
75.47136228581967
 20
-129.0722249026278
 10
75.34647757447935
 20
-129.0636121639147
 10
74.96992863794155
 20
-129.0360514000326
 10
74.96992863794155
 20
-128.5792317386885
 10
74.96992863794155
 20
-128.3549560225988
 10
75.096880406573
 20
-128.1137993386313
 10
75.3931586183045
 20
-128.1137993386313
 10
75.57919377450798
 20
-128.1137993386313
 10
75.66170381137971
 20
-128.2088839740242
 10
75.72319876579142
 20
-128.3084472335479
 10
75.75058727489916
 20
-128.2469522791362
 10
75.83103025447974
 20
-128.065051237515
 10
76.1081881862681
 20
-128.065051237515
 10
76.44666881769389
 20
-128.065051237515
 10
76.61375594872851
 20
-128.3125813481302
 10
76.61375594872851
 20
-128.5897392799185
 97
        0
 97
        0
 75
     2
 76
     1
 98
        0
  0
ENDBLK
  5
236
330
233
100
AcDbEntity
  8
0
100
AcDbBlockEnd
  0
BLOCK
  5
248
330
246
100
AcDbEntity
  8
0
100
AcDbBlockBegin
  2
block 13
 70
     0
 10
0.0
 20
0.0
 30
0.0
  3
block 13
  1

  0
SPLINE
  5
24A
330
246
100
AcDbEntity
  8
_U+30EC_U+30A4_U+30E4_U+30FC 1
370
     0
100
AcDbSpline
210
0.0
220
0.0
230
1.0
 70
    11
 71
     3
 72
    26
 73
    22
 74
     0
 42
0.0000000001
 43
0.0000000001
 12
1.0
 22
0.0
 32
0.0
 13
1.0
 23
0.0
 33
0.0
 40
0.0
 40
0.0
 40
0.0
 40
0.0
 40
1.0
 40
1.0
 40
1.0
 40
2.0
 40
2.0
 40
2.0
 40
3.0
 40
3.0
 40
3.0
 40
4.0
 40
4.0
 40
4.0
 40
5.0
 40
5.0
 40
5.0
 40
6.0
 40
6.0
 40
6.0
 40
7.0
 40
7.0
 40
7.0
 40
7.0
 10
104.9472547480687
 20
-132.3068250537289
 30
0.0
 10
104.9472547480687
 20
-132.3068250537289
 30
0.0
 10
103.8427571354976
 20
-132.3068250537289
 30
0.0
 10
103.8427571354976
 20
-132.3068250537289
 30
0.0
 10
103.8427571354976
 20
-132.3068250537289
 30
0.0
 10
103.8427571354976
 20
-132.6368652012158
 30
0.0
 10
103.8427571354976
 20
-132.6368652012158
 30
0.0
 10
103.8427571354976
 20
-132.6368652012158
 30
0.0
 10
103.6946180296319
 20
-132.6368652012158
 30
0.0
 10
103.6946180296319
 20
-132.6368652012158
 30
0.0
 10
103.6798041190453
 20
-132.3047579964377
 30
0.0
 10
103.5171956121415
 20
-132.2582492073868
 30
0.0
 10
103.4028184420312
 20
-132.2286213862137
 30
0.0
 10
103.4028184420312
 20
-132.2286213862137
 30
0.0
 10
103.4028184420312
 20
-132.0825493376391
 30
0.0
 10
103.4028184420312
 20
-132.0825493376391
 30
0.0
 10
103.4028184420312
 20
-132.0825493376391
 30
0.0
 10
104.9472547480687
 20
-132.0825493376391
 30
0.0
 10
104.9472547480687
 20
-132.0825493376391
 30
0.0
 10
104.9472547480687
 20
-132.0825493376391
 30
0.0
 10
104.9472547480687
 20
-132.3068250537289
 30
0.0
 10
104.9472547480687
 20
-132.3068250537289
 30
0.0
  0
HATCH
  5
24B
330
246
100
AcDbEntity
  8
_U+30EC_U+30A4_U+30E4_U+30FC 1
 62
   179
420
  2234388
100
AcDbHatch
 10
0.0
 20
0.0
 30
0.0
210
0.0
220
0.0
230
1.0
  2
SOLID
 70
     1
 71
     0
 91
        1
 92
        1
 93
        1
 72
     4
 94
        3
 73
     0
 74
     1
 95
       26
 96
       22
 40
0.0
 40
0.0
 40
0.0
 40
0.0
 40
1.0
 40
1.0
 40
1.0
 40
2.0
 40
2.0
 40
2.0
 40
3.0
 40
3.0
 40
3.0
 40
4.0
 40
4.0
 40
4.0
 40
5.0
 40
5.0
 40
5.0
 40
6.0
 40
6.0
 40
6.0
 40
7.0
 40
7.0
 40
7.0
 40
7.0
 10
104.9472547480687
 20
-132.3068250537289
 10
104.9472547480687
 20
-132.3068250537289
 10
103.8427571354976
 20
-132.3068250537289
 10
103.8427571354976
 20
-132.3068250537289
 10
103.8427571354976
 20
-132.3068250537289
 10
103.8427571354976
 20
-132.6368652012158
 10
103.8427571354976
 20
-132.6368652012158
 10
103.8427571354976
 20
-132.6368652012158
 10
103.6946180296319
 20
-132.6368652012158
 10
103.6946180296319
 20
-132.6368652012158
 10
103.6798041190453
 20
-132.3047579964377
 10
103.5171956121415
 20
-132.2582492073868
 10
103.4028184420312
 20
-132.2286213862137
 10
103.4028184420312
 20
-132.2286213862137
 10
103.4028184420312
 20
-132.0825493376391
 10
103.4028184420312
 20
-132.0825493376391
 10
103.4028184420312
 20
-132.0825493376391
 10
104.9472547480687
 20
-132.0825493376391
 10
104.9472547480687
 20
-132.0825493376391
 10
104.9472547480687
 20
-132.0825493376391
 10
104.9472547480687
 20
-132.3068250537289
 10
104.9472547480687
 20
-132.3068250537289
 97
        0
 97
        0
 75
     2
 76
     1
 98
        0
  0
SPLINE
  5
24C
330
246
100
AcDbEntity
  8
_U+30EC_U+30A4_U+30E4_U+30FC 1
370
     0
100
AcDbSpline
210
0.0
220
0.0
230
1.0
 70
    11
 71
     3
 72
    62
 73
    58
 74
     0
 42
0.0000000001
 43
0.0000000001
 12
1.0
 22
0.0
 32
0.0
 13
1.0
 23
0.0
 33
0.0
 40
0.0
 40
0.0
 40
0.0
 40
0.0
 40
1.0
 40
1.0
 40
1.0
 40
2.0
 40
2.0
 40
2.0
 40
3.0
 40
3.0
 40
3.0
 40
4.0
 40
4.0
 40
4.0
 40
5.0
 40
5.0
 40
5.0
 40
6.0
 40
6.0
 40
6.0
 40
7.0
 40
7.0
 40
7.0
 40
8.0
 40
8.0
 40
8.0
 40
9.0
 40
9.0
 40
9.0
 40
10.0
 40
10.0
 40
10.0
 40
11.0
 40
11.0
 40
11.0
 40
12.0
 40
12.0
 40
12.0
 40
13.0
 40
13.0
 40
13.0
 40
14.0
 40
14.0
 40
14.0
 40
15.0
 40
15.0
 40
15.0
 40
16.0
 40
16.0
 40
16.0
 40
17.0
 40
17.0
 40
17.0
 40
18.0
 40
18.0
 40
18.0
 40
19.0
 40
19.0
 40
19.0
 40
19.0
 10
104.9978976517019
 20
-131.0896728187901
 30
0.0
 10
104.9978976517019
 20
-131.1851019637315
 30
0.0
 10
104.9768825692419
 20
-131.4028319983993
 30
0.0
 10
104.7905029034899
 20
-131.5278889645139
 30
0.0
 10
104.6785373002193
 20
-131.6019585174467
 30
0.0
 10
104.5789740406955
 20
-131.606092632029
 30
0.0
 10
104.4945692013069
 20
-131.6102267466113
 30
0.0
 10
104.4945692013069
 20
-131.6102267466113
 30
0.0
 10
104.4945692013069
 20
-131.3900851451039
 30
0.0
 10
104.4945692013069
 20
-131.3900851451039
 30
0.0
 10
104.5682942446913
 20
-131.3880180878127
 30
0.0
 10
104.8032497567853
 20
-131.377682801357
 30
0.0
 10
104.8032497567853
 20
-131.0941514429209
 30
0.0
 10
104.8032497567853
 20
-130.9566921330594
 30
0.0
 10
104.7333143184347
 20
-130.8040744030629
 30
0.0
 10
104.5049044877627
 20
-130.8040744030629
 30
0.0
 10
104.3884602603612
 20
-130.8040744030629
 30
0.0
 10
104.3398844140192
 20
-130.8423149629492
 30
0.0
 10
104.3081895355549
 20
-130.8740098414135
 30
0.0
 10
104.234119982622
 20
-130.9480793943463
 30
0.0
 10
104.2213731293266
 20
-131.0645236217478
 30
0.0
 10
104.2213731293266
 20
-131.1193006399632
 30
0.0
 10
104.2213731293266
 20
-131.1385931746806
 30
0.0
 10
104.2237846961663
 20
-131.1744221677272
 30
0.0
 10
104.2279188107486
 20
-131.2019829316092
 30
0.0
 10
104.2279188107486
 20
-131.2019829316092
 30
0.0
 10
104.033270915832
 20
-131.2019829316092
 30
0.0
 10
104.033270915832
 20
-131.2019829316092
 30
0.0
 10
104.0394720877054
 20
-131.1637423717229
 30
0.0
 10
104.0415391449966
 20
-131.1217122068029
 30
0.0
 10
104.0415391449966
 20
-131.1151665253809
 30
0.0
 10
104.0415391449966
 20
-131.0497097111612
 30
0.0
 10
104.0205240625365
 20
-130.8509277016623
 30
0.0
 10
103.7835014931513
 20
-130.8509277016623
 30
0.0
 10
103.6057345661125
 20
-130.8509277016623
 30
0.0
 10
103.550957547897
 20
-130.9818413301018
 30
0.0
 10
103.550957547897
 20
-131.0920843856298
 30
0.0
 10
103.550957547897
 20
-131.3563232093484
 30
0.0
 10
103.7835014931513
 20
-131.3649359480615
 30
0.0
 10
103.8555039887931
 20
-131.3690700626439
 30
0.0
 10
103.8555039887931
 20
-131.3690700626439
 30
0.0
 10
103.8555039887931
 20
-131.5723306962736
 30
0.0
 10
103.8555039887931
 20
-131.5723306962736
 30
0.0
 10
103.730791532227
 20
-131.5637179575605
 30
0.0
 10
103.3542425956892
 20
-131.5361571936785
 30
0.0
 10
103.3542425956892
 20
-131.0793375323343
 30
0.0
 10
103.3542425956892
 20
-130.8550618162446
 30
0.0
 10
103.4810221095464
 20
-130.6139051322771
 30
0.0
 10
103.7773003212779
 20
-130.6139051322771
 30
0.0
 10
103.9633354774814
 20
-130.6139051322771
 30
0.0
 10
104.0460177691274
 20
-130.70898976767
 30
0.0
 10
104.1073404687648
 20
-130.8085530271937
 30
0.0
 10
104.1349012326468
 20
-130.7472303275563
 30
0.0
 10
104.2151719574532
 20
-130.5653292859351
 30
0.0
 10
104.4921576344672
 20
-130.5653292859351
 30
0.0
 10
104.8308105206673
 20
-130.5653292859351
 30
0.0
 10
104.9978976517019
 20
-130.812687141776
 30
0.0
 10
104.9978976517019
 20
-131.0896728187901
 30
0.0
  0
HATCH
  5
24D
330
246
100
AcDbEntity
  8
_U+30EC_U+30A4_U+30E4_U+30FC 1
 62
   179
420
  2234388
100
AcDbHatch
 10
0.0
 20
0.0
 30
0.0
210
0.0
220
0.0
230
1.0
  2
SOLID
 70
     1
 71
     0
 91
        1
 92
        1
 93
        1
 72
     4
 94
        3
 73
     0
 74
     1
 95
       62
 96
       58
 40
0.0
 40
0.0
 40
0.0
 40
0.0
 40
1.0
 40
1.0
 40
1.0
 40
2.0
 40
2.0
 40
2.0
 40
3.0
 40
3.0
 40
3.0
 40
4.0
 40
4.0
 40
4.0
 40
5.0
 40
5.0
 40
5.0
 40
6.0
 40
6.0
 40
6.0
 40
7.0
 40
7.0
 40
7.0
 40
8.0
 40
8.0
 40
8.0
 40
9.0
 40
9.0
 40
9.0
 40
10.0
 40
10.0
 40
10.0
 40
11.0
 40
11.0
 40
11.0
 40
12.0
 40
12.0
 40
12.0
 40
13.0
 40
13.0
 40
13.0
 40
14.0
 40
14.0
 40
14.0
 40
15.0
 40
15.0
 40
15.0
 40
16.0
 40
16.0
 40
16.0
 40
17.0
 40
17.0
 40
17.0
 40
18.0
 40
18.0
 40
18.0
 40
19.0
 40
19.0
 40
19.0
 40
19.0
 10
104.9978976517019
 20
-131.0896728187901
 10
104.9978976517019
 20
-131.1851019637315
 10
104.9768825692419
 20
-131.4028319983993
 10
104.7905029034899
 20
-131.5278889645139
 10
104.6785373002193
 20
-131.6019585174467
 10
104.5789740406955
 20
-131.606092632029
 10
104.4945692013069
 20
-131.6102267466113
 10
104.4945692013069
 20
-131.6102267466113
 10
104.4945692013069
 20
-131.3900851451039
 10
104.4945692013069
 20
-131.3900851451039
 10
104.5682942446913
 20
-131.3880180878127
 10
104.8032497567853
 20
-131.377682801357
 10
104.8032497567853
 20
-131.0941514429209
 10
104.8032497567853
 20
-130.9566921330594
 10
104.7333143184347
 20
-130.8040744030629
 10
104.5049044877627
 20
-130.8040744030629
 10
104.3884602603612
 20
-130.8040744030629
 10
104.3398844140192
 20
-130.8423149629492
 10
104.3081895355549
 20
-130.8740098414135
 10
104.234119982622
 20
-130.9480793943463
 10
104.2213731293266
 20
-131.0645236217478
 10
104.2213731293266
 20
-131.1193006399632
 10
104.2213731293266
 20
-131.1385931746806
 10
104.2237846961663
 20
-131.1744221677272
 10
104.2279188107486
 20
-131.2019829316092
 10
104.2279188107486
 20
-131.2019829316092
 10
104.033270915832
 20
-131.2019829316092
 10
104.033270915832
 20
-131.2019829316092
 10
104.0394720877054
 20
-131.1637423717229
 10
104.0415391449966
 20
-131.1217122068029
 10
104.0415391449966
 20
-131.1151665253809
 10
104.0415391449966
 20
-131.0497097111612
 10
104.0205240625365
 20
-130.8509277016623
 10
103.7835014931513
 20
-130.8509277016623
 10
103.6057345661125
 20
-130.8509277016623
 10
103.550957547897
 20
-130.9818413301018
 10
103.550957547897
 20
-131.0920843856298
 10
103.550957547897
 20
-131.3563232093484
 10
103.7835014931513
 20
-131.3649359480615
 10
103.8555039887931
 20
-131.3690700626439
 10
103.8555039887931
 20
-131.3690700626439
 10
103.8555039887931
 20
-131.5723306962736
 10
103.8555039887931
 20
-131.5723306962736
 10
103.730791532227
 20
-131.5637179575605
 10
103.3542425956892
 20
-131.5361571936785
 10
103.3542425956892
 20
-131.0793375323343
 10
103.3542425956892
 20
-130.8550618162446
 10
103.4810221095464
 20
-130.6139051322771
 10
103.7773003212779
 20
-130.6139051322771
 10
103.9633354774814
 20
-130.6139051322771
 10
104.0460177691274
 20
-130.70898976767
 10
104.1073404687648
 20
-130.8085530271937
 10
104.1349012326468
 20
-130.7472303275563
 10
104.2151719574532
 20
-130.5653292859351
 10
104.4921576344672
 20
-130.5653292859351
 10
104.8308105206673
 20
-130.5653292859351
 10
104.9978976517019
 20
-130.812687141776
 10
104.9978976517019
 20
-131.0896728187901
 97
        0
 97
        0
 75
     2
 76
     1
 98
        0
  0
ENDBLK
  5
249
330
246
100
AcDbEntity
  8
0
100
AcDbBlockEnd
  0
ENDSEC
  0
SECTION
  2
ENTITIES
  0
SPLINE
  5
41
330
1F
100
AcDbEntity
  8
_U+30EC_U+30A4_U+30E4_U+30FC 1
 62
   179
420
  2234388
370
     9
100
AcDbSpline
210
0.0
220
0.0
230
1.0
 70
    11
 71
     3
 72
    17
 73
    13
 74
     0
 42
0.0000000001
 43
0.0000000001
 12
1.0
 22
0.0
 32
0.0
 13
1.0
 23
0.0
 33
0.0
 40
0.0
 40
0.0
 40
0.0
 40
0.0
 40
1.0
 40
1.0
 40
1.0
 40
2.0
 40
2.0
 40
2.0
 40
3.0
 40
3.0
 40
3.0
 40
4.0
 40
4.0
 40
4.0
 40
4.0
 10
87.43720471373551
 20
-136.3747871881282
 30
0.0
 10
87.43720471373551
 20
-136.3196832992533
 30
0.0
 10
87.39243721487762
 20
-136.2748805214866
 30
0.0
 10
87.33729804961767
 20
-136.2748805214866
 30
0.0
 10
87.2821941621346
 20
-136.2748805214866
 30
0.0
 10
87.23739138549983
 20
-136.3196832992533
 30
0.0
 10
87.23739138549983
 20
-136.3747871881282
 30
0.0
 10
87.23739138549983
 20
-136.4305966325593
 30
0.0
 10
87.2821941621346
 20
-136.4753994103254
 30
0.0
 10
87.33729804961767
 20
-136.4753994103254
 30
0.0
 10
87.39243721487762
 20
-136.4753994103254
 30
0.0
 10
87.43720471373551
 20
-136.4305966325593
 30
0.0
 10
87.43720471373551
 20
-136.3747871881282
 30
0.0
  0
POLYLINE
  5
42
330
1F
100
AcDbEntity
  8
_U+30EC_U+30A4_U+30E4_U+30FC 1
 62
   179
420
  2234388
370
    25
100
AcDb2dPolyline
 66
     1
 10
0.0
 20
0.0
 30
0.0
  0
VERTEX
  5
43
330
42
100
AcDbEntity
  8
_U+30EC_U+30A4_U+30E4_U+30FC 1
 62
   179
420
  2234388
370
    25
100
AcDbVertex
100
AcDb2dVertex
 10
97.02559863578186
 20
-124.1681469134025
 30
0.0
  0
VERTEX
  5
44
330
42
100
AcDbEntity
  8
_U+30EC_U+30A4_U+30E4_U+30FC 1
 62
   179
420
  2234388
370
    25
100
AcDbVertex
100
AcDb2dVertex
 10
97.02559863578186
 20
-138.1696852432352
 30
0.0
  0
SEQEND
  5
45
330
42
100
AcDbEntity
  8
_U+30EC_U+30A4_U+30E4_U+30FC 1
 62
   179
420
  2234388
370
    25
  0
POLYLINE
  5
46
330
1F
100
AcDbEntity
  8
_U+30EC_U+30A4_U+30E4_U+30FC 1
 62
   179
420
  2234388
370
    25
100
AcDb2dPolyline
 66
     1
 10
0.0
 20
0.0
 30
0.0
  0
VERTEX
  5
47
330
46
100
AcDbEntity
  8
_U+30EC_U+30A4_U+30E4_U+30FC 1
 62
   179
420
  2234388
370
    25
100
AcDbVertex
100
AcDb2dVertex
 10
99.52534662756354
 20
-121.668363580694
 30
0.0
  0
VERTEX
  5
48
330
46
100
AcDbEntity
  8
_U+30EC_U+30A4_U+30E4_U+30FC 1
 62
   179
420
  2234388
370
    25
100
AcDbVertex
100
AcDb2dVertex
 10
102.0258027522714
 20
-121.668363580694
 30
0.0
  0
SEQEND
  5
49
330
46
100
AcDbEntity
  8
_U+30EC_U+30A4_U+30E4_U+30FC 1
 62
   179
420
  2234388
370
    25
  0
POLYLINE
  5
4A
330
1F
100
AcDbEntity
  8
_U+30EC_U+30A4_U+30E4_U+30FC 1
 62
   179
420
  2234388
370
    25
100
AcDb2dPolyline
 66
     1
 10
0.0
 20
0.0
 30
0.0
  0
VERTEX
  5
4B
330
4A
100
AcDbEntity
  8
_U+30EC_U+30A4_U+30E4_U+30FC 1
 62
   179
420
  2234388
370
    25
100
AcDbVertex
100
AcDb2dVertex
 10
102.0258027522714
 20
-121.668363580694
 30
0.0
  0
VERTEX
  5
4C
330
4A
100
AcDbEntity
  8
_U+30EC_U+30A4_U+30E4_U+30FC 1
 62
   179
420
  2234388
370
    25
100
AcDbVertex
100
AcDb2dVertex
 10
102.0258027522714
 20
-125.1689421909299
 30
0.0
  0
SEQEND
  5
4D
330
4A
100
AcDbEntity
  8
_U+30EC_U+30A4_U+30E4_U+30FC 1
 62
   179
420
  2234388
370
    25
  0
POLYLINE
  5
4E
330
1F
100
AcDbEntity
  8
_U+30EC_U+30A4_U+30E4_U+30FC 1
 62
   179
420
  2234388
370
    25
100
AcDb2dPolyline
 66
     1
 10
0.0
 20
0.0
 30
0.0
  0
VERTEX
  5
4F
330
4E
100
AcDbEntity
  8
_U+30EC_U+30A4_U+30E4_U+30FC 1
 62
   179
420
  2234388
370
    25
100
AcDbVertex
100
AcDb2dVertex
 10
79.5258810266813
 20
-135.6699371883046
 30
0.0
  0
VERTEX
  5
50
330
4E
100
AcDbEntity
  8
_U+30EC_U+30A4_U+30E4_U+30FC 1
 62
   179
420
  2234388
370
    25
100
AcDbVertex
100
AcDb2dVertex
 10
79.5258810266813
 20
-138.1696852432352
 30
0.0
  0
SEQEND
  5
51
330
4E
100
AcDbEntity
  8
_U+30EC_U+30A4_U+30E4_U+30FC 1
 62
   179
420
  2234388
370
    25
  0
POLYLINE
  5
52
330
1F
100
AcDbEntity
  8
_U+30EC_U+30A4_U+30E4_U+30FC 1
 62
   179
420
  2234388
370
    25
100
AcDb2dPolyline
 66
     1
 10
0.0
 20
0.0
 30
0.0
  0
VERTEX
  5
53
330
52
100
AcDbEntity
  8
_U+30EC_U+30A4_U+30E4_U+30FC 1
 62
   179
420
  2234388
370
    25
100
AcDbVertex
100
AcDb2dVertex
 10
100.525824379817
 20
-125.1689421909299
 30
0.0
  0
VERTEX
  5
54
330
52
100
AcDbEntity
  8
_U+30EC_U+30A4_U+30E4_U+30FC 1
 62
   179
420
  2234388
370
    25
100
AcDbVertex
100
AcDb2dVertex
 10
102.0258027522714
 20
-125.1689421909299
 30
0.0
  0
SEQEND
  5
55
330
52
100
AcDbEntity
  8
_U+30EC_U+30A4_U+30E4_U+30FC 1
 62
   179
420
  2234388
370
    25
  0
POLYLINE
  5
56
330
1F
100
AcDbEntity
  8
_U+30EC_U+30A4_U+30E4_U+30FC 1
 62
   179
420
  2234388
370
    25
100
AcDb2dPolyline
 66
     1
 10
0.0
 20
0.0
 30
0.0
  0
VERTEX
  5
57
330
56
100
AcDbEntity
  8
_U+30EC_U+30A4_U+30E4_U+30FC 1
 62
   179
420
  2234388
370
    25
100
AcDbVertex
100
AcDb2dVertex
 10
79.5258810266813
 20
-138.1696852432352
 30
0.0
  0
VERTEX
  5
58
330
56
100
AcDbEntity
  8
_U+30EC_U+30A4_U+30E4_U+30FC 1
 62
   179
420
  2234388
370
    25
100
AcDbVertex
100
AcDb2dVertex
 10
97.02559863578186
 20
-138.1696852432352
 30
0.0
  0
SEQEND
  5
59
330
56
100
AcDbEntity
  8
_U+30EC_U+30A4_U+30E4_U+30FC 1
 62
   179
420
  2234388
370
    25
  0
POLYLINE
  5
5A
330
1F
100
AcDbEntity
  8
_U+30EC_U+30A4_U+30E4_U+30FC 1
 62
   179
420
  2234388
370
    25
100
AcDb2dPolyline
 66
     1
 10
0.0
 20
0.0
 30
0.0
  0
VERTEX
  5
5B
330
5A
100
AcDbEntity
  8
_U+30EC_U+30A4_U+30E4_U+30FC 1
 62
   179
420
  2234388
370
    25
100
AcDbVertex
100
AcDb2dVertex
 10
79.5258810266813
 20
-135.6699371883046
 30
0.0
  0
VERTEX
  5
5C
330
5A
100
AcDbEntity
  8
_U+30EC_U+30A4_U+30E4_U+30FC 1
 62
   179
420
  2234388
370
    25
100
AcDbVertex
100
AcDb2dVertex
 10
80.52565322339721
 20
-135.6699371883046
 30
0.0
  0
SEQEND
  5
5D
330
5A
100
AcDbEntity
  8
_U+30EC_U+30A4_U+30E4_U+30FC 1
 62
   179
420
  2234388
370
    25
  0
POLYLINE
  5
5E
330
1F
100
AcDbEntity
  8
_U+30EC_U+30A4_U+30E4_U+30FC 1
 62
   179
420
  2234388
370
    25
100
AcDb2dPolyline
 66
     1
 10
0.0
 20
0.0
 30
0.0
  0
VERTEX
  5
5F
330
5E
100
AcDbEntity
  8
_U+30EC_U+30A4_U+30E4_U+30FC 1
 62
   179
420
  2234388
370
    25
100
AcDbVertex
100
AcDb2dVertex
 10
80.52565322339721
 20
-135.6699371883046
 30
0.0
  0
VERTEX
  5
60
330
5E
100
AcDbEntity
  8
_U+30EC_U+30A4_U+30E4_U+30FC 1
 62
   179
420
  2234388
370
    25
100
AcDbVertex
100
AcDb2dVertex
 10
80.52565322339721
 20
-137.1699130212633
 30
0.0
  0
SEQEND
  5
61
330
5E
100
AcDbEntity
  8
_U+30EC_U+30A4_U+30E4_U+30FC 1
 62
   179
420
  2234388
370
    25
  0
POLYLINE
  5
62
330
1F
100
AcDbEntity
  8
_U+30EC_U+30A4_U+30E4_U+30FC 1
 62
   179
420
  2234388
370
    25
100
AcDb2dPolyline
 66
     1
 10
0.0
 20
0.0
 30
0.0
  0
VERTEX
  5
63
330
62
100
AcDbEntity
  8
_U+30EC_U+30A4_U+30E4_U+30FC 1
 62
   179
420
  2234388
370
    25
100
AcDbVertex
100
AcDb2dVertex
 10
80.52565322339721
 20
-137.1699130212633
 30
0.0
  0
VERTEX
  5
64
330
62
100
AcDbEntity
  8
_U+30EC_U+30A4_U+30E4_U+30FC 1
 62
   179
420
  2234388
370
    25
100
AcDbVertex
100
AcDb2dVertex
 10
84.65082478482198
 20
-137.1699130212633
 30
0.0
  0
SEQEND
  5
65
330
62
100
AcDbEntity
  8
_U+30EC_U+30A4_U+30E4_U+30FC 1
 62
   179
420
  2234388
370
    25
  0
POLYLINE
  5
66
330
1F
100
AcDbEntity
  8
_U+30EC_U+30A4_U+30E4_U+30FC 1
 62
   179
420
  2234388
370
    25
100
AcDb2dPolyline
 66
     1
 10
0.0
 20
0.0
 30
0.0
  0
VERTEX
  5
67
330
66
100
AcDbEntity
  8
_U+30EC_U+30A4_U+30E4_U+30FC 1
 62
   179
420
  2234388
370
    25
100
AcDbVertex
100
AcDb2dVertex
 10
89.52561382712243
 20
-135.6699371883046
 30
0.0
  0
VERTEX
  5
68
330
66
100
AcDbEntity
  8
_U+30EC_U+30A4_U+30E4_U+30FC 1
 62
   179
420
  2234388
370
    25
100
AcDbVertex
100
AcDb2dVertex
 10
89.52561382712243
 20
-137.1699130212633
 30
0.0
  0
SEQEND
  5
69
330
66
100
AcDbEntity
  8
_U+30EC_U+30A4_U+30E4_U+30FC 1
 62
   179
420
  2234388
370
    25
  0
POLYLINE
  5
6A
330
1F
100
AcDbEntity
  8
_U+30EC_U+30A4_U+30E4_U+30FC 1
 62
   179
420
  2234388
370
    25
100
AcDb2dPolyline
 66
     1
 10
0.0
 20
0.0
 30
0.0
  0
VERTEX
  5
6B
330
6A
100
AcDbEntity
  8
_U+30EC_U+30A4_U+30E4_U+30FC 1
 62
   179
420
  2234388
370
    25
100
AcDbVertex
100
AcDb2dVertex
 10
90.52538602383834
 20
-135.6699371883046
 30
0.0
  0
VERTEX
  5
6C
330
6A
100
AcDbEntity
  8
_U+30EC_U+30A4_U+30E4_U+30FC 1
 62
   179
420
  2234388
370
    25
100
AcDbVertex
100
AcDb2dVertex
 10
90.52538602383834
 20
-137.1699130212633
 30
0.0
  0
SEQEND
  5
6D
330
6A
100
AcDbEntity
  8
_U+30EC_U+30A4_U+30E4_U+30FC 1
 62
   179
420
  2234388
370
    25
  0
POLYLINE
  5
6E
330
1F
100
AcDbEntity
  8
_U+30EC_U+30A4_U+30E4_U+30FC 1
 62
   179
420
  2234388
370
    25
100
AcDb2dPolyline
 66
     1
 10
0.0
 20
0.0
 30
0.0
  0
VERTEX
  5
6F
330
6E
100
AcDbEntity
  8
_U+30EC_U+30A4_U+30E4_U+30FC 1
 62
   179
420
  2234388
370
    25
100
AcDbVertex
100
AcDb2dVertex
 10
89.52561382712243
 20
-135.6699371883046
 30
0.0
  0
VERTEX
  5
70
330
6E
100
AcDbEntity
  8
_U+30EC_U+30A4_U+30E4_U+30FC 1
 62
   179
420
  2234388
370
    25
100
AcDbVertex
100
AcDb2dVertex
 10
90.52538602383834
 20
-135.6699371883046
 30
0.0
  0
SEQEND
  5
71
330
6E
100
AcDbEntity
  8
_U+30EC_U+30A4_U+30E4_U+30FC 1
 62
   179
420
  2234388
370
    25
  0
POLYLINE
  5
72
330
1F
100
AcDbEntity
  8
_U+30EC_U+30A4_U+30E4_U+30FC 1
 62
   179
420
  2234388
370
    25
100
AcDb2dPolyline
 66
     1
 10
0.0
 20
0.0
 30
0.0
  0
VERTEX
  5
73
330
72
100
AcDbEntity
  8
_U+30EC_U+30A4_U+30E4_U+30FC 1
 62
   179
420
  2234388
370
    25
100
AcDbVertex
100
AcDb2dVertex
 10
95.02538396458938
 20
-128.1692819124023
 30
0.0
  0
VERTEX
  5
74
330
72
100
AcDbEntity
  8
_U+30EC_U+30A4_U+30E4_U+30FC 1
 62
   179
420
  2234388
370
    25
100
AcDbVertex
100
AcDb2dVertex
 10
95.02538396458938
 20
-136.6697094102771
 30
0.0
  0
SEQEND
  5
75
330
72
100
AcDbEntity
  8
_U+30EC_U+30A4_U+30E4_U+30FC 1
 62
   179
420
  2234388
370
    25
  0
POLYLINE
  5
76
330
1F
100
AcDbEntity
  8
_U+30EC_U+30A4_U+30E4_U+30FC 1
 62
   179
420
  2234388
370
    25
100
AcDb2dPolyline
 66
     1
 10
0.0
 20
0.0
 30
0.0
  0
VERTEX
  5
77
330
76
100
AcDbEntity
  8
_U+30EC_U+30A4_U+30E4_U+30FC 1
 62
   179
420
  2234388
370
    25
100
AcDbVertex
100
AcDb2dVertex
 10
90.52538602383834
 20
-137.1699130212633
 30
0.0
  0
VERTEX
  5
78
330
76
100
AcDbEntity
  8
_U+30EC_U+30A4_U+30E4_U+30FC 1
 62
   179
420
  2234388
370
    25
100
AcDbVertex
100
AcDb2dVertex
 10
94.5258506440002
 20
-137.1699130212633
 30
0.0
  0
SEQEND
  5
79
330
76
100
AcDbEntity
  8
_U+30EC_U+30A4_U+30E4_U+30FC 1
 62
   179
420
  2234388
370
    25
  0
POLYLINE
  5
7A
330
1F
100
AcDbEntity
  8
_U+30EC_U+30A4_U+30E4_U+30FC 1
 62
   179
420
  2234388
370
    25
100
AcDb2dPolyline
 66
     1
 10
0.0
 20
0.0
 30
0.0
  0
VERTEX
  5
7B
330
7A
100
AcDbEntity
  8
_U+30EC_U+30A4_U+30E4_U+30FC 1
 62
   179
420
  2234388
370
    25
100
AcDbVertex
100
AcDb2dVertex
 10
85.40047754347452
 20
-137.1699130212633
 30
0.0
  0
VERTEX
  5
7C
330
7A
100
AcDbEntity
  8
_U+30EC_U+30A4_U+30E4_U+30FC 1
 62
   179
420
  2234388
370
    25
100
AcDbVertex
100
AcDb2dVertex
 10
89.52561382712243
 20
-137.1699130212633
 30
0.0
  0
SEQEND
  5
7D
330
7A
100
AcDbEntity
  8
_U+30EC_U+30A4_U+30E4_U+30FC 1
 62
   179
420
  2234388
370
    25
  0
POLYLINE
  5
7E
330
1F
100
AcDbEntity
  8
_U+30EC_U+30A4_U+30E4_U+30FC 1
  6
AI-Linetype-1
 62
   179
420
  2234388
370
     9
100
AcDb2dPolyline
 66
     1
 10
0.0
 20
0.0
 30
0.0
  0
VERTEX
  5
7F
330
7E
100
AcDbEntity
  8
_U+30EC_U+30A4_U+30E4_U+30FC 1
  6
AI-Linetype-1
 62
   179
420
  2234388
370
     9
100
AcDbVertex
100
AcDb2dVertex
 10
85.02565116414826
 20
-134.357356910855
 30
0.0
  0
VERTEX
  5
80
330
7E
100
AcDbEntity
  8
_U+30EC_U+30A4_U+30E4_U+30FC 1
  6
AI-Linetype-1
 62
   179
420
  2234388
370
     9
100
AcDbVertex
100
AcDb2dVertex
 10
85.02565116414826
 20
-137.6274305211487
 30
0.0
  0
SEQEND
  5
82
330
7E
100
AcDbEntity
  8
_U+30EC_U+30A4_U+30E4_U+30FC 1
  6
AI-Linetype-1
 62
   179
420
  2234388
370
     9
  0
POLYLINE
  5
83
330
1F
100
AcDbEntity
  8
_U+30EC_U+30A4_U+30E4_U+30FC 1
 62
   179
420
  2234388
370
    25
100
AcDb2dPolyline
 66
     1
 10
0.0
 20
0.0
 30
0.0
  0
VERTEX
  5
84
330
83
100
AcDbEntity
  8
_U+30EC_U+30A4_U+30E4_U+30FC 1
 62
   179
420
  2234388
370
    25
100
AcDbVertex
100
AcDb2dVertex
 10
100.525824379817
 20
-124.1681469134025
 30
0.0
  0
VERTEX
  5
85
330
83
100
AcDbEntity
  8
_U+30EC_U+30A4_U+30E4_U+30FC 1
 62
   179
420
  2234388
370
    25
100
AcDbVertex
100
AcDb2dVertex
 10
100.525824379817
 20
-125.1689421909299
 30
0.0
  0
SEQEND
  5
86
330
83
100
AcDbEntity
  8
_U+30EC_U+30A4_U+30E4_U+30FC 1
 62
   179
420
  2234388
370
    25
  0
POLYLINE
  5
87
330
1F
100
AcDbEntity
  8
_U+30EC_U+30A4_U+30E4_U+30FC 1
 62
   179
420
  2234388
370
    25
100
AcDb2dPolyline
 66
     1
 10
0.0
 20
0.0
 30
0.0
  0
VERTEX
  5
88
330
87
100
AcDbEntity
  8
_U+30EC_U+30A4_U+30E4_U+30FC 1
 62
   179
420
  2234388
370
    25
100
AcDbVertex
100
AcDb2dVertex
 10
97.02559863578186
 20
-124.1681469134025
 30
0.0
  0
VERTEX
  5
89
330
87
100
AcDbEntity
  8
_U+30EC_U+30A4_U+30E4_U+30FC 1
 62
   179
420
  2234388
370
    25
100
AcDbVertex
100
AcDb2dVertex
 10
100.525824379817
 20
-124.1681469134025
 30
0.0
  0
SEQEND
  5
8A
330
87
100
AcDbEntity
  8
_U+30EC_U+30A4_U+30E4_U+30FC 1
 62
   179
420
  2234388
370
    25
  0
POLYLINE
  5
8B
330
1F
100
AcDbEntity
  8
_U+30EC_U+30A4_U+30E4_U+30FC 1
 62
   179
420
  2234388
370
    25
100
AcDb2dPolyline
 66
     1
 10
0.0
 20
0.0
 30
0.0
  0
VERTEX
  5
8C
330
8B
100
AcDbEntity
  8
_U+30EC_U+30A4_U+30E4_U+30FC 1
 62
   179
420
  2234388
370
    25
100
AcDbVertex
100
AcDb2dVertex
 10
92.52560069503082
 20
-128.1692819124023
 30
0.0
  0
VERTEX
  5
8D
330
8B
100
AcDbEntity
  8
_U+30EC_U+30A4_U+30E4_U+30FC 1
 62
   179
420
  2234388
370
    25
100
AcDbVertex
100
AcDb2dVertex
 10
95.02538396458938
 20
-128.1692819124023
 30
0.0
  0
SEQEND
  5
8E
330
8B
100
AcDbEntity
  8
_U+30EC_U+30A4_U+30E4_U+30FC 1
 62
   179
420
  2234388
370
    25
  0
POLYLINE
  5
8F
330
1F
100
AcDbEntity
  8
_U+30EC_U+30A4_U+30E4_U+30FC 1
 62
   179
420
  2234388
370
    25
100
AcDb2dPolyline
 66
     1
 10
0.0
 20
0.0
 30
0.0
  0
VERTEX
  5
90
330
8F
100
AcDbEntity
  8
_U+30EC_U+30A4_U+30E4_U+30FC 1
 62
   179
420
  2234388
370
    25
100
AcDbVertex
100
AcDb2dVertex
 10
87.02586583534075
 20
-121.1681599697078
 30
0.0
  0
VERTEX
  5
91
330
8F
100
AcDbEntity
  8
_U+30EC_U+30A4_U+30E4_U+30FC 1
 62
   179
420
  2234388
370
    25
100
AcDbVertex
100
AcDb2dVertex
 10
87.02586583534075
 20
-121.8681769139773
 30
0.0
  0
SEQEND
  5
92
330
8F
100
AcDbEntity
  8
_U+30EC_U+30A4_U+30E4_U+30FC 1
 62
   179
420
  2234388
370
    25
  0
POLYLINE
  5
93
330
1F
100
AcDbEntity
  8
_U+30EC_U+30A4_U+30E4_U+30FC 1
 62
   179
420
  2234388
370
    25
100
AcDb2dPolyline
 66
     1
 10
0.0
 20
0.0
 30
0.0
  0
VERTEX
  5
94
330
93
100
AcDbEntity
  8
_U+30EC_U+30A4_U+30E4_U+30FC 1
 62
   179
420
  2234388
370
    25
100
AcDbVertex
100
AcDb2dVertex
 10
92.02539709668098
 20
-123.1683746914303
 30
0.0
  0
VERTEX
  5
95
330
93
100
AcDbEntity
  8
_U+30EC_U+30A4_U+30E4_U+30FC 1
 62
   179
420
  2234388
370
    25
100
AcDbVertex
100
AcDb2dVertex
 10
92.02539709668098
 20
-127.6690430236382
 30
0.0
  0
SEQEND
  5
96
330
93
100
AcDbEntity
  8
_U+30EC_U+30A4_U+30E4_U+30FC 1
 62
   179
420
  2234388
370
    25
  0
POLYLINE
  5
97
330
1F
100
AcDbEntity
  8
_U+30EC_U+30A4_U+30E4_U+30FC 1
 62
   179
420
  2234388
370
    25
100
AcDb2dPolyline
 66
     1
 10
0.0
 20
0.0
 30
0.0
  0
VERTEX
  5
98
330
97
100
AcDbEntity
  8
_U+30EC_U+30A4_U+30E4_U+30FC 1
 62
   179
420
  2234388
370
    25
100
AcDbVertex
100
AcDb2dVertex
 10
93.02583957115756
 20
-127.1684513570968
 30
0.0
  0
VERTEX
  5
99
330
97
100
AcDbEntity
  8
_U+30EC_U+30A4_U+30E4_U+30FC 1
 62
   179
420
  2234388
370
    25
100
AcDbVertex
100
AcDb2dVertex
 10
96.02582643906597
 20
-127.1684513570968
 30
0.0
  0
SEQEND
  5
9A
330
97
100
AcDbEntity
  8
_U+30EC_U+30A4_U+30E4_U+30FC 1
 62
   179
420
  2234388
370
    25
  0
POLYLINE
  5
9B
330
1F
100
AcDbEntity
  8
_U+30EC_U+30A4_U+30E4_U+30FC 1
 62
   179
420
  2234388
370
    25
100
AcDb2dPolyline
 66
     1
 10
0.0
 20
0.0
 30
0.0
  0
VERTEX
  5
9C
330
9B
100
AcDbEntity
  8
_U+30EC_U+30A4_U+30E4_U+30FC 1
 62
   179
420
  2234388
370
    25
100
AcDbVertex
100
AcDb2dVertex
 10
93.02583957115756
 20
-124.4685371911051
 30
0.0
  0
VERTEX
  5
9D
330
9B
100
AcDbEntity
  8
_U+30EC_U+30A4_U+30E4_U+30FC 1
 62
   179
420
  2234388
370
    25
100
AcDbVertex
100
AcDb2dVertex
 10
93.02583957115756
 20
-127.1684513570968
 30
0.0
  0
SEQEND
  5
9E
330
9B
100
AcDbEntity
  8
_U+30EC_U+30A4_U+30E4_U+30FC 1
 62
   179
420
  2234388
370
    25
  0
POLYLINE
  5
9F
330
1F
100
AcDbEntity
  8
_U+30EC_U+30A4_U+30E4_U+30FC 1
 62
   179
420
  2234388
370
    25
100
AcDb2dPolyline
 66
     1
 10
0.0
 20
0.0
 30
0.0
  0
VERTEX
  5
A0
330
9F
100
AcDbEntity
  8
_U+30EC_U+30A4_U+30E4_U+30FC 1
 62
   179
420
  2234388
370
    25
100
AcDbVertex
100
AcDb2dVertex
 10
96.02582643906597
 20
-124.8685166354494
 30
0.0
  0
VERTEX
  5
A1
330
9F
100
AcDbEntity
  8
_U+30EC_U+30A4_U+30E4_U+30FC 1
 62
   179
420
  2234388
370
    25
100
AcDbVertex
100
AcDb2dVertex
 10
96.02582643906597
 20
-127.1684513570968
 30
0.0
  0
SEQEND
  5
A2
330
9F
100
AcDbEntity
  8
_U+30EC_U+30A4_U+30E4_U+30FC 1
 62
   179
420
  2234388
370
    25
  0
POLYLINE
  5
A3
330
1F
100
AcDbEntity
  8
_U+30EC_U+30A4_U+30E4_U+30FC 1
 62
   179
420
  2234388
370
    25
100
AcDb2dPolyline
 66
     1
 10
0.0
 20
0.0
 30
0.0
  0
VERTEX
  5
A4
330
A3
100
AcDbEntity
  8
_U+30EC_U+30A4_U+30E4_U+30FC 1
 62
   179
420
  2234388
370
    25
100
AcDbVertex
100
AcDb2dVertex
 10
96.02582643906597
 20
-123.1683746914303
 30
0.0
  0
VERTEX
  5
A5
330
A3
100
AcDbEntity
  8
_U+30EC_U+30A4_U+30E4_U+30FC 1
 62
   179
420
  2234388
370
    25
100
AcDbVertex
100
AcDb2dVertex
 10
100.2757049417536
 20
-123.1683746914303
 30
0.0
  0
SEQEND
  5
A6
330
A3
100
AcDbEntity
  8
_U+30EC_U+30A4_U+30E4_U+30FC 1
 62
   179
420
  2234388
370
    25
  0
POLYLINE
  5
A7
330
1F
100
AcDbEntity
  8
_U+30EC_U+30A4_U+30E4_U+30FC 1
 62
   179
420
  2234388
370
    25
100
AcDb2dPolyline
 66
     1
 10
0.0
 20
0.0
 30
0.0
  0
VERTEX
  5
A8
330
A7
100
AcDbEntity
  8
_U+30EC_U+30A4_U+30E4_U+30FC 1
 62
   179
420
  2234388
370
    25
100
AcDbVertex
100
AcDb2dVertex
 10
94.02561176787347
 20
-123.1683746914303
 30
0.0
  0
VERTEX
  5
A9
330
A7
100
AcDbEntity
  8
_U+30EC_U+30A4_U+30E4_U+30FC 1
 62
   179
420
  2234388
370
    25
100
AcDbVertex
100
AcDb2dVertex
 10
94.02561176787347
 20
-124.6611185799459
 30
0.0
  0
SEQEND
  5
AA
330
A7
100
AcDbEntity
  8
_U+30EC_U+30A4_U+30E4_U+30FC 1
 62
   179
420
  2234388
370
    25
  0
POLYLINE
  5
AB
330
1F
100
AcDbEntity
  8
_U+30EC_U+30A4_U+30E4_U+30FC 1
 62
   179
420
  2234388
370
    25
100
AcDb2dPolyline
 66
     1
 10
0.0
 20
0.0
 30
0.0
  0
VERTEX
  5
AC
330
AB
100
AcDbEntity
  8
_U+30EC_U+30A4_U+30E4_U+30FC 1
 62
   179
420
  2234388
370
    25
100
AcDbVertex
100
AcDb2dVertex
 10
95.02538396458938
 20
-123.1683746914303
 30
0.0
  0
VERTEX
  5
AD
330
AB
100
AcDbEntity
  8
_U+30EC_U+30A4_U+30E4_U+30FC 1
 62
   179
420
  2234388
370
    25
100
AcDbVertex
100
AcDb2dVertex
 10
95.02538396458938
 20
-124.6611185799459
 30
0.0
  0
SEQEND
  5
AE
330
AB
100
AcDbEntity
  8
_U+30EC_U+30A4_U+30E4_U+30FC 1
 62
   179
420
  2234388
370
    25
  0
POLYLINE
  5
AF
330
1F
100
AcDbEntity
  8
_U+30EC_U+30A4_U+30E4_U+30FC 1
 62
   179
420
  2234388
370
    25
100
AcDb2dPolyline
 66
     1
 10
0.0
 20
0.0
 30
0.0
  0
VERTEX
  5
B0
330
AF
100
AcDbEntity
  8
_U+30EC_U+30A4_U+30E4_U+30FC 1
 62
   179
420
  2234388
370
    25
100
AcDbVertex
100
AcDb2dVertex
 10
87.02586583534075
 20
-121.1681599697078
 30
0.0
  0
VERTEX
  5
B1
330
AF
100
AcDbEntity
  8
_U+30EC_U+30A4_U+30E4_U+30FC 1
 62
   179
420
  2234388
370
    25
100
AcDbVertex
100
AcDb2dVertex
 10
98.65994997533475
 20
-121.1681599697078
 30
0.0
  0
SEQEND
  5
B2
330
AF
100
AcDbEntity
  8
_U+30EC_U+30A4_U+30E4_U+30FC 1
 62
   179
420
  2234388
370
    25
  0
POLYLINE
  5
B3
330
1F
100
AcDbEntity
  8
_U+30EC_U+30A4_U+30E4_U+30FC 1
 62
   179
420
  2234388
370
    25
100
AcDb2dPolyline
 66
     1
 10
0.0
 20
0.0
 30
0.0
  0
VERTEX
  5
B4
330
B3
100
AcDbEntity
  8
_U+30EC_U+30A4_U+30E4_U+30FC 1
 62
   179
420
  2234388
370
    25
100
AcDbVertex
100
AcDb2dVertex
 10
88.02563803205666
 20
-122.6681358026663
 30
0.0
  0
VERTEX
  5
B5
330
B3
100
AcDbEntity
  8
_U+30EC_U+30A4_U+30E4_U+30FC 1
 62
   179
420
  2234388
370
    25
100
AcDbVertex
100
AcDb2dVertex
 10
93.52537289174673
 20
-122.6681358026663
 30
0.0
  0
SEQEND
  5
B6
330
B3
100
AcDbEntity
  8
_U+30EC_U+30A4_U+30E4_U+30FC 1
 62
   179
420
  2234388
370
    25
  0
POLYLINE
  5
B7
330
1F
100
AcDbEntity
  8
_U+30EC_U+30A4_U+30E4_U+30FC 1
 62
   179
420
  2234388
370
    25
100
AcDb2dPolyline
 66
     1
 10
0.0
 20
0.0
 30
0.0
  0
VERTEX
  5
B8
330
B7
100
AcDbEntity
  8
_U+30EC_U+30A4_U+30E4_U+30FC 1
 62
   179
420
  2234388
370
    25
100
AcDbVertex
100
AcDb2dVertex
 10
87.02586583534075
 20
-121.8681769139773
 30
0.0
  0
VERTEX
  5
B9
330
B7
100
AcDbEntity
  8
_U+30EC_U+30A4_U+30E4_U+30FC 1
 62
   179
420
  2234388
370
    25
100
AcDbVertex
100
AcDb2dVertex
 10
88.02563803205666
 20
-121.8681769139773
 30
0.0
  0
SEQEND
  5
BA
330
B7
100
AcDbEntity
  8
_U+30EC_U+30A4_U+30E4_U+30FC 1
 62
   179
420
  2234388
370
    25
  0
POLYLINE
  5
BB
330
1F
100
AcDbEntity
  8
_U+30EC_U+30A4_U+30E4_U+30FC 1
 62
   179
420
  2234388
370
    25
100
AcDb2dPolyline
 66
     1
 10
0.0
 20
0.0
 30
0.0
  0
VERTEX
  5
BC
330
BB
100
AcDbEntity
  8
_U+30EC_U+30A4_U+30E4_U+30FC 1
 62
   179
420
  2234388
370
    25
100
AcDbVertex
100
AcDb2dVertex
 10
88.02563803205666
 20
-121.8681769139773
 30
0.0
  0
VERTEX
  5
BD
330
BB
100
AcDbEntity
  8
_U+30EC_U+30A4_U+30E4_U+30FC 1
 62
   179
420
  2234388
370
    25
100
AcDbVertex
100
AcDb2dVertex
 10
88.02563803205666
 20
-122.6681358026663
 30
0.0
  0
SEQEND
  5
BE
330
BB
100
AcDbEntity
  8
_U+30EC_U+30A4_U+30E4_U+30FC 1
 62
   179
420
  2234388
370
    25
  0
POLYLINE
  5
BF
330
1F
100
AcDbEntity
  8
_U+30EC_U+30A4_U+30E4_U+30FC 1
 62
   179
420
  2234388
370
    25
100
AcDb2dPolyline
 66
     1
 10
0.0
 20
0.0
 30
0.0
  0
VERTEX
  5
C0
330
BF
100
AcDbEntity
  8
_U+30EC_U+30A4_U+30E4_U+30FC 1
 62
   179
420
  2234388
370
    25
100
AcDbVertex
100
AcDb2dVertex
 10
95.52562284071611
 20
-122.6681358026663
 30
0.0
  0
VERTEX
  5
C1
330
BF
100
AcDbEntity
  8
_U+30EC_U+30A4_U+30E4_U+30FC 1
 62
   179
420
  2234388
370
    25
100
AcDbVertex
100
AcDb2dVertex
 10
98.65994997533475
 20
-122.6681358026663
 30
0.0
  0
SEQEND
  5
C2
330
BF
100
AcDbEntity
  8
_U+30EC_U+30A4_U+30E4_U+30FC 1
 62
   179
420
  2234388
370
    25
  0
POLYLINE
  5
C3
330
1F
100
AcDbEntity
  8
_U+30EC_U+30A4_U+30E4_U+30FC 1
 62
   179
420
  2234388
370
    25
100
AcDb2dPolyline
 66
     1
 10
0.0
 20
0.0
 30
0.0
  0
VERTEX
  5
C4
330
C3
100
AcDbEntity
  8
_U+30EC_U+30A4_U+30E4_U+30FC 1
 62
   179
420
  2234388
370
    25
100
AcDbVertex
100
AcDb2dVertex
 10
92.02539709668098
 20
-123.1683746914303
 30
0.0
  0
VERTEX
  5
C5
330
C3
100
AcDbEntity
  8
_U+30EC_U+30A4_U+30E4_U+30FC 1
 62
   179
420
  2234388
370
    25
100
AcDbVertex
100
AcDb2dVertex
 10
93.02583957115756
 20
-123.1683746914303
 30
0.0
  0
SEQEND
  5
C6
330
C3
100
AcDbEntity
  8
_U+30EC_U+30A4_U+30E4_U+30FC 1
 62
   179
420
  2234388
370
    25
  0
POLYLINE
  5
C7
330
1F
100
AcDbEntity
  8
_U+30EC_U+30A4_U+30E4_U+30FC 1
 62
   179
420
  2234388
370
    25
100
AcDb2dPolyline
 66
     1
 10
0.0
 20
0.0
 30
0.0
  0
VERTEX
  5
C8
330
C7
100
AcDbEntity
  8
_U+30EC_U+30A4_U+30E4_U+30FC 1
 62
   179
420
  2234388
370
    25
100
AcDbVertex
100
AcDb2dVertex
 10
99.52534662756354
 20
-121.668363580694
 30
0.0
  0
VERTEX
  5
C9
330
C7
100
AcDbEntity
  8
_U+30EC_U+30A4_U+30E4_U+30FC 1
 62
   179
420
  2234388
370
    25
100
AcDbVertex
100
AcDb2dVertex
 10
99.52534662756354
 20
-122.1686024694577
 30
0.0
  0
SEQEND
  5
CA
330
C7
100
AcDbEntity
  8
_U+30EC_U+30A4_U+30E4_U+30FC 1
 62
   179
420
  2234388
370
    25
  0
POLYLINE
  5
CB
330
1F
100
AcDbEntity
  8
_U+30EC_U+30A4_U+30E4_U+30FC 1
 62
   179
420
  2234388
370
    25
100
AcDb2dPolyline
 66
     1
 10
0.0
 20
0.0
 30
0.0
  0
VERTEX
  5
CC
330
CB
100
AcDbEntity
  8
_U+30EC_U+30A4_U+30E4_U+30FC 1
 62
   179
420
  2234388
370
    25
100
AcDbVertex
100
AcDb2dVertex
 10
100.2757049417536
 20
-122.1686024694577
 30
0.0
  0
VERTEX
  5
CD
330
CB
100
AcDbEntity
  8
_U+30EC_U+30A4_U+30E4_U+30FC 1
 62
   179
420
  2234388
370
    25
100
AcDbVertex
100
AcDb2dVertex
 10
100.2757049417536
 20
-123.1683746914303
 30
0.0
  0
SEQEND
  5
CE
330
CB
100
AcDbEntity
  8
_U+30EC_U+30A4_U+30E4_U+30FC 1
 62
   179
420
  2234388
370
    25
  0
POLYLINE
  5
CF
330
1F
100
AcDbEntity
  8
_U+30EC_U+30A4_U+30E4_U+30FC 1
 62
   179
420
  2234388
370
    25
100
AcDb2dPolyline
 66
     1
 10
0.0
 20
0.0
 30
0.0
  0
VERTEX
  5
D0
330
CF
100
AcDbEntity
  8
_U+30EC_U+30A4_U+30E4_U+30FC 1
 62
   179
420
  2234388
370
    25
100
AcDbVertex
100
AcDb2dVertex
 10
99.52534662756354
 20
-122.1686024694577
 30
0.0
  0
VERTEX
  5
D1
330
CF
100
AcDbEntity
  8
_U+30EC_U+30A4_U+30E4_U+30FC 1
 62
   179
420
  2234388
370
    25
100
AcDbVertex
100
AcDb2dVertex
 10
101.2754771384695
 20
-122.1686024694577
 30
0.0
  0
SEQEND
  5
D2
330
CF
100
AcDbEntity
  8
_U+30EC_U+30A4_U+30E4_U+30FC 1
 62
   179
420
  2234388
370
    25
  0
POLYLINE
  5
D3
330
1F
100
AcDbEntity
  8
_U+30EC_U+30A4_U+30E4_U+30FC 1
 62
   179
420
  2234388
370
    25
100
AcDb2dPolyline
 66
     1
 10
0.0
 20
0.0
 30
0.0
  0
VERTEX
  5
D4
330
D3
100
AcDbEntity
  8
_U+30EC_U+30A4_U+30E4_U+30FC 1
 62
   179
420
  2234388
370
    25
100
AcDbVertex
100
AcDb2dVertex
 10
101.2754771384695
 20
-121.668363580694
 30
0.0
  0
VERTEX
  5
D5
330
D3
100
AcDbEntity
  8
_U+30EC_U+30A4_U+30E4_U+30FC 1
 62
   179
420
  2234388
370
    25
100
AcDbVertex
100
AcDb2dVertex
 10
101.2754771384695
 20
-122.1686024694577
 30
0.0
  0
SEQEND
  5
D6
330
D3
100
AcDbEntity
  8
_U+30EC_U+30A4_U+30E4_U+30FC 1
 62
   179
420
  2234388
370
    25
  0
POLYLINE
  5
D7
330
1F
100
AcDbEntity
  8
_U+30EC_U+30A4_U+30E4_U+30FC 1
 62
   179
420
  2234388
370
    25
100
AcDb2dPolyline
 66
     1
 10
0.0
 20
0.0
 30
0.0
  0
VERTEX
  5
D8
330
D7
100
AcDbEntity
  8
_U+30EC_U+30A4_U+30E4_U+30FC 1
 62
   179
420
  2234388
370
    25
100
AcDbVertex
100
AcDb2dVertex
 10
98.65994997533475
 20
-121.1681599697078
 30
0.0
  0
VERTEX
  5
D9
330
D7
100
AcDbEntity
  8
_U+30EC_U+30A4_U+30E4_U+30FC 1
 62
   179
420
  2234388
370
    25
100
AcDbVertex
100
AcDb2dVertex
 10
99.52534662756354
 20
-121.668363580694
 30
0.0
  0
SEQEND
  5
DA
330
D7
100
AcDbEntity
  8
_U+30EC_U+30A4_U+30E4_U+30FC 1
 62
   179
420
  2234388
370
    25
  0
POLYLINE
  5
DB
330
1F
100
AcDbEntity
  8
_U+30EC_U+30A4_U+30E4_U+30FC 1
 62
   179
420
  2234388
370
    25
100
AcDb2dPolyline
 66
     1
 10
0.0
 20
0.0
 30
0.0
  0
VERTEX
  5
DC
330
DB
100
AcDbEntity
  8
_U+30EC_U+30A4_U+30E4_U+30FC 1
 62
   179
420
  2234388
370
    25
100
AcDbVertex
100
AcDb2dVertex
 10
98.65994997533475
 20
-122.6681358026663
 30
0.0
  0
VERTEX
  5
DD
330
DB
100
AcDbEntity
  8
_U+30EC_U+30A4_U+30E4_U+30FC 1
 62
   179
420
  2234388
370
    25
100
AcDbVertex
100
AcDb2dVertex
 10
99.52534662756354
 20
-122.1686024694577
 30
0.0
  0
SEQEND
  5
DE
330
DB
100
AcDbEntity
  8
_U+30EC_U+30A4_U+30E4_U+30FC 1
 62
   179
420
  2234388
370
    25
  0
POLYLINE
  5
DF
330
1F
100
AcDbEntity
  8
_U+30EC_U+30A4_U+30E4_U+30FC 1
 62
   179
420
  2234388
370
     9
100
AcDb2dPolyline
 66
     1
 10
0.0
 20
0.0
 30
0.0
  0
VERTEX
  5
E0
330
DF
100
AcDbEntity
  8
_U+30EC_U+30A4_U+30E4_U+30FC 1
 62
   179
420
  2234388
370
     9
100
AcDbVertex
100
AcDb2dVertex
 10
100.4954854917021
 20
-121.5098958029559
 30
0.0
  0
VERTEX
  5
E1
330
DF
100
AcDbEntity
  8
_U+30EC_U+30A4_U+30E4_U+30FC 1
 62
   179
420
  2234388
370
     9
100
AcDbVertex
100
AcDb2dVertex
 10
101.2589318611139
 20
-113.6258063604824
 30
0.0
  0
SEQEND
  5
E2
330
DF
100
AcDbEntity
  8
_U+30EC_U+30A4_U+30E4_U+30FC 1
 62
   179
420
  2234388
370
     9
  0
POLYLINE
  5
E3
330
1F
100
AcDbEntity
  8
_U+30EC_U+30A4_U+30E4_U+30FC 1
 62
   179
420
  2234388
370
     9
100
AcDb2dPolyline
 66
     1
 10
0.0
 20
0.0
 30
0.0
  0
VERTEX
  5
E4
330
E3
100
AcDbEntity
  8
_U+30EC_U+30A4_U+30E4_U+30FC 1
 62
   179
420
  2234388
370
     9
100
AcDbVertex
100
AcDb2dVertex
 10
101.2589318611139
 20
-113.6258063604824
 30
0.0
  0
VERTEX
  5
E5
330
E3
100
AcDbEntity
  8
_U+30EC_U+30A4_U+30E4_U+30FC 1
 62
   179
420
  2234388
370
     9
100
AcDbVertex
100
AcDb2dVertex
 10
106.345952009111
 20
-113.6258063604824
 30
0.0
  0
SEQEND
  5
E6
330
E3
100
AcDbEntity
  8
_U+30EC_U+30A4_U+30E4_U+30FC 1
 62
   179
420
  2234388
370
     9
  0
POLYLINE
  5
E7
330
1F
100
AcDbEntity
  8
_U+30EC_U+30A4_U+30E4_U+30FC 1
 62
   179
420
  2234388
370
    25
100
AcDb2dPolyline
 66
     1
 10
0.0
 20
0.0
 30
0.0
  0
VERTEX
  5
E8
330
E7
100
AcDbEntity
  8
_U+30EC_U+30A4_U+30E4_U+30FC 1
 62
   179
420
  2234388
370
    25
100
AcDbVertex
100
AcDb2dVertex
 10
93.02583957115756
 20
-124.4685371911051
 30
0.0
  0
VERTEX
  5
E9
330
E7
100
AcDbEntity
  8
_U+30EC_U+30A4_U+30E4_U+30FC 1
 62
   179
420
  2234388
370
    25
100
AcDbVertex
100
AcDb2dVertex
 10
93.52537289174673
 20
-124.4685371911051
 30
0.0
  0
SEQEND
  5
EA
330
E7
100
AcDbEntity
  8
_U+30EC_U+30A4_U+30E4_U+30FC 1
 62
   179
420
  2234388
370
    25
  0
POLYLINE
  5
EB
330
1F
100
AcDbEntity
  8
_U+30EC_U+30A4_U+30E4_U+30FC 1
 62
   179
420
  2234388
370
    25
100
AcDb2dPolyline
 66
     1
 10
0.0
 20
0.0
 30
0.0
  0
VERTEX
  5
EC
330
EB
100
AcDbEntity
  8
_U+30EC_U+30A4_U+30E4_U+30FC 1
 62
   179
420
  2234388
370
    25
100
AcDbVertex
100
AcDb2dVertex
 10
93.52537289174673
 20
-124.4685371911051
 30
0.0
  0
VERTEX
  5
ED
330
EB
100
AcDbEntity
  8
_U+30EC_U+30A4_U+30E4_U+30FC 1
 62
   179
420
  2234388
370
    25
100
AcDbVertex
100
AcDb2dVertex
 10
93.02583957115756
 20
-123.1683746914303
 30
0.0
  0
SEQEND
  5
EE
330
EB
100
AcDbEntity
  8
_U+30EC_U+30A4_U+30E4_U+30FC 1
 62
   179
420
  2234388
370
    25
  0
SPLINE
  5
EF
330
1F
100
AcDbEntity
  8
_U+30EC_U+30A4_U+30E4_U+30FC 1
 62
   179
420
  2234388
370
    25
100
AcDbSpline
210
0.0
220
0.0
230
1.0
 70
     8
 71
     3
 72
     8
 73
     4
 74
     0
 42
0.0000000001
 43
0.0000000001
 12
1.0
 22
0.0
 32
0.0
 13
1.0
 23
0.0
 33
0.0
 40
0.0
 40
0.0
 40
0.0
 40
0.0
 40
1.0
 40
1.0
 40
1.0
 40
1.0
 10
94.5258506440002
 20
-137.1699130212633
 30
0.0
 10
94.80214619250687
 20
-137.1699130212633
 30
0.0
 10
95.02538396458938
 20
-136.9460049657635
 30
0.0
 10
95.02538396458938
 20
-136.6697094102771
 30
0.0
  0
SPLINE
  5
F0
330
1F
100
AcDbEntity
  8
_U+30EC_U+30A4_U+30E4_U+30FC 1
 62
   179
420
  2234388
370
    25
100
AcDbSpline
210
0.0
220
0.0
230
1.0
 70
     8
 71
     3
 72
    11
 73
     7
 74
     0
 42
0.0000000001
 43
0.0000000001
 12
1.0
 22
0.0
 32
0.0
 13
1.0
 23
0.0
 33
0.0
 40
0.0
 40
0.0
 40
0.0
 40
0.0
 40
1.0
 40
1.0
 40
1.0
 40
2.0
 40
2.0
 40
2.0
 40
2.0
 10
84.65082478482198
 20
-137.1699130212633
 30
0.0
 10
84.73693783818061
 20
-137.3766407989892
 30
0.0
 10
84.97464164542286
 20
-137.4744660767424
 30
0.0
 10
85.1820375490474
 20
-137.3883530212084
 30
0.0
 10
85.28056837986699
 20
-137.347007465663
 30
0.0
 10
85.35913198897379
 20
-137.2684438545721
 30
0.0
 10
85.40047754347452
 20
-137.1699130212633
 30
0.0
  0
SPLINE
  5
F1
330
1F
100
AcDbEntity
  8
_U+30EC_U+30A4_U+30E4_U+30FC 1
 62
   179
420
  2234388
370
    25
100
AcDbSpline
210
0.0
220
0.0
230
1.0
 70
     8
 71
     3
 72
     8
 73
     4
 74
     0
 42
0.0000000001
 43
0.0000000001
 12
1.0
 22
0.0
 32
0.0
 13
1.0
 23
0.0
 33
0.0
 40
0.0
 40
0.0
 40
0.0
 40
0.0
 40
1.0
 40
1.0
 40
1.0
 40
1.0
 10
92.02539709668098
 20
-127.6690430236382
 30
0.0
 10
92.02539709668098
 20
-127.9453385791247
 30
0.0
 10
92.24930514652415
 20
-128.1692819124023
 30
0.0
 10
92.52560069503082
 20
-128.1692819124023
 30
0.0
  0
SPLINE
  5
F2
330
1F
100
AcDbEntity
  8
_U+30EC_U+30A4_U+30E4_U+30FC 1
 62
   179
420
  2234388
370
    25
100
AcDbSpline
210
0.0
220
0.0
230
1.0
 70
     8
 71
     3
 72
     8
 73
     4
 74
     0
 42
0.0000000001
 43
0.0000000001
 12
1.0
 22
0.0
 32
0.0
 13
1.0
 23
0.0
 33
0.0
 40
0.0
 40
0.0
 40
0.0
 40
0.0
 40
1.0
 40
1.0
 40
1.0
 40
1.0
 10
95.52562284071611
 20
-122.6681358026663
 30
0.0
 10
95.24929442063198
 20
-122.6681358026663
 30
0.0
 10
95.02538396458938
 20
-122.8920791359435
 30
0.0
 10
95.02538396458938
 20
-123.1683746914303
 30
0.0
  0
SPLINE
  5
F3
330
1F
100
AcDbEntity
  8
_U+30EC_U+30A4_U+30E4_U+30FC 1
 62
   179
420
  2234388
370
    25
100
AcDbSpline
210
0.0
220
0.0
230
1.0
 70
     8
 71
     3
 72
     8
 73
     4
 74
     0
 42
0.0000000001
 43
0.0000000001
 12
1.0
 22
0.0
 32
0.0
 13
1.0
 23
0.0
 33
0.0
 40
0.0
 40
0.0
 40
0.0
 40
0.0
 40
1.0
 40
1.0
 40
1.0
 40
1.0
 10
94.02561176787347
 20
-123.1683746914303
 30
0.0
 10
94.02561176787347
 20
-122.8920791359435
 30
0.0
 10
93.80166844025341
 20
-122.6681358026663
 30
0.0
 10
93.52537289174673
 20
-122.6681358026663
 30
0.0
  0
SPLINE
  5
F4
330
1F
100
AcDbEntity
  8
_U+30EC_U+30A4_U+30E4_U+30FC 1
 62
   179
420
  2234388
370
    25
100
AcDbSpline
210
0.0
220
0.0
230
1.0
 70
     8
 71
     3
 72
    17
 73
    13
 74
     0
 42
0.0000000001
 43
0.0000000001
 12
1.0
 22
0.0
 32
0.0
 13
1.0
 23
0.0
 33
0.0
 40
0.0
 40
0.0
 40
0.0
 40
0.0
 40
1.0
 40
1.0
 40
1.0
 40
2.0
 40
2.0
 40
2.0
 40
3.0
 40
3.0
 40
3.0
 40
4.0
 40
4.0
 40
4.0
 40
4.0
 10
94.02561176787347
 20
-124.6611185799459
 30
0.0
 10
93.46889317096543
 20
-124.9374141354323
 30
0.0
 10
93.24149262121135
 20
-125.6119605241527
 30
0.0
 10
93.51778816971802
 20
-126.1687144129024
 30
0.0
 10
93.79408608766245
 20
-126.7254330238742
 30
0.0
 10
94.46933564544202
 20
-126.9527983015953
 30
0.0
 10
95.02538396458938
 20
-126.6765027461085
 30
0.0
 10
95.58210256149741
 20
-126.4002071906221
 30
0.0
 10
95.80946783347461
 20
-125.725660801902
 30
0.0
 10
95.53317228496795
 20
-125.1689421909299
 30
0.0
 10
95.42430506552316
 20
-124.9484560798739
 30
0.0
 10
95.24587007007541
 20
-124.769985802141
 30
0.0
 10
95.02538396458938
 20
-124.6611185799459
 30
0.0
  0
SPLINE
  5
F5
330
1F
100
AcDbEntity
  8
_U+30EC_U+30A4_U+30E4_U+30FC 1
 62
   179
420
  2234388
370
    25
100
AcDbSpline
210
0.0
220
0.0
230
1.0
 70
     8
 71
     3
 72
    11
 73
     7
 74
     0
 42
0.0000000001
 43
0.0000000001
 12
1.0
 22
0.0
 32
0.0
 13
1.0
 23
0.0
 33
0.0
 40
0.0
 40
0.0
 40
0.0
 40
0.0
 40
1.0
 40
1.0
 40
1.0
 40
2.0
 40
2.0
 40
2.0
 40
2.0
 10
96.02582643906597
 20
-123.1683746914303
 30
0.0
 10
95.5559264510541
 20
-123.1683746914303
 30
0.0
 10
95.1755967385349
 20
-123.5487044135573
 30
0.0
 10
95.1755967385349
 20
-124.01860441344
 30
0.0
 10
95.1755967385349
 20
-124.4878341355446
 30
0.0
 10
95.5559264510541
 20
-124.8685166354494
 30
0.0
 10
96.02582643906597
 20
-124.8685166354494
 30
0.0
  0
SPLINE
  5
F6
330
1F
100
AcDbEntity
  8
_U+30EC_U+30A4_U+30E4_U+30FC 1
 62
   179
420
  2234388
370
     9
100
AcDbSpline
210
0.0
220
0.0
230
1.0
 70
    11
 71
     3
 72
    17
 73
    13
 74
     0
 42
0.0000000001
 43
0.0000000001
 12
1.0
 22
0.0
 32
0.0
 13
1.0
 23
0.0
 33
0.0
 40
0.0
 40
0.0
 40
0.0
 40
0.0
 40
1.0
 40
1.0
 40
1.0
 40
2.0
 40
2.0
 40
2.0
 40
3.0
 40
3.0
 40
3.0
 40
4.0
 40
4.0
 40
4.0
 40
4.0
 10
92.12597403855948
 20
-131.1695863560962
 30
0.0
 10
92.12597403855948
 20
-131.1144824672213
 30
0.0
 10
92.0812065397016
 20
-131.0696796894546
 30
0.0
 10
92.02539709668098
 20
-131.0696796894546
 30
0.0
 10
91.97025793142102
 20
-131.0696796894546
 30
0.0
 10
91.92549043256314
 20
-131.1144824672213
 30
0.0
 10
91.92549043256314
 20
-131.1695863560962
 30
0.0
 10
91.92549043256314
 20
-131.2247255227493
 30
0.0
 10
91.97025793142102
 20
-131.2694930227385
 30
0.0
 10
92.02539709668098
 20
-131.2694930227385
 30
0.0
 10
92.0812065397016
 20
-131.2694930227385
 30
0.0
 10
92.12597403855948
 20
-131.2247255227493
 30
0.0
 10
92.12597403855948
 20
-131.1695863560962
 30
0.0
  0
SPLINE
  5
F7
330
1F
100
AcDbEntity
  8
_U+30EC_U+30A4_U+30E4_U+30FC 1
 62
   179
420
  2234388
370
     9
100
AcDbSpline
210
0.0
220
0.0
230
1.0
 70
    11
 71
     3
 72
    17
 73
    13
 74
     0
 42
0.0000000001
 43
0.0000000001
 12
1.0
 22
0.0
 32
0.0
 13
1.0
 23
0.0
 33
0.0
 40
0.0
 40
0.0
 40
0.0
 40
0.0
 40
1.0
 40
1.0
 40
1.0
 40
2.0
 40
2.0
 40
2.0
 40
3.0
 40
3.0
 40
3.0
 40
4.0
 40
4.0
 40
4.0
 40
4.0
 10
87.12577249945859
 20
-131.1695863560962
 30
0.0
 10
87.12577249945859
 20
-131.1144824672213
 30
0.0
 10
87.0810050006007
 20
-131.0696796894546
 30
0.0
 10
87.02586583534075
 20
-131.0696796894546
 30
0.0
 10
86.97076194785768
 20
-131.0696796894546
 30
0.0
 10
86.92595917122291
 20
-131.1144824672213
 30
0.0
 10
86.92595917122291
 20
-131.1695863560962
 30
0.0
 10
86.92595917122291
 20
-131.2247255227493
 30
0.0
 10
86.97076194785768
 20
-131.2694930227385
 30
0.0
 10
87.02586583534075
 20
-131.2694930227385
 30
0.0
 10
87.0810050006007
 20
-131.2694930227385
 30
0.0
 10
87.12577249945859
 20
-131.2247255227493
 30
0.0
 10
87.12577249945859
 20
-131.1695863560962
 30
0.0
  0
SPLINE
  5
F8
330
1F
100
AcDbEntity
  8
_U+30EC_U+30A4_U+30E4_U+30FC 1
 62
   179
420
  2234388
370
     9
100
AcDbSpline
210
0.0
220
0.0
230
1.0
 70
    11
 71
     3
 72
    17
 73
    13
 74
     0
 42
0.0000000001
 43
0.0000000001
 12
1.0
 22
0.0
 32
0.0
 13
1.0
 23
0.0
 33
0.0
 40
0.0
 40
0.0
 40
0.0
 40
0.0
 40
1.0
 40
1.0
 40
1.0
 40
2.0
 40
2.0
 40
2.0
 40
3.0
 40
3.0
 40
3.0
 40
4.0
 40
4.0
 40
4.0
 40
4.0
 10
89.62552049124025
 20
-142.1687388533466
 30
0.0
 10
89.62552049124025
 20
-142.1136349644717
 30
0.0
 10
89.58075299238237
 20
-142.0688321867049
 30
0.0
 10
89.52561382712243
 20
-142.0688321867049
 30
0.0
 10
89.47050993963936
 20
-142.0688321867049
 30
0.0
 10
89.42570716300459
 20
-142.1136349644717
 30
0.0
 10
89.42570716300459
 20
-142.1687388533466
 30
0.0
 10
89.42570716300459
 20
-142.2245835755552
 30
0.0
 10
89.47050993963936
 20
-142.2693510755437
 30
0.0
 10
89.52561382712243
 20
-142.2693510755437
 30
0.0
 10
89.58075299238237
 20
-142.2693510755437
 30
0.0
 10
89.62552049124025
 20
-142.2245835755552
 30
0.0
 10
89.62552049124025
 20
-142.1687388533466
 30
0.0
  0
SPLINE
  5
F9
330
1F
100
AcDbEntity
  8
_U+30EC_U+30A4_U+30E4_U+30FC 1
 62
   179
420
  2234388
370
     9
100
AcDbSpline
210
0.0
220
0.0
230
1.0
 70
    11
 71
     3
 72
    17
 73
    13
 74
     0
 42
0.0000000001
 43
0.0000000001
 12
1.0
 22
0.0
 32
0.0
 13
1.0
 23
0.0
 33
0.0
 40
0.0
 40
0.0
 40
0.0
 40
0.0
 40
1.0
 40
1.0
 40
1.0
 40
2.0
 40
2.0
 40
2.0
 40
3.0
 40
3.0
 40
3.0
 40
4.0
 40
4.0
 40
4.0
 40
4.0
 10
80.62555988751505
 20
-142.1687388533466
 30
0.0
 10
80.62555988751505
 20
-142.1136349644717
 30
0.0
 10
80.58079442429913
 20
-142.0688321867049
 30
0.0
 10
80.52565322339721
 20
-142.0688321867049
 30
0.0
 10
80.47054933591414
 20
-142.0688321867049
 30
0.0
 10
80.42574655927937
 20
-142.1136349644717
 30
0.0
 10
80.42574655927937
 20
-142.1687388533466
 30
0.0
 10
80.42574655927937
 20
-142.2245835755552
 30
0.0
 10
80.47054933591414
 20
-142.2693510755437
 30
0.0
 10
80.52565322339721
 20
-142.2693510755437
 30
0.0
 10
80.58079442429913
 20
-142.2693510755437
 30
0.0
 10
80.62555988751505
 20
-142.2245835755552
 30
0.0
 10
80.62555988751505
 20
-142.1687388533466
 30
0.0
  0
SPLINE
  5
FA
330
1F
100
AcDbEntity
  8
_U+30EC_U+30A4_U+30E4_U+30FC 1
 62
   179
420
  2234388
370
     9
100
AcDbSpline
210
0.0
220
0.0
230
1.0
 70
    11
 71
     3
 72
    17
 73
    13
 74
     0
 42
0.0000000001
 43
0.0000000001
 12
1.0
 22
0.0
 32
0.0
 13
1.0
 23
0.0
 33
0.0
 40
0.0
 40
0.0
 40
0.0
 40
0.0
 40
1.0
 40
1.0
 40
1.0
 40
2.0
 40
2.0
 40
2.0
 40
3.0
 40
3.0
 40
3.0
 40
4.0
 40
4.0
 40
4.0
 40
4.0
 10
79.62578769079914
 20
-146.1698738523463
 30
0.0
 10
79.62578769079914
 20
-146.1147699634714
 30
0.0
 10
79.5810222023269
 20
-146.0699671857047
 30
0.0
 10
79.5258810266813
 20
-146.0699671857047
 30
0.0
 10
79.47007158366068
 20
-146.0699671857047
 30
0.0
 10
79.42597436256347
 20
-146.1147699634714
 30
0.0
 10
79.42597436256347
 20
-146.1698738523463
 30
0.0
 10
79.42597436256347
 20
-146.2250130189994
 30
0.0
 10
79.47007158366068
 20
-146.269780518988
 30
0.0
 10
79.5258810266813
 20
-146.269780518988
 30
0.0
 10
79.5810222023269
 20
-146.269780518988
 30
0.0
 10
79.62578769079914
 20
-146.2250130189994
 30
0.0
 10
79.62578769079914
 20
-146.1698738523463
 30
0.0
  0
SPLINE
  5
FB
330
1F
100
AcDbEntity
  8
_U+30EC_U+30A4_U+30E4_U+30FC 1
 62
   179
420
  2234388
370
     9
100
AcDbSpline
210
0.0
220
0.0
230
1.0
 70
    11
 71
     3
 72
    17
 73
    13
 74
     0
 42
0.0000000001
 43
0.0000000001
 12
1.0
 22
0.0
 32
0.0
 13
1.0
 23
0.0
 33
0.0
 40
0.0
 40
0.0
 40
0.0
 40
0.0
 40
1.0
 40
1.0
 40
1.0
 40
2.0
 40
2.0
 40
2.0
 40
3.0
 40
3.0
 40
3.0
 40
4.0
 40
4.0
 40
4.0
 40
4.0
 10
97.1255052998997
 20
-146.1698738523463
 30
0.0
 10
97.1255052998997
 20
-146.1147699634714
 30
0.0
 10
97.08073780104182
 20
-146.0699671857047
 30
0.0
 10
97.02559863578186
 20
-146.0699671857047
 30
0.0
 10
96.97049719797974
 20
-146.0699671857047
 30
0.0
 10
96.92569442021302
 20
-146.1147699634714
 30
0.0
 10
96.92569442021302
 20
-146.1698738523463
 30
0.0
 10
96.92569442021302
 20
-146.2250130189994
 30
0.0
 10
96.97049719797974
 20
-146.269780518988
 30
0.0
 10
97.02559863578186
 20
-146.269780518988
 30
0.0
 10
97.08073780104182
 20
-146.269780518988
 30
0.0
 10
97.1255052998997
 20
-146.2250130189994
 30
0.0
 10
97.1255052998997
 20
-146.1698738523463
 30
0.0
  0
SPLINE
  5
FC
330
1F
100
AcDbEntity
  8
_U+30EC_U+30A4_U+30E4_U+30FC 1
 62
   179
420
  2234388
370
     9
100
AcDbSpline
210
0.0
220
0.0
230
1.0
 70
    11
 71
     3
 72
    17
 73
    13
 74
     0
 42
0.0000000001
 43
0.0000000001
 12
1.0
 22
0.0
 32
0.0
 13
1.0
 23
0.0
 33
0.0
 40
0.0
 40
0.0
 40
0.0
 40
0.0
 40
1.0
 40
1.0
 40
1.0
 40
2.0
 40
2.0
 40
2.0
 40
3.0
 40
3.0
 40
3.0
 40
4.0
 40
4.0
 40
4.0
 40
4.0
 10
77.03646942352482
 20
-138.1696852432352
 30
0.0
 10
77.03646942352482
 20
-138.1145813543603
 30
0.0
 10
76.99166664689005
 20
-138.0697785765936
 30
0.0
 10
76.93656275940698
 20
-138.0697785765936
 30
0.0
 10
76.88142359414704
 20
-138.0697785765936
 30
0.0
 10
76.83665609528914
 20
-138.1145813543603
 30
0.0
 10
76.83665609528914
 20
-138.1696852432352
 30
0.0
 10
76.83665609528914
 20
-138.2248244098883
 30
0.0
 10
76.88142359414704
 20
-138.2695919098769
 30
0.0
 10
76.93656275940698
 20
-138.2695919098769
 30
0.0
 10
76.99166664689005
 20
-138.2695919098769
 30
0.0
 10
77.03646942352482
 20
-138.2248244098883
 30
0.0
 10
77.03646942352482
 20
-138.1696852432352
 30
0.0
  0
SPLINE
  5
FD
330
1F
100
AcDbEntity
  8
_U+30EC_U+30A4_U+30E4_U+30FC 1
 62
   179
420
  2234388
370
     9
100
AcDbSpline
210
0.0
220
0.0
230
1.0
 70
    11
 71
     3
 72
    17
 73
    13
 74
     0
 42
0.0000000001
 43
0.0000000001
 12
1.0
 22
0.0
 32
0.0
 13
1.0
 23
0.0
 33
0.0
 40
0.0
 40
0.0
 40
0.0
 40
0.0
 40
1.0
 40
1.0
 40
1.0
 40
2.0
 40
2.0
 40
2.0
 40
3.0
 40
3.0
 40
3.0
 40
4.0
 40
4.0
 40
4.0
 40
4.0
 10
77.03646942352482
 20
-135.6699371883046
 30
0.0
 10
77.03646942352482
 20
-135.6147980216521
 30
0.0
 10
76.99166664689005
 20
-135.5700305216629
 30
0.0
 10
76.93656275940698
 20
-135.5700305216629
 30
0.0
 10
76.88142359414704
 20
-135.5700305216629
 30
0.0
 10
76.83665609528914
 20
-135.6147980216521
 30
0.0
 10
76.83665609528914
 20
-135.6699371883046
 30
0.0
 10
76.83665609528914
 20
-135.7250410771801
 30
0.0
 10
76.88142359414704
 20
-135.7698438549462
 30
0.0
 10
76.93656275940698
 20
-135.7698438549462
 30
0.0
 10
76.99166664689005
 20
-135.7698438549462
 30
0.0
 10
77.03646942352482
 20
-135.7250410771801
 30
0.0
 10
77.03646942352482
 20
-135.6699371883046
 30
0.0
  0
SPLINE
  5
FE
330
1F
100
AcDbEntity
  8
_U+30EC_U+30A4_U+30E4_U+30FC 1
 62
   179
420
  2234388
370
     9
100
AcDbSpline
210
0.0
220
0.0
230
1.0
 70
    11
 71
     3
 72
    17
 73
    13
 74
     0
 42
0.0000000001
 43
0.0000000001
 12
1.0
 22
0.0
 32
0.0
 13
1.0
 23
0.0
 33
0.0
 40
0.0
 40
0.0
 40
0.0
 40
0.0
 40
1.0
 40
1.0
 40
1.0
 40
2.0
 40
2.0
 40
2.0
 40
3.0
 40
3.0
 40
3.0
 40
4.0
 40
4.0
 40
4.0
 40
4.0
 10
77.03646942352482
 20
-122.6681358026663
 30
0.0
 10
77.03646942352482
 20
-122.6130319137913
 30
0.0
 10
76.99166664689005
 20
-122.5682291360246
 30
0.0
 10
76.93656275940698
 20
-122.5682291360246
 30
0.0
 10
76.88142359414704
 20
-122.5682291360246
 30
0.0
 10
76.83665609528914
 20
-122.6130319137913
 30
0.0
 10
76.83665609528914
 20
-122.6681358026663
 30
0.0
 10
76.83665609528914
 20
-122.7239452470967
 30
0.0
 10
76.88142359414704
 20
-122.7687480248634
 30
0.0
 10
76.93656275940698
 20
-122.7687480248634
 30
0.0
 10
76.99166664689005
 20
-122.7687480248634
 30
0.0
 10
77.03646942352482
 20
-122.7239452470967
 30
0.0
 10
77.03646942352482
 20
-122.6681358026663
 30
0.0
  0
SPLINE
  5
FF
330
1F
100
AcDbEntity
  8
_U+30EC_U+30A4_U+30E4_U+30FC 1
 62
   179
420
  2234388
370
     9
100
AcDbSpline
210
0.0
220
0.0
230
1.0
 70
    11
 71
     3
 72
    17
 73
    13
 74
     0
 42
0.0000000001
 43
0.0000000001
 12
1.0
 22
0.0
 32
0.0
 13
1.0
 23
0.0
 33
0.0
 40
0.0
 40
0.0
 40
0.0
 40
0.0
 40
1.0
 40
1.0
 40
1.0
 40
2.0
 40
2.0
 40
2.0
 40
3.0
 40
3.0
 40
3.0
 40
4.0
 40
4.0
 40
4.0
 40
4.0
 10
77.03646942352482
 20
-121.1681599697078
 30
0.0
 10
77.03646942352482
 20
-121.1130208030551
 30
0.0
 10
76.99166664689005
 20
-121.0682180252884
 30
0.0
 10
76.93656275940698
 20
-121.0682180252884
 30
0.0
 10
76.88142359414704
 20
-121.0682180252884
 30
0.0
 10
76.83665609528914
 20
-121.1130208030551
 30
0.0
 10
76.83665609528914
 20
-121.1681599697078
 30
0.0
 10
76.83665609528914
 20
-121.2239694141386
 30
0.0
 10
76.88142359414704
 20
-121.2680666363498
 30
0.0
 10
76.93656275940698
 20
-121.2680666363498
 30
0.0
 10
76.99166664689005
 20
-121.2680666363498
 30
0.0
 10
77.03646942352482
 20
-121.2239694141386
 30
0.0
 10
77.03646942352482
 20
-121.1681599697078
 30
0.0
  0
SPLINE
  5
100
330
1F
100
AcDbEntity
  8
_U+30EC_U+30A4_U+30E4_U+30FC 1
 62
   179
420
  2234388
370
     9
100
AcDbSpline
210
0.0
220
0.0
230
1.0
 70
    11
 71
     3
 72
    17
 73
    13
 74
     0
 42
0.0000000001
 43
0.0000000001
 12
1.0
 22
0.0
 32
0.0
 13
1.0
 23
0.0
 33
0.0
 40
0.0
 40
0.0
 40
0.0
 40
0.0
 40
1.0
 40
1.0
 40
1.0
 40
2.0
 40
2.0
 40
2.0
 40
3.0
 40
3.0
 40
3.0
 40
4.0
 40
4.0
 40
4.0
 40
4.0
 10
87.12577249945859
 20
-117.1687183040412
 30
0.0
 10
87.12577249945859
 20
-117.113614415166
 30
0.0
 10
87.0810050006007
 20
-117.0688116373996
 30
0.0
 10
87.02586583534075
 20
-117.0688116373996
 30
0.0
 10
86.97076194785768
 20
-117.0688116373996
 30
0.0
 10
86.92595917122291
 20
-117.113614415166
 30
0.0
 10
86.92595917122291
 20
-117.1687183040412
 30
0.0
 10
86.92595917122291
 20
-117.223857470694
 30
0.0
 10
86.97076194785768
 20
-117.2686249706828
 30
0.0
 10
87.02586583534075
 20
-117.2686249706828
 30
0.0
 10
87.0810050006007
 20
-117.2686249706828
 30
0.0
 10
87.12577249945859
 20
-117.223857470694
 30
0.0
 10
87.12577249945859
 20
-117.1687183040412
 30
0.0
  0
SPLINE
  5
101
330
1F
100
AcDbEntity
  8
_U+30EC_U+30A4_U+30E4_U+30FC 1
 62
   179
420
  2234388
370
     9
100
AcDbSpline
210
0.0
220
0.0
230
1.0
 70
    11
 71
     3
 72
    17
 73
    13
 74
     0
 42
0.0000000001
 43
0.0000000001
 12
1.0
 22
0.0
 32
0.0
 13
1.0
 23
0.0
 33
0.0
 40
0.0
 40
0.0
 40
0.0
 40
0.0
 40
1.0
 40
1.0
 40
1.0
 40
2.0
 40
2.0
 40
2.0
 40
3.0
 40
3.0
 40
3.0
 40
4.0
 40
4.0
 40
4.0
 40
4.0
 10
102.1257068390006
 20
-117.1687183040412
 30
0.0
 10
102.1257068390006
 20
-117.113614415166
 30
0.0
 10
102.0809393401427
 20
-117.0688116373996
 30
0.0
 10
102.0258027522714
 20
-117.0688116373996
 30
0.0
 10
101.9706962873997
 20
-117.0688116373996
 30
0.0
 10
101.9258935107649
 20
-117.113614415166
 30
0.0
 10
101.9258935107649
 20
-117.1687183040412
 30
0.0
 10
101.9258935107649
 20
-117.223857470694
 30
0.0
 10
101.9706962873997
 20
-117.2686249706828
 30
0.0
 10
102.0258027522714
 20
-117.2686249706828
 30
0.0
 10
102.0809393401427
 20
-117.2686249706828
 30
0.0
 10
102.1257068390006
 20
-117.223857470694
 30
0.0
 10
102.1257068390006
 20
-117.1687183040412
 30
0.0
  0
SPLINE
  5
102
330
1F
100
AcDbEntity
  8
_U+30EC_U+30A4_U+30E4_U+30FC 1
 62
   179
420
  2234388
370
     9
100
AcDbSpline
210
0.0
220
0.0
230
1.0
 70
    11
 71
     3
 72
    17
 73
    13
 74
     0
 42
0.0000000001
 43
0.0000000001
 12
1.0
 22
0.0
 32
0.0
 13
1.0
 23
0.0
 33
0.0
 40
0.0
 40
0.0
 40
0.0
 40
0.0
 40
1.0
 40
1.0
 40
1.0
 40
2.0
 40
2.0
 40
2.0
 40
3.0
 40
3.0
 40
3.0
 40
4.0
 40
4.0
 40
4.0
 40
4.0
 10
105.4199103660696
 20
-121.668363580694
 30
0.0
 10
105.4199103660696
 20
-121.6132596918188
 30
0.0
 10
105.3751428672117
 20
-121.5684569140524
 30
0.0
 10
105.3200037019517
 20
-121.5684569140524
 30
0.0
 10
105.2648998144687
 20
-121.5684569140524
 30
0.0
 10
105.2200970378339
 20
-121.6132596918188
 30
0.0
 10
105.2200970378339
 20
-121.668363580694
 30
0.0
 10
105.2200970378339
 20
-121.7235027473468
 30
0.0
 10
105.2648998144687
 20
-121.7682702473357
 30
0.0
 10
105.3200037019517
 20
-121.7682702473357
 30
0.0
 10
105.3751428672117
 20
-121.7682702473357
 30
0.0
 10
105.4199103660696
 20
-121.7235027473468
 30
0.0
 10
105.4199103660696
 20
-121.668363580694
 30
0.0
  0
SPLINE
  5
103
330
1F
100
AcDbEntity
  8
_U+30EC_U+30A4_U+30E4_U+30FC 1
 62
   179
420
  2234388
370
     9
100
AcDbSpline
210
0.0
220
0.0
230
1.0
 70
    11
 71
     3
 72
    17
 73
    13
 74
     0
 42
0.0000000001
 43
0.0000000001
 12
1.0
 22
0.0
 32
0.0
 13
1.0
 23
0.0
 33
0.0
 40
0.0
 40
0.0
 40
0.0
 40
0.0
 40
1.0
 40
1.0
 40
1.0
 40
2.0
 40
2.0
 40
2.0
 40
3.0
 40
3.0
 40
3.0
 40
4.0
 40
4.0
 40
4.0
 40
4.0
 10
105.4199103660696
 20
-125.1689421909299
 30
0.0
 10
105.4199103660696
 20
-125.1138030242771
 30
0.0
 10
105.3751428672117
 20
-125.0690355242882
 30
0.0
 10
105.3200037019517
 20
-125.0690355242882
 30
0.0
 10
105.2648998144687
 20
-125.0690355242882
 30
0.0
 10
105.2200970378339
 20
-125.1138030242771
 30
0.0
 10
105.2200970378339
 20
-125.1689421909299
 30
0.0
 10
105.2200970378339
 20
-125.2240460798051
 30
0.0
 10
105.2648998144687
 20
-125.2688488575718
 30
0.0
 10
105.3200037019517
 20
-125.2688488575718
 30
0.0
 10
105.3751428672117
 20
-125.2688488575718
 30
0.0
 10
105.4199103660696
 20
-125.2240460798051
 30
0.0
 10
105.4199103660696
 20
-125.1689421909299
 30
0.0
  0
SPLINE
  5
104
330
1F
100
AcDbEntity
  8
_U+30EC_U+30A4_U+30E4_U+30FC 1
 62
   179
420
  2234388
370
     9
100
AcDbSpline
210
0.0
220
0.0
230
1.0
 70
    11
 71
     3
 72
    17
 73
    13
 74
     0
 42
0.0000000001
 43
0.0000000001
 12
1.0
 22
0.0
 32
0.0
 13
1.0
 23
0.0
 33
0.0
 40
0.0
 40
0.0
 40
0.0
 40
0.0
 40
1.0
 40
1.0
 40
1.0
 40
2.0
 40
2.0
 40
2.0
 40
3.0
 40
3.0
 40
3.0
 40
4.0
 40
4.0
 40
4.0
 40
4.0
 10
105.4199103660696
 20
-138.1696852432352
 30
0.0
 10
105.4199103660696
 20
-138.1145813543603
 30
0.0
 10
105.3751428672117
 20
-138.0697785765936
 30
0.0
 10
105.3200037019517
 20
-138.0697785765936
 30
0.0
 10
105.2648998144687
 20
-138.0697785765936
 30
0.0
 10
105.2200970378339
 20
-138.1145813543603
 30
0.0
 10
105.2200970378339
 20
-138.1696852432352
 30
0.0
 10
105.2200970378339
 20
-138.2248244098883
 30
0.0
 10
105.2648998144687
 20
-138.2695919098769
 30
0.0
 10
105.3200037019517
 20
-138.2695919098769
 30
0.0
 10
105.3751428672117
 20
-138.2695919098769
 30
0.0
 10
105.4199103660696
 20
-138.2248244098883
 30
0.0
 10
105.4199103660696
 20
-138.1696852432352
 30
0.0
  0
SPLINE
  5
105
330
1F
100
AcDbEntity
  8
_U+30EC_U+30A4_U+30E4_U+30FC 1
 62
   179
420
  2234388
370
     9
100
AcDbSpline
210
0.0
220
0.0
230
1.0
 70
    11
 71
     3
 72
    17
 73
    13
 74
     0
 42
0.0000000001
 43
0.0000000001
 12
1.0
 22
0.0
 32
0.0
 13
1.0
 23
0.0
 33
0.0
 40
0.0
 40
0.0
 40
0.0
 40
0.0
 40
1.0
 40
1.0
 40
1.0
 40
2.0
 40
2.0
 40
2.0
 40
3.0
 40
3.0
 40
3.0
 40
4.0
 40
4.0
 40
4.0
 40
4.0
 10
102.2187343366273
 20
-146.1940038523403
 30
0.0
 10
102.2187343366273
 20
-146.1388999634654
 30
0.0
 10
102.1739694189011
 20
-146.0940971856987
 30
0.0
 10
102.1181573947488
 20
-146.0940971856987
 30
0.0
 10
102.0630182294888
 20
-146.0940971856987
 30
0.0
 10
102.0182154528541
 20
-146.1388999634654
 30
0.0
 10
102.0182154528541
 20
-146.1940038523403
 30
0.0
 10
102.0182154528541
 20
-146.2491430189934
 30
0.0
 10
102.0630182294888
 20
-146.293910518982
 30
0.0
 10
102.1181573947488
 20
-146.293910518982
 30
0.0
 10
102.1739694189011
 20
-146.293910518982
 30
0.0
 10
102.2187343366273
 20
-146.2491430189934
 30
0.0
 10
102.2187343366273
 20
-146.1940038523403
 30
0.0
  0
INSERT
  5
107
330
1F
100
AcDbEntity
  8
_U+30EC_U+30A4_U+30E4_U+30FC 1
100
AcDbBlockReference
  2
block 2
 10
0.0
 20
0.0
 30
0.0
  0
POLYLINE
  5
142
330
1F
100
AcDbEntity
  8
_U+30EC_U+30A4_U+30E4_U+30FC 1
 62
   179
420
  2234388
370
     9
100
AcDb2dPolyline
 66
     1
 10
0.0
 20
0.0
 30
0.0
  0
VERTEX
  5
143
330
142
100
AcDbEntity
  8
_U+30EC_U+30A4_U+30E4_U+30FC 1
 62
   179
420
  2234388
370
     9
100
AcDbVertex
100
AcDb2dVertex
 10
92.02539709668098
 20
-131.1695863560962
 30
0.0
  0
VERTEX
  5
144
330
142
100
AcDbEntity
  8
_U+30EC_U+30A4_U+30E4_U+30FC 1
 62
   179
420
  2234388
370
     9
100
AcDbVertex
100
AcDb2dVertex
 10
87.02586583534075
 20
-131.1695863560962
 30
0.0
  0
SEQEND
  5
145
330
142
100
AcDbEntity
  8
_U+30EC_U+30A4_U+30E4_U+30FC 1
 62
   179
420
  2234388
370
     9
  0
POLYLINE
  5
146
330
1F
100
AcDbEntity
  8
_U+30EC_U+30A4_U+30E4_U+30FC 1
 62
   179
420
  2234388
370
     9
100
AcDb2dPolyline
 66
     1
 10
0.0
 20
0.0
 30
0.0
  0
VERTEX
  5
147
330
146
100
AcDbEntity
  8
_U+30EC_U+30A4_U+30E4_U+30FC 1
 62
   179
420
  2234388
370
     9
100
AcDbVertex
100
AcDb2dVertex
 10
92.02539709668098
 20
-130.2091135785589
 30
0.0
  0
VERTEX
  5
148
330
146
100
AcDbEntity
  8
_U+30EC_U+30A4_U+30E4_U+30FC 1
 62
   179
420
  2234388
370
     9
100
AcDbVertex
100
AcDb2dVertex
 10
92.02539709668098
 20
-132.1697113558465
 30
0.0
  0
SEQEND
  5
149
330
146
100
AcDbEntity
  8
_U+30EC_U+30A4_U+30E4_U+30FC 1
 62
   179
420
  2234388
370
     9
  0
POLYLINE
  5
14A
330
1F
100
AcDbEntity
  8
_U+30EC_U+30A4_U+30E4_U+30FC 1
 62
   179
420
  2234388
370
     9
100
AcDb2dPolyline
 66
     1
 10
0.0
 20
0.0
 30
0.0
  0
VERTEX
  5
14B
330
14A
100
AcDbEntity
  8
_U+30EC_U+30A4_U+30E4_U+30FC 1
 62
   179
420
  2234388
370
     9
100
AcDbVertex
100
AcDb2dVertex
 10
87.02586583534075
 20
-124.4086002466757
 30
0.0
  0
VERTEX
  5
14C
330
14A
100
AcDbEntity
  8
_U+30EC_U+30A4_U+30E4_U+30FC 1
 62
   179
420
  2234388
370
     9
100
AcDbVertex
100
AcDb2dVertex
 10
87.02586583534075
 20
-132.1697113558465
 30
0.0
  0
SEQEND
  5
14D
330
14A
100
AcDbEntity
  8
_U+30EC_U+30A4_U+30E4_U+30FC 1
 62
   179
420
  2234388
370
     9
  0
INSERT
  5
14F
330
1F
100
AcDbEntity
  8
_U+30EC_U+30A4_U+30E4_U+30FC 1
100
AcDbBlockReference
  2
block 3
 10
0.0
 20
0.0
 30
0.0
  0
INSERT
  5
155
330
1F
100
AcDbEntity
  8
_U+30EC_U+30A4_U+30E4_U+30FC 1
100
AcDbBlockReference
  2
block 4
 10
0.0
 20
0.0
 30
0.0
  0
SPLINE
  5
15A
330
1F
100
AcDbEntity
  8
_U+30EC_U+30A4_U+30E4_U+30FC 1
 62
   179
420
  2234388
370
    25
100
AcDbSpline
210
0.0
220
0.0
230
1.0
 70
    11
 71
     3
 72
    17
 73
    13
 74
     0
 42
0.0000000001
 43
0.0000000001
 12
1.0
 22
0.0
 32
0.0
 13
1.0
 23
0.0
 33
0.0
 40
0.0
 40
0.0
 40
0.0
 40
0.0
 40
1.0
 40
1.0
 40
1.0
 40
2.0
 40
2.0
 40
2.0
 40
3.0
 40
3.0
 40
3.0
 40
4.0
 40
4.0
 40
4.0
 40
4.0
 10
92.0612040402119
 20
-127.6690430236382
 30
0.0
 10
92.0612040402119
 20
-127.6883399680781
 30
0.0
 10
92.04536664365507
 20
-127.7041796902963
 30
0.0
 10
92.02539709668098
 20
-127.7041796902963
 30
0.0
 10
92.00610015272883
 20
-127.7041796902963
 30
0.0
 10
91.99026043091071
 20
-127.6883399680781
 30
0.0
 10
91.99026043091071
 20
-127.6690430236382
 30
0.0
 10
91.99026043091071
 20
-127.6497460791987
 30
0.0
 10
92.00610015272883
 20
-127.6339063569805
 30
0.0
 10
92.02539709668098
 20
-127.6339063569805
 30
0.0
 10
92.04536664365507
 20
-127.6339063569805
 30
0.0
 10
92.0612040402119
 20
-127.6497460791987
 30
0.0
 10
92.0612040402119
 20
-127.6690430236382
 30
0.0
  0
SPLINE
  5
15B
330
1F
100
AcDbEntity
  8
_U+30EC_U+30A4_U+30E4_U+30FC 1
 62
   179
420
  2234388
370
    25
100
AcDbSpline
210
0.0
220
0.0
230
1.0
 70
    11
 71
     3
 72
    17
 73
    13
 74
     0
 42
0.0000000001
 43
0.0000000001
 12
1.0
 22
0.0
 32
0.0
 13
1.0
 23
0.0
 33
0.0
 40
0.0
 40
0.0
 40
0.0
 40
0.0
 40
1.0
 40
1.0
 40
1.0
 40
2.0
 40
2.0
 40
2.0
 40
3.0
 40
3.0
 40
3.0
 40
4.0
 40
4.0
 40
4.0
 40
4.0
 10
87.061002501111
 20
-121.8681769139773
 30
0.0
 10
87.061002501111
 20
-121.8881794139723
 30
0.0
 10
87.0451627792929
 20
-121.9033135806354
 30
0.0
 10
87.02586583534075
 20
-121.9033135806354
 30
0.0
 10
87.00589861362793
 20
-121.9033135806354
 30
0.0
 10
86.99002361403294
 20
-121.8881794139723
 30
0.0
 10
86.99002361403294
 20
-121.8681769139773
 30
0.0
 10
86.99002361403294
 20
-121.8488799695378
 30
0.0
 10
87.00589861362793
 20
-121.8330402473196
 30
0.0
 10
87.02586583534075
 20
-121.8330402473196
 30
0.0
 10
87.0451627792929
 20
-121.8330402473196
 30
0.0
 10
87.061002501111
 20
-121.8488799695378
 30
0.0
 10
87.061002501111
 20
-121.8681769139773
 30
0.0
  0
SPLINE
  5
15C
330
1F
100
AcDbEntity
  8
_U+30EC_U+30A4_U+30E4_U+30FC 1
 62
   179
420
  2234388
370
     9
100
AcDbSpline
210
0.0
220
0.0
230
1.0
 70
    11
 71
     3
 72
    17
 73
    13
 74
     0
 42
0.0000000001
 43
0.0000000001
 12
1.0
 22
0.0
 32
0.0
 13
1.0
 23
0.0
 33
0.0
 40
0.0
 40
0.0
 40
0.0
 40
0.0
 40
1.0
 40
1.0
 40
1.0
 40
2.0
 40
2.0
 40
2.0
 40
3.0
 40
3.0
 40
3.0
 40
4.0
 40
4.0
 40
4.0
 40
4.0
 10
87.061002501111
 20
-131.1695863560962
 30
0.0
 10
87.061002501111
 20
-131.188883300536
 30
0.0
 10
87.0451627792929
 20
-131.2047230227546
 30
0.0
 10
87.02586583534075
 20
-131.2047230227546
 30
0.0
 10
87.00589861362793
 20
-131.2047230227546
 30
0.0
 10
86.99002361403294
 20
-131.188883300536
 30
0.0
 10
86.99002361403294
 20
-131.1695863560962
 30
0.0
 10
86.99002361403294
 20
-131.149619133879
 30
0.0
 10
87.00589861362793
 20
-131.1344496894385
 30
0.0
 10
87.02586583534075
 20
-131.1344496894385
 30
0.0
 10
87.0451627792929
 20
-131.1344496894385
 30
0.0
 10
87.061002501111
 20
-131.149619133879
 30
0.0
 10
87.061002501111
 20
-131.1695863560962
 30
0.0
  0
POLYLINE
  5
15D
330
1F
100
AcDbEntity
  8
_U+30EC_U+30A4_U+30E4_U+30FC 1
 62
   179
420
  2234388
370
     9
100
AcDb2dPolyline
 66
     1
 10
0.0
 20
0.0
 30
0.0
  0
VERTEX
  5
15E
330
15D
100
AcDbEntity
  8
_U+30EC_U+30A4_U+30E4_U+30FC 1
 62
   179
420
  2234388
370
     9
100
AcDbVertex
100
AcDb2dVertex
 10
80.52565322339721
 20
-142.1687388533466
 30
0.0
  0
VERTEX
  5
15F
330
15D
100
AcDbEntity
  8
_U+30EC_U+30A4_U+30E4_U+30FC 1
 62
   179
420
  2234388
370
     9
100
AcDbVertex
100
AcDb2dVertex
 10
89.52561382712243
 20
-142.1687388533466
 30
0.0
  0
SEQEND
  5
160
330
15D
100
AcDbEntity
  8
_U+30EC_U+30A4_U+30E4_U+30FC 1
 62
   179
420
  2234388
370
     9
  0
POLYLINE
  5
161
330
1F
100
AcDbEntity
  8
_U+30EC_U+30A4_U+30E4_U+30FC 1
 62
   179
420
  2234388
370
     9
100
AcDb2dPolyline
 66
     1
 10
0.0
 20
0.0
 30
0.0
  0
VERTEX
  5
162
330
161
100
AcDbEntity
  8
_U+30EC_U+30A4_U+30E4_U+30FC 1
 62
   179
420
  2234388
370
     9
100
AcDbVertex
100
AcDb2dVertex
 10
80.52565322339721
 20
-139.7089605206285
 30
0.0
  0
VERTEX
  5
163
330
161
100
AcDbEntity
  8
_U+30EC_U+30A4_U+30E4_U+30FC 1
 62
   179
420
  2234388
370
     9
100
AcDbVertex
100
AcDb2dVertex
 10
80.52565322339721
 20
-143.1692166308746
 30
0.0
  0
SEQEND
  5
164
330
161
100
AcDbEntity
  8
_U+30EC_U+30A4_U+30E4_U+30FC 1
 62
   179
420
  2234388
370
     9
  0
POLYLINE
  5
165
330
1F
100
AcDbEntity
  8
_U+30EC_U+30A4_U+30E4_U+30FC 1
 62
   179
420
  2234388
370
     9
100
AcDb2dPolyline
 66
     1
 10
0.0
 20
0.0
 30
0.0
  0
VERTEX
  5
166
330
165
100
AcDbEntity
  8
_U+30EC_U+30A4_U+30E4_U+30FC 1
 62
   179
420
  2234388
370
     9
100
AcDbVertex
100
AcDb2dVertex
 10
89.52561382712243
 20
-139.7089605206285
 30
0.0
  0
VERTEX
  5
167
330
165
100
AcDbEntity
  8
_U+30EC_U+30A4_U+30E4_U+30FC 1
 62
   179
420
  2234388
370
     9
100
AcDbVertex
100
AcDb2dVertex
 10
89.52561382712243
 20
-143.1692166308746
 30
0.0
  0
SEQEND
  5
168
330
165
100
AcDbEntity
  8
_U+30EC_U+30A4_U+30E4_U+30FC 1
 62
   179
420
  2234388
370
     9
  0
INSERT
  5
16A
330
1F
100
AcDbEntity
  8
_U+30EC_U+30A4_U+30E4_U+30FC 1
100
AcDbBlockReference
  2
block 5
 10
0.0
 20
0.0
 30
0.0
  0
SPLINE
  5
170
330
1F
100
AcDbEntity
  8
_U+30EC_U+30A4_U+30E4_U+30FC 1
 62
   179
420
  2234388
370
    25
100
AcDbSpline
210
0.0
220
0.0
230
1.0
 70
    11
 71
     3
 72
    17
 73
    13
 74
     0
 42
0.0000000001
 43
0.0000000001
 12
1.0
 22
0.0
 32
0.0
 13
1.0
 23
0.0
 33
0.0
 40
0.0
 40
0.0
 40
0.0
 40
0.0
 40
1.0
 40
1.0
 40
1.0
 40
2.0
 40
2.0
 40
2.0
 40
3.0
 40
3.0
 40
3.0
 40
4.0
 40
4.0
 40
4.0
 40
4.0
 10
80.56078988916747
 20
-137.1699130212633
 30
0.0
 10
80.56078988916747
 20
-137.1892099657025
 30
0.0
 10
80.54495016734936
 20
-137.205049687921
 30
0.0
 10
80.52565322339721
 20
-137.205049687921
 30
0.0
 10
80.50635831320686
 20
-137.205049687921
 30
0.0
 10
80.49051655762696
 20
-137.1892099657025
 30
0.0
 10
80.49051655762696
 20
-137.1699130212633
 30
0.0
 10
80.49051655762696
 20
-137.1499457990461
 30
0.0
 10
80.50635831320686
 20
-137.134776354605
 30
0.0
 10
80.52565322339721
 20
-137.134776354605
 30
0.0
 10
80.54495016734936
 20
-137.134776354605
 30
0.0
 10
80.56078988916747
 20
-137.1499457990461
 30
0.0
 10
80.56078988916747
 20
-137.1699130212633
 30
0.0
  0
SPLINE
  5
171
330
1F
100
AcDbEntity
  8
_U+30EC_U+30A4_U+30E4_U+30FC 1
 62
   179
420
  2234388
370
    25
100
AcDbSpline
210
0.0
220
0.0
230
1.0
 70
    11
 71
     3
 72
    17
 73
    13
 74
     0
 42
0.0000000001
 43
0.0000000001
 12
1.0
 22
0.0
 32
0.0
 13
1.0
 23
0.0
 33
0.0
 40
0.0
 40
0.0
 40
0.0
 40
0.0
 40
1.0
 40
1.0
 40
1.0
 40
2.0
 40
2.0
 40
2.0
 40
3.0
 40
3.0
 40
3.0
 40
4.0
 40
4.0
 40
4.0
 40
4.0
 10
89.56075275538745
 20
-137.1699130212633
 30
0.0
 10
89.56075275538745
 20
-137.1892099657025
 30
0.0
 10
89.54491077107456
 20
-137.205049687921
 30
0.0
 10
89.52561382712243
 20
-137.205049687921
 30
0.0
 10
89.50635216094716
 20
-137.205049687921
 30
0.0
 10
89.49047716135216
 20
-137.1892099657025
 30
0.0
 10
89.49047716135216
 20
-137.1699130212633
 30
0.0
 10
89.49047716135216
 20
-137.1499457990461
 30
0.0
 10
89.50635216094716
 20
-137.134776354605
 30
0.0
 10
89.52561382712243
 20
-137.134776354605
 30
0.0
 10
89.54491077107456
 20
-137.134776354605
 30
0.0
 10
89.56075275538745
 20
-137.1499457990461
 30
0.0
 10
89.56075275538745
 20
-137.1699130212633
 30
0.0
  0
SPLINE
  5
172
330
1F
100
AcDbEntity
  8
_U+30EC_U+30A4_U+30E4_U+30FC 1
 62
   179
420
  2234388
370
     9
100
AcDbSpline
210
0.0
220
0.0
230
1.0
 70
    11
 71
     3
 72
    17
 73
    13
 74
     0
 42
0.0000000001
 43
0.0000000001
 12
1.0
 22
0.0
 32
0.0
 13
1.0
 23
0.0
 33
0.0
 40
0.0
 40
0.0
 40
0.0
 40
0.0
 40
1.0
 40
1.0
 40
1.0
 40
2.0
 40
2.0
 40
2.0
 40
3.0
 40
3.0
 40
3.0
 40
4.0
 40
4.0
 40
4.0
 40
4.0
 10
89.56075275538745
 20
-142.1687388533466
 30
0.0
 10
89.56075275538745
 20
-142.1887413533419
 30
0.0
 10
89.54491077107456
 20
-142.2045810755598
 30
0.0
 10
89.52561382712243
 20
-142.2045810755598
 30
0.0
 10
89.50635216094716
 20
-142.2045810755598
 30
0.0
 10
89.49047716135216
 20
-142.1887413533419
 30
0.0
 10
89.49047716135216
 20
-142.1687388533466
 30
0.0
 10
89.49047716135216
 20
-142.1494771866849
 30
0.0
 10
89.50635216094716
 20
-142.1336021866888
 30
0.0
 10
89.52561382712243
 20
-142.1336021866888
 30
0.0
 10
89.54491077107456
 20
-142.1336021866888
 30
0.0
 10
89.56075275538745
 20
-142.1494771866849
 30
0.0
 10
89.56075275538745
 20
-142.1687388533466
 30
0.0
  0
POLYLINE
  5
173
330
1F
100
AcDbEntity
  8
_U+30EC_U+30A4_U+30E4_U+30FC 1
 62
   179
420
  2234388
370
     9
100
AcDb2dPolyline
 66
     1
 10
0.0
 20
0.0
 30
0.0
  0
VERTEX
  5
174
330
173
100
AcDbEntity
  8
_U+30EC_U+30A4_U+30E4_U+30FC 1
 62
   179
420
  2234388
370
     9
100
AcDbVertex
100
AcDb2dVertex
 10
102.1181573947488
 20
-147.1641427409867
 30
0.0
  0
VERTEX
  5
175
330
173
100
AcDbEntity
  8
_U+30EC_U+30A4_U+30E4_U+30FC 1
 62
   179
420
  2234388
370
     9
100
AcDbVertex
100
AcDb2dVertex
 10
102.1181573947488
 20
-140.9360980203214
 30
0.0
  0
SEQEND
  5
176
330
173
100
AcDbEntity
  8
_U+30EC_U+30A4_U+30E4_U+30FC 1
 62
   179
420
  2234388
370
     9
  0
SPLINE
  5
177
330
1F
100
AcDbEntity
  8
_U+30EC_U+30A4_U+30E4_U+30FC 1
 62
   179
420
  2234388
370
    25
100
AcDbSpline
210
0.0
220
0.0
230
1.0
 70
    11
 71
     3
 72
    17
 73
    13
 74
     0
 42
0.0000000001
 43
0.0000000001
 12
1.0
 22
0.0
 32
0.0
 13
1.0
 23
0.0
 33
0.0
 40
0.0
 40
0.0
 40
0.0
 40
0.0
 40
1.0
 40
1.0
 40
1.0
 40
2.0
 40
2.0
 40
2.0
 40
3.0
 40
3.0
 40
3.0
 40
4.0
 40
4.0
 40
4.0
 40
4.0
 10
94.56098730977045
 20
-137.1699130212633
 30
0.0
 10
94.56098730977045
 20
-137.1892099657025
 30
0.0
 10
94.54514997636386
 20
-137.205049687921
 30
0.0
 10
94.5258506440002
 20
-137.205049687921
 30
0.0
 10
94.50584814451051
 20
-137.205049687921
 30
0.0
 10
94.49071397822995
 20
-137.1892099657025
 30
0.0
 10
94.49071397822995
 20
-137.1699130212633
 30
0.0
 10
94.49071397822995
 20
-137.1499457990461
 30
0.0
 10
94.50584814451051
 20
-137.134776354605
 30
0.0
 10
94.5258506440002
 20
-137.134776354605
 30
0.0
 10
94.54514997636386
 20
-137.134776354605
 30
0.0
 10
94.56098730977045
 20
-137.1499457990461
 30
0.0
 10
94.56098730977045
 20
-137.1699130212633
 30
0.0
  0
SPLINE
  5
178
330
1F
100
AcDbEntity
  8
_U+30EC_U+30A4_U+30E4_U+30FC 1
 62
   179
420
  2234388
370
    25
100
AcDbSpline
210
0.0
220
0.0
230
1.0
 70
    11
 71
     3
 72
    17
 73
    13
 74
     0
 42
0.0000000001
 43
0.0000000001
 12
1.0
 22
0.0
 32
0.0
 13
1.0
 23
0.0
 33
0.0
 40
0.0
 40
0.0
 40
0.0
 40
0.0
 40
1.0
 40
1.0
 40
1.0
 40
2.0
 40
2.0
 40
2.0
 40
3.0
 40
3.0
 40
3.0
 40
4.0
 40
4.0
 40
4.0
 40
4.0
 10
90.56123053291519
 20
-135.6699371883046
 30
0.0
 10
90.56123053291519
 20
-135.6892341327444
 30
0.0
 10
90.54538852332803
 20
-135.7050738549629
 30
0.0
 10
90.52538602383834
 20
-135.7050738549629
 30
0.0
 10
90.5060890798862
 20
-135.7050738549629
 30
0.0
 10
90.49024935806807
 20
-135.6892341327444
 30
0.0
 10
90.49024935806807
 20
-135.6699371883046
 30
0.0
 10
90.49024935806807
 20
-135.6499346883099
 30
0.0
 10
90.5060890798862
 20
-135.6348005216468
 30
0.0
 10
90.52538602383834
 20
-135.6348005216468
 30
0.0
 10
90.54538852332803
 20
-135.6348005216468
 30
0.0
 10
90.56123053291519
 20
-135.6499346883099
 30
0.0
 10
90.56123053291519
 20
-135.6699371883046
 30
0.0
  0
SPLINE
  5
179
330
1F
100
AcDbEntity
  8
_U+30EC_U+30A4_U+30E4_U+30FC 1
 62
   179
420
  2234388
370
     9
100
AcDbSpline
210
0.0
220
0.0
230
1.0
 70
    11
 71
     3
 72
    17
 73
    13
 74
     0
 42
0.0000000001
 43
0.0000000001
 12
1.0
 22
0.0
 32
0.0
 13
1.0
 23
0.0
 33
0.0
 40
0.0
 40
0.0
 40
0.0
 40
0.0
 40
1.0
 40
1.0
 40
1.0
 40
2.0
 40
2.0
 40
2.0
 40
3.0
 40
3.0
 40
3.0
 40
4.0
 40
4.0
 40
4.0
 40
4.0
 10
102.1539643382797
 20
-146.1940038523403
 30
0.0
 10
102.1539643382797
 20
-146.2133007967802
 30
0.0
 10
102.1381246164616
 20
-146.2291405189981
 30
0.0
 10
102.1181573947488
 20
-146.2291405189981
 30
0.0
 10
102.0988604507966
 20
-146.2291405189981
 30
0.0
 10
102.0829854512016
 20
-146.2133007967802
 30
0.0
 10
102.0829854512016
 20
-146.1940038523403
 30
0.0
 10
102.0829854512016
 20
-146.1740366301231
 30
0.0
 10
102.0988604507966
 20
-146.1588671856826
 30
0.0
 10
102.1181573947488
 20
-146.1588671856826
 30
0.0
 10
102.1381246164616
 20
-146.1588671856826
 30
0.0
 10
102.1539643382797
 20
-146.1740366301231
 30
0.0
 10
102.1539643382797
 20
-146.1940038523403
 30
0.0
  0
POLYLINE
  5
17A
330
1F
100
AcDbEntity
  8
_U+30EC_U+30A4_U+30E4_U+30FC 1
 62
   179
420
  2234388
370
     9
100
AcDb2dPolyline
 66
     1
 10
0.0
 20
0.0
 30
0.0
  0
VERTEX
  5
17B
330
17A
100
AcDbEntity
  8
_U+30EC_U+30A4_U+30E4_U+30FC 1
 62
   179
420
  2234388
370
     9
100
AcDbVertex
100
AcDb2dVertex
 10
79.5258810266813
 20
-146.1698738523463
 30
0.0
  0
VERTEX
  5
17C
330
17A
100
AcDbEntity
  8
_U+30EC_U+30A4_U+30E4_U+30FC 1
 62
   179
420
  2234388
370
     9
100
AcDbVertex
100
AcDb2dVertex
 10
102.1539643382797
 20
-146.1698738523463
 30
0.0
  0
SEQEND
  5
17D
330
17A
100
AcDbEntity
  8
_U+30EC_U+30A4_U+30E4_U+30FC 1
 62
   179
420
  2234388
370
     9
  0
POLYLINE
  5
17E
330
1F
100
AcDbEntity
  8
_U+30EC_U+30A4_U+30E4_U+30FC 1
 62
   179
420
  2234388
370
     9
100
AcDb2dPolyline
 66
     1
 10
0.0
 20
0.0
 30
0.0
  0
VERTEX
  5
17F
330
17E
100
AcDbEntity
  8
_U+30EC_U+30A4_U+30E4_U+30FC 1
 62
   179
420
  2234388
370
     9
100
AcDbVertex
100
AcDb2dVertex
 10
79.5258810266813
 20
-140.7094030203784
 30
0.0
  0
VERTEX
  5
180
330
17E
100
AcDbEntity
  8
_U+30EC_U+30A4_U+30E4_U+30FC 1
 62
   179
420
  2234388
370
     9
100
AcDbVertex
100
AcDb2dVertex
 10
79.5258810266813
 20
-147.1696460743189
 30
0.0
  0
SEQEND
  5
181
330
17E
100
AcDbEntity
  8
_U+30EC_U+30A4_U+30E4_U+30FC 1
 62
   179
420
  2234388
370
     9
  0
POLYLINE
  5
182
330
1F
100
AcDbEntity
  8
_U+30EC_U+30A4_U+30E4_U+30FC 1
 62
   179
420
  2234388
370
     9
100
AcDb2dPolyline
 66
     1
 10
0.0
 20
0.0
 30
0.0
  0
VERTEX
  5
183
330
182
100
AcDbEntity
  8
_U+30EC_U+30A4_U+30E4_U+30FC 1
 62
   179
420
  2234388
370
     9
100
AcDbVertex
100
AcDb2dVertex
 10
97.02559863578186
 20
-140.7094030203784
 30
0.0
  0
VERTEX
  5
184
330
182
100
AcDbEntity
  8
_U+30EC_U+30A4_U+30E4_U+30FC 1
 62
   179
420
  2234388
370
     9
100
AcDbVertex
100
AcDb2dVertex
 10
97.02559863578186
 20
-147.1696460743189
 30
0.0
  0
SEQEND
  5
185
330
182
100
AcDbEntity
  8
_U+30EC_U+30A4_U+30E4_U+30FC 1
 62
   179
420
  2234388
370
     9
  0
INSERT
  5
187
330
1F
100
AcDbEntity
  8
_U+30EC_U+30A4_U+30E4_U+30FC 1
100
AcDbBlockReference
  2
block 6
 10
0.0
 20
0.0
 30
0.0
  0
SPLINE
  5
198
330
1F
100
AcDbEntity
  8
_U+30EC_U+30A4_U+30E4_U+30FC 1
 62
   179
420
  2234388
370
    25
100
AcDbSpline
210
0.0
220
0.0
230
1.0
 70
    11
 71
     3
 72
    17
 73
    13
 74
     0
 42
0.0000000001
 43
0.0000000001
 12
1.0
 22
0.0
 32
0.0
 13
1.0
 23
0.0
 33
0.0
 40
0.0
 40
0.0
 40
0.0
 40
0.0
 40
1.0
 40
1.0
 40
1.0
 40
2.0
 40
2.0
 40
2.0
 40
3.0
 40
3.0
 40
3.0
 40
4.0
 40
4.0
 40
4.0
 40
4.0
 10
79.56101769245156
 20
-138.1696852432352
 30
0.0
 10
79.56101769245156
 20
-138.188982187675
 30
0.0
 10
79.54517797063345
 20
-138.2048219098929
 30
0.0
 10
79.5258810266813
 20
-138.2048219098929
 30
0.0
 10
79.50591380496849
 20
-138.2048219098929
 30
0.0
 10
79.49007408315038
 20
-138.188982187675
 30
0.0
 10
79.49007408315038
 20
-138.1696852432352
 30
0.0
 10
79.49007408315038
 20
-138.150388298796
 30
0.0
 10
79.50591380496849
 20
-138.1345485765775
 30
0.0
 10
79.5258810266813
 20
-138.1345485765775
 30
0.0
 10
79.54517797063345
 20
-138.1345485765775
 30
0.0
 10
79.56101769245156
 20
-138.150388298796
 30
0.0
 10
79.56101769245156
 20
-138.1696852432352
 30
0.0
  0
SPLINE
  5
199
330
1F
100
AcDbEntity
  8
_U+30EC_U+30A4_U+30E4_U+30FC 1
 62
   179
420
  2234388
370
    25
100
AcDbSpline
210
0.0
220
0.0
230
1.0
 70
    11
 71
     3
 72
    17
 73
    13
 74
     0
 42
0.0000000001
 43
0.0000000001
 12
1.0
 22
0.0
 32
0.0
 13
1.0
 23
0.0
 33
0.0
 40
0.0
 40
0.0
 40
0.0
 40
0.0
 40
1.0
 40
1.0
 40
1.0
 40
2.0
 40
2.0
 40
2.0
 40
3.0
 40
3.0
 40
3.0
 40
4.0
 40
4.0
 40
4.0
 40
4.0
 10
97.06073530155213
 20
-138.1696852432352
 30
0.0
 10
97.06073530155213
 20
-138.188982187675
 30
0.0
 10
97.044895579734
 20
-138.2048219098929
 30
0.0
 10
97.02559863578186
 20
-138.2048219098929
 30
0.0
 10
97.00630169182973
 20
-138.2048219098929
 30
0.0
 10
96.99046197001161
 20
-138.188982187675
 30
0.0
 10
96.99046197001161
 20
-138.1696852432352
 30
0.0
 10
96.99046197001161
 20
-138.150388298796
 30
0.0
 10
97.00630169182973
 20
-138.1345485765775
 30
0.0
 10
97.02559863578186
 20
-138.1345485765775
 30
0.0
 10
97.044895579734
 20
-138.1345485765775
 30
0.0
 10
97.06073530155213
 20
-138.150388298796
 30
0.0
 10
97.06073530155213
 20
-138.1696852432352
 30
0.0
  0
SPLINE
  5
19A
330
1F
100
AcDbEntity
  8
_U+30EC_U+30A4_U+30E4_U+30FC 1
 62
   179
420
  2234388
370
     9
100
AcDbSpline
210
0.0
220
0.0
230
1.0
 70
    11
 71
     3
 72
    17
 73
    13
 74
     0
 42
0.0000000001
 43
0.0000000001
 12
1.0
 22
0.0
 32
0.0
 13
1.0
 23
0.0
 33
0.0
 40
0.0
 40
0.0
 40
0.0
 40
0.0
 40
1.0
 40
1.0
 40
1.0
 40
2.0
 40
2.0
 40
2.0
 40
3.0
 40
3.0
 40
3.0
 40
4.0
 40
4.0
 40
4.0
 40
4.0
 10
97.06073530155213
 20
-146.1698738523463
 30
0.0
 10
97.06073530155213
 20
-146.1891707967862
 30
0.0
 10
97.044895579734
 20
-146.2050457967822
 30
0.0
 10
97.02559863578186
 20
-146.2050457967822
 30
0.0
 10
97.00630169182973
 20
-146.2050457967822
 30
0.0
 10
96.99046197001161
 20
-146.1891707967862
 30
0.0
 10
96.99046197001161
 20
-146.1698738523463
 30
0.0
 10
96.99046197001161
 20
-146.1506121856847
 30
0.0
 10
97.00630169182973
 20
-146.1347371856886
 30
0.0
 10
97.02559863578186
 20
-146.1347371856886
 30
0.0
 10
97.044895579734
 20
-146.1347371856886
 30
0.0
 10
97.06073530155213
 20
-146.1506121856847
 30
0.0
 10
97.06073530155213
 20
-146.1698738523463
 30
0.0
  0
POLYLINE
  5
19B
330
1F
100
AcDbEntity
  8
_U+30EC_U+30A4_U+30E4_U+30FC 1
 62
   179
420
  2234388
370
     9
100
AcDb2dPolyline
 66
     1
 10
0.0
 20
0.0
 30
0.0
  0
VERTEX
  5
19C
330
19B
100
AcDbEntity
  8
_U+30EC_U+30A4_U+30E4_U+30FC 1
 62
   179
420
  2234388
370
     9
100
AcDbVertex
100
AcDb2dVertex
 10
87.02586583534075
 20
-117.1687183040412
 30
0.0
  0
VERTEX
  5
19D
330
19B
100
AcDbEntity
  8
_U+30EC_U+30A4_U+30E4_U+30FC 1
 62
   179
420
  2234388
370
     9
100
AcDbVertex
100
AcDb2dVertex
 10
102.0258027522714
 20
-117.1687183040412
 30
0.0
  0
SEQEND
  5
19E
330
19B
100
AcDbEntity
  8
_U+30EC_U+30A4_U+30E4_U+30FC 1
 62
   179
420
  2234388
370
     9
  0
POLYLINE
  5
19F
330
1F
100
AcDbEntity
  8
_U+30EC_U+30A4_U+30E4_U+30FC 1
 62
   179
420
  2234388
370
     9
100
AcDb2dPolyline
 66
     1
 10
0.0
 20
0.0
 30
0.0
  0
VERTEX
  5
1A0
330
19F
100
AcDbEntity
  8
_U+30EC_U+30A4_U+30E4_U+30FC 1
 62
   179
420
  2234388
370
     9
100
AcDbVertex
100
AcDb2dVertex
 10
87.02586583534075
 20
-118.6287596925649
 30
0.0
  0
VERTEX
  5
1A1
330
19F
100
AcDbEntity
  8
_U+30EC_U+30A4_U+30E4_U+30FC 1
 62
   179
420
  2234388
370
     9
100
AcDbVertex
100
AcDb2dVertex
 10
87.02586583534075
 20
-116.1686285820691
 30
0.0
  0
SEQEND
  5
1A2
330
19F
100
AcDbEntity
  8
_U+30EC_U+30A4_U+30E4_U+30FC 1
 62
   179
420
  2234388
370
     9
  0
POLYLINE
  5
1A3
330
1F
100
AcDbEntity
  8
_U+30EC_U+30A4_U+30E4_U+30FC 1
 62
   179
420
  2234388
370
     9
100
AcDb2dPolyline
 66
     1
 10
0.0
 20
0.0
 30
0.0
  0
VERTEX
  5
1A4
330
1A3
100
AcDbEntity
  8
_U+30EC_U+30A4_U+30E4_U+30FC 1
 62
   179
420
  2234388
370
     9
100
AcDbVertex
100
AcDb2dVertex
 10
102.0258027522714
 20
-119.1286458035512
 30
0.0
  0
VERTEX
  5
1A5
330
1A3
100
AcDbEntity
  8
_U+30EC_U+30A4_U+30E4_U+30FC 1
 62
   179
420
  2234388
370
     9
100
AcDbVertex
100
AcDb2dVertex
 10
102.0258027522714
 20
-116.1686285820691
 30
0.0
  0
SEQEND
  5
1A6
330
1A3
100
AcDbEntity
  8
_U+30EC_U+30A4_U+30E4_U+30FC 1
 62
   179
420
  2234388
370
     9
  0
INSERT
  5
1A8
330
1F
100
AcDbEntity
  8
_U+30EC_U+30A4_U+30E4_U+30FC 1
100
AcDbBlockReference
  2
block 7
 10
0.0
 20
0.0
 30
0.0
  0
INSERT
  5
1B0
330
1F
100
AcDbEntity
  8
_U+30EC_U+30A4_U+30E4_U+30FC 1
100
AcDbBlockReference
  2
block 8
 10
0.0
 20
0.0
 30
0.0
  0
SPLINE
  5
1BF
330
1F
100
AcDbEntity
  8
_U+30EC_U+30A4_U+30E4_U+30FC 1
 62
   179
420
  2234388
370
    25
100
AcDbSpline
210
0.0
220
0.0
230
1.0
 70
    11
 71
     3
 72
    17
 73
    13
 74
     0
 42
0.0000000001
 43
0.0000000001
 12
1.0
 22
0.0
 32
0.0
 13
1.0
 23
0.0
 33
0.0
 40
0.0
 40
0.0
 40
0.0
 40
0.0
 40
1.0
 40
1.0
 40
1.0
 40
2.0
 40
2.0
 40
2.0
 40
3.0
 40
3.0
 40
3.0
 40
4.0
 40
4.0
 40
4.0
 40
4.0
 10
87.061002501111
 20
-121.1681599697078
 30
0.0
 10
87.061002501111
 20
-121.1881271919253
 30
0.0
 10
87.0451627792929
 20
-121.2039669141436
 30
0.0
 10
87.02586583534075
 20
-121.2039669141436
 30
0.0
 10
87.00589861362793
 20
-121.2039669141436
 30
0.0
 10
86.99002361403294
 20
-121.1881271919253
 30
0.0
 10
86.99002361403294
 20
-121.1681599697078
 30
0.0
 10
86.99002361403294
 20
-121.1488630252683
 30
0.0
 10
87.00589861362793
 20
-121.1329880252723
 30
0.0
 10
87.02586583534075
 20
-121.1329880252723
 30
0.0
 10
87.0451627792929
 20
-121.1329880252723
 30
0.0
 10
87.061002501111
 20
-121.1488630252683
 30
0.0
 10
87.061002501111
 20
-121.1681599697078
 30
0.0
  0
SPLINE
  5
1C0
330
1F
100
AcDbEntity
  8
_U+30EC_U+30A4_U+30E4_U+30FC 1
 62
   179
420
  2234388
370
    25
100
AcDbSpline
210
0.0
220
0.0
230
1.0
 70
    11
 71
     3
 72
    17
 73
    13
 74
     0
 42
0.0000000001
 43
0.0000000001
 12
1.0
 22
0.0
 32
0.0
 13
1.0
 23
0.0
 33
0.0
 40
0.0
 40
0.0
 40
0.0
 40
0.0
 40
1.0
 40
1.0
 40
1.0
 40
2.0
 40
2.0
 40
2.0
 40
3.0
 40
3.0
 40
3.0
 40
4.0
 40
4.0
 40
4.0
 40
4.0
 10
102.060936840653
 20
-121.668363580694
 30
0.0
 10
102.060936840653
 20
-121.6876605251335
 30
0.0
 10
102.0450971188349
 20
-121.7035002473521
 30
0.0
 10
102.0258027522714
 20
-121.7035002473521
 30
0.0
 10
102.00583295317
 20
-121.7035002473521
 30
0.0
 10
101.9906635091125
 20
-121.6876605251335
 30
0.0
 10
101.9906635091125
 20
-121.668363580694
 30
0.0
 10
101.9906635091125
 20
-121.6490666362545
 30
0.0
 10
102.00583295317
 20
-121.633226914036
 30
0.0
 10
102.0258027522714
 20
-121.633226914036
 30
0.0
 10
102.0450971188349
 20
-121.633226914036
 30
0.0
 10
102.060936840653
 20
-121.6490666362545
 30
0.0
 10
102.060936840653
 20
-121.668363580694
 30
0.0
  0
SPLINE
  5
1C1
330
1F
100
AcDbEntity
  8
_U+30EC_U+30A4_U+30E4_U+30FC 1
 62
   179
420
  2234388
370
     9
100
AcDbSpline
210
0.0
220
0.0
230
1.0
 70
    11
 71
     3
 72
    17
 73
    13
 74
     0
 42
0.0000000001
 43
0.0000000001
 12
1.0
 22
0.0
 32
0.0
 13
1.0
 23
0.0
 33
0.0
 40
0.0
 40
0.0
 40
0.0
 40
0.0
 40
1.0
 40
1.0
 40
1.0
 40
2.0
 40
2.0
 40
2.0
 40
3.0
 40
3.0
 40
3.0
 40
4.0
 40
4.0
 40
4.0
 40
4.0
 10
102.060936840653
 20
-117.1687183040412
 30
0.0
 10
102.060936840653
 20
-117.1880152484807
 30
0.0
 10
102.0450971188349
 20
-117.2038549706989
 30
0.0
 10
102.0258027522714
 20
-117.2038549706989
 30
0.0
 10
102.00583295317
 20
-117.2038549706989
 30
0.0
 10
101.9906635091125
 20
-117.1880152484807
 30
0.0
 10
101.9906635091125
 20
-117.1687183040412
 30
0.0
 10
101.9906635091125
 20
-117.1494213596017
 30
0.0
 10
102.00583295317
 20
-117.1335816373832
 30
0.0
 10
102.0258027522714
 20
-117.1335816373832
 30
0.0
 10
102.0450971188349
 20
-117.1335816373832
 30
0.0
 10
102.060936840653
 20
-117.1494213596017
 30
0.0
 10
102.060936840653
 20
-117.1687183040412
 30
0.0
  0
POLYLINE
  5
1C2
330
1F
100
AcDbEntity
  8
_U+30EC_U+30A4_U+30E4_U+30FC 1
 62
   179
420
  2234388
370
     9
100
AcDb2dPolyline
 66
     1
 10
0.0
 20
0.0
 30
0.0
  0
VERTEX
  5
1C3
330
1C2
100
AcDbEntity
  8
_U+30EC_U+30A4_U+30E4_U+30FC 1
 62
   179
420
  2234388
370
     9
100
AcDbVertex
100
AcDb2dVertex
 10
105.3200037019517
 20
-121.668363580694
 30
0.0
  0
VERTEX
  5
1C4
330
1C2
100
AcDbEntity
  8
_U+30EC_U+30A4_U+30E4_U+30FC 1
 62
   179
420
  2234388
370
     9
100
AcDbVertex
100
AcDb2dVertex
 10
105.3200037019517
 20
-116.4104577486751
 30
0.0
  0
SEQEND
  5
1C5
330
1C2
100
AcDbEntity
  8
_U+30EC_U+30A4_U+30E4_U+30FC 1
 62
   179
420
  2234388
370
     9
  0
POLYLINE
  5
1C6
330
1F
100
AcDbEntity
  8
_U+30EC_U+30A4_U+30E4_U+30FC 1
 62
   179
420
  2234388
370
     9
100
AcDb2dPolyline
 66
     1
 10
0.0
 20
0.0
 30
0.0
  0
VERTEX
  5
1C7
330
1C6
100
AcDbEntity
  8
_U+30EC_U+30A4_U+30E4_U+30FC 1
 62
   179
420
  2234388
370
     9
100
AcDbVertex
100
AcDb2dVertex
 10
105.3200037019517
 20
-121.668363580694
 30
0.0
  0
VERTEX
  5
1C8
330
1C6
100
AcDbEntity
  8
_U+30EC_U+30A4_U+30E4_U+30FC 1
 62
   179
420
  2234388
370
     9
100
AcDbVertex
100
AcDb2dVertex
 10
105.3200037019517
 20
-125.1689421909299
 30
0.0
  0
SEQEND
  5
1C9
330
1C6
100
AcDbEntity
  8
_U+30EC_U+30A4_U+30E4_U+30FC 1
 62
   179
420
  2234388
370
     9
  0
POLYLINE
  5
1CA
330
1F
100
AcDbEntity
  8
_U+30EC_U+30A4_U+30E4_U+30FC 1
 62
   179
420
  2234388
370
     9
100
AcDb2dPolyline
 66
     1
 10
0.0
 20
0.0
 30
0.0
  0
VERTEX
  5
1CB
330
1CA
100
AcDbEntity
  8
_U+30EC_U+30A4_U+30E4_U+30FC 1
 62
   179
420
  2234388
370
     9
100
AcDbVertex
100
AcDb2dVertex
 10
103.8599976280885
 20
-121.668363580694
 30
0.0
  0
VERTEX
  5
1CC
330
1CA
100
AcDbEntity
  8
_U+30EC_U+30A4_U+30E4_U+30FC 1
 62
   179
420
  2234388
370
     9
100
AcDbVertex
100
AcDb2dVertex
 10
105.96699812989
 20
-121.668363580694
 30
0.0
  0
SEQEND
  5
1CD
330
1CA
100
AcDbEntity
  8
_U+30EC_U+30A4_U+30E4_U+30FC 1
 62
   179
420
  2234388
370
     9
  0
POLYLINE
  5
1CE
330
1F
100
AcDbEntity
  8
_U+30EC_U+30A4_U+30E4_U+30FC 1
 62
   179
420
  2234388
370
     9
100
AcDb2dPolyline
 66
     1
 10
0.0
 20
0.0
 30
0.0
  0
VERTEX
  5
1CF
330
1CE
100
AcDbEntity
  8
_U+30EC_U+30A4_U+30E4_U+30FC 1
 62
   179
420
  2234388
370
     9
100
AcDbVertex
100
AcDb2dVertex
 10
103.8599976280885
 20
-125.1689421909299
 30
0.0
  0
VERTEX
  5
1D0
330
1CE
100
AcDbEntity
  8
_U+30EC_U+30A4_U+30E4_U+30FC 1
 62
   179
420
  2234388
370
     9
100
AcDbVertex
100
AcDb2dVertex
 10
105.96699812989
 20
-125.1689421909299
 30
0.0
  0
SEQEND
  5
1D1
330
1CE
100
AcDbEntity
  8
_U+30EC_U+30A4_U+30E4_U+30FC 1
 62
   179
420
  2234388
370
     9
  0
INSERT
  5
1D3
330
1F
100
AcDbEntity
  8
_U+30EC_U+30A4_U+30E4_U+30FC 1
100
AcDbBlockReference
  2
block 9
 10
0.0
 20
0.0
 30
0.0
  0
SPLINE
  5
1E2
330
1F
100
AcDbEntity
  8
_U+30EC_U+30A4_U+30E4_U+30FC 1
 62
   179
420
  2234388
370
    25
100
AcDbSpline
210
0.0
220
0.0
230
1.0
 70
    11
 71
     3
 72
    17
 73
    13
 74
     0
 42
0.0000000001
 43
0.0000000001
 12
1.0
 22
0.0
 32
0.0
 13
1.0
 23
0.0
 33
0.0
 40
0.0
 40
0.0
 40
0.0
 40
0.0
 40
1.0
 40
1.0
 40
1.0
 40
2.0
 40
2.0
 40
2.0
 40
3.0
 40
3.0
 40
3.0
 40
4.0
 40
4.0
 40
4.0
 40
4.0
 10
102.060936840653
 20
-121.668363580694
 30
0.0
 10
102.060936840653
 20
-121.6876605251335
 30
0.0
 10
102.0450971188349
 20
-121.7035002473521
 30
0.0
 10
102.0258027522714
 20
-121.7035002473521
 30
0.0
 10
102.00583295317
 20
-121.7035002473521
 30
0.0
 10
101.9906635091125
 20
-121.6876605251335
 30
0.0
 10
101.9906635091125
 20
-121.668363580694
 30
0.0
 10
101.9906635091125
 20
-121.6490666362545
 30
0.0
 10
102.00583295317
 20
-121.633226914036
 30
0.0
 10
102.0258027522714
 20
-121.633226914036
 30
0.0
 10
102.0450971188349
 20
-121.633226914036
 30
0.0
 10
102.060936840653
 20
-121.6490666362545
 30
0.0
 10
102.060936840653
 20
-121.668363580694
 30
0.0
  0
SPLINE
  5
1E3
330
1F
100
AcDbEntity
  8
_U+30EC_U+30A4_U+30E4_U+30FC 1
 62
   179
420
  2234388
370
    25
100
AcDbSpline
210
0.0
220
0.0
230
1.0
 70
    11
 71
     3
 72
    17
 73
    13
 74
     0
 42
0.0000000001
 43
0.0000000001
 12
1.0
 22
0.0
 32
0.0
 13
1.0
 23
0.0
 33
0.0
 40
0.0
 40
0.0
 40
0.0
 40
0.0
 40
1.0
 40
1.0
 40
1.0
 40
2.0
 40
2.0
 40
2.0
 40
3.0
 40
3.0
 40
3.0
 40
4.0
 40
4.0
 40
4.0
 40
4.0
 10
102.060936840653
 20
-125.1689421909299
 30
0.0
 10
102.060936840653
 20
-125.1882391353697
 30
0.0
 10
102.0450971188349
 20
-125.2040788575879
 30
0.0
 10
102.0258027522714
 20
-125.2040788575879
 30
0.0
 10
102.00583295317
 20
-125.2040788575879
 30
0.0
 10
101.9906635091125
 20
-125.1882391353697
 30
0.0
 10
101.9906635091125
 20
-125.1689421909299
 30
0.0
 10
101.9906635091125
 20
-125.1489396909351
 30
0.0
 10
102.00583295317
 20
-125.1338055242721
 30
0.0
 10
102.0258027522714
 20
-125.1338055242721
 30
0.0
 10
102.0450971188349
 20
-125.1338055242721
 30
0.0
 10
102.060936840653
 20
-125.1489396909351
 30
0.0
 10
102.060936840653
 20
-125.1689421909299
 30
0.0
  0
SPLINE
  5
1E4
330
1F
100
AcDbEntity
  8
_U+30EC_U+30A4_U+30E4_U+30FC 1
 62
   179
420
  2234388
370
     9
100
AcDbSpline
210
0.0
220
0.0
230
1.0
 70
    11
 71
     3
 72
    17
 73
    13
 74
     0
 42
0.0000000001
 43
0.0000000001
 12
1.0
 22
0.0
 32
0.0
 13
1.0
 23
0.0
 33
0.0
 40
0.0
 40
0.0
 40
0.0
 40
0.0
 40
1.0
 40
1.0
 40
1.0
 40
2.0
 40
2.0
 40
2.0
 40
3.0
 40
3.0
 40
3.0
 40
4.0
 40
4.0
 40
4.0
 40
4.0
 10
105.355140367722
 20
-125.1689421909299
 30
0.0
 10
105.355140367722
 20
-125.1882391353697
 30
0.0
 10
105.3393006459039
 20
-125.2040788575879
 30
0.0
 10
105.3200037019517
 20
-125.2040788575879
 30
0.0
 10
105.3007067579996
 20
-125.2040788575879
 30
0.0
 10
105.2848670361815
 20
-125.1882391353697
 30
0.0
 10
105.2848670361815
 20
-125.1689421909299
 30
0.0
 10
105.2848670361815
 20
-125.1489396909351
 30
0.0
 10
105.3007067579996
 20
-125.1338055242721
 30
0.0
 10
105.3200037019517
 20
-125.1338055242721
 30
0.0
 10
105.3393006459039
 20
-125.1338055242721
 30
0.0
 10
105.355140367722
 20
-125.1489396909351
 30
0.0
 10
105.355140367722
 20
-125.1689421909299
 30
0.0
  0
POLYLINE
  5
1E5
330
1F
100
AcDbEntity
  8
_U+30EC_U+30A4_U+30E4_U+30FC 1
 62
   179
420
  2234388
370
     9
100
AcDb2dPolyline
 66
     1
 10
0.0
 20
0.0
 30
0.0
  0
VERTEX
  5
1E6
330
1E5
100
AcDbEntity
  8
_U+30EC_U+30A4_U+30E4_U+30FC 1
 62
   179
420
  2234388
370
     9
100
AcDbVertex
100
AcDb2dVertex
 10
76.93656275940698
 20
-138.1696852432352
 30
0.0
  0
VERTEX
  5
1E7
330
1E5
100
AcDbEntity
  8
_U+30EC_U+30A4_U+30E4_U+30FC 1
 62
   179
420
  2234388
370
     9
100
AcDbVertex
100
AcDb2dVertex
 10
76.93656275940698
 20
-143.4269207974768
 30
0.0
  0
SEQEND
  5
1E8
330
1E5
100
AcDbEntity
  8
_U+30EC_U+30A4_U+30E4_U+30FC 1
 62
   179
420
  2234388
370
     9
  0
POLYLINE
  5
1E9
330
1F
100
AcDbEntity
  8
_U+30EC_U+30A4_U+30E4_U+30FC 1
 62
   179
420
  2234388
370
     9
100
AcDb2dPolyline
 66
     1
 10
0.0
 20
0.0
 30
0.0
  0
VERTEX
  5
1EA
330
1E9
100
AcDbEntity
  8
_U+30EC_U+30A4_U+30E4_U+30FC 1
 62
   179
420
  2234388
370
     9
100
AcDbVertex
100
AcDb2dVertex
 10
76.93656275940698
 20
-135.6699371883046
 30
0.0
  0
VERTEX
  5
1EB
330
1E9
100
AcDbEntity
  8
_U+30EC_U+30A4_U+30E4_U+30FC 1
 62
   179
420
  2234388
370
     9
100
AcDbVertex
100
AcDb2dVertex
 10
76.93656275940698
 20
-138.1696852432352
 30
0.0
  0
SEQEND
  5
1EC
330
1E9
100
AcDbEntity
  8
_U+30EC_U+30A4_U+30E4_U+30FC 1
 62
   179
420
  2234388
370
     9
  0
POLYLINE
  5
1ED
330
1F
100
AcDbEntity
  8
_U+30EC_U+30A4_U+30E4_U+30FC 1
 62
   179
420
  2234388
370
     9
100
AcDb2dPolyline
 66
     1
 10
0.0
 20
0.0
 30
0.0
  0
VERTEX
  5
1EE
330
1ED
100
AcDbEntity
  8
_U+30EC_U+30A4_U+30E4_U+30FC 1
 62
   179
420
  2234388
370
     9
100
AcDbVertex
100
AcDb2dVertex
 10
78.39660411104711
 20
-135.6699371883046
 30
0.0
  0
VERTEX
  5
1EF
330
1ED
100
AcDbEntity
  8
_U+30EC_U+30A4_U+30E4_U+30FC 1
 62
   179
420
  2234388
370
     9
100
AcDbVertex
100
AcDb2dVertex
 10
75.93679056269107
 20
-135.6699371883046
 30
0.0
  0
SEQEND
  5
1F0
330
1ED
100
AcDbEntity
  8
_U+30EC_U+30A4_U+30E4_U+30FC 1
 62
   179
420
  2234388
370
     9
  0
POLYLINE
  5
1F1
330
1F
100
AcDbEntity
  8
_U+30EC_U+30A4_U+30E4_U+30FC 1
 62
   179
420
  2234388
370
     9
100
AcDb2dPolyline
 66
     1
 10
0.0
 20
0.0
 30
0.0
  0
VERTEX
  5
1F2
330
1F1
100
AcDbEntity
  8
_U+30EC_U+30A4_U+30E4_U+30FC 1
 62
   179
420
  2234388
370
     9
100
AcDbVertex
100
AcDb2dVertex
 10
78.39660411104711
 20
-138.1696852432352
 30
0.0
  0
VERTEX
  5
1F3
330
1F1
100
AcDbEntity
  8
_U+30EC_U+30A4_U+30E4_U+30FC 1
 62
   179
420
  2234388
370
     9
100
AcDbVertex
100
AcDb2dVertex
 10
75.93679056269107
 20
-138.1696852432352
 30
0.0
  0
SEQEND
  5
1F4
330
1F1
100
AcDbEntity
  8
_U+30EC_U+30A4_U+30E4_U+30FC 1
 62
   179
420
  2234388
370
     9
  0
INSERT
  5
1F6
330
1F
100
AcDbEntity
  8
_U+30EC_U+30A4_U+30E4_U+30FC 1
100
AcDbBlockReference
  2
block 10
 10
0.0
 20
0.0
 30
0.0
  0
SPLINE
  5
205
330
1F
100
AcDbEntity
  8
_U+30EC_U+30A4_U+30E4_U+30FC 1
 62
   179
420
  2234388
370
    25
100
AcDbSpline
210
0.0
220
0.0
230
1.0
 70
    11
 71
     3
 72
    17
 73
    13
 74
     0
 42
0.0000000001
 43
0.0000000001
 12
1.0
 22
0.0
 32
0.0
 13
1.0
 23
0.0
 33
0.0
 40
0.0
 40
0.0
 40
0.0
 40
0.0
 40
1.0
 40
1.0
 40
1.0
 40
2.0
 40
2.0
 40
2.0
 40
3.0
 40
3.0
 40
3.0
 40
4.0
 40
4.0
 40
4.0
 40
4.0
 10
79.56101769245156
 20
-135.6699371883046
 30
0.0
 10
79.56101769245156
 20
-135.6892341327444
 30
0.0
 10
79.54517797063345
 20
-135.7050738549629
 30
0.0
 10
79.5258810266813
 20
-135.7050738549629
 30
0.0
 10
79.50591380496849
 20
-135.7050738549629
 30
0.0
 10
79.49007408315038
 20
-135.6892341327444
 30
0.0
 10
79.49007408315038
 20
-135.6699371883046
 30
0.0
 10
79.49007408315038
 20
-135.6499346883099
 30
0.0
 10
79.50591380496849
 20
-135.6348005216468
 30
0.0
 10
79.5258810266813
 20
-135.6348005216468
 30
0.0
 10
79.54517797063345
 20
-135.6348005216468
 30
0.0
 10
79.56101769245156
 20
-135.6499346883099
 30
0.0
 10
79.56101769245156
 20
-135.6699371883046
 30
0.0
  0
SPLINE
  5
206
330
1F
100
AcDbEntity
  8
_U+30EC_U+30A4_U+30E4_U+30FC 1
 62
   179
420
  2234388
370
    25
100
AcDbSpline
210
0.0
220
0.0
230
1.0
 70
    11
 71
     3
 72
    17
 73
    13
 74
     0
 42
0.0000000001
 43
0.0000000001
 12
1.0
 22
0.0
 32
0.0
 13
1.0
 23
0.0
 33
0.0
 40
0.0
 40
0.0
 40
0.0
 40
0.0
 40
1.0
 40
1.0
 40
1.0
 40
2.0
 40
2.0
 40
2.0
 40
3.0
 40
3.0
 40
3.0
 40
4.0
 40
4.0
 40
4.0
 40
4.0
 10
79.56101769245156
 20
-138.1696852432352
 30
0.0
 10
79.56101769245156
 20
-138.188982187675
 30
0.0
 10
79.54517797063345
 20
-138.2048219098929
 30
0.0
 10
79.5258810266813
 20
-138.2048219098929
 30
0.0
 10
79.50591380496849
 20
-138.2048219098929
 30
0.0
 10
79.49007408315038
 20
-138.188982187675
 30
0.0
 10
79.49007408315038
 20
-138.1696852432352
 30
0.0
 10
79.49007408315038
 20
-138.150388298796
 30
0.0
 10
79.50591380496849
 20
-138.1345485765775
 30
0.0
 10
79.5258810266813
 20
-138.1345485765775
 30
0.0
 10
79.54517797063345
 20
-138.1345485765775
 30
0.0
 10
79.56101769245156
 20
-138.150388298796
 30
0.0
 10
79.56101769245156
 20
-138.1696852432352
 30
0.0
  0
SPLINE
  5
207
330
1F
100
AcDbEntity
  8
_U+30EC_U+30A4_U+30E4_U+30FC 1
 62
   179
420
  2234388
370
     9
100
AcDbSpline
210
0.0
220
0.0
230
1.0
 70
    11
 71
     3
 72
    17
 73
    13
 74
     0
 42
0.0000000001
 43
0.0000000001
 12
1.0
 22
0.0
 32
0.0
 13
1.0
 23
0.0
 33
0.0
 40
0.0
 40
0.0
 40
0.0
 40
0.0
 40
1.0
 40
1.0
 40
1.0
 40
2.0
 40
2.0
 40
2.0
 40
3.0
 40
3.0
 40
3.0
 40
4.0
 40
4.0
 40
4.0
 40
4.0
 10
76.97169942517723
 20
-138.1696852432352
 30
0.0
 10
76.97169942517723
 20
-138.188982187675
 30
0.0
 10
76.9565299811198
 20
-138.2048219098929
 30
0.0
 10
76.93656275940698
 20
-138.2048219098929
 30
0.0
 10
76.91726581545484
 20
-138.2048219098929
 30
0.0
 10
76.90142609363673
 20
-138.188982187675
 30
0.0
 10
76.90142609363673
 20
-138.1696852432352
 30
0.0
 10
76.90142609363673
 20
-138.150388298796
 30
0.0
 10
76.91726581545484
 20
-138.1345485765775
 30
0.0
 10
76.93656275940698
 20
-138.1345485765775
 30
0.0
 10
76.9565299811198
 20
-138.1345485765775
 30
0.0
 10
76.97169942517723
 20
-138.150388298796
 30
0.0
 10
76.97169942517723
 20
-138.1696852432352
 30
0.0
  0
POLYLINE
  5
208
330
1F
100
AcDbEntity
  8
_U+30EC_U+30A4_U+30E4_U+30FC 1
 62
   179
420
  2234388
370
     9
100
AcDb2dPolyline
 66
     1
 10
0.0
 20
0.0
 30
0.0
  0
VERTEX
  5
209
330
208
100
AcDbEntity
  8
_U+30EC_U+30A4_U+30E4_U+30FC 1
 62
   179
420
  2234388
370
     9
100
AcDbVertex
100
AcDb2dVertex
 10
76.93656275940698
 20
-121.1681599697078
 30
0.0
  0
VERTEX
  5
20A
330
208
100
AcDbEntity
  8
_U+30EC_U+30A4_U+30E4_U+30FC 1
 62
   179
420
  2234388
370
     9
100
AcDbVertex
100
AcDb2dVertex
 10
76.93656275940698
 20
-115.9102541376893
 30
0.0
  0
SEQEND
  5
20B
330
208
100
AcDbEntity
  8
_U+30EC_U+30A4_U+30E4_U+30FC 1
 62
   179
420
  2234388
370
     9
  0
POLYLINE
  5
20C
330
1F
100
AcDbEntity
  8
_U+30EC_U+30A4_U+30E4_U+30FC 1
 62
   179
420
  2234388
370
     9
100
AcDb2dPolyline
 66
     1
 10
0.0
 20
0.0
 30
0.0
  0
VERTEX
  5
20D
330
20C
100
AcDbEntity
  8
_U+30EC_U+30A4_U+30E4_U+30FC 1
 62
   179
420
  2234388
370
     9
100
AcDbVertex
100
AcDb2dVertex
 10
76.93656275940698
 20
-122.6681358026663
 30
0.0
  0
VERTEX
  5
20E
330
20C
100
AcDbEntity
  8
_U+30EC_U+30A4_U+30E4_U+30FC 1
 62
   179
420
  2234388
370
     9
100
AcDbVertex
100
AcDb2dVertex
 10
76.93656275940698
 20
-121.1681599697078
 30
0.0
  0
SEQEND
  5
20F
330
20C
100
AcDbEntity
  8
_U+30EC_U+30A4_U+30E4_U+30FC 1
 62
   179
420
  2234388
370
     9
  0
POLYLINE
  5
210
330
1F
100
AcDbEntity
  8
_U+30EC_U+30A4_U+30E4_U+30FC 1
 62
   179
420
  2234388
370
     9
100
AcDb2dPolyline
 66
     1
 10
0.0
 20
0.0
 30
0.0
  0
VERTEX
  5
211
330
210
100
AcDbEntity
  8
_U+30EC_U+30A4_U+30E4_U+30FC 1
 62
   179
420
  2234388
370
     9
100
AcDbVertex
100
AcDb2dVertex
 10
84.48544256681902
 20
-121.1681599697078
 30
0.0
  0
VERTEX
  5
212
330
210
100
AcDbEntity
  8
_U+30EC_U+30A4_U+30E4_U+30FC 1
 62
   179
420
  2234388
370
     9
100
AcDbVertex
100
AcDb2dVertex
 10
75.93679056269107
 20
-121.1681599697078
 30
0.0
  0
SEQEND
  5
213
330
210
100
AcDbEntity
  8
_U+30EC_U+30A4_U+30E4_U+30FC 1
 62
   179
420
  2234388
370
     9
  0
INSERT
  5
215
330
1F
100
AcDbEntity
  8
_U+30EC_U+30A4_U+30E4_U+30FC 1
100
AcDbBlockReference
  2
block 11
 10
0.0
 20
0.0
 30
0.0
  0
SPLINE
  5
224
330
1F
100
AcDbEntity
  8
_U+30EC_U+30A4_U+30E4_U+30FC 1
 62
   179
420
  2234388
370
    25
100
AcDbSpline
210
0.0
220
0.0
230
1.0
 70
    11
 71
     3
 72
    17
 73
    13
 74
     0
 42
0.0000000001
 43
0.0000000001
 12
1.0
 22
0.0
 32
0.0
 13
1.0
 23
0.0
 33
0.0
 40
0.0
 40
0.0
 40
0.0
 40
0.0
 40
1.0
 40
1.0
 40
1.0
 40
2.0
 40
2.0
 40
2.0
 40
3.0
 40
3.0
 40
3.0
 40
4.0
 40
4.0
 40
4.0
 40
4.0
 10
88.06077469782691
 20
-122.6681358026663
 30
0.0
 10
88.06077469782691
 20
-122.6881030248834
 30
0.0
 10
88.0449349760088
 20
-122.7039780248795
 30
0.0
 10
88.02563803205666
 20
-122.7039780248795
 30
0.0
 10
88.00634108810452
 20
-122.7039780248795
 30
0.0
 10
87.99050136628641
 20
-122.6881030248834
 30
0.0
 10
87.99050136628641
 20
-122.6681358026663
 30
0.0
 10
87.99050136628641
 20
-122.6488388582267
 30
0.0
 10
88.00634108810452
 20
-122.6329991360085
 30
0.0
 10
88.02563803205666
 20
-122.6329991360085
 30
0.0
 10
88.0449349760088
 20
-122.6329991360085
 30
0.0
 10
88.06077469782691
 20
-122.6488388582267
 30
0.0
 10
88.06077469782691
 20
-122.6681358026663
 30
0.0
  0
SPLINE
  5
225
330
1F
100
AcDbEntity
  8
_U+30EC_U+30A4_U+30E4_U+30FC 1
 62
   179
420
  2234388
370
    25
100
AcDbSpline
210
0.0
220
0.0
230
1.0
 70
    11
 71
     3
 72
    17
 73
    13
 74
     0
 42
0.0000000001
 43
0.0000000001
 12
1.0
 22
0.0
 32
0.0
 13
1.0
 23
0.0
 33
0.0
 40
0.0
 40
0.0
 40
0.0
 40
0.0
 40
1.0
 40
1.0
 40
1.0
 40
2.0
 40
2.0
 40
2.0
 40
3.0
 40
3.0
 40
3.0
 40
4.0
 40
4.0
 40
4.0
 40
4.0
 10
87.061002501111
 20
-121.1681599697078
 30
0.0
 10
87.061002501111
 20
-121.1881271919253
 30
0.0
 10
87.0451627792929
 20
-121.2039669141436
 30
0.0
 10
87.02586583534075
 20
-121.2039669141436
 30
0.0
 10
87.00589861362793
 20
-121.2039669141436
 30
0.0
 10
86.99002361403294
 20
-121.1881271919253
 30
0.0
 10
86.99002361403294
 20
-121.1681599697078
 30
0.0
 10
86.99002361403294
 20
-121.1488630252683
 30
0.0
 10
87.00589861362793
 20
-121.1329880252723
 30
0.0
 10
87.02586583534075
 20
-121.1329880252723
 30
0.0
 10
87.0451627792929
 20
-121.1329880252723
 30
0.0
 10
87.061002501111
 20
-121.1488630252683
 30
0.0
 10
87.061002501111
 20
-121.1681599697078
 30
0.0
  0
SPLINE
  5
226
330
1F
100
AcDbEntity
  8
_U+30EC_U+30A4_U+30E4_U+30FC 1
 62
   179
420
  2234388
370
     9
100
AcDbSpline
210
0.0
220
0.0
230
1.0
 70
    11
 71
     3
 72
    17
 73
    13
 74
     0
 42
0.0000000001
 43
0.0000000001
 12
1.0
 22
0.0
 32
0.0
 13
1.0
 23
0.0
 33
0.0
 40
0.0
 40
0.0
 40
0.0
 40
0.0
 40
1.0
 40
1.0
 40
1.0
 40
2.0
 40
2.0
 40
2.0
 40
3.0
 40
3.0
 40
3.0
 40
4.0
 40
4.0
 40
4.0
 40
4.0
 10
76.97169942517723
 20
-121.1681599697078
 30
0.0
 10
76.97169942517723
 20
-121.1881271919253
 30
0.0
 10
76.9565299811198
 20
-121.2039669141436
 30
0.0
 10
76.93656275940698
 20
-121.2039669141436
 30
0.0
 10
76.91726581545484
 20
-121.2039669141436
 30
0.0
 10
76.90142609363673
 20
-121.1881271919253
 30
0.0
 10
76.90142609363673
 20
-121.1681599697078
 30
0.0
 10
76.90142609363673
 20
-121.1488630252683
 30
0.0
 10
76.91726581545484
 20
-121.1329880252723
 30
0.0
 10
76.93656275940698
 20
-121.1329880252723
 30
0.0
 10
76.9565299811198
 20
-121.1329880252723
 30
0.0
 10
76.97169942517723
 20
-121.1488630252683
 30
0.0
 10
76.97169942517723
 20
-121.1681599697078
 30
0.0
  0
POLYLINE
  5
227
330
1F
100
AcDbEntity
  8
_U+30EC_U+30A4_U+30E4_U+30FC 1
 62
   179
420
  2234388
370
     9
100
AcDb2dPolyline
 66
     1
 10
0.0
 20
0.0
 30
0.0
  0
VERTEX
  5
228
330
227
100
AcDbEntity
  8
_U+30EC_U+30A4_U+30E4_U+30FC 1
 62
   179
420
  2234388
370
     9
100
AcDbVertex
100
AcDb2dVertex
 10
76.93656275940698
 20
-135.6699371883046
 30
0.0
  0
VERTEX
  5
229
330
227
100
AcDbEntity
  8
_U+30EC_U+30A4_U+30E4_U+30FC 1
 62
   179
420
  2234388
370
     9
100
AcDbVertex
100
AcDb2dVertex
 10
76.93656275940698
 20
-122.6681358026663
 30
0.0
  0
SEQEND
  5
22A
330
227
100
AcDbEntity
  8
_U+30EC_U+30A4_U+30E4_U+30FC 1
 62
   179
420
  2234388
370
     9
  0
POLYLINE
  5
22B
330
1F
100
AcDbEntity
  8
_U+30EC_U+30A4_U+30E4_U+30FC 1
 62
   179
420
  2234388
370
     9
100
AcDb2dPolyline
 66
     1
 10
0.0
 20
0.0
 30
0.0
  0
VERTEX
  5
22C
330
22B
100
AcDbEntity
  8
_U+30EC_U+30A4_U+30E4_U+30FC 1
 62
   179
420
  2234388
370
     9
100
AcDbVertex
100
AcDb2dVertex
 10
78.39660411104711
 20
-135.6699371883046
 30
0.0
  0
VERTEX
  5
22D
330
22B
100
AcDbEntity
  8
_U+30EC_U+30A4_U+30E4_U+30FC 1
 62
   179
420
  2234388
370
     9
100
AcDbVertex
100
AcDb2dVertex
 10
75.93679056269107
 20
-135.6699371883046
 30
0.0
  0
SEQEND
  5
22E
330
22B
100
AcDbEntity
  8
_U+30EC_U+30A4_U+30E4_U+30FC 1
 62
   179
420
  2234388
370
     9
  0
POLYLINE
  5
22F
330
1F
100
AcDbEntity
  8
_U+30EC_U+30A4_U+30E4_U+30FC 1
 62
   179
420
  2234388
370
     9
100
AcDb2dPolyline
 66
     1
 10
0.0
 20
0.0
 30
0.0
  0
VERTEX
  5
230
330
22F
100
AcDbEntity
  8
_U+30EC_U+30A4_U+30E4_U+30FC 1
 62
   179
420
  2234388
370
     9
100
AcDbVertex
100
AcDb2dVertex
 10
85.48592031907248
 20
-122.6681358026663
 30
0.0
  0
VERTEX
  5
231
330
22F
100
AcDbEntity
  8
_U+30EC_U+30A4_U+30E4_U+30FC 1
 62
   179
420
  2234388
370
     9
100
AcDbVertex
100
AcDb2dVertex
 10
75.93679056269107
 20
-122.6681358026663
 30
0.0
  0
SEQEND
  5
232
330
22F
100
AcDbEntity
  8
_U+30EC_U+30A4_U+30E4_U+30FC 1
 62
   179
420
  2234388
370
     9
  0
INSERT
  5
234
330
1F
100
AcDbEntity
  8
_U+30EC_U+30A4_U+30E4_U+30FC 1
100
AcDbBlockReference
  2
block 12
 10
0.0
 20
0.0
 30
0.0
  0
SPLINE
  5
23B
330
1F
100
AcDbEntity
  8
_U+30EC_U+30A4_U+30E4_U+30FC 1
 62
   179
420
  2234388
370
    25
100
AcDbSpline
210
0.0
220
0.0
230
1.0
 70
    11
 71
     3
 72
    17
 73
    13
 74
     0
 42
0.0000000001
 43
0.0000000001
 12
1.0
 22
0.0
 32
0.0
 13
1.0
 23
0.0
 33
0.0
 40
0.0
 40
0.0
 40
0.0
 40
0.0
 40
1.0
 40
1.0
 40
1.0
 40
2.0
 40
2.0
 40
2.0
 40
3.0
 40
3.0
 40
3.0
 40
4.0
 40
4.0
 40
4.0
 40
4.0
 10
79.56101769245156
 20
-135.6699371883046
 30
0.0
 10
79.56101769245156
 20
-135.6892341327444
 30
0.0
 10
79.54517797063345
 20
-135.7050738549629
 30
0.0
 10
79.5258810266813
 20
-135.7050738549629
 30
0.0
 10
79.50591380496849
 20
-135.7050738549629
 30
0.0
 10
79.49007408315038
 20
-135.6892341327444
 30
0.0
 10
79.49007408315038
 20
-135.6699371883046
 30
0.0
 10
79.49007408315038
 20
-135.6499346883099
 30
0.0
 10
79.50591380496849
 20
-135.6348005216468
 30
0.0
 10
79.5258810266813
 20
-135.6348005216468
 30
0.0
 10
79.54517797063345
 20
-135.6348005216468
 30
0.0
 10
79.56101769245156
 20
-135.6499346883099
 30
0.0
 10
79.56101769245156
 20
-135.6699371883046
 30
0.0
  0
SPLINE
  5
23C
330
1F
100
AcDbEntity
  8
_U+30EC_U+30A4_U+30E4_U+30FC 1
 62
   179
420
  2234388
370
    25
100
AcDbSpline
210
0.0
220
0.0
230
1.0
 70
    11
 71
     3
 72
    17
 73
    13
 74
     0
 42
0.0000000001
 43
0.0000000001
 12
1.0
 22
0.0
 32
0.0
 13
1.0
 23
0.0
 33
0.0
 40
0.0
 40
0.0
 40
0.0
 40
0.0
 40
1.0
 40
1.0
 40
1.0
 40
2.0
 40
2.0
 40
2.0
 40
3.0
 40
3.0
 40
3.0
 40
4.0
 40
4.0
 40
4.0
 40
4.0
 10
88.06077469782691
 20
-122.6681358026663
 30
0.0
 10
88.06077469782691
 20
-122.6881030248834
 30
0.0
 10
88.0449349760088
 20
-122.7039780248795
 30
0.0
 10
88.02563803205666
 20
-122.7039780248795
 30
0.0
 10
88.00634108810452
 20
-122.7039780248795
 30
0.0
 10
87.99050136628641
 20
-122.6881030248834
 30
0.0
 10
87.99050136628641
 20
-122.6681358026663
 30
0.0
 10
87.99050136628641
 20
-122.6488388582267
 30
0.0
 10
88.00634108810452
 20
-122.6329991360085
 30
0.0
 10
88.02563803205666
 20
-122.6329991360085
 30
0.0
 10
88.0449349760088
 20
-122.6329991360085
 30
0.0
 10
88.06077469782691
 20
-122.6488388582267
 30
0.0
 10
88.06077469782691
 20
-122.6681358026663
 30
0.0
  0
SPLINE
  5
23D
330
1F
100
AcDbEntity
  8
_U+30EC_U+30A4_U+30E4_U+30FC 1
 62
   179
420
  2234388
370
     9
100
AcDbSpline
210
0.0
220
0.0
230
1.0
 70
    11
 71
     3
 72
    17
 73
    13
 74
     0
 42
0.0000000001
 43
0.0000000001
 12
1.0
 22
0.0
 32
0.0
 13
1.0
 23
0.0
 33
0.0
 40
0.0
 40
0.0
 40
0.0
 40
0.0
 40
1.0
 40
1.0
 40
1.0
 40
2.0
 40
2.0
 40
2.0
 40
3.0
 40
3.0
 40
3.0
 40
4.0
 40
4.0
 40
4.0
 40
4.0
 10
76.97169942517723
 20
-122.6681358026663
 30
0.0
 10
76.97169942517723
 20
-122.6881030248834
 30
0.0
 10
76.9565299811198
 20
-122.7039780248795
 30
0.0
 10
76.93656275940698
 20
-122.7039780248795
 30
0.0
 10
76.91726581545484
 20
-122.7039780248795
 30
0.0
 10
76.90142609363673
 20
-122.6881030248834
 30
0.0
 10
76.90142609363673
 20
-122.6681358026663
 30
0.0
 10
76.90142609363673
 20
-122.6488388582267
 30
0.0
 10
76.91726581545484
 20
-122.6329991360085
 30
0.0
 10
76.93656275940698
 20
-122.6329991360085
 30
0.0
 10
76.9565299811198
 20
-122.6329991360085
 30
0.0
 10
76.97169942517723
 20
-122.6488388582267
 30
0.0
 10
76.97169942517723
 20
-122.6681358026663
 30
0.0
  0
POLYLINE
  5
23E
330
1F
100
AcDbEntity
  8
_U+30EC_U+30A4_U+30E4_U+30FC 1
 62
   179
420
  2234388
370
     9
100
AcDb2dPolyline
 66
     1
 10
0.0
 20
0.0
 30
0.0
  0
VERTEX
  5
23F
330
23E
100
AcDbEntity
  8
_U+30EC_U+30A4_U+30E4_U+30FC 1
 62
   179
420
  2234388
370
     9
100
AcDbVertex
100
AcDb2dVertex
 10
105.3200037019517
 20
-125.1689421909299
 30
0.0
  0
VERTEX
  5
240
330
23E
100
AcDbEntity
  8
_U+30EC_U+30A4_U+30E4_U+30FC 1
 62
   179
420
  2234388
370
     9
100
AcDbVertex
100
AcDb2dVertex
 10
105.3200037019517
 20
-138.1696852432352
 30
0.0
  0
SEQEND
  5
241
330
23E
100
AcDbEntity
  8
_U+30EC_U+30A4_U+30E4_U+30FC 1
 62
   179
420
  2234388
370
     9
  0
POLYLINE
  5
242
330
1F
100
AcDbEntity
  8
_U+30EC_U+30A4_U+30E4_U+30FC 1
 62
   179
420
  2234388
370
     9
100
AcDb2dPolyline
 66
     1
 10
0.0
 20
0.0
 30
0.0
  0
VERTEX
  5
243
330
242
100
AcDbEntity
  8
_U+30EC_U+30A4_U+30E4_U+30FC 1
 62
   179
420
  2234388
370
     9
100
AcDbVertex
100
AcDb2dVertex
 10
98.85976081121072
 20
-138.1696852432352
 30
0.0
  0
VERTEX
  5
244
330
242
100
AcDbEntity
  8
_U+30EC_U+30A4_U+30E4_U+30FC 1
 62
   179
420
  2234388
370
     9
100
AcDbVertex
100
AcDb2dVertex
 10
106.3197758986677
 20
-138.1696852432352
 30
0.0
  0
SEQEND
  5
245
330
242
100
AcDbEntity
  8
_U+30EC_U+30A4_U+30E4_U+30FC 1
 62
   179
420
  2234388
370
     9
  0
INSERT
  5
247
330
1F
100
AcDbEntity
  8
_U+30EC_U+30A4_U+30E4_U+30FC 1
100
AcDbBlockReference
  2
block 13
 10
0.0
 20
0.0
 30
0.0
  0
SPLINE
  5
24E
330
1F
100
AcDbEntity
  8
_U+30EC_U+30A4_U+30E4_U+30FC 1
 62
   179
420
  2234388
370
    25
100
AcDbSpline
210
0.0
220
0.0
230
1.0
 70
    11
 71
     3
 72
    17
 73
    13
 74
     0
 42
0.0000000001
 43
0.0000000001
 12
1.0
 22
0.0
 32
0.0
 13
1.0
 23
0.0
 33
0.0
 40
0.0
 40
0.0
 40
0.0
 40
0.0
 40
1.0
 40
1.0
 40
1.0
 40
2.0
 40
2.0
 40
2.0
 40
3.0
 40
3.0
 40
3.0
 40
4.0
 40
4.0
 40
4.0
 40
4.0
 10
102.060936840653
 20
-125.1689421909299
 30
0.0
 10
102.060936840653
 20
-125.1882391353697
 30
0.0
 10
102.0450971188349
 20
-125.2040788575879
 30
0.0
 10
102.0258027522714
 20
-125.2040788575879
 30
0.0
 10
102.00583295317
 20
-125.2040788575879
 30
0.0
 10
101.9906635091125
 20
-125.1882391353697
 30
0.0
 10
101.9906635091125
 20
-125.1689421909299
 30
0.0
 10
101.9906635091125
 20
-125.1489396909351
 30
0.0
 10
102.00583295317
 20
-125.1338055242721
 30
0.0
 10
102.0258027522714
 20
-125.1338055242721
 30
0.0
 10
102.0450971188349
 20
-125.1338055242721
 30
0.0
 10
102.060936840653
 20
-125.1489396909351
 30
0.0
 10
102.060936840653
 20
-125.1689421909299
 30
0.0
  0
SPLINE
  5
24F
330
1F
100
AcDbEntity
  8
_U+30EC_U+30A4_U+30E4_U+30FC 1
 62
   179
420
  2234388
370
    25
100
AcDbSpline
210
0.0
220
0.0
230
1.0
 70
    11
 71
     3
 72
    17
 73
    13
 74
     0
 42
0.0000000001
 43
0.0000000001
 12
1.0
 22
0.0
 32
0.0
 13
1.0
 23
0.0
 33
0.0
 40
0.0
 40
0.0
 40
0.0
 40
0.0
 40
1.0
 40
1.0
 40
1.0
 40
2.0
 40
2.0
 40
2.0
 40
3.0
 40
3.0
 40
3.0
 40
4.0
 40
4.0
 40
4.0
 40
4.0
 10
97.06073530155213
 20
-138.1696852432352
 30
0.0
 10
97.06073530155213
 20
-138.188982187675
 30
0.0
 10
97.044895579734
 20
-138.2048219098929
 30
0.0
 10
97.02559863578186
 20
-138.2048219098929
 30
0.0
 10
97.00630169182973
 20
-138.2048219098929
 30
0.0
 10
96.99046197001161
 20
-138.188982187675
 30
0.0
 10
96.99046197001161
 20
-138.1696852432352
 30
0.0
 10
96.99046197001161
 20
-138.150388298796
 30
0.0
 10
97.00630169182973
 20
-138.1345485765775
 30
0.0
 10
97.02559863578186
 20
-138.1345485765775
 30
0.0
 10
97.044895579734
 20
-138.1345485765775
 30
0.0
 10
97.06073530155213
 20
-138.150388298796
 30
0.0
 10
97.06073530155213
 20
-138.1696852432352
 30
0.0
  0
SPLINE
  5
250
330
1F
100
AcDbEntity
  8
_U+30EC_U+30A4_U+30E4_U+30FC 1
 62
   179
420
  2234388
370
     9
100
AcDbSpline
210
0.0
220
0.0
230
1.0
 70
    11
 71
     3
 72
    17
 73
    13
 74
     0
 42
0.0000000001
 43
0.0000000001
 12
1.0
 22
0.0
 32
0.0
 13
1.0
 23
0.0
 33
0.0
 40
0.0
 40
0.0
 40
0.0
 40
0.0
 40
1.0
 40
1.0
 40
1.0
 40
2.0
 40
2.0
 40
2.0
 40
3.0
 40
3.0
 40
3.0
 40
4.0
 40
4.0
 40
4.0
 40
4.0
 10
105.355140367722
 20
-138.1696852432352
 30
0.0
 10
105.355140367722
 20
-138.188982187675
 30
0.0
 10
105.3393006459039
 20
-138.2048219098929
 30
0.0
 10
105.3200037019517
 20
-138.2048219098929
 30
0.0
 10
105.3007067579996
 20
-138.2048219098929
 30
0.0
 10
105.2848670361815
 20
-138.188982187675
 30
0.0
 10
105.2848670361815
 20
-138.1696852432352
 30
0.0
 10
105.2848670361815
 20
-138.150388298796
 30
0.0
 10
105.3007067579996
 20
-138.1345485765775
 30
0.0
 10
105.3200037019517
 20
-138.1345485765775
 30
0.0
 10
105.3393006459039
 20
-138.1345485765775
 30
0.0
 10
105.355140367722
 20
-138.150388298796
 30
0.0
 10
105.355140367722
 20
-138.1696852432352
 30
0.0
  0
POLYLINE
  5
251
330
1F
100
AcDbEntity
  8
_U+30EC_U+30A4_U+30E4_U+30FC 1
 62
   179
420
  2234388
370
     9
100
AcDb2dPolyline
 66
     1
 10
0.0
 20
0.0
 30
0.0
  0
VERTEX
  5
252
330
251
100
AcDbEntity
  8
_U+30EC_U+30A4_U+30E4_U+30FC 1
 62
   179
420
  2234388
370
     9
100
AcDbVertex
100
AcDb2dVertex
 10
90.04169242506727
 20
-135.669231632749
 30
0.0
  0
VERTEX
  5
253
330
251
100
AcDbEntity
  8
_U+30EC_U+30A4_U+30E4_U+30FC 1
 62
   179
420
  2234388
370
     9
100
AcDbVertex
100
AcDb2dVertex
 10
87.33729804961767
 20
-135.669231632749
 30
0.0
  0
VERTEX
  5
254
330
251
100
AcDbEntity
  8
_U+30EC_U+30A4_U+30E4_U+30FC 1
 62
   179
420
  2234388
370
     9
100
AcDbVertex
100
AcDb2dVertex
 10
87.33729804961767
 20
-137.0810482990629
 30
0.0
  0
SEQEND
  5
255
330
251
100
AcDbEntity
  8
_U+30EC_U+30A4_U+30E4_U+30FC 1
 62
   179
420
  2234388
370
     9
  0
POLYLINE
  5
256
330
1F
100
AcDbEntity
  8
_U+30EC_U+30A4_U+30E4_U+30FC 1
 62
   179
420
  2234388
370
     9
100
AcDb2dPolyline
 66
     1
 10
0.0
 20
0.0
 30
0.0
  0
VERTEX
  5
257
330
256
100
AcDbEntity
  8
_U+30EC_U+30A4_U+30E4_U+30FC 1
 62
   179
420
  2234388
370
     9
100
AcDbVertex
100
AcDb2dVertex
 10
82.16345929272441
 20
-132.6120594112914
 30
0.0
  0
VERTEX
  5
258
330
256
100
AcDbEntity
  8
_U+30EC_U+30A4_U+30E4_U+30FC 1
 62
   179
420
  2234388
370
     9
100
AcDbVertex
100
AcDb2dVertex
 10
85.80835919973526
 20
-132.6120594112914
 30
0.0
  0
VERTEX
  5
259
330
256
100
AcDbEntity
  8
_U+30EC_U+30A4_U+30E4_U+30FC 1
 62
   179
420
  2234388
370
     9
100
AcDbVertex
100
AcDb2dVertex
 10
87.33729804961767
 20
-136.3747871881282
 30
0.0
  0
SEQEND
  5
25A
330
256
100
AcDbEntity
  8
_U+30EC_U+30A4_U+30E4_U+30FC 1
 62
   179
420
  2234388
370
     9
  0
ENDSEC
  0
SECTION
  2
OBJECTS
  0
DICTIONARY
  5
C
330
0
100
AcDbDictionary
281
     1
  3
ACAD_GROUP
350
D
  3
ACAD_LAYOUT
350
1A
  3
ACAD_MATERIAL
350
3B
  3
ACAD_MLEADERSTYLE
350
25C
  3
ACAD_MLINESTYLE
350
17
  3
ACAD_PLOTSETTINGS
350
19
  3
ACAD_PLOTSTYLENAME
350
E
  3
ACAD_TABLESTYLE
350
25B
  3
ACAD_VISUALSTYLE
350
2A
  0
SUN
  5
3F
330
29
100
AcDbSun
 90
        1
290
     0
 63
     7
421
 16777215
 40
1.0
291
     1
 91
  2455826
 92
 54000000
292
     0
 70
     2
 71
   256
280
     1
  0
DICTIONARY
  5
D
102
{ACAD_REACTORS
330
C
102
}
330
C
100
AcDbDictionary
281
     1
  0
DICTIONARY
  5
1A
102
{ACAD_REACTORS
330
C
102
}
330
C
100
AcDbDictionary
281
     1
  3
Layout1
350
1E
  3
Layout2
350
26
  3
Model
350
22
  0
DICTIONARY
  5
3B
102
{ACAD_REACTORS
330
C
102
}
330
C
100
AcDbDictionary
281
     1
  3
ByBlock
350
3D
  3
ByLayer
350
3C
  3
Global
350
3E
  0
DICTIONARY
  5
25C
102
{ACAD_REACTORS
330
C
102
}
330
C
100
AcDbDictionary
281
     1
  0
DICTIONARY
  5
17
102
{ACAD_REACTORS
330
C
102
}
330
C
100
AcDbDictionary
281
     1
  3
Standard
350
18
  0
DICTIONARY
  5
19
102
{ACAD_REACTORS
330
C
102
}
330
C
100
AcDbDictionary
281
     1
  0
ACDBDICTIONARYWDFLT
  5
E
102
{ACAD_REACTORS
330
C
102
}
330
C
100
AcDbDictionary
281
     1
  3
Normal
350
F
100
AcDbDictionaryWithDefault
340
F
  0
DICTIONARY
  5
25B
102
{ACAD_REACTORS
330
C
102
}
330
C
100
AcDbDictionary
281
     1
  0
DICTIONARY
  5
2A
102
{ACAD_REACTORS
330
C
102
}
330
C
100
AcDbDictionary
281
     1
  3
2dWireframe
350
2F
  3
3D Hidden
350
31
  3
3dWireframe
350
30
  3
Basic
350
32
  3
Brighten
350
36
  3
ColorChange
350
3A
  3
Conceptual
350
34
  3
Dim
350
35
  3
Facepattern
350
39
  3
Flat
350
2B
  3
FlatWithEdges
350
2C
  3
Gouraud
350
2D
  3
GouraudWithEdges
350
2E
  3
Linepattern
350
38
  3
Realistic
350
33
  3
Thicken
350
37
  0
LAYOUT
  5
1E
102
{ACAD_REACTORS
330
1A
102
}
330
1A
100
AcDbPlotSettings
  1

  2
none_device
  4

  6

 40
0.0
 41
0.0
 42
0.0
 43
0.0
 44
0.0
 45
0.0
 46
0.0
 47
0.0
 48
0.0
 49
0.0
140
0.0
141
0.0
142
1.0
143
1.0
 70
   688
 72
     0
 73
     0
 74
     5
  7

 75
    16
 76
     0
 77
     2
 78
   300
147
1.0
148
0.0
149
0.0
100
AcDbLayout
  1
Layout1
 70
     1
 71
     1
 10
0.0
 20
0.0
 11
12.0
 21
9.0
 12
0.0
 22
0.0
 32
0.0
 14
1.000000000000000E+20
 24
1.000000000000000E+20
 34
1.000000000000000E+20
 15
-1.000000000000000E+20
 25
-1.000000000000000E+20
 35
-1.000000000000000E+20
146
0.0
 13
0.0
 23
0.0
 33
0.0
 16
1.0
 26
0.0
 36
0.0
 17
0.0
 27
1.0
 37
0.0
 76
     0
330
1B
  0
LAYOUT
  5
26
102
{ACAD_REACTORS
330
1A
102
}
330
1A
100
AcDbPlotSettings
  1

  2
none_device
  4

  6

 40
0.0
 41
0.0
 42
0.0
 43
0.0
 44
0.0
 45
0.0
 46
0.0
 47
0.0
 48
0.0
 49
0.0
140
0.0
141
0.0
142
1.0
143
1.0
 70
   688
 72
     0
 73
     0
 74
     5
  7

 75
    16
 76
     0
 77
     2
 78
   300
147
1.0
148
0.0
149
0.0
100
AcDbLayout
  1
Layout2
 70
     1
 71
     2
 10
0.0
 20
0.0
 11
0.0
 21
0.0
 12
0.0
 22
0.0
 32
0.0
 14
0.0
 24
0.0
 34
0.0
 15
0.0
 25
0.0
 35
0.0
146
0.0
 13
0.0
 23
0.0
 33
0.0
 16
1.0
 26
0.0
 36
0.0
 17
0.0
 27
1.0
 37
0.0
 76
     0
330
23
  0
LAYOUT
  5
22
102
{ACAD_REACTORS
330
1A
102
}
330
1A
100
AcDbPlotSettings
  1

  2
none_device
  4

  6

 40
0.0
 41
0.0
 42
0.0
 43
0.0
 44
0.0
 45
0.0
 46
0.0
 47
0.0
 48
0.0
 49
0.0
140
0.0
141
0.0
142
1.0
143
1.0
 70
  1712
 72
     0
 73
     0
 74
     0
  7

 75
     0
 76
     0
 77
     2
 78
   300
147
1.0
148
0.0
149
0.0
100
AcDbLayout
  1
Model
 70
     1
 71
     0
 10
0.0
 20
0.0
 11
12.0
 21
9.0
 12
0.0
 22
0.0
 32
0.0
 14
1.000000000000000E+20
 24
1.000000000000000E+20
 34
1.000000000000000E+20
 15
-1.000000000000000E+20
 25
-1.000000000000000E+20
 35
-1.000000000000000E+20
146
0.0
 13
0.0
 23
0.0
 33
0.0
 16
1.0
 26
0.0
 36
0.0
 17
0.0
 27
1.0
 37
0.0
 76
     0
330
1F
331
29
  0
MATERIAL
  5
3D
102
{ACAD_REACTORS
330
3B
102
}
330
3B
100
AcDbMaterial
  1
ByBlock
 72
     1
 94
      127
  0
MATERIAL
  5
3C
102
{ACAD_REACTORS
330
3B
102
}
330
3B
100
AcDbMaterial
  1
ByLayer
 72
     1
 94
      127
  0
MATERIAL
  5
3E
102
{ACAD_REACTORS
330
3B
102
}
330
3B
100
AcDbMaterial
  1
Global
 72
     1
 94
      127
  0
MLINESTYLE
  5
18
102
{ACAD_REACTORS
330
17
102
}
330
17
100
AcDbMlineStyle
  2
Standard
 70
     0
  3

 62
   256
 51
90.0
 52
90.0
 71
     2
 49
0.5
 62
   256
  6
BYLAYER
 49
-0.5
 62
   256
  6
BYLAYER
  0
ACDBPLACEHOLDER
  5
F
102
{ACAD_REACTORS
330
E
102
}
330
E
  0
VISUALSTYLE
  5
2F
102
{ACAD_REACTORS
330
2A
102
}
330
2A
100
AcDbVisualStyle
  2
2dWireframe
 70
     4
177
     2
291
     0
 71
     0
176
     1
 72
     2
176
     1
 73
     0
176
     1
 90
        0
176
     1
 40
-0.6
176
     1
 41
-30.0
176
     1
 62
     5
 63
     7
421
 16777215
176
     1
 74
     1
176
     1
 91
        4
176
     1
 64
     7
176
     1
 65
   257
176
     1
 75
     1
176
     1
175
     1
176
     1
 42
1.0
176
     1
 92
        0
176
     1
 66
   257
176
     1
 43
1.0
176
     1
 76
     1
176
     1
 77
     6
176
     1
 78
     2
176
     1
 67
     7
176
     1
 79
     5
176
     1
170
     0
176
     1
171
     0
176
     1
290
     0
176
     1
 93
        1
176
     1
 44
0.0
176
     1
173
     0
176
     1
  0
VISUALSTYLE
  5
31
102
{ACAD_REACTORS
330
2A
102
}
330
2A
100
AcDbVisualStyle
  2
3D Hidden
 70
     6
177
     2
291
     0
 71
     1
176
     1
 72
     2
176
     1
 73
     2
176
     1
 90
        0
176
     1
 40
-0.6
176
     1
 41
-30.0
176
     1
 62
     5
 63
     7
421
 16777215
176
     1
 74
     2
176
     1
 91
        2
176
     1
 64
     7
176
     1
 65
   257
176
     1
 75
     2
176
     1
175
     1
176
     1
 42
40.0
176
     1
 92
        0
176
     1
 66
   257
176
     1
 43
1.0
176
     1
 76
     1
176
     1
 77
     6
176
     1
 78
     2
176
     1
 67
     7
176
     1
 79
     3
176
     1
170
     0
176
     1
171
     0
176
     1
290
     0
176
     1
 93
        1
176
     1
 44
0.0
176
     1
173
     0
176
     1
  0
VISUALSTYLE
  5
30
102
{ACAD_REACTORS
330
2A
102
}
330
2A
100
AcDbVisualStyle
  2
3dWireframe
 70
     5
177
     2
291
     0
 71
     0
176
     1
 72
     2
176
     1
 73
     0
176
     1
 90
        0
176
     1
 40
-0.6
176
     1
 41
-30.0
176
     1
 62
     5
 63
     7
421
 16777215
176
     1
 74
     1
176
     1
 91
        4
176
     1
 64
     7
176
     1
 65
   257
176
     1
 75
     1
176
     1
175
     1
176
     1
 42
1.0
176
     1
 92
        0
176
     1
 66
   257
176
     1
 43
1.0
176
     1
 76
     1
176
     1
 77
     6
176
     1
 78
     2
176
     1
 67
     7
176
     1
 79
     5
176
     1
170
     0
176
     1
171
     0
176
     1
290
     0
176
     1
 93
        1
176
     1
 44
0.0
176
     1
173
     0
176
     1
  0
VISUALSTYLE
  5
32
102
{ACAD_REACTORS
330
2A
102
}
330
2A
100
AcDbVisualStyle
  2
Basic
 70
     7
177
     2
291
     1
 71
     1
176
     1
 72
     0
176
     1
 73
     1
176
     1
 90
        0
176
     1
 40
-0.6
176
     1
 41
-30.0
176
     1
 62
     5
 63
     7
421
 16777215
176
     1
 74
     0
176
     1
 91
        4
176
     1
 64
     7
176
     1
 65
   257
176
     1
 75
     1
176
     1
175
     1
176
     1
 42
1.0
176
     1
 92
        8
176
     1
 66
     7
176
     1
 43
1.0
176
     1
 76
     1
176
     1
 77
     6
176
     1
 78
     2
176
     1
 67
     7
176
     1
 79
     5
176
     1
170
     0
176
     1
171
     0
176
     1
290
     0
176
     1
 93
        1
176
     1
 44
0.0
176
     1
173
     0
176
     1
  0
VISUALSTYLE
  5
36
102
{ACAD_REACTORS
330
2A
102
}
330
2A
100
AcDbVisualStyle
  2
Brighten
 70
    12
177
     2
291
     1
 71
     2
176
     1
 72
     2
176
     1
 73
     0
176
     1
 90
        0
176
     1
 40
-0.6
176
     1
 41
-30.0
176
     1
 62
     5
 63
     7
421
 16777215
176
     1
 74
     1
176
     1
 91
        4
176
     1
 64
     7
176
     1
 65
   257
176
     1
 75
     1
176
     1
175
     1
176
     1
 42
1.0
176
     1
 92
        8
176
     1
 66
     7
176
     1
 43
1.0
176
     1
 76
     1
176
     1
 77
     6
176
     1
 78
     2
176
     1
 67
     7
176
     1
 79
     5
176
     1
170
     0
176
     1
171
     0
176
     1
290
     0
176
     1
 93
        1
176
     1
 44
50.0
176
     1
173
     0
176
     1
  0
VISUALSTYLE
  5
3A
102
{ACAD_REACTORS
330
2A
102
}
330
2A
100
AcDbVisualStyle
  2
ColorChange
 70
    16
177
     2
291
     1
 71
     2
176
     1
 72
     2
176
     1
 73
     3
176
     1
 90
        0
176
     1
 40
-0.6
176
     1
 41
-30.0
176
     1
 62
     5
 63
     8
421
  8421504
176
     1
 74
     1
176
     1
 91
        4
176
     1
 64
     7
176
     1
 65
   257
176
     1
 75
     1
176
     1
175
     1
176
     1
 42
1.0
176
     1
 92
        8
176
     1
 66
     8
424
  8421504
176
     1
 43
1.0
176
     1
 76
     1
176
     1
 77
     6
176
     1
 78
     2
176
     1
 67
     7
176
     1
 79
     5
176
     1
170
     0
176
     1
171
     0
176
     1
290
     0
176
     1
 93
        1
176
     1
 44
0.0
176
     1
173
     0
176
     1
  0
VISUALSTYLE
  5
34
102
{ACAD_REACTORS
330
2A
102
}
330
2A
100
AcDbVisualStyle
  2
Conceptual
 70
     9
177
     2
291
     0
 71
     3
176
     1
 72
     2
176
     1
 73
     0
176
     1
 90
        0
176
     1
 40
-0.6
176
     1
 41
-30.0
176
     1
 62
     5
 63
     7
421
 16777215
176
     1
 74
     2
176
     1
 91
        2
176
     1
 64
     7
176
     1
 65
   257
176
     1
 75
     1
176
     1
175
     1
176
     1
 42
40.0
176
     1
 92
        8
176
     1
 66
     7
176
     1
 43
1.0
176
     1
 76
     1
176
     1
 77
     6
176
     1
 78
     2
176
     1
 67
     7
176
     1
 79
     3
176
     1
170
     0
176
     1
171
     0
176
     1
290
     0
176
     1
 93
        1
176
     1
 44
0.0
176
     1
173
     0
176
     1
  0
VISUALSTYLE
  5
35
102
{ACAD_REACTORS
330
2A
102
}
330
2A
100
AcDbVisualStyle
  2
Dim
 70
    11
177
     2
291
     1
 71
     2
176
     1
 72
     2
176
     1
 73
     0
176
     1
 90
        0
176
     1
 40
-0.6
176
     1
 41
-30.0
176
     1
 62
     5
 63
     7
421
 16777215
176
     1
 74
     1
176
     1
 91
        4
176
     1
 64
     7
176
     1
 65
   257
176
     1
 75
     1
176
     1
175
     1
176
     1
 42
1.0
176
     1
 92
        8
176
     1
 66
     7
176
     1
 43
1.0
176
     1
 76
     1
176
     1
 77
     6
176
     1
 78
     2
176
     1
 67
     7
176
     1
 79
     5
176
     1
170
     0
176
     1
171
     0
176
     1
290
     0
176
     1
 93
        1
176
     1
 44
-50.0
176
     1
173
     0
176
     1
  0
VISUALSTYLE
  5
39
102
{ACAD_REACTORS
330
2A
102
}
330
2A
100
AcDbVisualStyle
  2
Facepattern
 70
    15
177
     2
291
     1
 71
     2
176
     1
 72
     2
176
     1
 73
     0
176
     1
 90
        0
176
     1
 40
-0.6
176
     1
 41
-30.0
176
     1
 62
     5
 63
     7
421
 16777215
176
     1
 74
     1
176
     1
 91
        4
176
     1
 64
     7
176
     1
 65
   257
176
     1
 75
     1
176
     1
175
     1
176
     1
 42
1.0
176
     1
 92
        8
176
     1
 66
     7
176
     1
 43
1.0
176
     1
 76
     1
176
     1
 77
     6
176
     1
 78
     2
176
     1
 67
     7
176
     1
 79
     5
176
     1
170
     0
176
     1
171
     0
176
     1
290
     0
176
     1
 93
        1
176
     1
 44
0.0
176
     1
173
     0
176
     1
  0
VISUALSTYLE
  5
2B
102
{ACAD_REACTORS
330
2A
102
}
330
2A
100
AcDbVisualStyle
  2
Flat
 70
     0
177
     2
291
     1
 71
     2
176
     1
 72
     1
176
     1
 73
     1
176
     1
 90
        2
176
     1
 40
-0.6
176
     1
 41
30.0
176
     1
 62
     5
 63
     7
421
 16777215
176
     1
 74
     0
176
     1
 91
        4
176
     1
 64
     7
176
     1
 65
   257
176
     1
 75
     1
176
     1
175
     1
176
     1
 42
1.0
176
     1
 92
        8
176
     1
 66
     7
176
     1
 43
1.0
176
     1
 76
     1
176
     1
 77
     6
176
     1
 78
     2
176
     1
 67
     7
176
     1
 79
     5
176
     1
170
     0
176
     1
171
     0
176
     1
290
     0
176
     1
 93
       13
176
     1
 44
0.0
176
     1
173
     0
176
     1
  0
VISUALSTYLE
  5
2C
102
{ACAD_REACTORS
330
2A
102
}
330
2A
100
AcDbVisualStyle
  2
FlatWithEdges
 70
     1
177
     2
291
     1
 71
     2
176
     1
 72
     1
176
     1
 73
     1
176
     1
 90
        2
176
     1
 40
-0.6
176
     1
 41
30.0
176
     1
 62
     5
 63
     7
421
 16777215
176
     1
 74
     1
176
     1
 91
        4
176
     1
 64
     7
176
     1
 65
   257
176
     1
 75
     1
176
     1
175
     1
176
     1
 42
1.0
176
     1
 92
        0
176
     1
 66
   257
176
     1
 43
1.0
176
     1
 76
     1
176
     1
 77
     6
176
     1
 78
     2
176
     1
 67
     7
176
     1
 79
     5
176
     1
170
     0
176
     1
171
     0
176
     1
290
     0
176
     1
 93
       13
176
     1
 44
0.0
176
     1
173
     0
176
     1
  0
VISUALSTYLE
  5
2D
102
{ACAD_REACTORS
330
2A
102
}
330
2A
100
AcDbVisualStyle
  2
Gouraud
 70
     2
177
     2
291
     1
 71
     2
176
     1
 72
     2
176
     1
 73
     1
176
     1
 90
        2
176
     1
 40
-0.6
176
     1
 41
30.0
176
     1
 62
     5
 63
     7
421
 16777215
176
     1
 74
     0
176
     1
 91
        4
176
     1
 64
     7
176
     1
 65
   257
176
     1
 75
     1
176
     1
175
     1
176
     1
 42
1.0
176
     1
 92
        0
176
     1
 66
     7
176
     1
 43
1.0
176
     1
 76
     1
176
     1
 77
     6
176
     1
 78
     2
176
     1
 67
     7
176
     1
 79
     5
176
     1
170
     0
176
     1
171
     0
176
     1
290
     0
176
     1
 93
       13
176
     1
 44
0.0
176
     1
173
     0
176
     1
  0
VISUALSTYLE
  5
2E
102
{ACAD_REACTORS
330
2A
102
}
330
2A
100
AcDbVisualStyle
  2
GouraudWithEdges
 70
     3
177
     2
291
     1
 71
     2
176
     1
 72
     2
176
     1
 73
     1
176
     1
 90
        2
176
     1
 40
-0.6
176
     1
 41
30.0
176
     1
 62
     5
 63
     7
421
 16777215
176
     1
 74
     1
176
     1
 91
        4
176
     1
 64
     7
176
     1
 65
   257
176
     1
 75
     1
176
     1
175
     1
176
     1
 42
1.0
176
     1
 92
        0
176
     1
 66
   257
176
     1
 43
1.0
176
     1
 76
     1
176
     1
 77
     6
176
     1
 78
     2
176
     1
 67
     7
176
     1
 79
     5
176
     1
170
     0
176
     1
171
     0
176
     1
290
     0
176
     1
 93
       13
176
     1
 44
0.0
176
     1
173
     0
176
     1
  0
VISUALSTYLE
  5
38
102
{ACAD_REACTORS
330
2A
102
}
330
2A
100
AcDbVisualStyle
  2
Linepattern
 70
    14
177
     2
291
     1
 71
     2
176
     1
 72
     2
176
     1
 73
     0
176
     1
 90
        0
176
     1
 40
-0.6
176
     1
 41
-30.0
176
     1
 62
     5
 63
     7
421
 16777215
176
     1
 74
     1
176
     1
 91
        4
176
     1
 64
     7
176
     1
 65
   257
176
     1
 75
     7
176
     1
175
     7
176
     1
 42
1.0
176
     1
 92
        8
176
     1
 66
     7
176
     1
 43
1.0
176
     1
 76
     1
176
     1
 77
     6
176
     1
 78
     2
176
     1
 67
     7
176
     1
 79
     5
176
     1
170
     0
176
     1
171
     0
176
     1
290
     0
176
     1
 93
        1
176
     1
 44
0.0
176
     1
173
     0
176
     1
  0
VISUALSTYLE
  5
33
102
{ACAD_REACTORS
330
2A
102
}
330
2A
100
AcDbVisualStyle
  2
Realistic
 70
     8
177
     2
291
     0
 71
     2
176
     1
 72
     2
176
     1
 73
     0
176
     1
 90
        0
176
     1
 40
-0.6
176
     1
 41
-30.0
176
     1
 62
     5
 63
     7
421
 16777215
176
     1
 74
     1
176
     1
 91
        0
176
     1
 64
     7
176
     1
 65
   257
176
     1
 75
     1
176
     1
175
     1
176
     1
 42
1.0
176
     1
 92
        8
176
     1
 66
     8
424
  7895160
176
     1
 43
1.0
176
     1
 76
     1
176
     1
 77
     6
176
     1
 78
     2
176
     1
 67
     7
176
     1
 79
     5
176
     1
170
     0
176
     1
171
     0
176
     1
290
     0
176
     1
 93
       13
176
     1
 44
0.0
176
     1
173
     0
176
     1
  0
VISUALSTYLE
  5
37
102
{ACAD_REACTORS
330
2A
102
}
330
2A
100
AcDbVisualStyle
  2
Thicken
 70
    13
177
     2
291
     1
 71
     2
176
     1
 72
     2
176
     1
 73
     0
176
     1
 90
        0
176
     1
 40
-0.6
176
     1
 41
-30.0
176
     1
 62
     5
 63
     7
421
 16777215
176
     1
 74
     1
176
     1
 91
        4
176
     1
 64
     7
176
     1
 65
   257
176
     1
 75
     1
176
     1
175
     1
176
     1
 42
1.0
176
     1
 92
       12
176
     1
 66
     7
176
     1
 43
1.0
176
     1
 76
     1
176
     1
 77
     6
176
     1
 78
     2
176
     1
 67
     7
176
     1
 79
     5
176
     1
170
     0
176
     1
171
     0
176
     1
290
     0
176
     1
 93
        1
176
     1
 44
0.0
176
     1
173
     0
176
     1
  0
ENDSEC
  0
EOF
