  0
SECTION
  2
HEADER
  9
$ACADVER
  1
AC1024
  9
$ACADMAINTVER
 70
     6
  9
$DWGCODEPAGE
  3
UNDEFINED
  9
$INSBASE
 10
0.0
 20
0.0
 30
0.0
  9
$EXTMIN
 10
1.000000000000000E+20
 20
1.000000000000000E+20
 30
1.000000000000000E+20
  9
$EXTMAX
 10
-1.000000000000000E+20
 20
-1.000000000000000E+20
 30
-1.000000000000000E+20
  9
$LIMMIN
 10
0.0
 20
0.0
  9
$LIMMAX
 10
12.0
 20
9.0
  9
$ORTHOMODE
 70
     0
  9
$REGENMODE
 70
     1
  9
$FILLMODE
 70
     1
  9
$QTEXTMODE
 70
     0
  9
$MIRRTEXT
 70
     1
  9
$LTSCALE
 40
1.0
  9
$ATTMODE
 70
     1
  9
$TEXTSIZE
 40
0.2
  9
$TRACEWID
 40
0.05
  9
$TEXTSTYLE
  7
Standard
  9
$CLAYER
  8
0
  9
$CELTYPE
  6
ByLayer
  9
$CECOLOR
 62
   256
  9
$CELTSCALE
 40
1.0
  9
$DISPSILH
 70
     0
  9
$DIMSCALE
 40
1.0
  9
$DIMASZ
 40
0.18
  9
$DIMEXO
 40
0.0625
  9
$DIMDLI
 40
0.38
  9
$DIMRND
 40
0.0
  9
$DIMDLE
 40
0.0
  9
$DIMEXE
 40
0.18
  9
$DIMTP
 40
0.0
  9
$DIMTM
 40
0.0
  9
$DIMTXT
 40
0.18
  9
$DIMCEN
 40
0.09
  9
$DIMTSZ
 40
0.0
  9
$DIMTOL
 70
     0
  9
$DIMLIM
 70
     0
  9
$DIMTIH
 70
     1
  9
$DIMTOH
 70
     1
  9
$DIMSE1
 70
     0
  9
$DIMSE2
 70
     0
  9
$DIMTAD
 70
     0
  9
$DIMZIN
 70
     0
  9
$DIMBLK
  1

  9
$DIMASO
 70
     1
  9
$DIMSHO
 70
     1
  9
$DIMPOST
  1

  9
$DIMAPOST
  1

  9
$DIMALT
 70
     0
  9
$DIMALTD
 70
     2
  9
$DIMALTF
 40
25.4
  9
$DIMLFAC
 40
1.0
  9
$DIMTOFL
 70
     0
  9
$DIMTVP
 40
0.0
  9
$DIMTIX
 70
     0
  9
$DIMSOXD
 70
     0
  9
$DIMSAH
 70
     0
  9
$DIMBLK1
  1

  9
$DIMBLK2
  1

  9
$DIMSTYLE
  2
Standard
  9
$DIMCLRD
 70
     0
  9
$DIMCLRE
 70
     0
  9
$DIMCLRT
 70
     0
  9
$DIMTFAC
 40
1.0
  9
$DIMGAP
 40
0.09
  9
$DIMJUST
 70
     0
  9
$DIMSD1
 70
     0
  9
$DIMSD2
 70
     0
  9
$DIMTOLJ
 70
     1
  9
$DIMTZIN
 70
     0
  9
$DIMALTZ
 70
     0
  9
$DIMALTTZ
 70
     0
  9
$DIMUPT
 70
     0
  9
$DIMDEC
 70
     4
  9
$DIMTDEC
 70
     4
  9
$DIMALTU
 70
     2
  9
$DIMALTTD
 70
     2
  9
$DIMTXSTY
  7
Standard
  9
$DIMAUNIT
 70
     0
  9
$DIMADEC
 70
     0
  9
$DIMALTRND
 40
0.0
  9
$DIMAZIN
 70
     0
  9
$DIMDSEP
 70
    46
  9
$DIMATFIT
 70
     3
  9
$DIMFRAC
 70
     0
  9
$DIMLDRBLK
  1

  9
$DIMLUNIT
 70
     2
  9
$DIMLWD
 70
    -2
  9
$DIMLWE
 70
    -2
  9
$DIMTMOVE
 70
     0
  9
$DIMFXL
 40
1.0
  9
$DIMFXLON
 70
     0
  9
$DIMJOGANG
 40
0.7853981633974483
  9
$DIMTFILL
 70
     0
  9
$DIMTFILLCLR
 70
     0
  9
$DIMARCSYM
 70
     0
  9
$DIMLTYPE
  6

  9
$DIMLTEX1
  6

  9
$DIMLTEX2
  6

  9
$DIMTXTDIRECTION
 70
     0
  9
$LUNITS
 70
     2
  9
$LUPREC
 70
     4
  9
$SKETCHINC
 40
0.1
  9
$FILLETRAD
 40
0.5
  9
$AUNITS
 70
     0
  9
$AUPREC
 70
     0
  9
$MENU
  1
.
  9
$ELEVATION
 40
0.0
  9
$PELEVATION
 40
0.0
  9
$THICKNESS
 40
0.0
  9
$LIMCHECK
 70
     0
  9
$CHAMFERA
 40
0.5
  9
$CHAMFERB
 40
0.5
  9
$CHAMFERC
 40
1.0
  9
$CHAMFERD
 40
0.0
  9
$SKPOLY
 70
     0
  9
$TDCREATE
 40
2457917.627488426
  9
$TDUCREATE
 40
2457917.252488426
  9
$TDUPDATE
 40
2457917.627499988
  9
$TDUUPDATE
 40
2457917.2525
  9
$TDINDWG
 40
0.0000000116
  9
$TDUSRTIMER
 40
0.0000000116
  9
$USRTIMER
 70
     1
  9
$ANGBASE
 50
0.0
  9
$ANGDIR
 70
     0
  9
$PDMODE
 70
     0
  9
$PDSIZE
 40
0.0
  9
$PLINEWID
 40
0.0
  9
$SPLFRAME
 70
     0
  9
$SPLINETYPE
 70
     6
  9
$SPLINESEGS
 70
     8
  9
$HANDSEED
  5
13B
  9
$SURFTAB1
 70
     6
  9
$SURFTAB2
 70
     6
  9
$SURFTYPE
 70
     6
  9
$SURFU
 70
     6
  9
$SURFV
 70
     6
  9
$UCSBASE
  2

  9
$UCSNAME
  2

  9
$UCSORG
 10
0.0
 20
0.0
 30
0.0
  9
$UCSXDIR
 10
1.0
 20
0.0
 30
0.0
  9
$UCSYDIR
 10
0.0
 20
1.0
 30
0.0
  9
$UCSORTHOREF
  2

  9
$UCSORTHOVIEW
 70
     0
  9
$UCSORGTOP
 10
0.0
 20
0.0
 30
0.0
  9
$UCSORGBOTTOM
 10
0.0
 20
0.0
 30
0.0
  9
$UCSORGLEFT
 10
0.0
 20
0.0
 30
0.0
  9
$UCSORGRIGHT
 10
0.0
 20
0.0
 30
0.0
  9
$UCSORGFRONT
 10
0.0
 20
0.0
 30
0.0
  9
$UCSORGBACK
 10
0.0
 20
0.0
 30
0.0
  9
$PUCSBASE
  2

  9
$PUCSNAME
  2

  9
$PUCSORG
 10
0.0
 20
0.0
 30
0.0
  9
$PUCSXDIR
 10
1.0
 20
0.0
 30
0.0
  9
$PUCSYDIR
 10
0.0
 20
1.0
 30
0.0
  9
$PUCSORTHOREF
  2

  9
$PUCSORTHOVIEW
 70
     0
  9
$PUCSORGTOP
 10
0.0
 20
0.0
 30
0.0
  9
$PUCSORGBOTTOM
 10
0.0
 20
0.0
 30
0.0
  9
$PUCSORGLEFT
 10
0.0
 20
0.0
 30
0.0
  9
$PUCSORGRIGHT
 10
0.0
 20
0.0
 30
0.0
  9
$PUCSORGFRONT
 10
0.0
 20
0.0
 30
0.0
  9
$PUCSORGBACK
 10
0.0
 20
0.0
 30
0.0
  9
$USERI1
 70
     0
  9
$USERI2
 70
     0
  9
$USERI3
 70
     0
  9
$USERI4
 70
     0
  9
$USERI5
 70
     0
  9
$USERR1
 40
0.0
  9
$USERR2
 40
0.0
  9
$USERR3
 40
0.0
  9
$USERR4
 40
0.0
  9
$USERR5
 40
0.0
  9
$WORLDVIEW
 70
     1
  9
$SHADEDGE
 70
     3
  9
$SHADEDIF
 70
    70
  9
$TILEMODE
 70
     1
  9
$MAXACTVP
 70
    64
  9
$PINSBASE
 10
0.0
 20
0.0
 30
0.0
  9
$PLIMCHECK
 70
     0
  9
$PEXTMIN
 10
1.000000000000000E+20
 20
1.000000000000000E+20
 30
1.000000000000000E+20
  9
$PEXTMAX
 10
-1.000000000000000E+20
 20
-1.000000000000000E+20
 30
-1.000000000000000E+20
  9
$PLIMMIN
 10
0.0
 20
0.0
  9
$PLIMMAX
 10
12.0
 20
9.0
  9
$UNITMODE
 70
     0
  9
$VISRETAIN
 70
     1
  9
$PLINEGEN
 70
     0
  9
$PSLTSCALE
 70
     1
  9
$TREEDEPTH
 70
  3020
  9
$CMLSTYLE
  2
Standard
  9
$CMLJUST
 70
     0
  9
$CMLSCALE
 40
1.0
  9
$PROXYGRAPHICS
 70
     1
  9
$MEASUREMENT
 70
     0
  9
$CELWEIGHT
370
    -1
  9
$ENDCAPS
280
     0
  9
$JOINSTYLE
280
     0
  9
$LWDISPLAY
290
     1
  9
$INSUNITS
 70
     1
  9
$HYPERLINKBASE
  1

  9
$STYLESHEET
  1

  9
$XEDIT
290
     1
  9
$CEPSNTYPE
380
     0
  9
$PSTYLEMODE
290
     1
  9
$FINGERPRINTGUID
  2
{E50250C9-3457-0B00-E05C-2BF06D970CE0}
  9
$VERSIONGUID
  2
{FAEB1C32-E019-11D5-929B-00C0DF256EC4}
  9
$EXTNAMES
290
     1
  9
$PSVPSCALE
 40
0.0
  9
$OLESTARTUP
290
     0
  9
$SORTENTS
280
   127
  9
$INDEXCTL
280
     0
  9
$HIDETEXT
280
     1
  9
$XCLIPFRAME
280
     2
  9
$HALOGAP
280
     0
  9
$OBSCOLOR
 70
   257
  9
$OBSLTYPE
280
     0
  9
$INTERSECTIONDISPLAY
280
     0
  9
$INTERSECTIONCOLOR
 70
   257
  9
$DIMASSOC
280
     2
  9
$PROJECTNAME
  1

  9
$CAMERADISPLAY
290
     0
  9
$LENSLENGTH
 40
50.0
  9
$CAMERAHEIGHT
 40
0.0
  9
$STEPSPERSEC
 40
2.0
  9
$STEPSIZE
 40
6.0
  9
$3DDWFPREC
 40
2.0
  9
$PSOLWIDTH
 40
0.25
  9
$PSOLHEIGHT
 40
4.0
  9
$LOFTANG1
 40
1.570796326794897
  9
$LOFTANG2
 40
1.570796326794897
  9
$LOFTMAG1
 40
0.0
  9
$LOFTMAG2
 40
0.0
  9
$LOFTPARAM
 70
     7
  9
$LOFTNORMALS
280
     1
  9
$LATITUDE
 40
37.795
  9
$LONGITUDE
 40
-122.394
  9
$NORTHDIRECTION
 40
0.0
  9
$TIMEZONE
 70
 -8000
  9
$LIGHTGLYPHDISPLAY
280
     1
  9
$TILEMODELIGHTSYNCH
280
     1
  9
$CMATERIAL
347
3C
  9
$SOLIDHIST
280
     1
  9
$SHOWHIST
280
     1
  9
$DWFFRAME
280
     2
  9
$DGNFRAME
280
     2
  9
$REALWORLDSCALE
290
     1
  9
$INTERFERECOLOR
 62
   256
  9
$CSHADOW
280
     0
  9
$SHADOWPLANELOCATION
 40
0.0
  0
ENDSEC
  0
SECTION
  2
CLASSES
  0
CLASS
  1
ACDBDICTIONARYWDFLT
  2
AcDbDictionaryWithDefault
  3
ObjectDBX Classes
 90
        0
 91
        4
280
     0
281
     0
  0
CLASS
  1
VISUALSTYLE
  2
AcDbVisualStyle
  3
ObjectDBX Classes
 90
     4095
 91
        4
280
     0
281
     0
  0
CLASS
  1
MATERIAL
  2
AcDbMaterial
  3
ObjectDBX Classes
 90
     1153
 91
        4
280
     0
281
     0
  0
CLASS
  1
SUN
  2
AcDbSun
  3
SCENEOE
 90
     1024
 91
        4
280
     0
281
     0
  0
ENDSEC
  0
SECTION
  2
TABLES
  0
TABLE
  2
VPORT
  5
8
330
0
100
AcDbSymbolTable
 70
     1
  0
VPORT
  5
29
330
8
100
AcDbSymbolTableRecord
100
AcDbViewportTableRecord
  2
*Active
 70
     0
 10
0.0
 20
0.0
 11
1.0
 21
1.0
 12
0.0
 22
0.0
 13
0.0
 23
0.0
 14
0.5
 24
0.5
 15
0.5
 25
0.5
 16
0.0
 26
0.0
 36
1.0
 17
91.00082462281999
 27
-128.4993055234307
 37
0.0
 40
256.9986110468615
 41
0.7081814508812795
 42
50.0
 43
0.0
 44
0.0
 50
0.0
 51
0.0
 71
     0
 72
   100
 73
     1
 74
     3
 75
     0
 76
     0
 77
     0
 78
     0
281
     0
 65
     1
110
0.0
120
0.0
130
0.0
111
1.0
121
0.0
131
0.0
112
0.0
122
1.0
132
0.0
 79
     0
146
0.0
 60
     3
 61
     5
292
     1
282
     1
141
0.0
142
0.0
 63
   250
361
3F
  0
ENDTAB
  0
TABLE
  2
LTYPE
  5
5
330
0
100
AcDbSymbolTable
 70
     1
  0
LTYPE
  5
14
330
5
100
AcDbSymbolTableRecord
100
AcDbLinetypeTableRecord
  2
ByBlock
 70
     0
  3

 72
    65
 73
     0
 40
0.0
  0
LTYPE
  5
15
330
5
100
AcDbSymbolTableRecord
100
AcDbLinetypeTableRecord
  2
ByLayer
 70
     0
  3

 72
    65
 73
     0
 40
0.0
  0
LTYPE
  5
16
330
5
100
AcDbSymbolTableRecord
100
AcDbLinetypeTableRecord
  2
Continuous
 70
     0
  3
Solid line
 72
    65
 73
     0
 40
0.0
  0
ENDTAB
  0
TABLE
  2
LAYER
  5
2
330
0
100
AcDbSymbolTable
 70
     2
  0
LAYER
  5
10
330
2
100
AcDbSymbolTableRecord
100
AcDbLayerTableRecord
  2
0
 70
     0
 62
     7
  6
Continuous
370
    -3
390
F
347
3E
  0
LAYER
  5
40
330
2
100
AcDbSymbolTableRecord
100
AcDbLayerTableRecord
  2
_U+30EC_U+30A4_U+30E4_U+30FC 1
 70
     0
 62
     7
  6
Continuous
370
    -3
390
F
347
3E
  0
ENDTAB
  0
TABLE
  2
STYLE
  5
3
330
0
100
AcDbSymbolTable
 70
     1
  0
STYLE
  5
11
330
3
100
AcDbSymbolTableRecord
100
AcDbTextStyleTableRecord
  2
Standard
 70
     0
 40
0.0
 41
1.0
 50
0.0
 71
     0
 42
0.2
  3
txt
  4

  0
ENDTAB
  0
TABLE
  2
VIEW
  5
6
330
0
100
AcDbSymbolTable
 70
     0
  0
ENDTAB
  0
TABLE
  2
UCS
  5
7
330
0
100
AcDbSymbolTable
 70
     0
  0
ENDTAB
  0
TABLE
  2
APPID
  5
9
330
0
100
AcDbSymbolTable
 70
     1
  0
APPID
  5
12
330
9
100
AcDbSymbolTableRecord
100
AcDbRegAppTableRecord
  2
ACAD
 70
     0
  0
ENDTAB
  0
TABLE
  2
DIMSTYLE
  5
A
330
0
100
AcDbSymbolTable
 70
     1
100
AcDbDimStyleTable
  0
DIMSTYLE
105
27
330
A
100
AcDbSymbolTableRecord
100
AcDbDimStyleTableRecord
  2
Standard
 70
     0
178
     0
340
11
  0
ENDTAB
  0
TABLE
  2
BLOCK_RECORD
  5
1
330
0
100
AcDbSymbolTable
 70
     6
  0
BLOCK_RECORD
  5
1F
330
1
100
AcDbSymbolTableRecord
100
AcDbBlockTableRecord
  2
*Model_Space
340
22
 70
     0
280
     1
281
     0
  0
BLOCK_RECORD
  5
1B
330
1
100
AcDbSymbolTableRecord
100
AcDbBlockTableRecord
  2
*Paper_Space
340
1E
 70
     0
280
     1
281
     0
  0
BLOCK_RECORD
  5
23
330
1
100
AcDbSymbolTableRecord
100
AcDbBlockTableRecord
  2
*Paper_Space0
340
26
 70
     0
280
     1
281
     0
  0
BLOCK_RECORD
  5
95
330
1
100
AcDbSymbolTableRecord
100
AcDbBlockTableRecord
  2
block 2
340
0
102
{BLKREFS
331
96
102
}
 70
     0
280
     1
281
     0
  0
BLOCK_RECORD
  5
9B
330
1
100
AcDbSymbolTableRecord
100
AcDbBlockTableRecord
  2
block 3
340
0
102
{BLKREFS
331
9C
102
}
 70
     0
280
     1
281
     0
  0
BLOCK_RECORD
  5
B4
330
1
100
AcDbSymbolTableRecord
100
AcDbBlockTableRecord
  2
block 4
340
0
102
{BLKREFS
331
B5
102
}
 70
     0
280
     1
281
     0
  0
BLOCK_RECORD
  5
DA
330
1
100
AcDbSymbolTableRecord
100
AcDbBlockTableRecord
  2
block 5
340
0
102
{BLKREFS
331
DB
102
}
 70
     0
280
     1
281
     0
  0
BLOCK_RECORD
  5
F6
330
1
100
AcDbSymbolTableRecord
100
AcDbBlockTableRecord
  2
block 6
340
0
102
{BLKREFS
331
F7
102
}
 70
     0
280
     1
281
     0
  0
ENDTAB
  0
ENDSEC
  0
SECTION
  2
BLOCKS
  0
BLOCK
  5
20
330
1F
100
AcDbEntity
  8
0
100
AcDbBlockBegin
  2
*Model_Space
 70
     0
 10
0.0
 20
0.0
 30
0.0
  3
*Model_Space
  1

  0
ENDBLK
  5
21
330
1F
100
AcDbEntity
  8
0
100
AcDbBlockEnd
  0
BLOCK
  5
1C
330
1B
100
AcDbEntity
 67
     1
  8
0
100
AcDbBlockBegin
  2
*Paper_Space
 70
     0
 10
0.0
 20
0.0
 30
0.0
  3
*Paper_Space
  1

  0
ENDBLK
  5
1D
330
1B
100
AcDbEntity
 67
     1
  8
0
100
AcDbBlockEnd
  0
BLOCK
  5
24
330
23
100
AcDbEntity
  8
0
100
AcDbBlockBegin
  2
*Paper_Space0
 70
     0
 10
0.0
 20
0.0
 30
0.0
  3
*Paper_Space0
  1

  0
ENDBLK
  5
25
330
23
100
AcDbEntity
  8
0
100
AcDbBlockEnd
  0
BLOCK
  5
97
330
95
100
AcDbEntity
  8
0
100
AcDbBlockBegin
  2
block 2
 70
     0
 10
0.0
 20
0.0
 30
0.0
  3
block 2
  1

  0
SPLINE
  5
99
330
95
100
AcDbEntity
  8
_U+30EC_U+30A4_U+30E4_U+30FC 1
370
     0
100
AcDbSpline
210
0.0
220
0.0
230
1.0
 70
    11
 71
     3
 72
    62
 73
    58
 74
     0
 42
0.0000000001
 43
0.0000000001
 12
1.0
 22
0.0
 32
0.0
 13
1.0
 23
0.0
 33
0.0
 40
0.0
 40
0.0
 40
0.0
 40
0.0
 40
1.0
 40
1.0
 40
1.0
 40
2.0
 40
2.0
 40
2.0
 40
3.0
 40
3.0
 40
3.0
 40
4.0
 40
4.0
 40
4.0
 40
5.0
 40
5.0
 40
5.0
 40
6.0
 40
6.0
 40
6.0
 40
7.0
 40
7.0
 40
7.0
 40
8.0
 40
8.0
 40
8.0
 40
9.0
 40
9.0
 40
9.0
 40
10.0
 40
10.0
 40
10.0
 40
11.0
 40
11.0
 40
11.0
 40
12.0
 40
12.0
 40
12.0
 40
13.0
 40
13.0
 40
13.0
 40
14.0
 40
14.0
 40
14.0
 40
15.0
 40
15.0
 40
15.0
 40
16.0
 40
16.0
 40
16.0
 40
17.0
 40
17.0
 40
17.0
 40
18.0
 40
18.0
 40
18.0
 40
19.0
 40
19.0
 40
19.0
 40
19.0
 10
108.5174071994332
 20
-135.6113606431805
 30
0.0
 10
108.5174071994332
 20
-135.7064452785734
 30
0.0
 10
108.4963921169731
 20
-135.9241753132412
 30
0.0
 10
108.3103569607696
 20
-136.0488877698072
 30
0.0
 10
108.1980468479505
 20
-136.1233018322886
 30
0.0
 10
108.0988280979753
 20
-136.1274359468709
 30
0.0
 10
108.0140787490381
 20
-136.1315700614532
 30
0.0
 10
108.0140787490381
 20
-136.1315700614532
 30
0.0
 10
108.0140787490381
 20
-135.9117729694943
 30
0.0
 10
108.0140787490381
 20
-135.9117729694943
 30
0.0
 10
108.088148301971
 20
-135.9097059122031
 30
0.0
 10
108.3227593045165
 20
-135.8986816066503
 30
0.0
 10
108.3227593045165
 20
-135.6154947577628
 30
0.0
 10
108.3227593045165
 20
-135.4776909383528
 30
0.0
 10
108.2531683757145
 20
-135.3254177179048
 30
0.0
 10
108.0247585450424
 20
-135.3254177179048
 30
0.0
 10
107.908314317641
 20
-135.3254177179048
 30
0.0
 10
107.859738471299
 20
-135.363658277791
 30
0.0
 10
107.8280435928347
 20
-135.3953531562553
 30
0.0
 10
107.7539740399018
 20
-135.4694227091882
 30
0.0
 10
107.7412271866064
 20
-135.5858669365896
 30
0.0
 10
107.7412271866064
 20
-135.6409884643537
 30
0.0
 10
107.7412271866064
 20
-135.659591979974
 30
0.0
 10
107.7432942438975
 20
-135.6957654825691
 30
0.0
 10
107.7474283584798
 20
-135.7233262464511
 30
0.0
 10
107.7474283584798
 20
-135.7233262464511
 30
0.0
 10
107.5527804635632
 20
-135.7233262464511
 30
0.0
 10
107.5527804635632
 20
-135.7233262464511
 30
0.0
 10
107.5593261449852
 20
-135.6850856865648
 30
0.0
 10
107.5613932022763
 20
-135.6430555216448
 30
0.0
 10
107.5613932022763
 20
-135.6365098402228
 30
0.0
 10
107.5613932022763
 20
-135.5710530260031
 30
0.0
 10
107.5400336102678
 20
-135.3722710165042
 30
0.0
 10
107.3033555504311
 20
-135.3722710165042
 30
0.0
 10
107.1255886233922
 20
-135.3722710165042
 30
0.0
 10
107.0704670956282
 20
-135.5031846449436
 30
0.0
 10
107.0704670956282
 20
-135.6134277004716
 30
0.0
 10
107.0704670956282
 20
-135.8776665241903
 30
0.0
 10
107.3033555504311
 20
-135.8862792629034
 30
0.0
 10
107.3750135365243
 20
-135.8904133774857
 30
0.0
 10
107.3750135365243
 20
-135.8904133774857
 30
0.0
 10
107.3750135365243
 20
-136.0936740111155
 30
0.0
 10
107.3750135365243
 20
-136.0936740111155
 30
0.0
 10
107.2503010799583
 20
-136.0850612724024
 30
0.0
 10
106.8737521434205
 20
-136.0575005085203
 30
0.0
 10
106.8737521434205
 20
-135.6006808471762
 30
0.0
 10
106.8737521434205
 20
-135.3764051310865
 30
0.0
 10
107.0008761668262
 20
-135.135248447119
 30
0.0
 10
107.2968098690091
 20
-135.135248447119
 30
0.0
 10
107.4831895347612
 20
-135.135248447119
 30
0.0
 10
107.5655273168586
 20
-135.2303330825119
 30
0.0
 10
107.6268500164961
 20
-135.3298963420356
 30
0.0
 10
107.6544107803781
 20
-135.2682291328496
 30
0.0
 10
107.7346815051844
 20
-135.0863280912284
 30
0.0
 10
108.012011691747
 20
-135.0863280912284
 30
0.0
 10
108.3503200683985
 20
-135.0863280912284
 30
0.0
 10
108.5174071994332
 20
-135.3340304566179
 30
0.0
 10
108.5174071994332
 20
-135.6113606431805
 30
0.0
  0
HATCH
  5
9A
330
95
100
AcDbEntity
  8
_U+30EC_U+30A4_U+30E4_U+30FC 1
 62
   179
420
  2234388
100
AcDbHatch
 10
0.0
 20
0.0
 30
0.0
210
0.0
220
0.0
230
1.0
  2
SOLID
 70
     1
 71
     0
 91
        1
 92
        1
 93
        1
 72
     4
 94
        3
 73
     0
 74
     1
 95
       62
 96
       58
 40
0.0
 40
0.0
 40
0.0
 40
0.0
 40
1.0
 40
1.0
 40
1.0
 40
2.0
 40
2.0
 40
2.0
 40
3.0
 40
3.0
 40
3.0
 40
4.0
 40
4.0
 40
4.0
 40
5.0
 40
5.0
 40
5.0
 40
6.0
 40
6.0
 40
6.0
 40
7.0
 40
7.0
 40
7.0
 40
8.0
 40
8.0
 40
8.0
 40
9.0
 40
9.0
 40
9.0
 40
10.0
 40
10.0
 40
10.0
 40
11.0
 40
11.0
 40
11.0
 40
12.0
 40
12.0
 40
12.0
 40
13.0
 40
13.0
 40
13.0
 40
14.0
 40
14.0
 40
14.0
 40
15.0
 40
15.0
 40
15.0
 40
16.0
 40
16.0
 40
16.0
 40
17.0
 40
17.0
 40
17.0
 40
18.0
 40
18.0
 40
18.0
 40
19.0
 40
19.0
 40
19.0
 40
19.0
 10
108.5174071994332
 20
-135.6113606431805
 10
108.5174071994332
 20
-135.7064452785734
 10
108.4963921169731
 20
-135.9241753132412
 10
108.3103569607696
 20
-136.0488877698072
 10
108.1980468479505
 20
-136.1233018322886
 10
108.0988280979753
 20
-136.1274359468709
 10
108.0140787490381
 20
-136.1315700614532
 10
108.0140787490381
 20
-136.1315700614532
 10
108.0140787490381
 20
-135.9117729694943
 10
108.0140787490381
 20
-135.9117729694943
 10
108.088148301971
 20
-135.9097059122031
 10
108.3227593045165
 20
-135.8986816066503
 10
108.3227593045165
 20
-135.6154947577628
 10
108.3227593045165
 20
-135.4776909383528
 10
108.2531683757145
 20
-135.3254177179048
 10
108.0247585450424
 20
-135.3254177179048
 10
107.908314317641
 20
-135.3254177179048
 10
107.859738471299
 20
-135.363658277791
 10
107.8280435928347
 20
-135.3953531562553
 10
107.7539740399018
 20
-135.4694227091882
 10
107.7412271866064
 20
-135.5858669365896
 10
107.7412271866064
 20
-135.6409884643537
 10
107.7412271866064
 20
-135.659591979974
 10
107.7432942438975
 20
-135.6957654825691
 10
107.7474283584798
 20
-135.7233262464511
 10
107.7474283584798
 20
-135.7233262464511
 10
107.5527804635632
 20
-135.7233262464511
 10
107.5527804635632
 20
-135.7233262464511
 10
107.5593261449852
 20
-135.6850856865648
 10
107.5613932022763
 20
-135.6430555216448
 10
107.5613932022763
 20
-135.6365098402228
 10
107.5613932022763
 20
-135.5710530260031
 10
107.5400336102678
 20
-135.3722710165042
 10
107.3033555504311
 20
-135.3722710165042
 10
107.1255886233922
 20
-135.3722710165042
 10
107.0704670956282
 20
-135.5031846449436
 10
107.0704670956282
 20
-135.6134277004716
 10
107.0704670956282
 20
-135.8776665241903
 10
107.3033555504311
 20
-135.8862792629034
 10
107.3750135365243
 20
-135.8904133774857
 10
107.3750135365243
 20
-135.8904133774857
 10
107.3750135365243
 20
-136.0936740111155
 10
107.3750135365243
 20
-136.0936740111155
 10
107.2503010799583
 20
-136.0850612724024
 10
106.8737521434205
 20
-136.0575005085203
 10
106.8737521434205
 20
-135.6006808471762
 10
106.8737521434205
 20
-135.3764051310865
 10
107.0008761668262
 20
-135.135248447119
 10
107.2968098690091
 20
-135.135248447119
 10
107.4831895347612
 20
-135.135248447119
 10
107.5655273168586
 20
-135.2303330825119
 10
107.6268500164961
 20
-135.3298963420356
 10
107.6544107803781
 20
-135.2682291328496
 10
107.7346815051844
 20
-135.0863280912284
 10
108.012011691747
 20
-135.0863280912284
 10
108.3503200683985
 20
-135.0863280912284
 10
108.5174071994332
 20
-135.3340304566179
 10
108.5174071994332
 20
-135.6113606431805
 97
        0
 97
        0
 75
     2
 76
     1
 98
        0
  0
ENDBLK
  5
98
330
95
100
AcDbEntity
  8
0
100
AcDbBlockEnd
  0
BLOCK
  5
9D
330
9B
100
AcDbEntity
  8
0
100
AcDbBlockBegin
  2
block 3
 70
     0
 10
0.0
 20
0.0
 30
0.0
  3
block 3
  1

  0
POLYLINE
  5
9F
330
9B
100
AcDbEntity
  8
_U+30EC_U+30A4_U+30E4_U+30FC 1
370
     0
100
AcDb2dPolyline
 66
     1
 10
0.0
 20
0.0
 30
0.0
  0
VERTEX
  5
A0
330
9F
100
AcDbEntity
  8
_U+30EC_U+30A4_U+30E4_U+30FC 1
370
     0
100
AcDbVertex
100
AcDb2dVertex
 10
108.2225070258958
 20
-127.5822211052572
 30
0.0
  0
VERTEX
  5
A1
330
9F
100
AcDbEntity
  8
_U+30EC_U+30A4_U+30E4_U+30FC 1
370
     0
100
AcDbVertex
100
AcDb2dVertex
 10
108.5694281412604
 20
-127.5822211052572
 30
0.0
  0
VERTEX
  5
A2
330
9F
100
AcDbEntity
  8
_U+30EC_U+30A4_U+30E4_U+30FC 1
370
     0
100
AcDbVertex
100
AcDb2dVertex
 10
108.5694281412604
 20
-127.8001233946993
 30
0.0
  0
VERTEX
  5
A3
330
9F
100
AcDbEntity
  8
_U+30EC_U+30A4_U+30E4_U+30FC 1
370
     0
100
AcDbVertex
100
AcDb2dVertex
 10
108.2225070258958
 20
-127.8001233946993
 30
0.0
  0
VERTEX
  5
A4
330
9F
100
AcDbEntity
  8
_U+30EC_U+30A4_U+30E4_U+30FC 1
370
     0
100
AcDbVertex
100
AcDb2dVertex
 10
108.2225070258958
 20
-128.4558973203166
 30
0.0
  0
VERTEX
  5
A5
330
9F
100
AcDbEntity
  8
_U+30EC_U+30A4_U+30E4_U+30FC 1
370
     0
100
AcDbVertex
100
AcDb2dVertex
 10
107.998231309806
 20
-128.4558973203166
 30
0.0
  0
VERTEX
  5
A6
330
9F
100
AcDbEntity
  8
_U+30EC_U+30A4_U+30E4_U+30FC 1
370
     0
100
AcDbVertex
100
AcDb2dVertex
 10
107.0249918352229
 20
-127.7768690001738
 30
0.0
  0
VERTEX
  5
A7
330
9F
100
AcDbEntity
  8
_U+30EC_U+30A4_U+30E4_U+30FC 1
370
     0
100
AcDbVertex
100
AcDb2dVertex
 10
107.0249918352229
 20
-127.5822211052572
 30
0.0
  0
VERTEX
  5
A8
330
9F
100
AcDbEntity
  8
_U+30EC_U+30A4_U+30E4_U+30FC 1
370
     0
100
AcDbVertex
100
AcDb2dVertex
 10
108.0237250163969
 20
-127.5822211052572
 30
0.0
  0
VERTEX
  5
A9
330
9F
100
AcDbEntity
  8
_U+30EC_U+30A4_U+30E4_U+30FC 1
370
     0
100
AcDbVertex
100
AcDb2dVertex
 10
108.0237250163969
 20
-127.3748263570452
 30
0.0
  0
VERTEX
  5
AA
330
9F
100
AcDbEntity
  8
_U+30EC_U+30A4_U+30E4_U+30FC 1
370
     0
100
AcDbVertex
100
AcDb2dVertex
 10
108.2225070258958
 20
-127.3748263570452
 30
0.0
  0
VERTEX
  5
AB
330
9F
100
AcDbEntity
  8
_U+30EC_U+30A4_U+30E4_U+30FC 1
370
     0
100
AcDbVertex
100
AcDb2dVertex
 10
108.2225070258958
 20
-127.5822211052572
 30
0.0
  0
SEQEND
  5
AC
330
9F
100
AcDbEntity
  8
_U+30EC_U+30A4_U+30E4_U+30FC 1
370
     0
  0
POLYLINE
  5
AD
330
9B
100
AcDbEntity
  8
_U+30EC_U+30A4_U+30E4_U+30FC 1
370
     0
100
AcDb2dPolyline
 66
     1
 10
0.0
 20
0.0
 30
0.0
  0
VERTEX
  5
AE
330
AD
100
AcDbEntity
  8
_U+30EC_U+30A4_U+30E4_U+30FC 1
370
     0
100
AcDbVertex
100
AcDb2dVertex
 10
107.3677788360053
 20
-127.8001233946993
 30
0.0
  0
VERTEX
  5
AF
330
AD
100
AcDbEntity
  8
_U+30EC_U+30A4_U+30E4_U+30FC 1
370
     0
100
AcDbVertex
100
AcDb2dVertex
 10
108.0237250163969
 20
-128.2569430560434
 30
0.0
  0
VERTEX
  5
B0
330
AD
100
AcDbEntity
  8
_U+30EC_U+30A4_U+30E4_U+30FC 1
370
     0
100
AcDbVertex
100
AcDb2dVertex
 10
108.0237250163969
 20
-127.8001233946993
 30
0.0
  0
VERTEX
  5
B1
330
AD
100
AcDbEntity
  8
_U+30EC_U+30A4_U+30E4_U+30FC 1
370
     0
100
AcDbVertex
100
AcDb2dVertex
 10
107.3677788360053
 20
-127.8001233946993
 30
0.0
  0
SEQEND
  5
B2
330
AD
100
AcDbEntity
  8
_U+30EC_U+30A4_U+30E4_U+30FC 1
370
     0
  0
HATCH
  5
B3
330
9B
100
AcDbEntity
  8
_U+30EC_U+30A4_U+30E4_U+30FC 1
 62
   179
420
  2234388
100
AcDbHatch
 10
0.0
 20
0.0
 30
0.0
210
0.0
220
0.0
230
1.0
  2
SOLID
 70
     1
 71
     0
 91
        2
 92
        1
 93
       11
 72
     1
 10
108.2225070258958
 20
-127.5822211052572
 11
108.5694281412604
 21
-127.5822211052572
 72
     1
 10
108.5694281412604
 20
-127.5822211052572
 11
108.5694281412604
 21
-127.8001233946993
 72
     1
 10
108.5694281412604
 20
-127.8001233946993
 11
108.2225070258958
 21
-127.8001233946993
 72
     1
 10
108.2225070258958
 20
-127.8001233946993
 11
108.2225070258958
 21
-128.4558973203166
 72
     1
 10
108.2225070258958
 20
-128.4558973203166
 11
107.998231309806
 21
-128.4558973203166
 72
     1
 10
107.998231309806
 20
-128.4558973203166
 11
107.0249918352229
 21
-127.7768690001738
 72
     1
 10
107.0249918352229
 20
-127.7768690001738
 11
107.0249918352229
 21
-127.5822211052572
 72
     1
 10
107.0249918352229
 20
-127.5822211052572
 11
108.0237250163969
 21
-127.5822211052572
 72
     1
 10
108.0237250163969
 20
-127.5822211052572
 11
108.0237250163969
 21
-127.3748263570452
 72
     1
 10
108.0237250163969
 20
-127.3748263570452
 11
108.2225070258958
 21
-127.3748263570452
 72
     1
 10
108.2225070258958
 20
-127.3748263570452
 11
108.2225070258958
 21
-127.5822211052572
 97
        0
 92
        1
 93
        3
 72
     1
 10
107.3677788360053
 20
-127.8001233946993
 11
108.0237250163969
 21
-128.2569430560434
 72
     1
 10
108.0237250163969
 20
-128.2569430560434
 11
108.0237250163969
 21
-127.8001233946993
 72
     1
 10
108.0237250163969
 20
-127.8001233946993
 11
107.3677788360053
 21
-127.8001233946993
 97
        0
 75
     2
 76
     1
 98
        0
  0
ENDBLK
  5
9E
330
9B
100
AcDbEntity
  8
0
100
AcDbBlockEnd
  0
BLOCK
  5
B6
330
B4
100
AcDbEntity
  8
0
100
AcDbBlockBegin
  2
block 4
 70
     0
 10
0.0
 20
0.0
 30
0.0
  3
block 4
  1

  0
SPLINE
  5
B8
330
B4
100
AcDbEntity
  8
_U+30EC_U+30A4_U+30E4_U+30FC 1
370
     0
100
AcDbSpline
210
0.0
220
0.0
230
1.0
 70
    11
 71
     3
 72
    26
 73
    22
 74
     0
 42
0.0000000001
 43
0.0000000001
 12
1.0
 22
0.0
 32
0.0
 13
1.0
 23
0.0
 33
0.0
 40
0.0
 40
0.0
 40
0.0
 40
0.0
 40
1.0
 40
1.0
 40
1.0
 40
2.0
 40
2.0
 40
2.0
 40
3.0
 40
3.0
 40
3.0
 40
4.0
 40
4.0
 40
4.0
 40
5.0
 40
5.0
 40
5.0
 40
6.0
 40
6.0
 40
6.0
 40
7.0
 40
7.0
 40
7.0
 40
7.0
 10
108.5694281412604
 20
-129.6423882054366
 30
0.0
 10
108.5694281412604
 20
-129.6423882054366
 30
0.0
 10
107.4652750382378
 20
-129.6423882054366
 30
0.0
 10
107.4652750382378
 20
-129.6423882054366
 30
0.0
 10
107.4652750382378
 20
-129.6423882054366
 30
0.0
 10
107.4652750382378
 20
-129.9724283529236
 30
0.0
 10
107.4652750382378
 20
-129.9724283529236
 30
0.0
 10
107.4652750382378
 20
-129.9724283529236
 30
0.0
 10
107.3171359323721
 20
-129.9724283529236
 30
0.0
 10
107.3171359323721
 20
-129.9724283529236
 30
0.0
 10
107.3023220217855
 20
-129.6403211481455
 30
0.0
 10
107.1393690053332
 20
-129.5934678495461
 30
0.0
 10
107.0249918352229
 20
-129.5638400283729
 30
0.0
 10
107.0249918352229
 20
-129.5638400283729
 30
0.0
 10
107.0249918352229
 20
-129.4177679797984
 30
0.0
 10
107.0249918352229
 20
-129.4177679797984
 30
0.0
 10
107.0249918352229
 20
-129.4177679797984
 30
0.0
 10
108.5694281412604
 20
-129.4177679797984
 30
0.0
 10
108.5694281412604
 20
-129.4177679797984
 30
0.0
 10
108.5694281412604
 20
-129.4177679797984
 30
0.0
 10
108.5694281412604
 20
-129.6423882054366
 30
0.0
 10
108.5694281412604
 20
-129.6423882054366
 30
0.0
  0
HATCH
  5
B9
330
B4
100
AcDbEntity
  8
_U+30EC_U+30A4_U+30E4_U+30FC 1
 62
   179
420
  2234388
100
AcDbHatch
 10
0.0
 20
0.0
 30
0.0
210
0.0
220
0.0
230
1.0
  2
SOLID
 70
     1
 71
     0
 91
        1
 92
        1
 93
        1
 72
     4
 94
        3
 73
     0
 74
     1
 95
       26
 96
       22
 40
0.0
 40
0.0
 40
0.0
 40
0.0
 40
1.0
 40
1.0
 40
1.0
 40
2.0
 40
2.0
 40
2.0
 40
3.0
 40
3.0
 40
3.0
 40
4.0
 40
4.0
 40
4.0
 40
5.0
 40
5.0
 40
5.0
 40
6.0
 40
6.0
 40
6.0
 40
7.0
 40
7.0
 40
7.0
 40
7.0
 10
108.5694281412604
 20
-129.6423882054366
 10
108.5694281412604
 20
-129.6423882054366
 10
107.4652750382378
 20
-129.6423882054366
 10
107.4652750382378
 20
-129.6423882054366
 10
107.4652750382378
 20
-129.6423882054366
 10
107.4652750382378
 20
-129.9724283529236
 10
107.4652750382378
 20
-129.9724283529236
 10
107.4652750382378
 20
-129.9724283529236
 10
107.3171359323721
 20
-129.9724283529236
 10
107.3171359323721
 20
-129.9724283529236
 10
107.3023220217855
 20
-129.6403211481455
 10
107.1393690053332
 20
-129.5934678495461
 10
107.0249918352229
 20
-129.5638400283729
 10
107.0249918352229
 20
-129.5638400283729
 10
107.0249918352229
 20
-129.4177679797984
 10
107.0249918352229
 20
-129.4177679797984
 10
107.0249918352229
 20
-129.4177679797984
 10
108.5694281412604
 20
-129.4177679797984
 10
108.5694281412604
 20
-129.4177679797984
 10
108.5694281412604
 20
-129.4177679797984
 10
108.5694281412604
 20
-129.6423882054366
 10
108.5694281412604
 20
-129.6423882054366
 97
        0
 97
        0
 75
     2
 76
     1
 98
        0
  0
ENDBLK
  5
B7
330
B4
100
AcDbEntity
  8
0
100
AcDbBlockEnd
  0
BLOCK
  5
DC
330
DA
100
AcDbEntity
  8
0
100
AcDbBlockBegin
  2
block 5
 70
     0
 10
0.0
 20
0.0
 30
0.0
  3
block 5
  1

  0
POLYLINE
  5
DE
330
DA
100
AcDbEntity
  8
_U+30EC_U+30A4_U+30E4_U+30FC 1
370
     0
100
AcDb2dPolyline
 66
     1
 10
0.0
 20
0.0
 30
0.0
  0
VERTEX
  5
DF
330
DE
100
AcDbEntity
  8
_U+30EC_U+30A4_U+30E4_U+30FC 1
370
     0
100
AcDbVertex
100
AcDb2dVertex
 10
86.96075572912787
 20
-115.5197360279777
 30
0.0
  0
VERTEX
  5
E0
330
DE
100
AcDbEntity
  8
_U+30EC_U+30A4_U+30E4_U+30FC 1
370
     0
100
AcDbVertex
100
AcDb2dVertex
 10
86.96075572912787
 20
-115.8666571433424
 30
0.0
  0
VERTEX
  5
E1
330
DE
100
AcDbEntity
  8
_U+30EC_U+30A4_U+30E4_U+30FC 1
370
     0
100
AcDbVertex
100
AcDb2dVertex
 10
86.74302569446009
 20
-115.8666571433424
 30
0.0
  0
VERTEX
  5
E2
330
DE
100
AcDbEntity
  8
_U+30EC_U+30A4_U+30E4_U+30FC 1
370
     0
100
AcDbVertex
100
AcDb2dVertex
 10
86.74302569446009
 20
-115.5197360279777
 30
0.0
  0
VERTEX
  5
E3
330
DE
100
AcDbEntity
  8
_U+30EC_U+30A4_U+30E4_U+30FC 1
370
     0
100
AcDbVertex
100
AcDb2dVertex
 10
86.0870795140685
 20
-115.5197360279777
 30
0.0
  0
VERTEX
  5
E4
330
DE
100
AcDbEntity
  8
_U+30EC_U+30A4_U+30E4_U+30FC 1
370
     0
100
AcDbVertex
100
AcDb2dVertex
 10
86.0870795140685
 20
-115.295460311888
 30
0.0
  0
VERTEX
  5
E5
330
DE
100
AcDbEntity
  8
_U+30EC_U+30A4_U+30E4_U+30FC 1
370
     0
100
AcDbVertex
100
AcDb2dVertex
 10
86.76610783421125
 20
-114.3223930920791
 30
0.0
  0
VERTEX
  5
E6
330
DE
100
AcDbEntity
  8
_U+30EC_U+30A4_U+30E4_U+30FC 1
370
     0
100
AcDbVertex
100
AcDb2dVertex
 10
86.96075572912787
 20
-114.3223930920791
 30
0.0
  0
VERTEX
  5
E7
330
DE
100
AcDbEntity
  8
_U+30EC_U+30A4_U+30E4_U+30FC 1
370
     0
100
AcDbVertex
100
AcDb2dVertex
 10
86.96075572912787
 20
-115.3207817637045
 30
0.0
  0
VERTEX
  5
E8
330
DE
100
AcDbEntity
  8
_U+30EC_U+30A4_U+30E4_U+30FC 1
370
     0
100
AcDbVertex
100
AcDb2dVertex
 10
87.1681504773399
 20
-115.3207817637045
 30
0.0
  0
VERTEX
  5
E9
330
DE
100
AcDbEntity
  8
_U+30EC_U+30A4_U+30E4_U+30FC 1
370
     0
100
AcDbVertex
100
AcDb2dVertex
 10
87.1681504773399
 20
-115.5197360279777
 30
0.0
  0
VERTEX
  5
EA
330
DE
100
AcDbEntity
  8
_U+30EC_U+30A4_U+30E4_U+30FC 1
370
     0
100
AcDbVertex
100
AcDb2dVertex
 10
86.96075572912787
 20
-115.5197360279777
 30
0.0
  0
SEQEND
  5
EB
330
DE
100
AcDbEntity
  8
_U+30EC_U+30A4_U+30E4_U+30FC 1
370
     0
  0
POLYLINE
  5
EC
330
DA
100
AcDbEntity
  8
_U+30EC_U+30A4_U+30E4_U+30FC 1
370
     0
100
AcDb2dPolyline
 66
     1
 10
0.0
 20
0.0
 30
0.0
  0
VERTEX
  5
ED
330
EC
100
AcDbEntity
  8
_U+30EC_U+30A4_U+30E4_U+30FC 1
370
     0
100
AcDbVertex
100
AcDb2dVertex
 10
86.74302569446009
 20
-114.6650078380872
 30
0.0
  0
VERTEX
  5
EE
330
EC
100
AcDbEntity
  8
_U+30EC_U+30A4_U+30E4_U+30FC 1
370
     0
100
AcDbVertex
100
AcDb2dVertex
 10
86.28586152356743
 20
-115.3207817637045
 30
0.0
  0
VERTEX
  5
EF
330
EC
100
AcDbEntity
  8
_U+30EC_U+30A4_U+30E4_U+30FC 1
370
     0
100
AcDbVertex
100
AcDb2dVertex
 10
86.74302569446009
 20
-115.3207817637045
 30
0.0
  0
VERTEX
  5
F0
330
EC
100
AcDbEntity
  8
_U+30EC_U+30A4_U+30E4_U+30FC 1
370
     0
100
AcDbVertex
100
AcDb2dVertex
 10
86.74302569446009
 20
-114.6650078380872
 30
0.0
  0
SEQEND
  5
F1
330
EC
100
AcDbEntity
  8
_U+30EC_U+30A4_U+30E4_U+30FC 1
370
     0
  0
HATCH
  5
F2
330
DA
100
AcDbEntity
  8
_U+30EC_U+30A4_U+30E4_U+30FC 1
 62
   179
420
  2234388
100
AcDbHatch
 10
0.0
 20
0.0
 30
0.0
210
0.0
220
0.0
230
1.0
  2
SOLID
 70
     1
 71
     0
 91
        2
 92
        1
 93
       11
 72
     1
 10
86.96075572912787
 20
-115.5197360279777
 11
86.96075572912787
 21
-115.8666571433424
 72
     1
 10
86.96075572912787
 20
-115.8666571433424
 11
86.74302569446009
 21
-115.8666571433424
 72
     1
 10
86.74302569446009
 20
-115.8666571433424
 11
86.74302569446009
 21
-115.5197360279777
 72
     1
 10
86.74302569446009
 20
-115.5197360279777
 11
86.0870795140685
 21
-115.5197360279777
 72
     1
 10
86.0870795140685
 20
-115.5197360279777
 11
86.0870795140685
 21
-115.295460311888
 72
     1
 10
86.0870795140685
 20
-115.295460311888
 11
86.76610783421125
 21
-114.3223930920791
 72
     1
 10
86.76610783421125
 20
-114.3223930920791
 11
86.96075572912787
 21
-114.3223930920791
 72
     1
 10
86.96075572912787
 20
-114.3223930920791
 11
86.96075572912787
 21
-115.3207817637045
 72
     1
 10
86.96075572912787
 20
-115.3207817637045
 11
87.1681504773399
 21
-115.3207817637045
 72
     1
 10
87.1681504773399
 20
-115.3207817637045
 11
87.1681504773399
 21
-115.5197360279777
 72
     1
 10
87.1681504773399
 20
-115.5197360279777
 11
86.96075572912787
 21
-115.5197360279777
 97
        0
 92
        1
 93
        3
 72
     1
 10
86.74302569446009
 20
-114.6650078380872
 11
86.28586152356743
 21
-115.3207817637045
 72
     1
 10
86.28586152356743
 20
-115.3207817637045
 11
86.74302569446009
 21
-115.3207817637045
 72
     1
 10
86.74302569446009
 20
-115.3207817637045
 11
86.74302569446009
 21
-114.6650078380872
 97
        0
 75
     2
 76
     1
 98
        0
  0
SPLINE
  5
F3
330
DA
100
AcDbEntity
  8
_U+30EC_U+30A4_U+30E4_U+30FC 1
370
     0
100
AcDbSpline
210
0.0
220
0.0
230
1.0
 70
    11
 71
     3
 72
    29
 73
    25
 74
     0
 42
0.0000000001
 43
0.0000000001
 12
1.0
 22
0.0
 32
0.0
 13
1.0
 23
0.0
 33
0.0
 40
0.0
 40
0.0
 40
0.0
 40
0.0
 40
1.0
 40
1.0
 40
1.0
 40
2.0
 40
2.0
 40
2.0
 40
3.0
 40
3.0
 40
3.0
 40
4.0
 40
4.0
 40
4.0
 40
5.0
 40
5.0
 40
5.0
 40
6.0
 40
6.0
 40
6.0
 40
7.0
 40
7.0
 40
7.0
 40
8.0
 40
8.0
 40
8.0
 40
8.0
 10
88.20340167065748
 20
-115.6888902163035
 30
0.0
 10
88.09522567242064
 20
-115.8983520218067
 30
0.0
 10
87.92193736951258
 20
-115.9174723017498
 30
0.0
 10
87.80549314211113
 20
-115.9174723017498
 30
0.0
 10
87.64460718294997
 20
-115.9174723017498
 30
0.0
 10
87.5030137585062
 20
-115.8709635126989
 30
0.0
 10
87.4079291231133
 20
-115.6888902163035
 30
0.0
 10
87.30423174900729
 20
-115.4944145761611
 30
0.0
 10
87.28493921428988
 20
-115.2573920067759
 30
0.0
 10
87.28493921428988
 20
-115.0944389903236
 30
0.0
 10
87.28493921428988
 20
-114.9506062538144
 30
0.0
 10
87.30216469171613
 20
-114.6989420286169
 30
0.0
 10
87.4079291231133
 20
-114.4999877643438
 30
0.0
 10
87.51576061180162
 20
-114.2968993854883
 30
0.0
 10
87.67664657096279
 20
-114.2736449909629
 30
0.0
 10
87.80549314211113
 20
-114.2736449909629
 30
0.0
 10
87.96431204398115
 20
-114.2736449909629
 30
0.0
 10
88.10797252571606
 20
-114.3180867227226
 30
0.0
 10
88.20340167065748
 20
-114.4999877643438
 30
0.0
 10
88.30262042063268
 20
-114.6925686019692
 30
0.0
 10
88.32604706993239
 20
-114.9209784326413
 30
0.0
 10
88.32604706993239
 20
-115.0944389903236
 30
0.0
 10
88.32604706993239
 20
-115.2658324907148
 30
0.0
 10
88.30468747792384
 20
-115.4964816334523
 30
0.0
 10
88.20340167065748
 20
-115.6888902163035
 30
0.0
  0
SPLINE
  5
F4
330
DA
100
AcDbEntity
  8
_U+30EC_U+30A4_U+30E4_U+30FC 1
370
     0
100
AcDbSpline
210
0.0
220
0.0
230
1.0
 70
    11
 71
     3
 72
    17
 73
    13
 74
     0
 42
0.0000000001
 43
0.0000000001
 12
1.0
 22
0.0
 32
0.0
 13
1.0
 23
0.0
 33
0.0
 40
0.0
 40
0.0
 40
0.0
 40
0.0
 40
1.0
 40
1.0
 40
1.0
 40
2.0
 40
2.0
 40
2.0
 40
3.0
 40
3.0
 40
3.0
 40
4.0
 40
4.0
 40
4.0
 40
4.0
 10
87.80549314211113
 20
-114.4662258285883
 30
0.0
 10
87.55572371943052
 20
-114.4662258285883
 30
0.0
 10
87.50921493037964
 20
-114.7495849322501
 30
0.0
 10
87.50921493037964
 20
-115.0944389903236
 30
0.0
 10
87.50921493037964
 20
-115.4139715965805
 30
0.0
 10
87.54538843297476
 20
-115.7228244068332
 30
0.0
 10
87.80549314211113
 20
-115.7228244068332
 30
0.0
 10
88.05319550750059
 20
-115.7228244068332
 30
0.0
 10
88.10177135384262
 20
-115.4413601056883
 30
0.0
 10
88.10177135384262
 20
-115.0944389903236
 30
0.0
 10
88.10177135384262
 20
-114.775078638841
 30
0.0
 10
88.06353079395635
 20
-114.4662258285883
 30
0.0
 10
87.80549314211113
 20
-114.4662258285883
 30
0.0
  0
HATCH
  5
F5
330
DA
100
AcDbEntity
  8
_U+30EC_U+30A4_U+30E4_U+30FC 1
 62
   179
420
  2234388
100
AcDbHatch
 10
0.0
 20
0.0
 30
0.0
210
0.0
220
0.0
230
1.0
  2
SOLID
 70
     1
 71
     0
 91
        2
 92
        1
 93
        1
 72
     4
 94
        3
 73
     0
 74
     1
 95
       29
 96
       25
 40
0.0
 40
0.0
 40
0.0
 40
0.0
 40
1.0
 40
1.0
 40
1.0
 40
2.0
 40
2.0
 40
2.0
 40
3.0
 40
3.0
 40
3.0
 40
4.0
 40
4.0
 40
4.0
 40
5.0
 40
5.0
 40
5.0
 40
6.0
 40
6.0
 40
6.0
 40
7.0
 40
7.0
 40
7.0
 40
8.0
 40
8.0
 40
8.0
 40
8.0
 10
88.20340167065748
 20
-115.6888902163035
 10
88.09522567242064
 20
-115.8983520218067
 10
87.92193736951258
 20
-115.9174723017498
 10
87.80549314211113
 20
-115.9174723017498
 10
87.64460718294997
 20
-115.9174723017498
 10
87.5030137585062
 20
-115.8709635126989
 10
87.4079291231133
 20
-115.6888902163035
 10
87.30423174900729
 20
-115.4944145761611
 10
87.28493921428988
 20
-115.2573920067759
 10
87.28493921428988
 20
-115.0944389903236
 10
87.28493921428988
 20
-114.9506062538144
 10
87.30216469171613
 20
-114.6989420286169
 10
87.4079291231133
 20
-114.4999877643438
 10
87.51576061180162
 20
-114.2968993854883
 10
87.67664657096279
 20
-114.2736449909629
 10
87.80549314211113
 20
-114.2736449909629
 10
87.96431204398115
 20
-114.2736449909629
 10
88.10797252571606
 20
-114.3180867227226
 10
88.20340167065748
 20
-114.4999877643438
 10
88.30262042063268
 20
-114.6925686019692
 10
88.32604706993239
 20
-114.9209784326413
 10
88.32604706993239
 20
-115.0944389903236
 10
88.32604706993239
 20
-115.2658324907148
 10
88.30468747792384
 20
-115.4964816334523
 10
88.20340167065748
 20
-115.6888902163035
 97
        0
 97
        0
 92
        1
 93
        1
 72
     4
 94
        3
 73
     0
 74
     1
 95
       17
 96
       13
 40
0.0
 40
0.0
 40
0.0
 40
0.0
 40
1.0
 40
1.0
 40
1.0
 40
2.0
 40
2.0
 40
2.0
 40
3.0
 40
3.0
 40
3.0
 40
4.0
 40
4.0
 40
4.0
 40
4.0
 10
87.80549314211113
 20
-114.4662258285883
 10
87.55572371943052
 20
-114.4662258285883
 10
87.50921493037964
 20
-114.7495849322501
 10
87.50921493037964
 20
-115.0944389903236
 10
87.50921493037964
 20
-115.4139715965805
 10
87.54538843297476
 20
-115.7228244068332
 10
87.80549314211113
 20
-115.7228244068332
 10
88.05319550750059
 20
-115.7228244068332
 10
88.10177135384262
 20
-115.4413601056883
 10
88.10177135384262
 20
-115.0944389903236
 10
88.10177135384262
 20
-114.775078638841
 10
88.06353079395635
 20
-114.4662258285883
 10
87.80549314211113
 20
-114.4662258285883
 97
        0
 97
        0
 75
     2
 76
     1
 98
        0
  0
ENDBLK
  5
DD
330
DA
100
AcDbEntity
  8
0
100
AcDbBlockEnd
  0
BLOCK
  5
F8
330
F6
100
AcDbEntity
  8
0
100
AcDbBlockBegin
  2
block 6
 70
     0
 10
0.0
 20
0.0
 30
0.0
  3
block 6
  1

  0
SPLINE
  5
FA
330
F6
100
AcDbEntity
  8
_U+30EC_U+30A4_U+30E4_U+30FC 1
370
     0
100
AcDbSpline
210
0.0
220
0.0
230
1.0
 70
    11
 71
     3
 72
    44
 73
    40
 74
     0
 42
0.0000000001
 43
0.0000000001
 12
1.0
 22
0.0
 32
0.0
 13
1.0
 23
0.0
 33
0.0
 40
0.0
 40
0.0
 40
0.0
 40
0.0
 40
1.0
 40
1.0
 40
1.0
 40
2.0
 40
2.0
 40
2.0
 40
3.0
 40
3.0
 40
3.0
 40
4.0
 40
4.0
 40
4.0
 40
5.0
 40
5.0
 40
5.0
 40
6.0
 40
6.0
 40
6.0
 40
7.0
 40
7.0
 40
7.0
 40
8.0
 40
8.0
 40
8.0
 40
9.0
 40
9.0
 40
9.0
 40
10.0
 40
10.0
 40
10.0
 40
11.0
 40
11.0
 40
11.0
 40
12.0
 40
12.0
 40
12.0
 40
13.0
 40
13.0
 40
13.0
 40
13.0
 10
86.88461911890384
 20
-140.3263183242934
 30
0.0
 10
86.66688908423606
 20
-140.4851372261634
 30
0.0
 10
86.57387150613431
 20
-140.5592067790963
 30
0.0
 10
86.52495115024377
 20
-140.7028672608312
 30
0.0
 10
86.52495115024377
 20
-140.7028672608312
 30
0.0
 10
87.30354272991023
 20
-140.7028672608312
 30
0.0
 10
87.30354272991023
 20
-140.7028672608312
 30
0.0
 10
87.30354272991023
 20
-140.7028672608312
 30
0.0
 10
87.30354272991023
 20
-140.9081949517521
 30
0.0
 10
87.30354272991023
 20
-140.9081949517521
 30
0.0
 10
87.30354272991023
 20
-140.9081949517521
 30
0.0
 10
86.27552623711168
 20
-140.9081949517521
 30
0.0
 10
86.27552623711168
 20
-140.9081949517521
 30
0.0
 10
86.30722111557597
 20
-140.5505940403832
 30
0.0
 10
86.37267792979573
 20
-140.472390372868
 30
0.0
 10
86.75783960504666
 20
-140.1740451038454
 30
0.0
 10
87.01381019960071
 20
-139.9752630943465
 30
0.0
 10
87.07926701382047
 20
-139.907394713287
 30
0.0
 10
87.07926701382047
 20
-139.7702799129741
 30
0.0
 10
87.07926701382047
 20
-139.6517686282815
 30
0.0
 10
87.00726451817874
 20
-139.5205104902935
 30
0.0
 10
86.81054956597097
 20
-139.5205104902935
 30
0.0
 10
86.55044485683462
 20
-139.5205104902935
 30
0.0
 10
86.54217662767002
 20
-139.7509873782567
 30
0.0
 10
86.53769800353919
 20
-139.8674316056581
 30
0.0
 10
86.53769800353919
 20
-139.8674316056581
 30
0.0
 10
86.31342228744943
 20
-139.8674316056581
 30
0.0
 10
86.31342228744943
 20
-139.8674316056581
 30
0.0
 10
86.32203502616255
 20
-139.740652091801
 30
0.0
 10
86.33271482216682
 20
-139.6283419789818
 30
0.0
 10
86.41298554697315
 20
-139.5098306942892
 30
0.0
 10
86.52288409295262
 20
-139.3492892446766
 30
0.0
 10
86.70926375870464
 20
-139.3151827993726
 30
0.0
 10
86.82536347655756
 20
-139.3151827993726
 30
0.0
 10
87.10269366312016
 20
-139.3151827993726
 30
0.0
 10
87.3100884113322
 20
-139.4994954078335
 30
0.0
 10
87.3100884113322
 20
-139.7723469702653
 30
0.0
 10
87.3100884113322
 20
-140.0004122913888
 30
0.0
 10
87.19364418393076
 20
-140.100320060461
 30
0.0
 10
86.88461911890384
 20
-140.3263183242934
 30
0.0
  0
HATCH
  5
FB
330
F6
100
AcDbEntity
  8
_U+30EC_U+30A4_U+30E4_U+30FC 1
 62
   179
420
  2234388
100
AcDbHatch
 10
0.0
 20
0.0
 30
0.0
210
0.0
220
0.0
230
1.0
  2
SOLID
 70
     1
 71
     0
 91
        1
 92
        1
 93
        1
 72
     4
 94
        3
 73
     0
 74
     1
 95
       44
 96
       40
 40
0.0
 40
0.0
 40
0.0
 40
0.0
 40
1.0
 40
1.0
 40
1.0
 40
2.0
 40
2.0
 40
2.0
 40
3.0
 40
3.0
 40
3.0
 40
4.0
 40
4.0
 40
4.0
 40
5.0
 40
5.0
 40
5.0
 40
6.0
 40
6.0
 40
6.0
 40
7.0
 40
7.0
 40
7.0
 40
8.0
 40
8.0
 40
8.0
 40
9.0
 40
9.0
 40
9.0
 40
10.0
 40
10.0
 40
10.0
 40
11.0
 40
11.0
 40
11.0
 40
12.0
 40
12.0
 40
12.0
 40
13.0
 40
13.0
 40
13.0
 40
13.0
 10
86.88461911890384
 20
-140.3263183242934
 10
86.66688908423606
 20
-140.4851372261634
 10
86.57387150613431
 20
-140.5592067790963
 10
86.52495115024377
 20
-140.7028672608312
 10
86.52495115024377
 20
-140.7028672608312
 10
87.30354272991023
 20
-140.7028672608312
 10
87.30354272991023
 20
-140.7028672608312
 10
87.30354272991023
 20
-140.7028672608312
 10
87.30354272991023
 20
-140.9081949517521
 10
87.30354272991023
 20
-140.9081949517521
 10
87.30354272991023
 20
-140.9081949517521
 10
86.27552623711168
 20
-140.9081949517521
 10
86.27552623711168
 20
-140.9081949517521
 10
86.30722111557597
 20
-140.5505940403832
 10
86.37267792979573
 20
-140.472390372868
 10
86.75783960504666
 20
-140.1740451038454
 10
87.01381019960071
 20
-139.9752630943465
 10
87.07926701382047
 20
-139.907394713287
 10
87.07926701382047
 20
-139.7702799129741
 10
87.07926701382047
 20
-139.6517686282815
 10
87.00726451817874
 20
-139.5205104902935
 10
86.81054956597097
 20
-139.5205104902935
 10
86.55044485683462
 20
-139.5205104902935
 10
86.54217662767002
 20
-139.7509873782567
 10
86.53769800353919
 20
-139.8674316056581
 10
86.53769800353919
 20
-139.8674316056581
 10
86.31342228744943
 20
-139.8674316056581
 10
86.31342228744943
 20
-139.8674316056581
 10
86.32203502616255
 20
-139.740652091801
 10
86.33271482216682
 20
-139.6283419789818
 10
86.41298554697315
 20
-139.5098306942892
 10
86.52288409295262
 20
-139.3492892446766
 10
86.70926375870464
 20
-139.3151827993726
 10
86.82536347655756
 20
-139.3151827993726
 10
87.10269366312016
 20
-139.3151827993726
 10
87.3100884113322
 20
-139.4994954078335
 10
87.3100884113322
 20
-139.7723469702653
 10
87.3100884113322
 20
-140.0004122913888
 10
87.19364418393076
 20
-140.100320060461
 10
86.88461911890384
 20
-140.3263183242934
 97
        0
 97
        0
 75
     2
 76
     1
 98
        0
  0
SPLINE
  5
FC
330
F6
100
AcDbEntity
  8
_U+30EC_U+30A4_U+30E4_U+30FC 1
370
     0
100
AcDbSpline
210
0.0
220
0.0
230
1.0
 70
    11
 71
     3
 72
    29
 73
    25
 74
     0
 42
0.0000000001
 43
0.0000000001
 12
1.0
 22
0.0
 32
0.0
 13
1.0
 23
0.0
 33
0.0
 40
0.0
 40
0.0
 40
0.0
 40
0.0
 40
1.0
 40
1.0
 40
1.0
 40
2.0
 40
2.0
 40
2.0
 40
3.0
 40
3.0
 40
3.0
 40
4.0
 40
4.0
 40
4.0
 40
5.0
 40
5.0
 40
5.0
 40
6.0
 40
6.0
 40
6.0
 40
7.0
 40
7.0
 40
7.0
 40
8.0
 40
8.0
 40
8.0
 40
8.0
 10
88.3663546871098
 20
-140.7304280247132
 30
0.0
 10
88.25817868887296
 20
-140.9398898302164
 30
0.0
 10
88.0848903859649
 20
-140.9588378553853
 30
0.0
 10
87.96844615856345
 20
-140.9588378553853
 30
0.0
 10
87.80756019940227
 20
-140.9588378553853
 30
0.0
 10
87.6659667749585
 20
-140.9123290663344
 30
0.0
 10
87.57088213956561
 20
-140.7304280247132
 30
0.0
 10
87.46718476545959
 20
-140.5357801297966
 30
0.0
 10
87.44823674029072
 20
-140.2987575604114
 30
0.0
 10
87.44823674029072
 20
-140.1361490535076
 30
0.0
 10
87.44823674029072
 20
-139.9921440622242
 30
0.0
 10
87.46511770816845
 20
-139.740652091801
 30
0.0
 10
87.57088213956561
 20
-139.5415255727535
 30
0.0
 10
87.67871362825393
 20
-139.3382649391238
 30
0.0
 10
87.83959958741511
 20
-139.3151827993726
 30
0.0
 10
87.96844615856345
 20
-139.3151827993726
 30
0.0
 10
88.12726506043346
 20
-139.3151827993726
 30
0.0
 10
88.27092554216838
 20
-139.3596245311323
 30
0.0
 10
88.3663546871098
 20
-139.5415255727535
 30
0.0
 10
88.465573437085
 20
-139.734106410379
 30
0.0
 10
88.48900008638469
 20
-139.962516241051
 30
0.0
 10
88.48900008638469
 20
-140.1361490535076
 30
0.0
 10
88.48900008638469
 20
-140.3073702991246
 30
0.0
 10
88.46764049437616
 20
-140.5378471870878
 30
0.0
 10
88.3663546871098
 20
-140.7304280247132
 30
0.0
  0
SPLINE
  5
FD
330
F6
100
AcDbEntity
  8
_U+30EC_U+30A4_U+30E4_U+30FC 1
370
     0
100
AcDbSpline
210
0.0
220
0.0
230
1.0
 70
    11
 71
     3
 72
    17
 73
    13
 74
     0
 42
0.0000000001
 43
0.0000000001
 12
1.0
 22
0.0
 32
0.0
 13
1.0
 23
0.0
 33
0.0
 40
0.0
 40
0.0
 40
0.0
 40
0.0
 40
1.0
 40
1.0
 40
1.0
 40
2.0
 40
2.0
 40
2.0
 40
3.0
 40
3.0
 40
3.0
 40
4.0
 40
4.0
 40
4.0
 40
4.0
 10
87.96844615856345
 20
-139.5077636369981
 30
0.0
 10
87.71902124543136
 20
-139.5077636369981
 30
0.0
 10
87.67216794683196
 20
-139.7912949954341
 30
0.0
 10
87.67216794683196
 20
-140.1361490535076
 30
0.0
 10
87.67216794683196
 20
-140.4555094049903
 30
0.0
 10
87.70834144942708
 20
-140.7641899604687
 30
0.0
 10
87.96844615856345
 20
-140.7641899604687
 30
0.0
 10
88.21614852395291
 20
-140.7641899604687
 30
0.0
 10
88.26472437029493
 20
-140.4827256593238
 30
0.0
 10
88.26472437029493
 20
-140.1361490535076
 30
0.0
 10
88.26472437029493
 20
-139.8164441924764
 30
0.0
 10
88.22648381040867
 20
-139.5077636369981
 30
0.0
 10
87.96844615856345
 20
-139.5077636369981
 30
0.0
  0
HATCH
  5
FE
330
F6
100
AcDbEntity
  8
_U+30EC_U+30A4_U+30E4_U+30FC 1
 62
   179
420
  2234388
100
AcDbHatch
 10
0.0
 20
0.0
 30
0.0
210
0.0
220
0.0
230
1.0
  2
SOLID
 70
     1
 71
     0
 91
        2
 92
        1
 93
        1
 72
     4
 94
        3
 73
     0
 74
     1
 95
       29
 96
       25
 40
0.0
 40
0.0
 40
0.0
 40
0.0
 40
1.0
 40
1.0
 40
1.0
 40
2.0
 40
2.0
 40
2.0
 40
3.0
 40
3.0
 40
3.0
 40
4.0
 40
4.0
 40
4.0
 40
5.0
 40
5.0
 40
5.0
 40
6.0
 40
6.0
 40
6.0
 40
7.0
 40
7.0
 40
7.0
 40
8.0
 40
8.0
 40
8.0
 40
8.0
 10
88.3663546871098
 20
-140.7304280247132
 10
88.25817868887296
 20
-140.9398898302164
 10
88.0848903859649
 20
-140.9588378553853
 10
87.96844615856345
 20
-140.9588378553853
 10
87.80756019940227
 20
-140.9588378553853
 10
87.6659667749585
 20
-140.9123290663344
 10
87.57088213956561
 20
-140.7304280247132
 10
87.46718476545959
 20
-140.5357801297966
 10
87.44823674029072
 20
-140.2987575604114
 10
87.44823674029072
 20
-140.1361490535076
 10
87.44823674029072
 20
-139.9921440622242
 10
87.46511770816845
 20
-139.740652091801
 10
87.57088213956561
 20
-139.5415255727535
 10
87.67871362825393
 20
-139.3382649391238
 10
87.83959958741511
 20
-139.3151827993726
 10
87.96844615856345
 20
-139.3151827993726
 10
88.12726506043346
 20
-139.3151827993726
 10
88.27092554216838
 20
-139.3596245311323
 10
88.3663546871098
 20
-139.5415255727535
 10
88.465573437085
 20
-139.734106410379
 10
88.48900008638469
 20
-139.962516241051
 10
88.48900008638469
 20
-140.1361490535076
 10
88.48900008638469
 20
-140.3073702991246
 10
88.46764049437616
 20
-140.5378471870878
 10
88.3663546871098
 20
-140.7304280247132
 97
        0
 97
        0
 92
        1
 93
        1
 72
     4
 94
        3
 73
     0
 74
     1
 95
       17
 96
       13
 40
0.0
 40
0.0
 40
0.0
 40
0.0
 40
1.0
 40
1.0
 40
1.0
 40
2.0
 40
2.0
 40
2.0
 40
3.0
 40
3.0
 40
3.0
 40
4.0
 40
4.0
 40
4.0
 40
4.0
 10
87.96844615856345
 20
-139.5077636369981
 10
87.71902124543136
 20
-139.5077636369981
 10
87.67216794683196
 20
-139.7912949954341
 10
87.67216794683196
 20
-140.1361490535076
 10
87.67216794683196
 20
-140.4555094049903
 10
87.70834144942708
 20
-140.7641899604687
 10
87.96844615856345
 20
-140.7641899604687
 10
88.21614852395291
 20
-140.7641899604687
 10
88.26472437029493
 20
-140.4827256593238
 10
88.26472437029493
 20
-140.1361490535076
 10
88.26472437029493
 20
-139.8164441924764
 10
88.22648381040867
 20
-139.5077636369981
 10
87.96844615856345
 20
-139.5077636369981
 97
        0
 97
        0
 75
     2
 76
     1
 98
        0
  0
ENDBLK
  5
F9
330
F6
100
AcDbEntity
  8
0
100
AcDbBlockEnd
  0
ENDSEC
  0
SECTION
  2
ENTITIES
  0
POLYLINE
  5
41
330
1F
100
AcDbEntity
  8
_U+30EC_U+30A4_U+30E4_U+30FC 1
370
     0
100
AcDb2dPolyline
 66
     1
 10
0.0
 20
0.0
 30
0.0
  0
VERTEX
  5
42
330
41
100
AcDbEntity
  8
_U+30EC_U+30A4_U+30E4_U+30FC 1
370
     0
100
AcDbVertex
100
AcDb2dVertex
 10
96.12883754754904
 20
-136.644556354728
 30
0.0
  0
VERTEX
  5
43
330
41
100
AcDbEntity
  8
_U+30EC_U+30A4_U+30E4_U+30FC 1
370
     0
100
AcDbVertex
100
AcDb2dVertex
 10
96.12883754754904
 20
-134.1378938553541
 30
0.0
  0
VERTEX
  5
44
330
41
100
AcDbEntity
  8
_U+30EC_U+30A4_U+30E4_U+30FC 1
370
     0
100
AcDbVertex
100
AcDb2dVertex
 10
95.11806108733167
 20
-134.1378938553541
 30
0.0
  0
VERTEX
  5
45
330
41
100
AcDbEntity
  8
_U+30EC_U+30A4_U+30E4_U+30FC 1
370
     0
100
AcDbVertex
100
AcDb2dVertex
 10
95.11806108733167
 20
-135.6416796883119
 30
0.0
  0
VERTEX
  5
46
330
41
100
AcDbEntity
  8
_U+30EC_U+30A4_U+30E4_U+30FC 1
370
     0
100
AcDbVertex
100
AcDb2dVertex
 10
88.27332330351545
 20
-135.6416796883119
 30
0.0
  0
VERTEX
  5
47
330
41
100
AcDbEntity
  8
_U+30EC_U+30A4_U+30E4_U+30FC 1
370
     0
100
AcDbVertex
100
AcDb2dVertex
 10
88.27332330351545
 20
-122.4376660805017
 30
0.0
  0
VERTEX
  5
48
330
41
100
AcDbEntity
  8
_U+30EC_U+30A4_U+30E4_U+30FC 1
370
     0
100
AcDbVertex
100
AcDb2dVertex
 10
104.4859665010076
 20
-122.4376660805017
 30
0.0
  0
VERTEX
  5
49
330
41
100
AcDbEntity
  8
_U+30EC_U+30A4_U+30E4_U+30FC 1
370
     0
100
AcDbVertex
100
AcDb2dVertex
 10
104.4859665010076
 20
-121.4347894140856
 30
0.0
  0
VERTEX
  5
4A
330
41
100
AcDbEntity
  8
_U+30EC_U+30A4_U+30E4_U+30FC 1
370
     0
100
AcDbVertex
100
AcDb2dVertex
 10
71.05752124272716
 20
-121.4347894140856
 30
0.0
  0
VERTEX
  5
4B
330
41
100
AcDbEntity
  8
_U+30EC_U+30A4_U+30E4_U+30FC 1
370
     0
100
AcDbVertex
100
AcDb2dVertex
 10
71.05752124272716
 20
-122.4376660805017
 30
0.0
  0
VERTEX
  5
4C
330
41
100
AcDbEntity
  8
_U+30EC_U+30A4_U+30E4_U+30FC 1
370
     0
100
AcDbVertex
100
AcDb2dVertex
 10
87.2701291624424
 20
-122.4376660805017
 30
0.0
  0
VERTEX
  5
4D
330
41
100
AcDbEntity
  8
_U+30EC_U+30A4_U+30E4_U+30FC 1
370
     0
100
AcDbVertex
100
AcDb2dVertex
 10
87.2701291624424
 20
-135.6416796883119
 30
0.0
  0
VERTEX
  5
4E
330
41
100
AcDbEntity
  8
_U+30EC_U+30A4_U+30E4_U+30FC 1
370
     0
100
AcDbVertex
100
AcDb2dVertex
 10
80.41749155948997
 20
-135.6416796883119
 30
0.0
  0
VERTEX
  5
4F
330
41
100
AcDbEntity
  8
_U+30EC_U+30A4_U+30E4_U+30FC 1
370
     0
100
AcDbVertex
100
AcDb2dVertex
 10
80.41749155948997
 20
-134.1378938553541
 30
0.0
  0
VERTEX
  5
50
330
41
100
AcDbEntity
  8
_U+30EC_U+30A4_U+30E4_U+30FC 1
370
     0
100
AcDbVertex
100
AcDb2dVertex
 10
79.41461491840883
 20
-134.1378938553541
 30
0.0
  0
VERTEX
  5
51
330
41
100
AcDbEntity
  8
_U+30EC_U+30A4_U+30E4_U+30FC 1
370
     0
100
AcDbVertex
100
AcDb2dVertex
 10
79.41461491840883
 20
-136.644556354728
 30
0.0
  0
VERTEX
  5
52
330
41
100
AcDbEntity
  8
_U+30EC_U+30A4_U+30E4_U+30FC 1
370
     0
100
AcDbVertex
100
AcDb2dVertex
 10
96.12883754754904
 20
-136.644556354728
 30
0.0
  0
SEQEND
  5
54
330
41
100
AcDbEntity
  8
_U+30EC_U+30A4_U+30E4_U+30FC 1
370
     0
  0
HATCH
  5
53
330
1F
100
AcDbEntity
  8
_U+30EC_U+30A4_U+30E4_U+30FC 1
 62
   253
420
 10066329
100
AcDbHatch
 10
0.0
 20
0.0
 30
0.0
210
0.0
220
0.0
230
1.0
  2
SOLID
 70
     1
 71
     0
 91
        1
 92
        1
 93
       16
 72
     1
 10
96.12883754754904
 20
-136.644556354728
 11
96.12883754754904
 21
-134.1378938553542
 72
     1
 10
96.12883754754904
 20
-134.1378938553541
 11
95.11806108733167
 21
-134.1378938553541
 72
     1
 10
95.11806108733167
 20
-134.1378938553541
 11
95.11806108733167
 21
-135.6416796883119
 72
     1
 10
95.11806108733167
 20
-135.6416796883119
 11
88.27332330351545
 21
-135.6416796883119
 72
     1
 10
88.27332330351545
 20
-135.6416796883119
 11
88.27332330351545
 21
-122.4376660805017
 72
     1
 10
88.27332330351545
 20
-122.4376660805017
 11
104.4859665010076
 21
-122.4376660805017
 72
     1
 10
104.4859665010076
 20
-122.4376660805017
 11
104.4859665010076
 21
-121.4347894140856
 72
     1
 10
104.4859665010076
 20
-121.4347894140856
 11
71.05752124272716
 21
-121.4347894140856
 72
     1
 10
71.05752124272716
 20
-121.4347894140856
 11
71.05752124272716
 21
-122.4376660805017
 72
     1
 10
71.05752124272716
 20
-122.4376660805017
 11
87.2701291624424
 21
-122.4376660805017
 72
     1
 10
87.2701291624424
 20
-122.4376660805017
 11
87.2701291624424
 21
-135.6416796883119
 72
     1
 10
87.2701291624424
 20
-135.6416796883119
 11
80.41749155948997
 21
-135.6416796883119
 72
     1
 10
80.41749155948997
 20
-135.6416796883119
 11
80.41749155948997
 21
-134.1378938553541
 72
     1
 10
80.41749155948997
 20
-134.1378938553541
 11
79.41461491840882
 21
-134.1378938553541
 72
     1
 10
79.41461491840883
 20
-134.1378938553541
 11
79.41461491840883
 21
-136.644556354728
 72
     1
 10
79.41461491840883
 20
-136.644556354728
 11
96.12883754754904
 21
-136.644556354728
 97
        0
 75
     2
 76
     1
 98
        0
  0
POLYLINE
  5
55
330
1F
100
AcDbEntity
  8
_U+30EC_U+30A4_U+30E4_U+30FC 1
 62
   179
420
  2234388
370
    25
100
AcDb2dPolyline
 66
     1
 10
0.0
 20
0.0
 30
0.0
  0
VERTEX
  5
56
330
55
100
AcDbEntity
  8
_U+30EC_U+30A4_U+30E4_U+30FC 1
 62
   179
420
  2234388
370
    25
100
AcDbVertex
100
AcDb2dVertex
 10
79.41461491840883
 20
-136.644556354728
 30
0.0
  0
VERTEX
  5
57
330
55
100
AcDbEntity
  8
_U+30EC_U+30A4_U+30E4_U+30FC 1
 62
   179
420
  2234388
370
    25
100
AcDbVertex
100
AcDb2dVertex
 10
96.12883754754904
 20
-136.644556354728
 30
0.0
  0
SEQEND
  5
58
330
55
100
AcDbEntity
  8
_U+30EC_U+30A4_U+30E4_U+30FC 1
 62
   179
420
  2234388
370
    25
  0
POLYLINE
  5
59
330
1F
100
AcDbEntity
  8
_U+30EC_U+30A4_U+30E4_U+30FC 1
 62
   179
420
  2234388
370
    25
100
AcDb2dPolyline
 66
     1
 10
0.0
 20
0.0
 30
0.0
  0
VERTEX
  5
5A
330
59
100
AcDbEntity
  8
_U+30EC_U+30A4_U+30E4_U+30FC 1
 62
   179
420
  2234388
370
    25
100
AcDbVertex
100
AcDb2dVertex
 10
71.05752124272716
 20
-121.4347894140856
 30
0.0
  0
VERTEX
  5
5B
330
59
100
AcDbEntity
  8
_U+30EC_U+30A4_U+30E4_U+30FC 1
 62
   179
420
  2234388
370
    25
100
AcDbVertex
100
AcDb2dVertex
 10
104.4859665010076
 20
-121.4347894140856
 30
0.0
  0
SEQEND
  5
5C
330
59
100
AcDbEntity
  8
_U+30EC_U+30A4_U+30E4_U+30FC 1
 62
   179
420
  2234388
370
    25
  0
POLYLINE
  5
5D
330
1F
100
AcDbEntity
  8
_U+30EC_U+30A4_U+30E4_U+30FC 1
 62
   179
420
  2234388
370
    25
100
AcDb2dPolyline
 66
     1
 10
0.0
 20
0.0
 30
0.0
  0
VERTEX
  5
5E
330
5D
100
AcDbEntity
  8
_U+30EC_U+30A4_U+30E4_U+30FC 1
 62
   179
420
  2234388
370
    25
100
AcDbVertex
100
AcDb2dVertex
 10
95.11806108733167
 20
-134.1378938553541
 30
0.0
  0
VERTEX
  5
5F
330
5D
100
AcDbEntity
  8
_U+30EC_U+30A4_U+30E4_U+30FC 1
 62
   179
420
  2234388
370
    25
100
AcDbVertex
100
AcDb2dVertex
 10
96.12883754754904
 20
-134.1378938553541
 30
0.0
  0
SEQEND
  5
60
330
5D
100
AcDbEntity
  8
_U+30EC_U+30A4_U+30E4_U+30FC 1
 62
   179
420
  2234388
370
    25
  0
POLYLINE
  5
61
330
1F
100
AcDbEntity
  8
_U+30EC_U+30A4_U+30E4_U+30FC 1
 62
   179
420
  2234388
370
    25
100
AcDb2dPolyline
 66
     1
 10
0.0
 20
0.0
 30
0.0
  0
VERTEX
  5
62
330
61
100
AcDbEntity
  8
_U+30EC_U+30A4_U+30E4_U+30FC 1
 62
   179
420
  2234388
370
    25
100
AcDbVertex
100
AcDb2dVertex
 10
79.41461491840883
 20
-134.1378938553541
 30
0.0
  0
VERTEX
  5
63
330
61
100
AcDbEntity
  8
_U+30EC_U+30A4_U+30E4_U+30FC 1
 62
   179
420
  2234388
370
    25
100
AcDbVertex
100
AcDb2dVertex
 10
80.41749155948997
 20
-134.1378938553541
 30
0.0
  0
SEQEND
  5
64
330
61
100
AcDbEntity
  8
_U+30EC_U+30A4_U+30E4_U+30FC 1
 62
   179
420
  2234388
370
    25
  0
POLYLINE
  5
65
330
1F
100
AcDbEntity
  8
_U+30EC_U+30A4_U+30E4_U+30FC 1
 62
   179
420
  2234388
370
    25
100
AcDb2dPolyline
 66
     1
 10
0.0
 20
0.0
 30
0.0
  0
VERTEX
  5
66
330
65
100
AcDbEntity
  8
_U+30EC_U+30A4_U+30E4_U+30FC 1
 62
   179
420
  2234388
370
    25
100
AcDbVertex
100
AcDb2dVertex
 10
95.11806108733167
 20
-134.1378938553541
 30
0.0
  0
VERTEX
  5
67
330
65
100
AcDbEntity
  8
_U+30EC_U+30A4_U+30E4_U+30FC 1
 62
   179
420
  2234388
370
    25
100
AcDbVertex
100
AcDb2dVertex
 10
95.11806108733167
 20
-135.6416796883119
 30
0.0
  0
SEQEND
  5
68
330
65
100
AcDbEntity
  8
_U+30EC_U+30A4_U+30E4_U+30FC 1
 62
   179
420
  2234388
370
    25
  0
POLYLINE
  5
69
330
1F
100
AcDbEntity
  8
_U+30EC_U+30A4_U+30E4_U+30FC 1
 62
   179
420
  2234388
370
    25
100
AcDb2dPolyline
 66
     1
 10
0.0
 20
0.0
 30
0.0
  0
VERTEX
  5
6A
330
69
100
AcDbEntity
  8
_U+30EC_U+30A4_U+30E4_U+30FC 1
 62
   179
420
  2234388
370
    25
100
AcDbVertex
100
AcDb2dVertex
 10
80.41749155948997
 20
-134.1378938553541
 30
0.0
  0
VERTEX
  5
6B
330
69
100
AcDbEntity
  8
_U+30EC_U+30A4_U+30E4_U+30FC 1
 62
   179
420
  2234388
370
    25
100
AcDbVertex
100
AcDb2dVertex
 10
80.41749155948997
 20
-135.6416796883119
 30
0.0
  0
SEQEND
  5
6C
330
69
100
AcDbEntity
  8
_U+30EC_U+30A4_U+30E4_U+30FC 1
 62
   179
420
  2234388
370
    25
  0
POLYLINE
  5
6D
330
1F
100
AcDbEntity
  8
_U+30EC_U+30A4_U+30E4_U+30FC 1
 62
   179
420
  2234388
370
    25
100
AcDb2dPolyline
 66
     1
 10
0.0
 20
0.0
 30
0.0
  0
VERTEX
  5
6E
330
6D
100
AcDbEntity
  8
_U+30EC_U+30A4_U+30E4_U+30FC 1
 62
   179
420
  2234388
370
    25
100
AcDbVertex
100
AcDb2dVertex
 10
88.27332330351545
 20
-135.6416796883119
 30
0.0
  0
VERTEX
  5
6F
330
6D
100
AcDbEntity
  8
_U+30EC_U+30A4_U+30E4_U+30FC 1
 62
   179
420
  2234388
370
    25
100
AcDbVertex
100
AcDb2dVertex
 10
95.11806108733167
 20
-135.6416796883119
 30
0.0
  0
SEQEND
  5
70
330
6D
100
AcDbEntity
  8
_U+30EC_U+30A4_U+30E4_U+30FC 1
 62
   179
420
  2234388
370
    25
  0
POLYLINE
  5
71
330
1F
100
AcDbEntity
  8
_U+30EC_U+30A4_U+30E4_U+30FC 1
 62
   179
420
  2234388
370
    25
100
AcDb2dPolyline
 66
     1
 10
0.0
 20
0.0
 30
0.0
  0
VERTEX
  5
72
330
71
100
AcDbEntity
  8
_U+30EC_U+30A4_U+30E4_U+30FC 1
 62
   179
420
  2234388
370
    25
100
AcDbVertex
100
AcDb2dVertex
 10
80.41749155948997
 20
-135.6416796883119
 30
0.0
  0
VERTEX
  5
73
330
71
100
AcDbEntity
  8
_U+30EC_U+30A4_U+30E4_U+30FC 1
 62
   179
420
  2234388
370
    25
100
AcDbVertex
100
AcDb2dVertex
 10
87.2701291624424
 20
-135.6416796883119
 30
0.0
  0
SEQEND
  5
74
330
71
100
AcDbEntity
  8
_U+30EC_U+30A4_U+30E4_U+30FC 1
 62
   179
420
  2234388
370
    25
  0
POLYLINE
  5
75
330
1F
100
AcDbEntity
  8
_U+30EC_U+30A4_U+30E4_U+30FC 1
 62
   179
420
  2234388
370
    25
100
AcDb2dPolyline
 66
     1
 10
0.0
 20
0.0
 30
0.0
  0
VERTEX
  5
76
330
75
100
AcDbEntity
  8
_U+30EC_U+30A4_U+30E4_U+30FC 1
 62
   179
420
  2234388
370
    25
100
AcDbVertex
100
AcDb2dVertex
 10
88.27332330351545
 20
-122.4376660805017
 30
0.0
  0
VERTEX
  5
77
330
75
100
AcDbEntity
  8
_U+30EC_U+30A4_U+30E4_U+30FC 1
 62
   179
420
  2234388
370
    25
100
AcDbVertex
100
AcDb2dVertex
 10
104.4859665010076
 20
-122.4376660805017
 30
0.0
  0
SEQEND
  5
78
330
75
100
AcDbEntity
  8
_U+30EC_U+30A4_U+30E4_U+30FC 1
 62
   179
420
  2234388
370
    25
  0
POLYLINE
  5
79
330
1F
100
AcDbEntity
  8
_U+30EC_U+30A4_U+30E4_U+30FC 1
 62
   179
420
  2234388
370
    25
100
AcDb2dPolyline
 66
     1
 10
0.0
 20
0.0
 30
0.0
  0
VERTEX
  5
7A
330
79
100
AcDbEntity
  8
_U+30EC_U+30A4_U+30E4_U+30FC 1
 62
   179
420
  2234388
370
    25
100
AcDbVertex
100
AcDb2dVertex
 10
71.05752124272716
 20
-122.4376660805017
 30
0.0
  0
VERTEX
  5
7B
330
79
100
AcDbEntity
  8
_U+30EC_U+30A4_U+30E4_U+30FC 1
 62
   179
420
  2234388
370
    25
100
AcDbVertex
100
AcDb2dVertex
 10
87.2701291624424
 20
-122.4376660805017
 30
0.0
  0
SEQEND
  5
7C
330
79
100
AcDbEntity
  8
_U+30EC_U+30A4_U+30E4_U+30FC 1
 62
   179
420
  2234388
370
    25
  0
POLYLINE
  5
7D
330
1F
100
AcDbEntity
  8
_U+30EC_U+30A4_U+30E4_U+30FC 1
 62
   179
420
  2234388
370
    25
100
AcDb2dPolyline
 66
     1
 10
0.0
 20
0.0
 30
0.0
  0
VERTEX
  5
7E
330
7D
100
AcDbEntity
  8
_U+30EC_U+30A4_U+30E4_U+30FC 1
 62
   179
420
  2234388
370
    25
100
AcDbVertex
100
AcDb2dVertex
 10
79.41461491840883
 20
-134.1378938553541
 30
0.0
  0
VERTEX
  5
7F
330
7D
100
AcDbEntity
  8
_U+30EC_U+30A4_U+30E4_U+30FC 1
 62
   179
420
  2234388
370
    25
100
AcDbVertex
100
AcDb2dVertex
 10
79.41461491840883
 20
-136.644556354728
 30
0.0
  0
SEQEND
  5
80
330
7D
100
AcDbEntity
  8
_U+30EC_U+30A4_U+30E4_U+30FC 1
 62
   179
420
  2234388
370
    25
  0
POLYLINE
  5
81
330
1F
100
AcDbEntity
  8
_U+30EC_U+30A4_U+30E4_U+30FC 1
 62
   179
420
  2234388
370
    25
100
AcDb2dPolyline
 66
     1
 10
0.0
 20
0.0
 30
0.0
  0
VERTEX
  5
82
330
81
100
AcDbEntity
  8
_U+30EC_U+30A4_U+30E4_U+30FC 1
 62
   179
420
  2234388
370
    25
100
AcDbVertex
100
AcDb2dVertex
 10
96.12883754754904
 20
-134.1378938553541
 30
0.0
  0
VERTEX
  5
83
330
81
100
AcDbEntity
  8
_U+30EC_U+30A4_U+30E4_U+30FC 1
 62
   179
420
  2234388
370
    25
100
AcDbVertex
100
AcDb2dVertex
 10
96.12883754754904
 20
-136.644556354728
 30
0.0
  0
SEQEND
  5
84
330
81
100
AcDbEntity
  8
_U+30EC_U+30A4_U+30E4_U+30FC 1
 62
   179
420
  2234388
370
    25
  0
POLYLINE
  5
85
330
1F
100
AcDbEntity
  8
_U+30EC_U+30A4_U+30E4_U+30FC 1
 62
   179
420
  2234388
370
    25
100
AcDb2dPolyline
 66
     1
 10
0.0
 20
0.0
 30
0.0
  0
VERTEX
  5
86
330
85
100
AcDbEntity
  8
_U+30EC_U+30A4_U+30E4_U+30FC 1
 62
   179
420
  2234388
370
    25
100
AcDbVertex
100
AcDb2dVertex
 10
104.4859665010076
 20
-121.4347894140856
 30
0.0
  0
VERTEX
  5
87
330
85
100
AcDbEntity
  8
_U+30EC_U+30A4_U+30E4_U+30FC 1
 62
   179
420
  2234388
370
    25
100
AcDbVertex
100
AcDb2dVertex
 10
104.4859665010076
 20
-122.4376660805017
 30
0.0
  0
SEQEND
  5
88
330
85
100
AcDbEntity
  8
_U+30EC_U+30A4_U+30E4_U+30FC 1
 62
   179
420
  2234388
370
    25
  0
POLYLINE
  5
89
330
1F
100
AcDbEntity
  8
_U+30EC_U+30A4_U+30E4_U+30FC 1
 62
   179
420
  2234388
370
    25
100
AcDb2dPolyline
 66
     1
 10
0.0
 20
0.0
 30
0.0
  0
VERTEX
  5
8A
330
89
100
AcDbEntity
  8
_U+30EC_U+30A4_U+30E4_U+30FC 1
 62
   179
420
  2234388
370
    25
100
AcDbVertex
100
AcDb2dVertex
 10
71.05752124272716
 20
-121.4347894140856
 30
0.0
  0
VERTEX
  5
8B
330
89
100
AcDbEntity
  8
_U+30EC_U+30A4_U+30E4_U+30FC 1
 62
   179
420
  2234388
370
    25
100
AcDbVertex
100
AcDb2dVertex
 10
71.05752124272716
 20
-122.4376660805017
 30
0.0
  0
SEQEND
  5
8C
330
89
100
AcDbEntity
  8
_U+30EC_U+30A4_U+30E4_U+30FC 1
 62
   179
420
  2234388
370
    25
  0
POLYLINE
  5
8D
330
1F
100
AcDbEntity
  8
_U+30EC_U+30A4_U+30E4_U+30FC 1
 62
   179
420
  2234388
370
    25
100
AcDb2dPolyline
 66
     1
 10
0.0
 20
0.0
 30
0.0
  0
VERTEX
  5
8E
330
8D
100
AcDbEntity
  8
_U+30EC_U+30A4_U+30E4_U+30FC 1
 62
   179
420
  2234388
370
    25
100
AcDbVertex
100
AcDb2dVertex
 10
88.27332330351545
 20
-122.4376660805017
 30
0.0
  0
VERTEX
  5
8F
330
8D
100
AcDbEntity
  8
_U+30EC_U+30A4_U+30E4_U+30FC 1
 62
   179
420
  2234388
370
    25
100
AcDbVertex
100
AcDb2dVertex
 10
88.27332330351545
 20
-135.6416796883119
 30
0.0
  0
SEQEND
  5
90
330
8D
100
AcDbEntity
  8
_U+30EC_U+30A4_U+30E4_U+30FC 1
 62
   179
420
  2234388
370
    25
  0
POLYLINE
  5
91
330
1F
100
AcDbEntity
  8
_U+30EC_U+30A4_U+30E4_U+30FC 1
 62
   179
420
  2234388
370
    25
100
AcDb2dPolyline
 66
     1
 10
0.0
 20
0.0
 30
0.0
  0
VERTEX
  5
92
330
91
100
AcDbEntity
  8
_U+30EC_U+30A4_U+30E4_U+30FC 1
 62
   179
420
  2234388
370
    25
100
AcDbVertex
100
AcDb2dVertex
 10
87.2701291624424
 20
-122.4376660805017
 30
0.0
  0
VERTEX
  5
93
330
91
100
AcDbEntity
  8
_U+30EC_U+30A4_U+30E4_U+30FC 1
 62
   179
420
  2234388
370
    25
100
AcDbVertex
100
AcDb2dVertex
 10
87.2701291624424
 20
-135.6416796883119
 30
0.0
  0
SEQEND
  5
94
330
91
100
AcDbEntity
  8
_U+30EC_U+30A4_U+30E4_U+30FC 1
 62
   179
420
  2234388
370
    25
  0
INSERT
  5
96
330
1F
100
AcDbEntity
  8
_U+30EC_U+30A4_U+30E4_U+30FC 1
100
AcDbBlockReference
  2
block 2
 10
0.0
 20
0.0
 30
0.0
  0
INSERT
  5
9C
330
1F
100
AcDbEntity
  8
_U+30EC_U+30A4_U+30E4_U+30FC 1
100
AcDbBlockReference
  2
block 3
 10
0.0
 20
0.0
 30
0.0
  0
INSERT
  5
B5
330
1F
100
AcDbEntity
  8
_U+30EC_U+30A4_U+30E4_U+30FC 1
100
AcDbBlockReference
  2
block 4
 10
0.0
 20
0.0
 30
0.0
  0
POLYLINE
  5
BA
330
1F
100
AcDbEntity
  8
_U+30EC_U+30A4_U+30E4_U+30FC 1
 62
   179
420
  2234388
370
     9
100
AcDb2dPolyline
 66
     1
 10
0.0
 20
0.0
 30
0.0
  0
VERTEX
  5
BB
330
BA
100
AcDbEntity
  8
_U+30EC_U+30A4_U+30E4_U+30FC 1
 62
   179
420
  2234388
370
     9
100
AcDbVertex
100
AcDb2dVertex
 10
109.2391530464104
 20
-134.1378938553541
 30
0.0
  0
VERTEX
  5
BC
330
BA
100
AcDbEntity
  8
_U+30EC_U+30A4_U+30E4_U+30FC 1
 62
   179
420
  2234388
370
     9
100
AcDbVertex
100
AcDb2dVertex
 10
109.2391530464104
 20
-136.644556354728
 30
0.0
  0
SEQEND
  5
BD
330
BA
100
AcDbEntity
  8
_U+30EC_U+30A4_U+30E4_U+30FC 1
 62
   179
420
  2234388
370
     9
  0
POLYLINE
  5
BE
330
1F
100
AcDbEntity
  8
_U+30EC_U+30A4_U+30E4_U+30FC 1
 62
   179
420
  2234388
370
     9
100
AcDb2dPolyline
 66
     1
 10
0.0
 20
0.0
 30
0.0
  0
VERTEX
  5
BF
330
BE
100
AcDbEntity
  8
_U+30EC_U+30A4_U+30E4_U+30FC 1
 62
   179
420
  2234388
370
     9
100
AcDbVertex
100
AcDb2dVertex
 10
109.2391530464104
 20
-122.4376660805017
 30
0.0
  0
VERTEX
  5
C0
330
BE
100
AcDbEntity
  8
_U+30EC_U+30A4_U+30E4_U+30FC 1
 62
   179
420
  2234388
370
     9
100
AcDbVertex
100
AcDb2dVertex
 10
109.2391530464104
 20
-134.1378938553541
 30
0.0
  0
SEQEND
  5
C1
330
BE
100
AcDbEntity
  8
_U+30EC_U+30A4_U+30E4_U+30FC 1
 62
   179
420
  2234388
370
     9
  0
POLYLINE
  5
C2
330
1F
100
AcDbEntity
  8
_U+30EC_U+30A4_U+30E4_U+30FC 1
 62
   179
420
  2234388
370
     9
100
AcDb2dPolyline
 66
     1
 10
0.0
 20
0.0
 30
0.0
  0
VERTEX
  5
C3
330
C2
100
AcDbEntity
  8
_U+30EC_U+30A4_U+30E4_U+30FC 1
 62
   179
420
  2234388
370
     9
100
AcDbVertex
100
AcDb2dVertex
 10
71.05752124272716
 20
-116.1989321931726
 30
0.0
  0
VERTEX
  5
C4
330
C2
100
AcDbEntity
  8
_U+30EC_U+30A4_U+30E4_U+30FC 1
 62
   179
420
  2234388
370
     9
100
AcDbVertex
100
AcDb2dVertex
 10
104.4859665010076
 20
-116.1989321931726
 30
0.0
  0
SEQEND
  5
C5
330
C2
100
AcDbEntity
  8
_U+30EC_U+30A4_U+30E4_U+30FC 1
 62
   179
420
  2234388
370
     9
  0
POLYLINE
  5
C6
330
1F
100
AcDbEntity
  8
_U+30EC_U+30A4_U+30E4_U+30FC 1
 62
   179
420
  2234388
370
     9
100
AcDb2dPolyline
 66
     1
 10
0.0
 20
0.0
 30
0.0
  0
VERTEX
  5
C7
330
C6
100
AcDbEntity
  8
_U+30EC_U+30A4_U+30E4_U+30FC 1
 62
   179
420
  2234388
370
     9
100
AcDbVertex
100
AcDb2dVertex
 10
71.05752124272716
 20
-120.0977616366421
 30
0.0
  0
VERTEX
  5
C8
330
C6
100
AcDbEntity
  8
_U+30EC_U+30A4_U+30E4_U+30FC 1
 62
   179
420
  2234388
370
     9
100
AcDbVertex
100
AcDb2dVertex
 10
71.05752124272716
 20
-114.9678435823692
 30
0.0
  0
SEQEND
  5
C9
330
C6
100
AcDbEntity
  8
_U+30EC_U+30A4_U+30E4_U+30FC 1
 62
   179
420
  2234388
370
     9
  0
POLYLINE
  5
CA
330
1F
100
AcDbEntity
  8
_U+30EC_U+30A4_U+30E4_U+30FC 1
 62
   179
420
  2234388
370
     9
100
AcDb2dPolyline
 66
     1
 10
0.0
 20
0.0
 30
0.0
  0
VERTEX
  5
CB
330
CA
100
AcDbEntity
  8
_U+30EC_U+30A4_U+30E4_U+30FC 1
 62
   179
420
  2234388
370
     9
100
AcDbVertex
100
AcDb2dVertex
 10
96.12883754754904
 20
-137.9822896877267
 30
0.0
  0
VERTEX
  5
CC
330
CA
100
AcDbEntity
  8
_U+30EC_U+30A4_U+30E4_U+30FC 1
 62
   179
420
  2234388
370
     9
100
AcDbVertex
100
AcDb2dVertex
 10
96.12883754754904
 20
-142.8763757976141
 30
0.0
  0
SEQEND
  5
CD
330
CA
100
AcDbEntity
  8
_U+30EC_U+30A4_U+30E4_U+30FC 1
 62
   179
420
  2234388
370
     9
  0
POLYLINE
  5
CE
330
1F
100
AcDbEntity
  8
_U+30EC_U+30A4_U+30E4_U+30FC 1
 62
   179
420
  2234388
370
     9
100
AcDb2dPolyline
 66
     1
 10
0.0
 20
0.0
 30
0.0
  0
VERTEX
  5
CF
330
CE
100
AcDbEntity
  8
_U+30EC_U+30A4_U+30E4_U+30FC 1
 62
   179
420
  2234388
370
     9
100
AcDbVertex
100
AcDb2dVertex
 10
79.41461491840883
 20
-141.6550944090305
 30
0.0
  0
VERTEX
  5
D0
330
CE
100
AcDbEntity
  8
_U+30EC_U+30A4_U+30E4_U+30FC 1
 62
   179
420
  2234388
370
     9
100
AcDbVertex
100
AcDb2dVertex
 10
96.12883754754904
 20
-141.6550944090305
 30
0.0
  0
SEQEND
  5
D1
330
CE
100
AcDbEntity
  8
_U+30EC_U+30A4_U+30E4_U+30FC 1
 62
   179
420
  2234388
370
     9
  0
POLYLINE
  5
D2
330
1F
100
AcDbEntity
  8
_U+30EC_U+30A4_U+30E4_U+30FC 1
 62
   179
420
  2234388
370
     9
100
AcDb2dPolyline
 66
     1
 10
0.0
 20
0.0
 30
0.0
  0
VERTEX
  5
D3
330
D2
100
AcDbEntity
  8
_U+30EC_U+30A4_U+30E4_U+30FC 1
 62
   179
420
  2234388
370
     9
100
AcDbVertex
100
AcDb2dVertex
 10
79.41461491840883
 20
-137.9822896877267
 30
0.0
  0
VERTEX
  5
D4
330
D2
100
AcDbEntity
  8
_U+30EC_U+30A4_U+30E4_U+30FC 1
 62
   179
420
  2234388
370
     9
100
AcDbVertex
100
AcDb2dVertex
 10
79.41461491840883
 20
-142.8763757976141
 30
0.0
  0
SEQEND
  5
D5
330
D2
100
AcDbEntity
  8
_U+30EC_U+30A4_U+30E4_U+30FC 1
 62
   179
420
  2234388
370
     9
  0
POLYLINE
  5
D6
330
1F
100
AcDbEntity
  8
_U+30EC_U+30A4_U+30E4_U+30FC 1
 62
   179
420
  2234388
370
     9
100
AcDb2dPolyline
 66
     1
 10
0.0
 20
0.0
 30
0.0
  0
VERTEX
  5
D7
330
D6
100
AcDbEntity
  8
_U+30EC_U+30A4_U+30E4_U+30FC 1
 62
   179
420
  2234388
370
     9
100
AcDbVertex
100
AcDb2dVertex
 10
104.4859665010076
 20
-120.0977616366421
 30
0.0
  0
VERTEX
  5
D8
330
D6
100
AcDbEntity
  8
_U+30EC_U+30A4_U+30E4_U+30FC 1
 62
   179
420
  2234388
370
     9
100
AcDbVertex
100
AcDb2dVertex
 10
104.4859665010076
 20
-114.9678435823692
 30
0.0
  0
SEQEND
  5
D9
330
D6
100
AcDbEntity
  8
_U+30EC_U+30A4_U+30E4_U+30FC 1
 62
   179
420
  2234388
370
     9
  0
INSERT
  5
DB
330
1F
100
AcDbEntity
  8
_U+30EC_U+30A4_U+30E4_U+30FC 1
100
AcDbBlockReference
  2
block 5
 10
0.0
 20
0.0
 30
0.0
  0
INSERT
  5
F7
330
1F
100
AcDbEntity
  8
_U+30EC_U+30A4_U+30E4_U+30FC 1
100
AcDbBlockReference
  2
block 6
 10
0.0
 20
0.0
 30
0.0
  0
POLYLINE
  5
FF
330
1F
100
AcDbEntity
  8
_U+30EC_U+30A4_U+30E4_U+30FC 1
 62
   179
420
  2234388
370
     9
100
AcDb2dPolyline
 66
     1
 10
0.0
 20
0.0
 30
0.0
  0
VERTEX
  5
100
330
FF
100
AcDbEntity
  8
_U+30EC_U+30A4_U+30E4_U+30FC 1
 62
   179
420
  2234388
370
     9
100
AcDbVertex
100
AcDb2dVertex
 10
97.46621806898517
 20
-136.644556354728
 30
0.0
  0
VERTEX
  5
101
330
FF
100
AcDbEntity
  8
_U+30EC_U+30A4_U+30E4_U+30FC 1
 62
   179
420
  2234388
370
     9
100
AcDbVertex
100
AcDb2dVertex
 10
110.5055546807684
 20
-136.644556354728
 30
0.0
  0
SEQEND
  5
102
330
FF
100
AcDbEntity
  8
_U+30EC_U+30A4_U+30E4_U+30FC 1
 62
   179
420
  2234388
370
     9
  0
POLYLINE
  5
103
330
1F
100
AcDbEntity
  8
_U+30EC_U+30A4_U+30E4_U+30FC 1
 62
   179
420
  2234388
370
     9
100
AcDb2dPolyline
 66
     1
 10
0.0
 20
0.0
 30
0.0
  0
VERTEX
  5
104
330
103
100
AcDbEntity
  8
_U+30EC_U+30A4_U+30E4_U+30FC 1
 62
   179
420
  2234388
370
     9
100
AcDbVertex
100
AcDb2dVertex
 10
97.46621806898517
 20
-134.1378938553541
 30
0.0
  0
VERTEX
  5
105
330
103
100
AcDbEntity
  8
_U+30EC_U+30A4_U+30E4_U+30FC 1
 62
   179
420
  2234388
370
     9
100
AcDbVertex
100
AcDb2dVertex
 10
110.5055546807684
 20
-134.1378938553541
 30
0.0
  0
SEQEND
  5
106
330
103
100
AcDbEntity
  8
_U+30EC_U+30A4_U+30E4_U+30FC 1
 62
   179
420
  2234388
370
     9
  0
POLYLINE
  5
107
330
1F
100
AcDbEntity
  8
_U+30EC_U+30A4_U+30E4_U+30FC 1
 62
   179
420
  2234388
370
     9
100
AcDb2dPolyline
 66
     1
 10
0.0
 20
0.0
 30
0.0
  0
VERTEX
  5
108
330
107
100
AcDbEntity
  8
_U+30EC_U+30A4_U+30E4_U+30FC 1
 62
   179
420
  2234388
370
     9
100
AcDbVertex
100
AcDb2dVertex
 10
97.46621806898517
 20
-134.1378938553541
 30
0.0
  0
VERTEX
  5
109
330
107
100
AcDbEntity
  8
_U+30EC_U+30A4_U+30E4_U+30FC 1
 62
   179
420
  2234388
370
     9
100
AcDbVertex
100
AcDb2dVertex
 10
110.5055546807684
 20
-134.1378938553541
 30
0.0
  0
SEQEND
  5
10A
330
107
100
AcDbEntity
  8
_U+30EC_U+30A4_U+30E4_U+30FC 1
 62
   179
420
  2234388
370
     9
  0
POLYLINE
  5
10B
330
1F
100
AcDbEntity
  8
_U+30EC_U+30A4_U+30E4_U+30FC 1
 62
   179
420
  2234388
370
     9
100
AcDb2dPolyline
 66
     1
 10
0.0
 20
0.0
 30
0.0
  0
VERTEX
  5
10C
330
10B
100
AcDbEntity
  8
_U+30EC_U+30A4_U+30E4_U+30FC 1
 62
   179
420
  2234388
370
     9
100
AcDbVertex
100
AcDb2dVertex
 10
105.8229942446749
 20
-122.4376660805017
 30
0.0
  0
VERTEX
  5
10D
330
10B
100
AcDbEntity
  8
_U+30EC_U+30A4_U+30E4_U+30FC 1
 62
   179
420
  2234388
370
     9
100
AcDbVertex
100
AcDb2dVertex
 10
110.5055546807684
 20
-122.4376660805017
 30
0.0
  0
SEQEND
  5
10E
330
10B
100
AcDbEntity
  8
_U+30EC_U+30A4_U+30E4_U+30FC 1
 62
   179
420
  2234388
370
     9
  0
SPLINE
  5
10F
330
1F
100
AcDbEntity
  8
_U+30EC_U+30A4_U+30E4_U+30FC 1
370
     0
100
AcDbSpline
210
0.0
220
0.0
230
1.0
 70
     8
 71
     3
 72
    17
 73
    13
 74
     0
 42
0.0000000001
 43
0.0000000001
 12
1.0
 22
0.0
 32
0.0
 13
1.0
 23
0.0
 33
0.0
 40
0.0
 40
0.0
 40
0.0
 40
0.0
 40
1.0
 40
1.0
 40
1.0
 40
2.0
 40
2.0
 40
2.0
 40
3.0
 40
3.0
 40
3.0
 40
4.0
 40
4.0
 40
4.0
 40
4.0
 10
70.88250819163656
 20
-116.1961805265065
 30
0.0
 10
70.88250819163656
 20
-116.2302941376091
 30
0.0
 10
70.89661930238766
 20
-116.2633494153788
 30
0.0
 10
70.92039652400328
 20
-116.287126637595
 30
0.0
 10
70.94382096785012
 20
-116.3109038598112
 30
0.0
 10
70.97758180032214
 20
-116.3250149709188
 30
0.0
 10
71.01099164891399
 20
-116.3250149709188
 30
0.0
 10
71.04475068749741
 20
-116.3250149709188
 30
0.0
 10
71.07851151996942
 20
-116.3109038598112
 30
0.0
 10
71.10193596381627
 20
-116.287126637595
 30
0.0
 10
71.12641874096944
 20
-116.2633494153788
 30
0.0
 10
71.13950679619109
 20
-116.2302941376091
 30
0.0
 10
71.13950679619109
 20
-116.1961805265065
 30
0.0
  0
HATCH
  5
110
330
1F
100
AcDbEntity
  8
_U+30EC_U+30A4_U+30E4_U+30FC 1
 62
   179
420
  2234388
100
AcDbHatch
 10
0.0
 20
0.0
 30
0.0
210
0.0
220
0.0
230
1.0
  2
SOLID
 70
     1
 71
     0
 91
        1
 92
        1
 93
        2
 72
     4
 94
        3
 73
     0
 74
     0
 95
       17
 96
       13
 40
0.0
 40
0.0
 40
0.0
 40
0.0
 40
0.3527777776895833
 40
0.3527777776895833
 40
0.3527777776895833
 40
0.7055555553791667
 40
0.7055555553791667
 40
0.7055555553791667
 40
1.05833333306875
 40
1.05833333306875
 40
1.05833333306875
 40
1.411111110758333
 40
1.411111110758333
 40
1.411111110758333
 40
1.411111110758333
 10
70.88250819163656
 20
-116.1961805265065
 10
70.88250819163656
 20
-116.2302941376091
 10
70.89661930238766
 20
-116.2633494153788
 10
70.92039652400328
 20
-116.287126637595
 10
70.94382096785012
 20
-116.3109038598112
 10
70.97758180032214
 20
-116.3250149709188
 10
71.01099164891399
 20
-116.3250149709188
 10
71.04475068749741
 20
-116.3250149709188
 10
71.07851151996942
 20
-116.3109038598112
 10
71.10193596381627
 20
-116.287126637595
 10
71.12641874096944
 20
-116.2633494153788
 10
71.13950679619109
 20
-116.2302941376091
 10
71.13950679619109
 20
-116.1961805265065
 97
        0
 72
     1
 10
71.13950679619109
 20
-116.1961805265065
 11
70.88250819163656
 21
-116.1961805265065
 97
        0
 75
     2
 76
     1
 98
        0
  0
SPLINE
  5
111
330
1F
100
AcDbEntity
  8
_U+30EC_U+30A4_U+30E4_U+30FC 1
 62
   179
420
  2234388
370
     9
100
AcDbSpline
210
0.0
220
0.0
230
1.0
 70
     8
 71
     3
 72
    17
 73
    13
 74
     0
 42
0.0000000001
 43
0.0000000001
 12
1.0
 22
0.0
 32
0.0
 13
1.0
 23
0.0
 33
0.0
 40
0.0
 40
0.0
 40
0.0
 40
0.0
 40
1.0
 40
1.0
 40
1.0
 40
2.0
 40
2.0
 40
2.0
 40
3.0
 40
3.0
 40
3.0
 40
4.0
 40
4.0
 40
4.0
 40
4.0
 10
70.88250819163656
 20
-116.1961805265065
 30
0.0
 10
70.88250819163656
 20
-116.2302941376091
 30
0.0
 10
70.89661930238766
 20
-116.2633494153788
 30
0.0
 10
70.92039652400328
 20
-116.287126637595
 30
0.0
 10
70.94382096785012
 20
-116.3109038598112
 30
0.0
 10
70.97758180032214
 20
-116.3250149709188
 30
0.0
 10
71.01099164891399
 20
-116.3250149709188
 30
0.0
 10
71.04475068749741
 20
-116.3250149709188
 30
0.0
 10
71.07851151996942
 20
-116.3109038598112
 30
0.0
 10
71.10193596381627
 20
-116.287126637595
 30
0.0
 10
71.12641874096944
 20
-116.2633494153788
 30
0.0
 10
71.13950679619109
 20
-116.2302941376091
 30
0.0
 10
71.13950679619109
 20
-116.1961805265065
 30
0.0
  0
SPLINE
  5
112
330
1F
100
AcDbEntity
  8
_U+30EC_U+30A4_U+30E4_U+30FC 1
370
     0
100
AcDbSpline
210
0.0
220
0.0
230
1.0
 70
     8
 71
     3
 72
    17
 73
    13
 74
     0
 42
0.0000000001
 43
0.0000000001
 12
1.0
 22
0.0
 32
0.0
 13
1.0
 23
0.0
 33
0.0
 40
0.0
 40
0.0
 40
0.0
 40
0.0
 40
1.0
 40
1.0
 40
1.0
 40
2.0
 40
2.0
 40
2.0
 40
3.0
 40
3.0
 40
3.0
 40
4.0
 40
4.0
 40
4.0
 40
4.0
 10
71.13950679619109
 20
-116.1961805265065
 30
0.0
 10
71.13950679619109
 20
-116.1625960820706
 30
0.0
 10
71.12641874096944
 20
-116.1293291376342
 30
0.0
 10
71.10193596381627
 20
-116.1054108043069
 30
0.0
 10
71.07851151996942
 20
-116.0812808043129
 30
0.0
 10
71.04475068749741
 20
-116.0676635820941
 30
0.0
 10
71.01099164891399
 20
-116.0676635820941
 30
0.0
 10
70.97758180032214
 20
-116.0676635820941
 30
0.0
 10
70.94382096785012
 20
-116.0812808043129
 30
0.0
 10
70.92039652400328
 20
-116.1054108043069
 30
0.0
 10
70.89661930238766
 20
-116.1293291376342
 30
0.0
 10
70.88250819163656
 20
-116.1625960820706
 30
0.0
 10
70.88250819163656
 20
-116.1961805265065
 30
0.0
  0
HATCH
  5
113
330
1F
100
AcDbEntity
  8
_U+30EC_U+30A4_U+30E4_U+30FC 1
 62
   179
420
  2234388
100
AcDbHatch
 10
0.0
 20
0.0
 30
0.0
210
0.0
220
0.0
230
1.0
  2
SOLID
 70
     1
 71
     0
 91
        1
 92
        1
 93
        2
 72
     4
 94
        3
 73
     0
 74
     0
 95
       17
 96
       13
 40
0.0
 40
0.0
 40
0.0
 40
0.0
 40
0.3527777776895833
 40
0.3527777776895833
 40
0.3527777776895833
 40
0.7055555553791667
 40
0.7055555553791667
 40
0.7055555553791667
 40
1.05833333306875
 40
1.05833333306875
 40
1.05833333306875
 40
1.411111110758333
 40
1.411111110758333
 40
1.411111110758333
 40
1.411111110758333
 10
71.13950679619109
 20
-116.1961805265065
 10
71.13950679619109
 20
-116.1625960820706
 10
71.12641874096944
 20
-116.1293291376342
 10
71.10193596381627
 20
-116.1054108043069
 10
71.07851151996942
 20
-116.0812808043129
 10
71.04475068749741
 20
-116.0676635820941
 10
71.01099164891399
 20
-116.0676635820941
 10
70.97758180032214
 20
-116.0676635820941
 10
70.94382096785012
 20
-116.0812808043129
 10
70.92039652400328
 20
-116.1054108043069
 10
70.89661930238766
 20
-116.1293291376342
 10
70.88250819163656
 20
-116.1625960820706
 10
70.88250819163656
 20
-116.1961805265065
 97
        0
 72
     1
 10
70.88250819163656
 20
-116.1961805265065
 11
71.13950679619109
 21
-116.1961805265065
 97
        0
 75
     2
 76
     1
 98
        0
  0
SPLINE
  5
114
330
1F
100
AcDbEntity
  8
_U+30EC_U+30A4_U+30E4_U+30FC 1
 62
   179
420
  2234388
370
     9
100
AcDbSpline
210
0.0
220
0.0
230
1.0
 70
     8
 71
     3
 72
    17
 73
    13
 74
     0
 42
0.0000000001
 43
0.0000000001
 12
1.0
 22
0.0
 32
0.0
 13
1.0
 23
0.0
 33
0.0
 40
0.0
 40
0.0
 40
0.0
 40
0.0
 40
1.0
 40
1.0
 40
1.0
 40
2.0
 40
2.0
 40
2.0
 40
3.0
 40
3.0
 40
3.0
 40
4.0
 40
4.0
 40
4.0
 40
4.0
 10
71.13950679619109
 20
-116.1961805265065
 30
0.0
 10
71.13950679619109
 20
-116.1625960820706
 30
0.0
 10
71.12641874096944
 20
-116.1293291376342
 30
0.0
 10
71.10193596381627
 20
-116.1054108043069
 30
0.0
 10
71.07851151996942
 20
-116.0812808043129
 30
0.0
 10
71.04475068749741
 20
-116.0676635820941
 30
0.0
 10
71.01099164891399
 20
-116.0676635820941
 30
0.0
 10
70.97758180032214
 20
-116.0676635820941
 30
0.0
 10
70.94382096785012
 20
-116.0812808043129
 30
0.0
 10
70.92039652400328
 20
-116.1054108043069
 30
0.0
 10
70.89661930238766
 20
-116.1293291376342
 30
0.0
 10
70.88250819163656
 20
-116.1625960820706
 30
0.0
 10
70.88250819163656
 20
-116.1961805265065
 30
0.0
  0
SPLINE
  5
115
330
1F
100
AcDbEntity
  8
_U+30EC_U+30A4_U+30E4_U+30FC 1
370
     0
100
AcDbSpline
210
0.0
220
0.0
230
1.0
 70
     8
 71
     3
 72
    17
 73
    13
 74
     0
 42
0.0000000001
 43
0.0000000001
 12
1.0
 22
0.0
 32
0.0
 13
1.0
 23
0.0
 33
0.0
 40
0.0
 40
0.0
 40
0.0
 40
0.0
 40
1.0
 40
1.0
 40
1.0
 40
2.0
 40
2.0
 40
2.0
 40
3.0
 40
3.0
 40
3.0
 40
4.0
 40
4.0
 40
4.0
 40
4.0
 10
79.36053609127092
 20
-141.6716396868046
 30
0.0
 10
79.36053609127092
 20
-141.7054005201294
 30
0.0
 10
79.3746472023785
 20
-141.7384557978987
 30
0.0
 10
79.3987751965907
 20
-141.762233020115
 30
0.0
 10
79.42219964043754
 20
-141.7860102423312
 30
0.0
 10
79.45525491737202
 20
-141.7997685756613
 30
0.0
 10
79.48936852761281
 20
-141.7997685756613
 30
0.0
 10
79.52277658231606
 20
-141.7997685756613
 30
0.0
 10
79.55621991479619
 20
-141.7860102423312
 30
0.0
 10
79.57999713641179
 20
-141.762233020115
 30
0.0
 10
79.60409185801932
 20
-141.7384557978987
 30
0.0
 10
79.61753269100974
 20
-141.7054005201294
 30
0.0
 10
79.61753269100974
 20
-141.6716396868046
 30
0.0
  0
HATCH
  5
116
330
1F
100
AcDbEntity
  8
_U+30EC_U+30A4_U+30E4_U+30FC 1
 62
   179
420
  2234388
100
AcDbHatch
 10
0.0
 20
0.0
 30
0.0
210
0.0
220
0.0
230
1.0
  2
SOLID
 70
     1
 71
     0
 91
        1
 92
        1
 93
        2
 72
     4
 94
        3
 73
     0
 74
     0
 95
       17
 96
       13
 40
0.0
 40
0.0
 40
0.0
 40
0.0
 40
0.3527777776895833
 40
0.3527777776895833
 40
0.3527777776895833
 40
0.7055555553791667
 40
0.7055555553791667
 40
0.7055555553791667
 40
1.05833333306875
 40
1.05833333306875
 40
1.05833333306875
 40
1.411111110758333
 40
1.411111110758333
 40
1.411111110758333
 40
1.411111110758333
 10
79.36053609127092
 20
-141.6716396868046
 10
79.36053609127092
 20
-141.7054005201294
 10
79.3746472023785
 20
-141.7384557978987
 10
79.3987751965907
 20
-141.762233020115
 10
79.42219964043754
 20
-141.7860102423312
 10
79.45525491737202
 20
-141.7997685756613
 10
79.48936852761281
 20
-141.7997685756613
 10
79.52277658231606
 20
-141.7997685756613
 10
79.55621991479619
 20
-141.7860102423312
 10
79.57999713641179
 20
-141.762233020115
 10
79.60409185801932
 20
-141.7384557978987
 10
79.61753269100974
 20
-141.7054005201294
 10
79.61753269100974
 20
-141.6716396868046
 97
        0
 72
     1
 10
79.61753269100974
 20
-141.6716396868046
 11
79.36053609127092
 21
-141.6716396868046
 97
        0
 75
     2
 76
     1
 98
        0
  0
SPLINE
  5
117
330
1F
100
AcDbEntity
  8
_U+30EC_U+30A4_U+30E4_U+30FC 1
 62
   179
420
  2234388
370
     9
100
AcDbSpline
210
0.0
220
0.0
230
1.0
 70
     8
 71
     3
 72
    17
 73
    13
 74
     0
 42
0.0000000001
 43
0.0000000001
 12
1.0
 22
0.0
 32
0.0
 13
1.0
 23
0.0
 33
0.0
 40
0.0
 40
0.0
 40
0.0
 40
0.0
 40
1.0
 40
1.0
 40
1.0
 40
2.0
 40
2.0
 40
2.0
 40
3.0
 40
3.0
 40
3.0
 40
4.0
 40
4.0
 40
4.0
 40
4.0
 10
79.36053609127092
 20
-141.6716396868046
 30
0.0
 10
79.36053609127092
 20
-141.7054005201294
 30
0.0
 10
79.3746472023785
 20
-141.7384557978987
 30
0.0
 10
79.3987751965907
 20
-141.762233020115
 30
0.0
 10
79.42219964043754
 20
-141.7860102423312
 30
0.0
 10
79.45525491737202
 20
-141.7997685756613
 30
0.0
 10
79.48936852761281
 20
-141.7997685756613
 30
0.0
 10
79.52277658231606
 20
-141.7997685756613
 30
0.0
 10
79.55621991479619
 20
-141.7860102423312
 30
0.0
 10
79.57999713641179
 20
-141.762233020115
 30
0.0
 10
79.60409185801932
 20
-141.7384557978987
 30
0.0
 10
79.61753269100974
 20
-141.7054005201294
 30
0.0
 10
79.61753269100974
 20
-141.6716396868046
 30
0.0
  0
SPLINE
  5
118
330
1F
100
AcDbEntity
  8
_U+30EC_U+30A4_U+30E4_U+30FC 1
370
     0
100
AcDbSpline
210
0.0
220
0.0
230
1.0
 70
     8
 71
     3
 72
    17
 73
    13
 74
     0
 42
0.0000000001
 43
0.0000000001
 12
1.0
 22
0.0
 32
0.0
 13
1.0
 23
0.0
 33
0.0
 40
0.0
 40
0.0
 40
0.0
 40
0.0
 40
1.0
 40
1.0
 40
1.0
 40
2.0
 40
2.0
 40
2.0
 40
3.0
 40
3.0
 40
3.0
 40
4.0
 40
4.0
 40
4.0
 40
4.0
 10
79.61753269100974
 20
-141.6716396868046
 30
0.0
 10
79.61753269100974
 20
-141.6378788534797
 30
0.0
 10
79.60409185801932
 20
-141.6047882979322
 30
0.0
 10
79.57999713641179
 20
-141.581011075716
 30
0.0
 10
79.55621991479619
 20
-141.5572338534997
 30
0.0
 10
79.52277658231606
 20
-141.5434755201696
 30
0.0
 10
79.48936852761281
 20
-141.5434755201696
 30
0.0
 10
79.45525491737202
 20
-141.5434755201696
 30
0.0
 10
79.42219964043754
 20
-141.5572338534997
 30
0.0
 10
79.3987751965907
 20
-141.581011075716
 30
0.0
 10
79.3746472023785
 20
-141.6047882979322
 30
0.0
 10
79.36053609127092
 20
-141.6378788534797
 30
0.0
 10
79.36053609127092
 20
-141.6716396868046
 30
0.0
  0
HATCH
  5
119
330
1F
100
AcDbEntity
  8
_U+30EC_U+30A4_U+30E4_U+30FC 1
 62
   179
420
  2234388
100
AcDbHatch
 10
0.0
 20
0.0
 30
0.0
210
0.0
220
0.0
230
1.0
  2
SOLID
 70
     1
 71
     0
 91
        1
 92
        1
 93
        2
 72
     4
 94
        3
 73
     0
 74
     0
 95
       17
 96
       13
 40
0.0
 40
0.0
 40
0.0
 40
0.0
 40
0.3527777776895833
 40
0.3527777776895833
 40
0.3527777776895833
 40
0.7055555553791667
 40
0.7055555553791667
 40
0.7055555553791667
 40
1.05833333306875
 40
1.05833333306875
 40
1.05833333306875
 40
1.411111110758333
 40
1.411111110758333
 40
1.411111110758333
 40
1.411111110758333
 10
79.61753269100974
 20
-141.6716396868046
 10
79.61753269100974
 20
-141.6378788534797
 10
79.60409185801932
 20
-141.6047882979322
 10
79.57999713641179
 20
-141.581011075716
 10
79.55621991479619
 20
-141.5572338534997
 10
79.52277658231606
 20
-141.5434755201696
 10
79.48936852761281
 20
-141.5434755201696
 10
79.45525491737202
 20
-141.5434755201696
 10
79.42219964043754
 20
-141.5572338534997
 10
79.3987751965907
 20
-141.581011075716
 10
79.3746472023785
 20
-141.6047882979322
 10
79.36053609127092
 20
-141.6378788534797
 10
79.36053609127092
 20
-141.6716396868046
 97
        0
 72
     1
 10
79.36053609127092
 20
-141.6716396868046
 11
79.61753269100974
 21
-141.6716396868046
 97
        0
 75
     2
 76
     1
 98
        0
  0
SPLINE
  5
11A
330
1F
100
AcDbEntity
  8
_U+30EC_U+30A4_U+30E4_U+30FC 1
 62
   179
420
  2234388
370
     9
100
AcDbSpline
210
0.0
220
0.0
230
1.0
 70
     8
 71
     3
 72
    17
 73
    13
 74
     0
 42
0.0000000001
 43
0.0000000001
 12
1.0
 22
0.0
 32
0.0
 13
1.0
 23
0.0
 33
0.0
 40
0.0
 40
0.0
 40
0.0
 40
0.0
 40
1.0
 40
1.0
 40
1.0
 40
2.0
 40
2.0
 40
2.0
 40
3.0
 40
3.0
 40
3.0
 40
4.0
 40
4.0
 40
4.0
 40
4.0
 10
79.61753269100974
 20
-141.6716396868046
 30
0.0
 10
79.61753269100974
 20
-141.6378788534797
 30
0.0
 10
79.60409185801932
 20
-141.6047882979322
 30
0.0
 10
79.57999713641179
 20
-141.581011075716
 30
0.0
 10
79.55621991479619
 20
-141.5572338534997
 30
0.0
 10
79.52277658231606
 20
-141.5434755201696
 30
0.0
 10
79.48936852761281
 20
-141.5434755201696
 30
0.0
 10
79.45525491737202
 20
-141.5434755201696
 30
0.0
 10
79.42219964043754
 20
-141.5572338534997
 30
0.0
 10
79.3987751965907
 20
-141.581011075716
 30
0.0
 10
79.3746472023785
 20
-141.6047882979322
 30
0.0
 10
79.36053609127092
 20
-141.6378788534797
 30
0.0
 10
79.36053609127092
 20
-141.6716396868046
 30
0.0
  0
SPLINE
  5
11B
330
1F
100
AcDbEntity
  8
_U+30EC_U+30A4_U+30E4_U+30FC 1
370
     0
100
AcDbSpline
210
0.0
220
0.0
230
1.0
 70
     8
 71
     3
 72
    17
 73
    13
 74
     0
 42
0.0000000001
 43
0.0000000001
 12
1.0
 22
0.0
 32
0.0
 13
1.0
 23
0.0
 33
0.0
 40
0.0
 40
0.0
 40
0.0
 40
0.0
 40
1.0
 40
1.0
 40
1.0
 40
2.0
 40
2.0
 40
2.0
 40
3.0
 40
3.0
 40
3.0
 40
4.0
 40
4.0
 40
4.0
 40
4.0
 10
95.99171282882516
 20
-141.595474964601
 30
0.0
 10
95.99171282882516
 20
-141.6299413534814
 30
0.0
 10
96.00515366181558
 20
-141.6630319090288
 30
0.0
 10
96.02963886488118
 20
-141.6864563534673
 30
0.0
 10
96.05270810504682
 20
-141.7109038534609
 30
0.0
 10
96.08646893751884
 20
-141.7243446867915
 30
0.0
 10
96.12022976999086
 20
-141.7243446867915
 30
0.0
 10
96.15399060246288
 20
-141.7243446867915
 30
0.0
 10
96.18708115717423
 20
-141.7109038534609
 30
0.0
 10
96.21117587878175
 20
-141.6864563534673
 30
0.0
 10
96.23495553149664
 20
-141.6630319090288
 30
0.0
 10
96.24874671115657
 20
-141.6299413534814
 30
0.0
 10
96.24874671115657
 20
-141.595474964601
 30
0.0
  0
HATCH
  5
11C
330
1F
100
AcDbEntity
  8
_U+30EC_U+30A4_U+30E4_U+30FC 1
 62
   179
420
  2234388
100
AcDbHatch
 10
0.0
 20
0.0
 30
0.0
210
0.0
220
0.0
230
1.0
  2
SOLID
 70
     1
 71
     0
 91
        1
 92
        1
 93
        2
 72
     4
 94
        3
 73
     0
 74
     0
 95
       17
 96
       13
 40
0.0
 40
0.0
 40
0.0
 40
0.0
 40
0.3527777776895833
 40
0.3527777776895833
 40
0.3527777776895833
 40
0.7055555553791667
 40
0.7055555553791667
 40
0.7055555553791667
 40
1.05833333306875
 40
1.05833333306875
 40
1.05833333306875
 40
1.411111110758333
 40
1.411111110758333
 40
1.411111110758333
 40
1.411111110758333
 10
95.99171282882516
 20
-141.595474964601
 10
95.99171282882516
 20
-141.6299413534814
 10
96.00515366181558
 20
-141.6630319090288
 10
96.02963886488118
 20
-141.6864563534673
 10
96.05270810504682
 20
-141.7109038534609
 10
96.08646893751884
 20
-141.7243446867915
 10
96.12022976999086
 20
-141.7243446867915
 10
96.15399060246288
 20
-141.7243446867915
 10
96.18708115717423
 20
-141.7109038534609
 10
96.21117587878175
 20
-141.6864563534673
 10
96.23495553149664
 20
-141.6630319090288
 10
96.24874671115657
 20
-141.6299413534814
 10
96.24874671115657
 20
-141.595474964601
 97
        0
 72
     1
 10
96.24874671115657
 20
-141.595474964601
 11
95.99171282882516
 21
-141.595474964601
 97
        0
 75
     2
 76
     1
 98
        0
  0
SPLINE
  5
11D
330
1F
100
AcDbEntity
  8
_U+30EC_U+30A4_U+30E4_U+30FC 1
 62
   179
420
  2234388
370
     9
100
AcDbSpline
210
0.0
220
0.0
230
1.0
 70
     8
 71
     3
 72
    17
 73
    13
 74
     0
 42
0.0000000001
 43
0.0000000001
 12
1.0
 22
0.0
 32
0.0
 13
1.0
 23
0.0
 33
0.0
 40
0.0
 40
0.0
 40
0.0
 40
0.0
 40
1.0
 40
1.0
 40
1.0
 40
2.0
 40
2.0
 40
2.0
 40
3.0
 40
3.0
 40
3.0
 40
4.0
 40
4.0
 40
4.0
 40
4.0
 10
95.99171282882516
 20
-141.595474964601
 30
0.0
 10
95.99171282882516
 20
-141.6299413534814
 30
0.0
 10
96.00515366181558
 20
-141.6630319090288
 30
0.0
 10
96.02963886488118
 20
-141.6864563534673
 30
0.0
 10
96.05270810504682
 20
-141.7109038534609
 30
0.0
 10
96.08646893751884
 20
-141.7243446867915
 30
0.0
 10
96.12022976999086
 20
-141.7243446867915
 30
0.0
 10
96.15399060246288
 20
-141.7243446867915
 30
0.0
 10
96.18708115717423
 20
-141.7109038534609
 30
0.0
 10
96.21117587878175
 20
-141.6864563534673
 30
0.0
 10
96.23495553149664
 20
-141.6630319090288
 30
0.0
 10
96.24874671115657
 20
-141.6299413534814
 30
0.0
 10
96.24874671115657
 20
-141.595474964601
 30
0.0
  0
SPLINE
  5
11E
330
1F
100
AcDbEntity
  8
_U+30EC_U+30A4_U+30E4_U+30FC 1
370
     0
100
AcDbSpline
210
0.0
220
0.0
230
1.0
 70
     8
 71
     3
 72
    17
 73
    13
 74
     0
 42
0.0000000001
 43
0.0000000001
 12
1.0
 22
0.0
 32
0.0
 13
1.0
 23
0.0
 33
0.0
 40
0.0
 40
0.0
 40
0.0
 40
0.0
 40
1.0
 40
1.0
 40
1.0
 40
2.0
 40
2.0
 40
2.0
 40
3.0
 40
3.0
 40
3.0
 40
4.0
 40
4.0
 40
4.0
 40
4.0
 10
96.24874671115657
 20
-141.595474964601
 30
0.0
 10
96.24874671115657
 20
-141.5620669090539
 30
0.0
 10
96.23495553149664
 20
-141.5290116312846
 30
0.0
 10
96.21117587878175
 20
-141.5052344090684
 30
0.0
 10
96.18708115717423
 20
-141.4807869090741
 30
0.0
 10
96.15399060246288
 20
-141.4673460757442
 30
0.0
 10
96.12022976999086
 20
-141.4673460757442
 30
0.0
 10
96.08646893751884
 20
-141.4673460757442
 30
0.0
 10
96.05270810504682
 20
-141.4807869090741
 30
0.0
 10
96.02963886488118
 20
-141.5052344090684
 30
0.0
 10
96.00515366181558
 20
-141.5290116312846
 30
0.0
 10
95.99171282882516
 20
-141.5620669090539
 30
0.0
 10
95.99171282882516
 20
-141.595474964601
 30
0.0
  0
HATCH
  5
11F
330
1F
100
AcDbEntity
  8
_U+30EC_U+30A4_U+30E4_U+30FC 1
 62
   179
420
  2234388
100
AcDbHatch
 10
0.0
 20
0.0
 30
0.0
210
0.0
220
0.0
230
1.0
  2
SOLID
 70
     1
 71
     0
 91
        1
 92
        1
 93
        2
 72
     4
 94
        3
 73
     0
 74
     0
 95
       17
 96
       13
 40
0.0
 40
0.0
 40
0.0
 40
0.0
 40
0.3527777776895833
 40
0.3527777776895833
 40
0.3527777776895833
 40
0.7055555553791667
 40
0.7055555553791667
 40
0.7055555553791667
 40
1.05833333306875
 40
1.05833333306875
 40
1.05833333306875
 40
1.411111110758333
 40
1.411111110758333
 40
1.411111110758333
 40
1.411111110758333
 10
96.24874671115657
 20
-141.595474964601
 10
96.24874671115657
 20
-141.5620669090539
 10
96.23495553149664
 20
-141.5290116312846
 10
96.21117587878175
 20
-141.5052344090684
 10
96.18708115717423
 20
-141.4807869090741
 10
96.15399060246288
 20
-141.4673460757442
 10
96.12022976999086
 20
-141.4673460757442
 10
96.08646893751884
 20
-141.4673460757442
 10
96.05270810504682
 20
-141.4807869090741
 10
96.02963886488118
 20
-141.5052344090684
 10
96.00515366181558
 20
-141.5290116312846
 10
95.99171282882516
 20
-141.5620669090539
 10
95.99171282882516
 20
-141.595474964601
 97
        0
 72
     1
 10
95.99171282882516
 20
-141.595474964601
 11
96.24874671115657
 21
-141.595474964601
 97
        0
 75
     2
 76
     1
 98
        0
  0
SPLINE
  5
120
330
1F
100
AcDbEntity
  8
_U+30EC_U+30A4_U+30E4_U+30FC 1
 62
   179
420
  2234388
370
     9
100
AcDbSpline
210
0.0
220
0.0
230
1.0
 70
     8
 71
     3
 72
    17
 73
    13
 74
     0
 42
0.0000000001
 43
0.0000000001
 12
1.0
 22
0.0
 32
0.0
 13
1.0
 23
0.0
 33
0.0
 40
0.0
 40
0.0
 40
0.0
 40
0.0
 40
1.0
 40
1.0
 40
1.0
 40
2.0
 40
2.0
 40
2.0
 40
3.0
 40
3.0
 40
3.0
 40
4.0
 40
4.0
 40
4.0
 40
4.0
 10
96.24874671115657
 20
-141.595474964601
 30
0.0
 10
96.24874671115657
 20
-141.5620669090539
 30
0.0
 10
96.23495553149664
 20
-141.5290116312846
 30
0.0
 10
96.21117587878175
 20
-141.5052344090684
 30
0.0
 10
96.18708115717423
 20
-141.4807869090741
 30
0.0
 10
96.15399060246288
 20
-141.4673460757442
 30
0.0
 10
96.12022976999086
 20
-141.4673460757442
 30
0.0
 10
96.08646893751884
 20
-141.4673460757442
 30
0.0
 10
96.05270810504682
 20
-141.4807869090741
 30
0.0
 10
96.02963886488118
 20
-141.5052344090684
 30
0.0
 10
96.00515366181558
 20
-141.5290116312846
 30
0.0
 10
95.99171282882516
 20
-141.5620669090539
 30
0.0
 10
95.99171282882516
 20
-141.595474964601
 30
0.0
  0
SPLINE
  5
121
330
1F
100
AcDbEntity
  8
_U+30EC_U+30A4_U+30E4_U+30FC 1
370
     0
100
AcDbSpline
210
0.0
220
0.0
230
1.0
 70
     8
 71
     3
 72
    17
 73
    13
 74
     0
 42
0.0000000001
 43
0.0000000001
 12
1.0
 22
0.0
 32
0.0
 13
1.0
 23
0.0
 33
0.0
 40
0.0
 40
0.0
 40
0.0
 40
0.0
 40
1.0
 40
1.0
 40
1.0
 40
2.0
 40
2.0
 40
2.0
 40
3.0
 40
3.0
 40
3.0
 40
4.0
 40
4.0
 40
4.0
 40
4.0
 10
109.1340605490915
 20
-136.6069855214041
 30
0.0
 10
109.1340605490915
 20
-136.6407463547289
 30
0.0
 10
109.1468311043212
 20
-136.6738369102758
 30
0.0
 10
109.1709258259288
 20
-136.697614132492
 30
0.0
 10
109.1950558253131
 20
-136.7213560769307
 30
0.0
 10
109.2284666393595
 20
-136.7358552435939
 30
0.0
 10
109.2619072124965
 20
-136.7358552435939
 30
0.0
 10
109.2959855449604
 20
-136.7358552435939
 30
0.0
 10
109.3294288774406
 20
-136.7213560769307
 30
0.0
 10
109.3528533212874
 20
-136.697614132492
 30
0.0
 10
109.3765952651261
 20
-136.6738369102758
 30
0.0
 10
109.390744417097
 20
-136.6407463547289
 30
0.0
 10
109.390744417097
 20
-136.6069855214041
 30
0.0
  0
HATCH
  5
122
330
1F
100
AcDbEntity
  8
_U+30EC_U+30A4_U+30E4_U+30FC 1
 62
   179
420
  2234388
100
AcDbHatch
 10
0.0
 20
0.0
 30
0.0
210
0.0
220
0.0
230
1.0
  2
SOLID
 70
     1
 71
     0
 91
        1
 92
        1
 93
        2
 72
     4
 94
        3
 73
     0
 74
     0
 95
       17
 96
       13
 40
0.0
 40
0.0
 40
0.0
 40
0.0
 40
0.3527777776895833
 40
0.3527777776895833
 40
0.3527777776895833
 40
0.7055555553791667
 40
0.7055555553791667
 40
0.7055555553791667
 40
1.05833333306875
 40
1.05833333306875
 40
1.05833333306875
 40
1.411111110758333
 40
1.411111110758333
 40
1.411111110758333
 40
1.411111110758333
 10
109.1340605490915
 20
-136.6069855214041
 10
109.1340605490915
 20
-136.6407463547289
 10
109.1468311043212
 20
-136.6738369102758
 10
109.1709258259288
 20
-136.697614132492
 10
109.1950558253131
 20
-136.7213560769307
 10
109.2284666393595
 20
-136.7358552435939
 10
109.2619072124965
 20
-136.7358552435939
 10
109.2959855449604
 20
-136.7358552435939
 10
109.3294288774406
 20
-136.7213560769307
 10
109.3528533212874
 20
-136.697614132492
 10
109.3765952651261
 20
-136.6738369102758
 10
109.390744417097
 20
-136.6407463547289
 10
109.390744417097
 20
-136.6069855214041
 97
        0
 72
     1
 10
109.390744417097
 20
-136.6069855214041
 11
109.1340605490915
 21
-136.6069855214041
 97
        0
 75
     2
 76
     1
 98
        0
  0
SPLINE
  5
123
330
1F
100
AcDbEntity
  8
_U+30EC_U+30A4_U+30E4_U+30FC 1
 62
   179
420
  2234388
370
     9
100
AcDbSpline
210
0.0
220
0.0
230
1.0
 70
     8
 71
     3
 72
    17
 73
    13
 74
     0
 42
0.0000000001
 43
0.0000000001
 12
1.0
 22
0.0
 32
0.0
 13
1.0
 23
0.0
 33
0.0
 40
0.0
 40
0.0
 40
0.0
 40
0.0
 40
1.0
 40
1.0
 40
1.0
 40
2.0
 40
2.0
 40
2.0
 40
3.0
 40
3.0
 40
3.0
 40
4.0
 40
4.0
 40
4.0
 40
4.0
 10
109.1340605490915
 20
-136.6069855214041
 30
0.0
 10
109.1340605490915
 20
-136.6407463547289
 30
0.0
 10
109.1468311043212
 20
-136.6738369102758
 30
0.0
 10
109.1709258259288
 20
-136.697614132492
 30
0.0
 10
109.1950558253131
 20
-136.7213560769307
 30
0.0
 10
109.2284666393595
 20
-136.7358552435939
 30
0.0
 10
109.2619072124965
 20
-136.7358552435939
 30
0.0
 10
109.2959855449604
 20
-136.7358552435939
 30
0.0
 10
109.3294288774406
 20
-136.7213560769307
 30
0.0
 10
109.3528533212874
 20
-136.697614132492
 30
0.0
 10
109.3765952651261
 20
-136.6738369102758
 30
0.0
 10
109.390744417097
 20
-136.6407463547289
 30
0.0
 10
109.390744417097
 20
-136.6069855214041
 30
0.0
  0
SPLINE
  5
124
330
1F
100
AcDbEntity
  8
_U+30EC_U+30A4_U+30E4_U+30FC 1
370
     0
100
AcDbSpline
210
0.0
220
0.0
230
1.0
 70
     8
 71
     3
 72
    17
 73
    13
 74
     0
 42
0.0000000001
 43
0.0000000001
 12
1.0
 22
0.0
 32
0.0
 13
1.0
 23
0.0
 33
0.0
 40
0.0
 40
0.0
 40
0.0
 40
0.0
 40
1.0
 40
1.0
 40
1.0
 40
2.0
 40
2.0
 40
2.0
 40
3.0
 40
3.0
 40
3.0
 40
4.0
 40
4.0
 40
4.0
 40
4.0
 10
109.390744417097
 20
-136.6069855214041
 30
0.0
 10
109.390744417097
 20
-136.5728719103015
 30
0.0
 10
109.3765952651261
 20
-136.5398166325315
 30
0.0
 10
109.3528533212874
 20
-136.5160394103153
 30
0.0
 10
109.3294288774406
 20
-136.4919446880994
 30
0.0
 10
109.2959855449604
 20
-136.4781510769918
 30
0.0
 10
109.2619072124965
 20
-136.4781510769918
 30
0.0
 10
109.2284666393595
 20
-136.4781510769918
 30
0.0
 10
109.1950558253131
 20
-136.4919446880994
 30
0.0
 10
109.1709258259288
 20
-136.5160394103153
 30
0.0
 10
109.1468311043212
 20
-136.5398166325315
 30
0.0
 10
109.1340605490915
 20
-136.5728719103015
 30
0.0
 10
109.1340605490915
 20
-136.6069855214041
 30
0.0
  0
HATCH
  5
125
330
1F
100
AcDbEntity
  8
_U+30EC_U+30A4_U+30E4_U+30FC 1
 62
   179
420
  2234388
100
AcDbHatch
 10
0.0
 20
0.0
 30
0.0
210
0.0
220
0.0
230
1.0
  2
SOLID
 70
     1
 71
     0
 91
        1
 92
        1
 93
        2
 72
     4
 94
        3
 73
     0
 74
     0
 95
       17
 96
       13
 40
0.0
 40
0.0
 40
0.0
 40
0.0
 40
0.3527777776895833
 40
0.3527777776895833
 40
0.3527777776895833
 40
0.7055555553791667
 40
0.7055555553791667
 40
0.7055555553791667
 40
1.05833333306875
 40
1.05833333306875
 40
1.05833333306875
 40
1.411111110758333
 40
1.411111110758333
 40
1.411111110758333
 40
1.411111110758333
 10
109.390744417097
 20
-136.6069855214041
 10
109.390744417097
 20
-136.5728719103015
 10
109.3765952651261
 20
-136.5398166325315
 10
109.3528533212874
 20
-136.5160394103153
 10
109.3294288774406
 20
-136.4919446880994
 10
109.2959855449604
 20
-136.4781510769918
 10
109.2619072124965
 20
-136.4781510769918
 10
109.2284666393595
 20
-136.4781510769918
 10
109.1950558253131
 20
-136.4919446880994
 10
109.1709258259288
 20
-136.5160394103153
 10
109.1468311043212
 20
-136.5398166325315
 10
109.1340605490915
 20
-136.5728719103015
 10
109.1340605490915
 20
-136.6069855214041
 97
        0
 72
     1
 10
109.1340605490915
 20
-136.6069855214041
 11
109.390744417097
 21
-136.6069855214041
 97
        0
 75
     2
 76
     1
 98
        0
  0
SPLINE
  5
126
330
1F
100
AcDbEntity
  8
_U+30EC_U+30A4_U+30E4_U+30FC 1
 62
   179
420
  2234388
370
     9
100
AcDbSpline
210
0.0
220
0.0
230
1.0
 70
     8
 71
     3
 72
    17
 73
    13
 74
     0
 42
0.0000000001
 43
0.0000000001
 12
1.0
 22
0.0
 32
0.0
 13
1.0
 23
0.0
 33
0.0
 40
0.0
 40
0.0
 40
0.0
 40
0.0
 40
1.0
 40
1.0
 40
1.0
 40
2.0
 40
2.0
 40
2.0
 40
3.0
 40
3.0
 40
3.0
 40
4.0
 40
4.0
 40
4.0
 40
4.0
 10
109.390744417097
 20
-136.6069855214041
 30
0.0
 10
109.390744417097
 20
-136.5728719103015
 30
0.0
 10
109.3765952651261
 20
-136.5398166325315
 30
0.0
 10
109.3528533212874
 20
-136.5160394103153
 30
0.0
 10
109.3294288774406
 20
-136.4919446880994
 30
0.0
 10
109.2959855449604
 20
-136.4781510769918
 30
0.0
 10
109.2619072124965
 20
-136.4781510769918
 30
0.0
 10
109.2284666393595
 20
-136.4781510769918
 30
0.0
 10
109.1950558253131
 20
-136.4919446880994
 30
0.0
 10
109.1709258259288
 20
-136.5160394103153
 30
0.0
 10
109.1468311043212
 20
-136.5398166325315
 30
0.0
 10
109.1340605490915
 20
-136.5728719103015
 30
0.0
 10
109.1340605490915
 20
-136.6069855214041
 30
0.0
  0
SPLINE
  5
127
330
1F
100
AcDbEntity
  8
_U+30EC_U+30A4_U+30E4_U+30FC 1
370
     0
100
AcDbSpline
210
0.0
220
0.0
230
1.0
 70
     8
 71
     3
 72
    17
 73
    13
 74
     0
 42
0.0000000001
 43
0.0000000001
 12
1.0
 22
0.0
 32
0.0
 13
1.0
 23
0.0
 33
0.0
 40
0.0
 40
0.0
 40
0.0
 40
0.0
 40
1.0
 40
1.0
 40
1.0
 40
2.0
 40
2.0
 40
2.0
 40
3.0
 40
3.0
 40
3.0
 40
4.0
 40
4.0
 40
4.0
 40
4.0
 10
109.1258083060521
 20
-134.2009352442274
 30
0.0
 10
109.1258083060521
 20
-134.2346960775522
 30
0.0
 10
109.1395991600613
 20
-134.2684569108771
 30
0.0
 10
109.1633763816769
 20
-134.2918813553162
 30
0.0
 10
109.1874711032844
 20
-134.3160113553102
 30
0.0
 10
109.2205616579958
 20
-134.3294521886401
 30
0.0
 10
109.2543224904678
 20
-134.3294521886401
 30
0.0
 10
109.2884008229317
 20
-134.3294521886401
 30
0.0
 10
109.3214913776431
 20
-134.3160113553102
 30
0.0
 10
109.3456213770275
 20
-134.2918813553162
 30
0.0
 10
109.3693633208662
 20
-134.2684569108771
 30
0.0
 10
109.3828041538566
 20
-134.2346960775522
 30
0.0
 10
109.3828041538566
 20
-134.2009352442274
 30
0.0
  0
HATCH
  5
128
330
1F
100
AcDbEntity
  8
_U+30EC_U+30A4_U+30E4_U+30FC 1
 62
   179
420
  2234388
100
AcDbHatch
 10
0.0
 20
0.0
 30
0.0
210
0.0
220
0.0
230
1.0
  2
SOLID
 70
     1
 71
     0
 91
        1
 92
        1
 93
        2
 72
     4
 94
        3
 73
     0
 74
     0
 95
       17
 96
       13
 40
0.0
 40
0.0
 40
0.0
 40
0.0
 40
0.3527777776895833
 40
0.3527777776895833
 40
0.3527777776895833
 40
0.7055555553791667
 40
0.7055555553791667
 40
0.7055555553791667
 40
1.05833333306875
 40
1.05833333306875
 40
1.05833333306875
 40
1.411111110758333
 40
1.411111110758333
 40
1.411111110758333
 40
1.411111110758333
 10
109.1258083060521
 20
-134.2009352442274
 10
109.1258083060521
 20
-134.2346960775522
 10
109.1395991600613
 20
-134.2684569108771
 10
109.1633763816769
 20
-134.2918813553162
 10
109.1874711032844
 20
-134.3160113553102
 10
109.2205616579958
 20
-134.3294521886401
 10
109.2543224904678
 20
-134.3294521886401
 10
109.2884008229317
 20
-134.3294521886401
 10
109.3214913776431
 20
-134.3160113553102
 10
109.3456213770275
 20
-134.2918813553162
 10
109.3693633208662
 20
-134.2684569108771
 10
109.3828041538566
 20
-134.2346960775522
 10
109.3828041538566
 20
-134.2009352442274
 97
        0
 72
     1
 10
109.3828041538566
 20
-134.2009352442274
 11
109.1258083060521
 21
-134.2009352442274
 97
        0
 75
     2
 76
     1
 98
        0
  0
SPLINE
  5
129
330
1F
100
AcDbEntity
  8
_U+30EC_U+30A4_U+30E4_U+30FC 1
 62
   179
420
  2234388
370
     9
100
AcDbSpline
210
0.0
220
0.0
230
1.0
 70
     8
 71
     3
 72
    17
 73
    13
 74
     0
 42
0.0000000001
 43
0.0000000001
 12
1.0
 22
0.0
 32
0.0
 13
1.0
 23
0.0
 33
0.0
 40
0.0
 40
0.0
 40
0.0
 40
0.0
 40
1.0
 40
1.0
 40
1.0
 40
2.0
 40
2.0
 40
2.0
 40
3.0
 40
3.0
 40
3.0
 40
4.0
 40
4.0
 40
4.0
 40
4.0
 10
109.1258083060521
 20
-134.2009352442274
 30
0.0
 10
109.1258083060521
 20
-134.2346960775522
 30
0.0
 10
109.1395991600613
 20
-134.2684569108771
 30
0.0
 10
109.1633763816769
 20
-134.2918813553162
 30
0.0
 10
109.1874711032844
 20
-134.3160113553102
 30
0.0
 10
109.2205616579958
 20
-134.3294521886401
 30
0.0
 10
109.2543224904678
 20
-134.3294521886401
 30
0.0
 10
109.2884008229317
 20
-134.3294521886401
 30
0.0
 10
109.3214913776431
 20
-134.3160113553102
 30
0.0
 10
109.3456213770275
 20
-134.2918813553162
 30
0.0
 10
109.3693633208662
 20
-134.2684569108771
 30
0.0
 10
109.3828041538566
 20
-134.2346960775522
 30
0.0
 10
109.3828041538566
 20
-134.2009352442274
 30
0.0
  0
SPLINE
  5
12A
330
1F
100
AcDbEntity
  8
_U+30EC_U+30A4_U+30E4_U+30FC 1
370
     0
100
AcDbSpline
210
0.0
220
0.0
230
1.0
 70
     8
 71
     3
 72
    17
 73
    13
 74
     0
 42
0.0000000001
 43
0.0000000001
 12
1.0
 22
0.0
 32
0.0
 13
1.0
 23
0.0
 33
0.0
 40
0.0
 40
0.0
 40
0.0
 40
0.0
 40
1.0
 40
1.0
 40
1.0
 40
2.0
 40
2.0
 40
2.0
 40
3.0
 40
3.0
 40
3.0
 40
4.0
 40
4.0
 40
4.0
 40
4.0
 10
109.3828041538566
 20
-134.2009352442274
 30
0.0
 10
109.3828041538566
 20
-134.1671744109026
 30
0.0
 10
109.3693633208662
 20
-134.1341191331332
 30
0.0
 10
109.3456213770275
 20
-134.1099891331392
 30
0.0
 10
109.3214913776431
 20
-134.0858591331452
 30
0.0
 10
109.2884008229317
 20
-134.0724535775929
 30
0.0
 10
109.2543224904678
 20
-134.0724535775929
 30
0.0
 10
109.2205616579958
 20
-134.0724535775929
 30
0.0
 10
109.1874711032844
 20
-134.0858591331452
 30
0.0
 10
109.1633763816769
 20
-134.1099891331392
 30
0.0
 10
109.1395991600613
 20
-134.1341191331332
 30
0.0
 10
109.1258083060521
 20
-134.1671744109026
 30
0.0
 10
109.1258083060521
 20
-134.2009352442274
 30
0.0
  0
HATCH
  5
12B
330
1F
100
AcDbEntity
  8
_U+30EC_U+30A4_U+30E4_U+30FC 1
 62
   179
420
  2234388
100
AcDbHatch
 10
0.0
 20
0.0
 30
0.0
210
0.0
220
0.0
230
1.0
  2
SOLID
 70
     1
 71
     0
 91
        1
 92
        1
 93
        2
 72
     4
 94
        3
 73
     0
 74
     0
 95
       17
 96
       13
 40
0.0
 40
0.0
 40
0.0
 40
0.0
 40
0.3527777776895833
 40
0.3527777776895833
 40
0.3527777776895833
 40
0.7055555553791667
 40
0.7055555553791667
 40
0.7055555553791667
 40
1.05833333306875
 40
1.05833333306875
 40
1.05833333306875
 40
1.411111110758333
 40
1.411111110758333
 40
1.411111110758333
 40
1.411111110758333
 10
109.3828041538566
 20
-134.2009352442274
 10
109.3828041538566
 20
-134.1671744109026
 10
109.3693633208662
 20
-134.1341191331332
 10
109.3456213770275
 20
-134.1099891331392
 10
109.3214913776431
 20
-134.0858591331452
 10
109.2884008229317
 20
-134.0724535775929
 10
109.2543224904678
 20
-134.0724535775929
 10
109.2205616579958
 20
-134.0724535775929
 10
109.1874711032844
 20
-134.0858591331452
 10
109.1633763816769
 20
-134.1099891331392
 10
109.1395991600613
 20
-134.1341191331332
 10
109.1258083060521
 20
-134.1671744109026
 10
109.1258083060521
 20
-134.2009352442274
 97
        0
 72
     1
 10
109.1258083060521
 20
-134.2009352442274
 11
109.3828041538566
 21
-134.2009352442274
 97
        0
 75
     2
 76
     1
 98
        0
  0
SPLINE
  5
12C
330
1F
100
AcDbEntity
  8
_U+30EC_U+30A4_U+30E4_U+30FC 1
 62
   179
420
  2234388
370
     9
100
AcDbSpline
210
0.0
220
0.0
230
1.0
 70
     8
 71
     3
 72
    17
 73
    13
 74
     0
 42
0.0000000001
 43
0.0000000001
 12
1.0
 22
0.0
 32
0.0
 13
1.0
 23
0.0
 33
0.0
 40
0.0
 40
0.0
 40
0.0
 40
0.0
 40
1.0
 40
1.0
 40
1.0
 40
2.0
 40
2.0
 40
2.0
 40
3.0
 40
3.0
 40
3.0
 40
4.0
 40
4.0
 40
4.0
 40
4.0
 10
109.3828041538566
 20
-134.2009352442274
 30
0.0
 10
109.3828041538566
 20
-134.1671744109026
 30
0.0
 10
109.3693633208662
 20
-134.1341191331332
 30
0.0
 10
109.3456213770275
 20
-134.1099891331392
 30
0.0
 10
109.3214913776431
 20
-134.0858591331452
 30
0.0
 10
109.2884008229317
 20
-134.0724535775929
 30
0.0
 10
109.2543224904678
 20
-134.0724535775929
 30
0.0
 10
109.2205616579958
 20
-134.0724535775929
 30
0.0
 10
109.1874711032844
 20
-134.0858591331452
 30
0.0
 10
109.1633763816769
 20
-134.1099891331392
 30
0.0
 10
109.1395991600613
 20
-134.1341191331332
 30
0.0
 10
109.1258083060521
 20
-134.1671744109026
 30
0.0
 10
109.1258083060521
 20
-134.2009352442274
 30
0.0
  0
SPLINE
  5
12D
330
1F
100
AcDbEntity
  8
_U+30EC_U+30A4_U+30E4_U+30FC 1
370
     0
100
AcDbSpline
210
0.0
220
0.0
230
1.0
 70
     8
 71
     3
 72
    17
 73
    13
 74
     0
 42
0.0000000001
 43
0.0000000001
 12
1.0
 22
0.0
 32
0.0
 13
1.0
 23
0.0
 33
0.0
 40
0.0
 40
0.0
 40
0.0
 40
0.0
 40
1.0
 40
1.0
 40
1.0
 40
2.0
 40
2.0
 40
2.0
 40
3.0
 40
3.0
 40
3.0
 40
4.0
 40
4.0
 40
4.0
 40
4.0
 10
109.0693258285208
 20
-122.4704038582714
 30
0.0
 10
109.0693258285208
 20
-122.5044821915962
 30
0.0
 10
109.0827313837343
 20
-122.5375727471433
 30
0.0
 10
109.10650860535
 20
-122.5613499693596
 30
0.0
 10
109.1302858269656
 20
-122.5851271915758
 30
0.0
 10
109.1636938816688
 20
-122.5992383026837
 30
0.0
 10
109.1978074919096
 20
-122.5992383026837
 30
0.0
 10
109.2315683243816
 20
-122.5992383026837
 30
0.0
 10
109.2649763790849
 20
-122.5851271915758
 30
0.0
 10
109.2887536007005
 20
-122.5613499693596
 30
0.0
 10
109.3125308223161
 20
-122.5375727471433
 30
0.0
 10
109.3259716553065
 20
-122.5044821915962
 30
0.0
 10
109.3259716553065
 20
-122.4704038582714
 30
0.0
  0
HATCH
  5
12E
330
1F
100
AcDbEntity
  8
_U+30EC_U+30A4_U+30E4_U+30FC 1
 62
   179
420
  2234388
100
AcDbHatch
 10
0.0
 20
0.0
 30
0.0
210
0.0
220
0.0
230
1.0
  2
SOLID
 70
     1
 71
     0
 91
        1
 92
        1
 93
        2
 72
     4
 94
        3
 73
     0
 74
     0
 95
       17
 96
       13
 40
0.0
 40
0.0
 40
0.0
 40
0.0
 40
0.3527777776895833
 40
0.3527777776895833
 40
0.3527777776895833
 40
0.7055555553791667
 40
0.7055555553791667
 40
0.7055555553791667
 40
1.05833333306875
 40
1.05833333306875
 40
1.05833333306875
 40
1.411111110758333
 40
1.411111110758333
 40
1.411111110758333
 40
1.411111110758333
 10
109.0693258285208
 20
-122.4704038582714
 10
109.0693258285208
 20
-122.5044821915962
 10
109.0827313837343
 20
-122.5375727471433
 10
109.10650860535
 20
-122.5613499693596
 10
109.1302858269656
 20
-122.5851271915758
 10
109.1636938816688
 20
-122.5992383026837
 10
109.1978074919096
 20
-122.5992383026837
 10
109.2315683243816
 20
-122.5992383026837
 10
109.2649763790849
 20
-122.5851271915758
 10
109.2887536007005
 20
-122.5613499693596
 10
109.3125308223161
 20
-122.5375727471433
 10
109.3259716553065
 20
-122.5044821915962
 10
109.3259716553065
 20
-122.4704038582714
 97
        0
 72
     1
 10
109.3259716553065
 20
-122.4704038582714
 11
109.0693258285208
 21
-122.4704038582714
 97
        0
 75
     2
 76
     1
 98
        0
  0
SPLINE
  5
12F
330
1F
100
AcDbEntity
  8
_U+30EC_U+30A4_U+30E4_U+30FC 1
 62
   179
420
  2234388
370
     9
100
AcDbSpline
210
0.0
220
0.0
230
1.0
 70
     8
 71
     3
 72
    17
 73
    13
 74
     0
 42
0.0000000001
 43
0.0000000001
 12
1.0
 22
0.0
 32
0.0
 13
1.0
 23
0.0
 33
0.0
 40
0.0
 40
0.0
 40
0.0
 40
0.0
 40
1.0
 40
1.0
 40
1.0
 40
2.0
 40
2.0
 40
2.0
 40
3.0
 40
3.0
 40
3.0
 40
4.0
 40
4.0
 40
4.0
 40
4.0
 10
109.0693258285208
 20
-122.4704038582714
 30
0.0
 10
109.0693258285208
 20
-122.5044821915962
 30
0.0
 10
109.0827313837343
 20
-122.5375727471433
 30
0.0
 10
109.10650860535
 20
-122.5613499693596
 30
0.0
 10
109.1302858269656
 20
-122.5851271915758
 30
0.0
 10
109.1636938816688
 20
-122.5992383026837
 30
0.0
 10
109.1978074919096
 20
-122.5992383026837
 30
0.0
 10
109.2315683243816
 20
-122.5992383026837
 30
0.0
 10
109.2649763790849
 20
-122.5851271915758
 30
0.0
 10
109.2887536007005
 20
-122.5613499693596
 30
0.0
 10
109.3125308223161
 20
-122.5375727471433
 30
0.0
 10
109.3259716553065
 20
-122.5044821915962
 30
0.0
 10
109.3259716553065
 20
-122.4704038582714
 30
0.0
  0
SPLINE
  5
130
330
1F
100
AcDbEntity
  8
_U+30EC_U+30A4_U+30E4_U+30FC 1
370
     0
100
AcDbSpline
210
0.0
220
0.0
230
1.0
 70
     8
 71
     3
 72
    17
 73
    13
 74
     0
 42
0.0000000001
 43
0.0000000001
 12
1.0
 22
0.0
 32
0.0
 13
1.0
 23
0.0
 33
0.0
 40
0.0
 40
0.0
 40
0.0
 40
0.0
 40
1.0
 40
1.0
 40
1.0
 40
2.0
 40
2.0
 40
2.0
 40
3.0
 40
3.0
 40
3.0
 40
4.0
 40
4.0
 40
4.0
 40
4.0
 10
109.3259716553065
 20
-122.4704038582714
 30
0.0
 10
109.3259716553065
 20
-122.437136913835
 30
0.0
 10
109.3125308223161
 20
-122.4031996916213
 30
0.0
 10
109.2887536007005
 20
-122.3795988582939
 30
0.0
 10
109.2649763790849
 20
-122.3555041360778
 30
0.0
 10
109.2315683243816
 20
-122.341886913859
 30
0.0
 10
109.1978074919096
 20
-122.341886913859
 30
0.0
 10
109.1636938816688
 20
-122.341886913859
 30
0.0
 10
109.1302858269656
 20
-122.3555041360778
 30
0.0
 10
109.10650860535
 20
-122.3795988582939
 30
0.0
 10
109.0827313837343
 20
-122.4031996916213
 30
0.0
 10
109.0693258285208
 20
-122.437136913835
 30
0.0
 10
109.0693258285208
 20
-122.4704038582714
 30
0.0
  0
HATCH
  5
131
330
1F
100
AcDbEntity
  8
_U+30EC_U+30A4_U+30E4_U+30FC 1
 62
   179
420
  2234388
100
AcDbHatch
 10
0.0
 20
0.0
 30
0.0
210
0.0
220
0.0
230
1.0
  2
SOLID
 70
     1
 71
     0
 91
        1
 92
        1
 93
        2
 72
     4
 94
        3
 73
     0
 74
     0
 95
       17
 96
       13
 40
0.0
 40
0.0
 40
0.0
 40
0.0
 40
0.3527777776895833
 40
0.3527777776895833
 40
0.3527777776895833
 40
0.7055555553791667
 40
0.7055555553791667
 40
0.7055555553791667
 40
1.05833333306875
 40
1.05833333306875
 40
1.05833333306875
 40
1.411111110758333
 40
1.411111110758333
 40
1.411111110758333
 40
1.411111110758333
 10
109.3259716553065
 20
-122.4704038582714
 10
109.3259716553065
 20
-122.437136913835
 10
109.3125308223161
 20
-122.4031996916213
 10
109.2887536007005
 20
-122.3795988582939
 10
109.2649763790849
 20
-122.3555041360778
 10
109.2315683243816
 20
-122.341886913859
 10
109.1978074919096
 20
-122.341886913859
 10
109.1636938816688
 20
-122.341886913859
 10
109.1302858269656
 20
-122.3555041360778
 10
109.10650860535
 20
-122.3795988582939
 10
109.0827313837343
 20
-122.4031996916213
 10
109.0693258285208
 20
-122.437136913835
 10
109.0693258285208
 20
-122.4704038582714
 97
        0
 72
     1
 10
109.0693258285208
 20
-122.4704038582714
 11
109.3259716553065
 21
-122.4704038582714
 97
        0
 75
     2
 76
     1
 98
        0
  0
SPLINE
  5
132
330
1F
100
AcDbEntity
  8
_U+30EC_U+30A4_U+30E4_U+30FC 1
 62
   179
420
  2234388
370
     9
100
AcDbSpline
210
0.0
220
0.0
230
1.0
 70
     8
 71
     3
 72
    17
 73
    13
 74
     0
 42
0.0000000001
 43
0.0000000001
 12
1.0
 22
0.0
 32
0.0
 13
1.0
 23
0.0
 33
0.0
 40
0.0
 40
0.0
 40
0.0
 40
0.0
 40
1.0
 40
1.0
 40
1.0
 40
2.0
 40
2.0
 40
2.0
 40
3.0
 40
3.0
 40
3.0
 40
4.0
 40
4.0
 40
4.0
 40
4.0
 10
109.3259716553065
 20
-122.4704038582714
 30
0.0
 10
109.3259716553065
 20
-122.437136913835
 30
0.0
 10
109.3125308223161
 20
-122.4031996916213
 30
0.0
 10
109.2887536007005
 20
-122.3795988582939
 30
0.0
 10
109.2649763790849
 20
-122.3555041360778
 30
0.0
 10
109.2315683243816
 20
-122.341886913859
 30
0.0
 10
109.1978074919096
 20
-122.341886913859
 30
0.0
 10
109.1636938816688
 20
-122.341886913859
 30
0.0
 10
109.1302858269656
 20
-122.3555041360778
 30
0.0
 10
109.10650860535
 20
-122.3795988582939
 30
0.0
 10
109.0827313837343
 20
-122.4031996916213
 30
0.0
 10
109.0693258285208
 20
-122.437136913835
 30
0.0
 10
109.0693258285208
 20
-122.4704038582714
 30
0.0
  0
SPLINE
  5
133
330
1F
100
AcDbEntity
  8
_U+30EC_U+30A4_U+30E4_U+30FC 1
370
     0
100
AcDbSpline
210
0.0
220
0.0
230
1.0
 70
     8
 71
     3
 72
    17
 73
    13
 74
     0
 42
0.0000000001
 43
0.0000000001
 12
1.0
 22
0.0
 32
0.0
 13
1.0
 23
0.0
 33
0.0
 40
0.0
 40
0.0
 40
0.0
 40
0.0
 40
1.0
 40
1.0
 40
1.0
 40
2.0
 40
2.0
 40
2.0
 40
3.0
 40
3.0
 40
3.0
 40
4.0
 40
4.0
 40
4.0
 40
4.0
 10
104.3012873390525
 20
-116.2657835820446
 30
0.0
 10
104.3012873390525
 20
-116.2998619153694
 30
0.0
 10
104.3147281720429
 20
-116.3333052486946
 30
0.0
 10
104.3385053936585
 20
-116.3570824709109
 30
0.0
 10
104.3622826152741
 20
-116.3810008042381
 30
0.0
 10
104.3963962255149
 20
-116.3947944153458
 30
0.0
 10
104.4298042802182
 20
-116.3947944153458
 30
0.0
 10
104.4632123349214
 20
-116.3947944153458
 30
0.0
 10
104.4969731673934
 20
-116.3810008042381
 30
0.0
 10
104.5207503890091
 20
-116.3570824709109
 30
0.0
 10
104.5445276106247
 20
-116.3333052486946
 30
0.0
 10
104.5579684436151
 20
-116.2998619153694
 30
0.0
 10
104.5579684436151
 20
-116.2657835820446
 30
0.0
  0
HATCH
  5
134
330
1F
100
AcDbEntity
  8
_U+30EC_U+30A4_U+30E4_U+30FC 1
 62
   179
420
  2234388
100
AcDbHatch
 10
0.0
 20
0.0
 30
0.0
210
0.0
220
0.0
230
1.0
  2
SOLID
 70
     1
 71
     0
 91
        1
 92
        1
 93
        2
 72
     4
 94
        3
 73
     0
 74
     0
 95
       17
 96
       13
 40
0.0
 40
0.0
 40
0.0
 40
0.0
 40
0.3527777776895833
 40
0.3527777776895833
 40
0.3527777776895833
 40
0.7055555553791667
 40
0.7055555553791667
 40
0.7055555553791667
 40
1.05833333306875
 40
1.05833333306875
 40
1.05833333306875
 40
1.411111110758333
 40
1.411111110758333
 40
1.411111110758333
 40
1.411111110758333
 10
104.3012873390525
 20
-116.2657835820446
 10
104.3012873390525
 20
-116.2998619153694
 10
104.3147281720429
 20
-116.3333052486946
 10
104.3385053936585
 20
-116.3570824709109
 10
104.3622826152741
 20
-116.3810008042381
 10
104.3963962255149
 20
-116.3947944153458
 10
104.4298042802182
 20
-116.3947944153458
 10
104.4632123349214
 20
-116.3947944153458
 10
104.4969731673934
 20
-116.3810008042381
 10
104.5207503890091
 20
-116.3570824709109
 10
104.5445276106247
 20
-116.3333052486946
 10
104.5579684436151
 20
-116.2998619153694
 10
104.5579684436151
 20
-116.2657835820446
 97
        0
 72
     1
 10
104.5579684436151
 20
-116.2657835820446
 11
104.3012873390525
 21
-116.2657835820446
 97
        0
 75
     2
 76
     1
 98
        0
  0
SPLINE
  5
135
330
1F
100
AcDbEntity
  8
_U+30EC_U+30A4_U+30E4_U+30FC 1
 62
   179
420
  2234388
370
     9
100
AcDbSpline
210
0.0
220
0.0
230
1.0
 70
     8
 71
     3
 72
    17
 73
    13
 74
     0
 42
0.0000000001
 43
0.0000000001
 12
1.0
 22
0.0
 32
0.0
 13
1.0
 23
0.0
 33
0.0
 40
0.0
 40
0.0
 40
0.0
 40
0.0
 40
1.0
 40
1.0
 40
1.0
 40
2.0
 40
2.0
 40
2.0
 40
3.0
 40
3.0
 40
3.0
 40
4.0
 40
4.0
 40
4.0
 40
4.0
 10
104.3012873390525
 20
-116.2657835820446
 30
0.0
 10
104.3012873390525
 20
-116.2998619153694
 30
0.0
 10
104.3147281720429
 20
-116.3333052486946
 30
0.0
 10
104.3385053936585
 20
-116.3570824709109
 30
0.0
 10
104.3622826152741
 20
-116.3810008042381
 30
0.0
 10
104.3963962255149
 20
-116.3947944153458
 30
0.0
 10
104.4298042802182
 20
-116.3947944153458
 30
0.0
 10
104.4632123349214
 20
-116.3947944153458
 30
0.0
 10
104.4969731673934
 20
-116.3810008042381
 30
0.0
 10
104.5207503890091
 20
-116.3570824709109
 30
0.0
 10
104.5445276106247
 20
-116.3333052486946
 30
0.0
 10
104.5579684436151
 20
-116.2998619153694
 30
0.0
 10
104.5579684436151
 20
-116.2657835820446
 30
0.0
  0
SPLINE
  5
136
330
1F
100
AcDbEntity
  8
_U+30EC_U+30A4_U+30E4_U+30FC 1
370
     0
100
AcDbSpline
210
0.0
220
0.0
230
1.0
 70
     8
 71
     3
 72
    17
 73
    13
 74
     0
 42
0.0000000001
 43
0.0000000001
 12
1.0
 22
0.0
 32
0.0
 13
1.0
 23
0.0
 33
0.0
 40
0.0
 40
0.0
 40
0.0
 40
0.0
 40
1.0
 40
1.0
 40
1.0
 40
2.0
 40
2.0
 40
2.0
 40
3.0
 40
3.0
 40
3.0
 40
4.0
 40
4.0
 40
4.0
 40
4.0
 10
104.5579684436151
 20
-116.2657835820446
 30
0.0
 10
104.5579684436151
 20
-116.2325166376086
 30
0.0
 10
104.5445276106247
 20
-116.1989321931726
 30
0.0
 10
104.5207503890091
 20
-116.1749785820675
 30
0.0
 10
104.4969731673934
 20
-116.1512366376288
 30
0.0
 10
104.4632123349214
 20
-116.1374430265211
 30
0.0
 10
104.4298042802182
 20
-116.1374430265211
 30
0.0
 10
104.3963962255149
 20
-116.1374430265211
 30
0.0
 10
104.3622826152741
 20
-116.1512366376288
 30
0.0
 10
104.3385053936585
 20
-116.1749785820675
 30
0.0
 10
104.3147281720429
 20
-116.1989321931726
 30
0.0
 10
104.3012873390525
 20
-116.2325166376086
 30
0.0
 10
104.3012873390525
 20
-116.2657835820446
 30
0.0
  0
HATCH
  5
137
330
1F
100
AcDbEntity
  8
_U+30EC_U+30A4_U+30E4_U+30FC 1
 62
   179
420
  2234388
100
AcDbHatch
 10
0.0
 20
0.0
 30
0.0
210
0.0
220
0.0
230
1.0
  2
SOLID
 70
     1
 71
     0
 91
        1
 92
        1
 93
        2
 72
     4
 94
        3
 73
     0
 74
     0
 95
       17
 96
       13
 40
0.0
 40
0.0
 40
0.0
 40
0.0
 40
0.3527777776895833
 40
0.3527777776895833
 40
0.3527777776895833
 40
0.7055555553791667
 40
0.7055555553791667
 40
0.7055555553791667
 40
1.05833333306875
 40
1.05833333306875
 40
1.05833333306875
 40
1.411111110758333
 40
1.411111110758333
 40
1.411111110758333
 40
1.411111110758333
 10
104.5579684436151
 20
-116.2657835820446
 10
104.5579684436151
 20
-116.2325166376086
 10
104.5445276106247
 20
-116.1989321931726
 10
104.5207503890091
 20
-116.1749785820675
 10
104.4969731673934
 20
-116.1512366376288
 10
104.4632123349214
 20
-116.1374430265211
 10
104.4298042802182
 20
-116.1374430265211
 10
104.3963962255149
 20
-116.1374430265211
 10
104.3622826152741
 20
-116.1512366376288
 10
104.3385053936585
 20
-116.1749785820675
 10
104.3147281720429
 20
-116.1989321931726
 10
104.3012873390525
 20
-116.2325166376086
 10
104.3012873390525
 20
-116.2657835820446
 97
        0
 72
     1
 10
104.3012873390525
 20
-116.2657835820446
 11
104.5579684436151
 21
-116.2657835820446
 97
        0
 75
     2
 76
     1
 98
        0
  0
SPLINE
  5
138
330
1F
100
AcDbEntity
  8
_U+30EC_U+30A4_U+30E4_U+30FC 1
 62
   179
420
  2234388
370
     9
100
AcDbSpline
210
0.0
220
0.0
230
1.0
 70
     8
 71
     3
 72
    17
 73
    13
 74
     0
 42
0.0000000001
 43
0.0000000001
 12
1.0
 22
0.0
 32
0.0
 13
1.0
 23
0.0
 33
0.0
 40
0.0
 40
0.0
 40
0.0
 40
0.0
 40
1.0
 40
1.0
 40
1.0
 40
2.0
 40
2.0
 40
2.0
 40
3.0
 40
3.0
 40
3.0
 40
4.0
 40
4.0
 40
4.0
 40
4.0
 10
104.5579684436151
 20
-116.2657835820446
 30
0.0
 10
104.5579684436151
 20
-116.2325166376086
 30
0.0
 10
104.5445276106247
 20
-116.1989321931726
 30
0.0
 10
104.5207503890091
 20
-116.1749785820675
 30
0.0
 10
104.4969731673934
 20
-116.1512366376288
 30
0.0
 10
104.4632123349214
 20
-116.1374430265211
 30
0.0
 10
104.4298042802182
 20
-116.1374430265211
 30
0.0
 10
104.3963962255149
 20
-116.1374430265211
 30
0.0
 10
104.3622826152741
 20
-116.1512366376288
 30
0.0
 10
104.3385053936585
 20
-116.1749785820675
 30
0.0
 10
104.3147281720429
 20
-116.1989321931726
 30
0.0
 10
104.3012873390525
 20
-116.2325166376086
 30
0.0
 10
104.3012873390525
 20
-116.2657835820446
 30
0.0
  0
ENDSEC
  0
SECTION
  2
OBJECTS
  0
DICTIONARY
  5
C
330
0
100
AcDbDictionary
281
     1
  3
ACAD_GROUP
350
D
  3
ACAD_LAYOUT
350
1A
  3
ACAD_MATERIAL
350
3B
  3
ACAD_MLEADERSTYLE
350
13A
  3
ACAD_MLINESTYLE
350
17
  3
ACAD_PLOTSETTINGS
350
19
  3
ACAD_PLOTSTYLENAME
350
E
  3
ACAD_TABLESTYLE
350
139
  3
ACAD_VISUALSTYLE
350
2A
  0
SUN
  5
3F
330
29
100
AcDbSun
 90
        1
290
     0
 63
     7
421
 16777215
 40
1.0
291
     1
 91
  2455826
 92
 54000000
292
     0
 70
     2
 71
   256
280
     1
  0
DICTIONARY
  5
D
102
{ACAD_REACTORS
330
C
102
}
330
C
100
AcDbDictionary
281
     1
  0
DICTIONARY
  5
1A
102
{ACAD_REACTORS
330
C
102
}
330
C
100
AcDbDictionary
281
     1
  3
Layout1
350
1E
  3
Layout2
350
26
  3
Model
350
22
  0
DICTIONARY
  5
3B
102
{ACAD_REACTORS
330
C
102
}
330
C
100
AcDbDictionary
281
     1
  3
ByBlock
350
3D
  3
ByLayer
350
3C
  3
Global
350
3E
  0
DICTIONARY
  5
13A
102
{ACAD_REACTORS
330
C
102
}
330
C
100
AcDbDictionary
281
     1
  0
DICTIONARY
  5
17
102
{ACAD_REACTORS
330
C
102
}
330
C
100
AcDbDictionary
281
     1
  3
Standard
350
18
  0
DICTIONARY
  5
19
102
{ACAD_REACTORS
330
C
102
}
330
C
100
AcDbDictionary
281
     1
  0
ACDBDICTIONARYWDFLT
  5
E
102
{ACAD_REACTORS
330
C
102
}
330
C
100
AcDbDictionary
281
     1
  3
Normal
350
F
100
AcDbDictionaryWithDefault
340
F
  0
DICTIONARY
  5
139
102
{ACAD_REACTORS
330
C
102
}
330
C
100
AcDbDictionary
281
     1
  0
DICTIONARY
  5
2A
102
{ACAD_REACTORS
330
C
102
}
330
C
100
AcDbDictionary
281
     1
  3
2dWireframe
350
2F
  3
3D Hidden
350
31
  3
3dWireframe
350
30
  3
Basic
350
32
  3
Brighten
350
36
  3
ColorChange
350
3A
  3
Conceptual
350
34
  3
Dim
350
35
  3
Facepattern
350
39
  3
Flat
350
2B
  3
FlatWithEdges
350
2C
  3
Gouraud
350
2D
  3
GouraudWithEdges
350
2E
  3
Linepattern
350
38
  3
Realistic
350
33
  3
Thicken
350
37
  0
LAYOUT
  5
1E
102
{ACAD_REACTORS
330
1A
102
}
330
1A
100
AcDbPlotSettings
  1

  2
none_device
  4

  6

 40
0.0
 41
0.0
 42
0.0
 43
0.0
 44
0.0
 45
0.0
 46
0.0
 47
0.0
 48
0.0
 49
0.0
140
0.0
141
0.0
142
1.0
143
1.0
 70
   688
 72
     0
 73
     0
 74
     5
  7

 75
    16
 76
     0
 77
     2
 78
   300
147
1.0
148
0.0
149
0.0
100
AcDbLayout
  1
Layout1
 70
     1
 71
     1
 10
0.0
 20
0.0
 11
12.0
 21
9.0
 12
0.0
 22
0.0
 32
0.0
 14
1.000000000000000E+20
 24
1.000000000000000E+20
 34
1.000000000000000E+20
 15
-1.000000000000000E+20
 25
-1.000000000000000E+20
 35
-1.000000000000000E+20
146
0.0
 13
0.0
 23
0.0
 33
0.0
 16
1.0
 26
0.0
 36
0.0
 17
0.0
 27
1.0
 37
0.0
 76
     0
330
1B
  0
LAYOUT
  5
26
102
{ACAD_REACTORS
330
1A
102
}
330
1A
100
AcDbPlotSettings
  1

  2
none_device
  4

  6

 40
0.0
 41
0.0
 42
0.0
 43
0.0
 44
0.0
 45
0.0
 46
0.0
 47
0.0
 48
0.0
 49
0.0
140
0.0
141
0.0
142
1.0
143
1.0
 70
   688
 72
     0
 73
     0
 74
     5
  7

 75
    16
 76
     0
 77
     2
 78
   300
147
1.0
148
0.0
149
0.0
100
AcDbLayout
  1
Layout2
 70
     1
 71
     2
 10
0.0
 20
0.0
 11
0.0
 21
0.0
 12
0.0
 22
0.0
 32
0.0
 14
0.0
 24
0.0
 34
0.0
 15
0.0
 25
0.0
 35
0.0
146
0.0
 13
0.0
 23
0.0
 33
0.0
 16
1.0
 26
0.0
 36
0.0
 17
0.0
 27
1.0
 37
0.0
 76
     0
330
23
  0
LAYOUT
  5
22
102
{ACAD_REACTORS
330
1A
102
}
330
1A
100
AcDbPlotSettings
  1

  2
none_device
  4

  6

 40
0.0
 41
0.0
 42
0.0
 43
0.0
 44
0.0
 45
0.0
 46
0.0
 47
0.0
 48
0.0
 49
0.0
140
0.0
141
0.0
142
1.0
143
1.0
 70
  1712
 72
     0
 73
     0
 74
     0
  7

 75
     0
 76
     0
 77
     2
 78
   300
147
1.0
148
0.0
149
0.0
100
AcDbLayout
  1
Model
 70
     1
 71
     0
 10
0.0
 20
0.0
 11
12.0
 21
9.0
 12
0.0
 22
0.0
 32
0.0
 14
1.000000000000000E+20
 24
1.000000000000000E+20
 34
1.000000000000000E+20
 15
-1.000000000000000E+20
 25
-1.000000000000000E+20
 35
-1.000000000000000E+20
146
0.0
 13
0.0
 23
0.0
 33
0.0
 16
1.0
 26
0.0
 36
0.0
 17
0.0
 27
1.0
 37
0.0
 76
     0
330
1F
331
29
  0
MATERIAL
  5
3D
102
{ACAD_REACTORS
330
3B
102
}
330
3B
100
AcDbMaterial
  1
ByBlock
 72
     1
 94
      127
  0
MATERIAL
  5
3C
102
{ACAD_REACTORS
330
3B
102
}
330
3B
100
AcDbMaterial
  1
ByLayer
 72
     1
 94
      127
  0
MATERIAL
  5
3E
102
{ACAD_REACTORS
330
3B
102
}
330
3B
100
AcDbMaterial
  1
Global
 72
     1
 94
      127
  0
MLINESTYLE
  5
18
102
{ACAD_REACTORS
330
17
102
}
330
17
100
AcDbMlineStyle
  2
Standard
 70
     0
  3

 62
   256
 51
90.0
 52
90.0
 71
     2
 49
0.5
 62
   256
  6
BYLAYER
 49
-0.5
 62
   256
  6
BYLAYER
  0
ACDBPLACEHOLDER
  5
F
102
{ACAD_REACTORS
330
E
102
}
330
E
  0
VISUALSTYLE
  5
2F
102
{ACAD_REACTORS
330
2A
102
}
330
2A
100
AcDbVisualStyle
  2
2dWireframe
 70
     4
177
     2
291
     0
 71
     0
176
     1
 72
     2
176
     1
 73
     0
176
     1
 90
        0
176
     1
 40
-0.6
176
     1
 41
-30.0
176
     1
 62
     5
 63
     7
421
 16777215
176
     1
 74
     1
176
     1
 91
        4
176
     1
 64
     7
176
     1
 65
   257
176
     1
 75
     1
176
     1
175
     1
176
     1
 42
1.0
176
     1
 92
        0
176
     1
 66
   257
176
     1
 43
1.0
176
     1
 76
     1
176
     1
 77
     6
176
     1
 78
     2
176
     1
 67
     7
176
     1
 79
     5
176
     1
170
     0
176
     1
171
     0
176
     1
290
     0
176
     1
 93
        1
176
     1
 44
0.0
176
     1
173
     0
176
     1
  0
VISUALSTYLE
  5
31
102
{ACAD_REACTORS
330
2A
102
}
330
2A
100
AcDbVisualStyle
  2
3D Hidden
 70
     6
177
     2
291
     0
 71
     1
176
     1
 72
     2
176
     1
 73
     2
176
     1
 90
        0
176
     1
 40
-0.6
176
     1
 41
-30.0
176
     1
 62
     5
 63
     7
421
 16777215
176
     1
 74
     2
176
     1
 91
        2
176
     1
 64
     7
176
     1
 65
   257
176
     1
 75
     2
176
     1
175
     1
176
     1
 42
40.0
176
     1
 92
        0
176
     1
 66
   257
176
     1
 43
1.0
176
     1
 76
     1
176
     1
 77
     6
176
     1
 78
     2
176
     1
 67
     7
176
     1
 79
     3
176
     1
170
     0
176
     1
171
     0
176
     1
290
     0
176
     1
 93
        1
176
     1
 44
0.0
176
     1
173
     0
176
     1
  0
VISUALSTYLE
  5
30
102
{ACAD_REACTORS
330
2A
102
}
330
2A
100
AcDbVisualStyle
  2
3dWireframe
 70
     5
177
     2
291
     0
 71
     0
176
     1
 72
     2
176
     1
 73
     0
176
     1
 90
        0
176
     1
 40
-0.6
176
     1
 41
-30.0
176
     1
 62
     5
 63
     7
421
 16777215
176
     1
 74
     1
176
     1
 91
        4
176
     1
 64
     7
176
     1
 65
   257
176
     1
 75
     1
176
     1
175
     1
176
     1
 42
1.0
176
     1
 92
        0
176
     1
 66
   257
176
     1
 43
1.0
176
     1
 76
     1
176
     1
 77
     6
176
     1
 78
     2
176
     1
 67
     7
176
     1
 79
     5
176
     1
170
     0
176
     1
171
     0
176
     1
290
     0
176
     1
 93
        1
176
     1
 44
0.0
176
     1
173
     0
176
     1
  0
VISUALSTYLE
  5
32
102
{ACAD_REACTORS
330
2A
102
}
330
2A
100
AcDbVisualStyle
  2
Basic
 70
     7
177
     2
291
     1
 71
     1
176
     1
 72
     0
176
     1
 73
     1
176
     1
 90
        0
176
     1
 40
-0.6
176
     1
 41
-30.0
176
     1
 62
     5
 63
     7
421
 16777215
176
     1
 74
     0
176
     1
 91
        4
176
     1
 64
     7
176
     1
 65
   257
176
     1
 75
     1
176
     1
175
     1
176
     1
 42
1.0
176
     1
 92
        8
176
     1
 66
     7
176
     1
 43
1.0
176
     1
 76
     1
176
     1
 77
     6
176
     1
 78
     2
176
     1
 67
     7
176
     1
 79
     5
176
     1
170
     0
176
     1
171
     0
176
     1
290
     0
176
     1
 93
        1
176
     1
 44
0.0
176
     1
173
     0
176
     1
  0
VISUALSTYLE
  5
36
102
{ACAD_REACTORS
330
2A
102
}
330
2A
100
AcDbVisualStyle
  2
Brighten
 70
    12
177
     2
291
     1
 71
     2
176
     1
 72
     2
176
     1
 73
     0
176
     1
 90
        0
176
     1
 40
-0.6
176
     1
 41
-30.0
176
     1
 62
     5
 63
     7
421
 16777215
176
     1
 74
     1
176
     1
 91
        4
176
     1
 64
     7
176
     1
 65
   257
176
     1
 75
     1
176
     1
175
     1
176
     1
 42
1.0
176
     1
 92
        8
176
     1
 66
     7
176
     1
 43
1.0
176
     1
 76
     1
176
     1
 77
     6
176
     1
 78
     2
176
     1
 67
     7
176
     1
 79
     5
176
     1
170
     0
176
     1
171
     0
176
     1
290
     0
176
     1
 93
        1
176
     1
 44
50.0
176
     1
173
     0
176
     1
  0
VISUALSTYLE
  5
3A
102
{ACAD_REACTORS
330
2A
102
}
330
2A
100
AcDbVisualStyle
  2
ColorChange
 70
    16
177
     2
291
     1
 71
     2
176
     1
 72
     2
176
     1
 73
     3
176
     1
 90
        0
176
     1
 40
-0.6
176
     1
 41
-30.0
176
     1
 62
     5
 63
     8
421
  8421504
176
     1
 74
     1
176
     1
 91
        4
176
     1
 64
     7
176
     1
 65
   257
176
     1
 75
     1
176
     1
175
     1
176
     1
 42
1.0
176
     1
 92
        8
176
     1
 66
     8
424
  8421504
176
     1
 43
1.0
176
     1
 76
     1
176
     1
 77
     6
176
     1
 78
     2
176
     1
 67
     7
176
     1
 79
     5
176
     1
170
     0
176
     1
171
     0
176
     1
290
     0
176
     1
 93
        1
176
     1
 44
0.0
176
     1
173
     0
176
     1
  0
VISUALSTYLE
  5
34
102
{ACAD_REACTORS
330
2A
102
}
330
2A
100
AcDbVisualStyle
  2
Conceptual
 70
     9
177
     2
291
     0
 71
     3
176
     1
 72
     2
176
     1
 73
     0
176
     1
 90
        0
176
     1
 40
-0.6
176
     1
 41
-30.0
176
     1
 62
     5
 63
     7
421
 16777215
176
     1
 74
     2
176
     1
 91
        2
176
     1
 64
     7
176
     1
 65
   257
176
     1
 75
     1
176
     1
175
     1
176
     1
 42
40.0
176
     1
 92
        8
176
     1
 66
     7
176
     1
 43
1.0
176
     1
 76
     1
176
     1
 77
     6
176
     1
 78
     2
176
     1
 67
     7
176
     1
 79
     3
176
     1
170
     0
176
     1
171
     0
176
     1
290
     0
176
     1
 93
        1
176
     1
 44
0.0
176
     1
173
     0
176
     1
  0
VISUALSTYLE
  5
35
102
{ACAD_REACTORS
330
2A
102
}
330
2A
100
AcDbVisualStyle
  2
Dim
 70
    11
177
     2
291
     1
 71
     2
176
     1
 72
     2
176
     1
 73
     0
176
     1
 90
        0
176
     1
 40
-0.6
176
     1
 41
-30.0
176
     1
 62
     5
 63
     7
421
 16777215
176
     1
 74
     1
176
     1
 91
        4
176
     1
 64
     7
176
     1
 65
   257
176
     1
 75
     1
176
     1
175
     1
176
     1
 42
1.0
176
     1
 92
        8
176
     1
 66
     7
176
     1
 43
1.0
176
     1
 76
     1
176
     1
 77
     6
176
     1
 78
     2
176
     1
 67
     7
176
     1
 79
     5
176
     1
170
     0
176
     1
171
     0
176
     1
290
     0
176
     1
 93
        1
176
     1
 44
-50.0
176
     1
173
     0
176
     1
  0
VISUALSTYLE
  5
39
102
{ACAD_REACTORS
330
2A
102
}
330
2A
100
AcDbVisualStyle
  2
Facepattern
 70
    15
177
     2
291
     1
 71
     2
176
     1
 72
     2
176
     1
 73
     0
176
     1
 90
        0
176
     1
 40
-0.6
176
     1
 41
-30.0
176
     1
 62
     5
 63
     7
421
 16777215
176
     1
 74
     1
176
     1
 91
        4
176
     1
 64
     7
176
     1
 65
   257
176
     1
 75
     1
176
     1
175
     1
176
     1
 42
1.0
176
     1
 92
        8
176
     1
 66
     7
176
     1
 43
1.0
176
     1
 76
     1
176
     1
 77
     6
176
     1
 78
     2
176
     1
 67
     7
176
     1
 79
     5
176
     1
170
     0
176
     1
171
     0
176
     1
290
     0
176
     1
 93
        1
176
     1
 44
0.0
176
     1
173
     0
176
     1
  0
VISUALSTYLE
  5
2B
102
{ACAD_REACTORS
330
2A
102
}
330
2A
100
AcDbVisualStyle
  2
Flat
 70
     0
177
     2
291
     1
 71
     2
176
     1
 72
     1
176
     1
 73
     1
176
     1
 90
        2
176
     1
 40
-0.6
176
     1
 41
30.0
176
     1
 62
     5
 63
     7
421
 16777215
176
     1
 74
     0
176
     1
 91
        4
176
     1
 64
     7
176
     1
 65
   257
176
     1
 75
     1
176
     1
175
     1
176
     1
 42
1.0
176
     1
 92
        8
176
     1
 66
     7
176
     1
 43
1.0
176
     1
 76
     1
176
     1
 77
     6
176
     1
 78
     2
176
     1
 67
     7
176
     1
 79
     5
176
     1
170
     0
176
     1
171
     0
176
     1
290
     0
176
     1
 93
       13
176
     1
 44
0.0
176
     1
173
     0
176
     1
  0
VISUALSTYLE
  5
2C
102
{ACAD_REACTORS
330
2A
102
}
330
2A
100
AcDbVisualStyle
  2
FlatWithEdges
 70
     1
177
     2
291
     1
 71
     2
176
     1
 72
     1
176
     1
 73
     1
176
     1
 90
        2
176
     1
 40
-0.6
176
     1
 41
30.0
176
     1
 62
     5
 63
     7
421
 16777215
176
     1
 74
     1
176
     1
 91
        4
176
     1
 64
     7
176
     1
 65
   257
176
     1
 75
     1
176
     1
175
     1
176
     1
 42
1.0
176
     1
 92
        0
176
     1
 66
   257
176
     1
 43
1.0
176
     1
 76
     1
176
     1
 77
     6
176
     1
 78
     2
176
     1
 67
     7
176
     1
 79
     5
176
     1
170
     0
176
     1
171
     0
176
     1
290
     0
176
     1
 93
       13
176
     1
 44
0.0
176
     1
173
     0
176
     1
  0
VISUALSTYLE
  5
2D
102
{ACAD_REACTORS
330
2A
102
}
330
2A
100
AcDbVisualStyle
  2
Gouraud
 70
     2
177
     2
291
     1
 71
     2
176
     1
 72
     2
176
     1
 73
     1
176
     1
 90
        2
176
     1
 40
-0.6
176
     1
 41
30.0
176
     1
 62
     5
 63
     7
421
 16777215
176
     1
 74
     0
176
     1
 91
        4
176
     1
 64
     7
176
     1
 65
   257
176
     1
 75
     1
176
     1
175
     1
176
     1
 42
1.0
176
     1
 92
        0
176
     1
 66
     7
176
     1
 43
1.0
176
     1
 76
     1
176
     1
 77
     6
176
     1
 78
     2
176
     1
 67
     7
176
     1
 79
     5
176
     1
170
     0
176
     1
171
     0
176
     1
290
     0
176
     1
 93
       13
176
     1
 44
0.0
176
     1
173
     0
176
     1
  0
VISUALSTYLE
  5
2E
102
{ACAD_REACTORS
330
2A
102
}
330
2A
100
AcDbVisualStyle
  2
GouraudWithEdges
 70
     3
177
     2
291
     1
 71
     2
176
     1
 72
     2
176
     1
 73
     1
176
     1
 90
        2
176
     1
 40
-0.6
176
     1
 41
30.0
176
     1
 62
     5
 63
     7
421
 16777215
176
     1
 74
     1
176
     1
 91
        4
176
     1
 64
     7
176
     1
 65
   257
176
     1
 75
     1
176
     1
175
     1
176
     1
 42
1.0
176
     1
 92
        0
176
     1
 66
   257
176
     1
 43
1.0
176
     1
 76
     1
176
     1
 77
     6
176
     1
 78
     2
176
     1
 67
     7
176
     1
 79
     5
176
     1
170
     0
176
     1
171
     0
176
     1
290
     0
176
     1
 93
       13
176
     1
 44
0.0
176
     1
173
     0
176
     1
  0
VISUALSTYLE
  5
38
102
{ACAD_REACTORS
330
2A
102
}
330
2A
100
AcDbVisualStyle
  2
Linepattern
 70
    14
177
     2
291
     1
 71
     2
176
     1
 72
     2
176
     1
 73
     0
176
     1
 90
        0
176
     1
 40
-0.6
176
     1
 41
-30.0
176
     1
 62
     5
 63
     7
421
 16777215
176
     1
 74
     1
176
     1
 91
        4
176
     1
 64
     7
176
     1
 65
   257
176
     1
 75
     7
176
     1
175
     7
176
     1
 42
1.0
176
     1
 92
        8
176
     1
 66
     7
176
     1
 43
1.0
176
     1
 76
     1
176
     1
 77
     6
176
     1
 78
     2
176
     1
 67
     7
176
     1
 79
     5
176
     1
170
     0
176
     1
171
     0
176
     1
290
     0
176
     1
 93
        1
176
     1
 44
0.0
176
     1
173
     0
176
     1
  0
VISUALSTYLE
  5
33
102
{ACAD_REACTORS
330
2A
102
}
330
2A
100
AcDbVisualStyle
  2
Realistic
 70
     8
177
     2
291
     0
 71
     2
176
     1
 72
     2
176
     1
 73
     0
176
     1
 90
        0
176
     1
 40
-0.6
176
     1
 41
-30.0
176
     1
 62
     5
 63
     7
421
 16777215
176
     1
 74
     1
176
     1
 91
        0
176
     1
 64
     7
176
     1
 65
   257
176
     1
 75
     1
176
     1
175
     1
176
     1
 42
1.0
176
     1
 92
        8
176
     1
 66
     8
424
  7895160
176
     1
 43
1.0
176
     1
 76
     1
176
     1
 77
     6
176
     1
 78
     2
176
     1
 67
     7
176
     1
 79
     5
176
     1
170
     0
176
     1
171
     0
176
     1
290
     0
176
     1
 93
       13
176
     1
 44
0.0
176
     1
173
     0
176
     1
  0
VISUALSTYLE
  5
37
102
{ACAD_REACTORS
330
2A
102
}
330
2A
100
AcDbVisualStyle
  2
Thicken
 70
    13
177
     2
291
     1
 71
     2
176
     1
 72
     2
176
     1
 73
     0
176
     1
 90
        0
176
     1
 40
-0.6
176
     1
 41
-30.0
176
     1
 62
     5
 63
     7
421
 16777215
176
     1
 74
     1
176
     1
 91
        4
176
     1
 64
     7
176
     1
 65
   257
176
     1
 75
     1
176
     1
175
     1
176
     1
 42
1.0
176
     1
 92
       12
176
     1
 66
     7
176
     1
 43
1.0
176
     1
 76
     1
176
     1
 77
     6
176
     1
 78
     2
176
     1
 67
     7
176
     1
 79
     5
176
     1
170
     0
176
     1
171
     0
176
     1
290
     0
176
     1
 93
        1
176
     1
 44
0.0
176
     1
173
     0
176
     1
  0
ENDSEC
  0
EOF
