  0
SECTION
  2
HEADER
  9
$ACADVER
  1
AC1024
  9
$ACADMAINTVER
 70
     6
  9
$DWGCODEPAGE
  3
UNDEFINED
  9
$INSBASE
 10
0.0
 20
0.0
 30
0.0
  9
$EXTMIN
 10
1.000000000000000E+20
 20
1.000000000000000E+20
 30
1.000000000000000E+20
  9
$EXTMAX
 10
-1.000000000000000E+20
 20
-1.000000000000000E+20
 30
-1.000000000000000E+20
  9
$LIMMIN
 10
0.0
 20
0.0
  9
$LIMMAX
 10
12.0
 20
9.0
  9
$ORTHOMODE
 70
     0
  9
$REGENMODE
 70
     1
  9
$FILLMODE
 70
     1
  9
$QTEXTMODE
 70
     0
  9
$MIRRTEXT
 70
     1
  9
$LTSCALE
 40
1.0
  9
$ATTMODE
 70
     1
  9
$TEXTSIZE
 40
0.2
  9
$TRACEWID
 40
0.05
  9
$TEXTSTYLE
  7
Standard
  9
$CLAYER
  8
0
  9
$CELTYPE
  6
ByLayer
  9
$CECOLOR
 62
   256
  9
$CELTSCALE
 40
1.0
  9
$DISPSILH
 70
     0
  9
$DIMSCALE
 40
1.0
  9
$DIMASZ
 40
0.18
  9
$DIMEXO
 40
0.0625
  9
$DIMDLI
 40
0.38
  9
$DIMRND
 40
0.0
  9
$DIMDLE
 40
0.0
  9
$DIMEXE
 40
0.18
  9
$DIMTP
 40
0.0
  9
$DIMTM
 40
0.0
  9
$DIMTXT
 40
0.18
  9
$DIMCEN
 40
0.09
  9
$DIMTSZ
 40
0.0
  9
$DIMTOL
 70
     0
  9
$DIMLIM
 70
     0
  9
$DIMTIH
 70
     1
  9
$DIMTOH
 70
     1
  9
$DIMSE1
 70
     0
  9
$DIMSE2
 70
     0
  9
$DIMTAD
 70
     0
  9
$DIMZIN
 70
     0
  9
$DIMBLK
  1

  9
$DIMASO
 70
     1
  9
$DIMSHO
 70
     1
  9
$DIMPOST
  1

  9
$DIMAPOST
  1

  9
$DIMALT
 70
     0
  9
$DIMALTD
 70
     2
  9
$DIMALTF
 40
25.4
  9
$DIMLFAC
 40
1.0
  9
$DIMTOFL
 70
     0
  9
$DIMTVP
 40
0.0
  9
$DIMTIX
 70
     0
  9
$DIMSOXD
 70
     0
  9
$DIMSAH
 70
     0
  9
$DIMBLK1
  1

  9
$DIMBLK2
  1

  9
$DIMSTYLE
  2
Standard
  9
$DIMCLRD
 70
     0
  9
$DIMCLRE
 70
     0
  9
$DIMCLRT
 70
     0
  9
$DIMTFAC
 40
1.0
  9
$DIMGAP
 40
0.09
  9
$DIMJUST
 70
     0
  9
$DIMSD1
 70
     0
  9
$DIMSD2
 70
     0
  9
$DIMTOLJ
 70
     1
  9
$DIMTZIN
 70
     0
  9
$DIMALTZ
 70
     0
  9
$DIMALTTZ
 70
     0
  9
$DIMUPT
 70
     0
  9
$DIMDEC
 70
     4
  9
$DIMTDEC
 70
     4
  9
$DIMALTU
 70
     2
  9
$DIMALTTD
 70
     2
  9
$DIMTXSTY
  7
Standard
  9
$DIMAUNIT
 70
     0
  9
$DIMADEC
 70
     0
  9
$DIMALTRND
 40
0.0
  9
$DIMAZIN
 70
     0
  9
$DIMDSEP
 70
    46
  9
$DIMATFIT
 70
     3
  9
$DIMFRAC
 70
     0
  9
$DIMLDRBLK
  1

  9
$DIMLUNIT
 70
     2
  9
$DIMLWD
 70
    -2
  9
$DIMLWE
 70
    -2
  9
$DIMTMOVE
 70
     0
  9
$DIMFXL
 40
1.0
  9
$DIMFXLON
 70
     0
  9
$DIMJOGANG
 40
0.7853981633974483
  9
$DIMTFILL
 70
     0
  9
$DIMTFILLCLR
 70
     0
  9
$DIMARCSYM
 70
     0
  9
$DIMLTYPE
  6

  9
$DIMLTEX1
  6

  9
$DIMLTEX2
  6

  9
$DIMTXTDIRECTION
 70
     0
  9
$LUNITS
 70
     2
  9
$LUPREC
 70
     4
  9
$SKETCHINC
 40
0.1
  9
$FILLETRAD
 40
0.5
  9
$AUNITS
 70
     0
  9
$AUPREC
 70
     0
  9
$MENU
  1
.
  9
$ELEVATION
 40
0.0
  9
$PELEVATION
 40
0.0
  9
$THICKNESS
 40
0.0
  9
$LIMCHECK
 70
     0
  9
$CHAMFERA
 40
0.5
  9
$CHAMFERB
 40
0.5
  9
$CHAMFERC
 40
1.0
  9
$CHAMFERD
 40
0.0
  9
$SKPOLY
 70
     0
  9
$TDCREATE
 40
2457917.627268507
  9
$TDUCREATE
 40
2457917.252268518
  9
$TDUPDATE
 40
2457917.627268507
  9
$TDUUPDATE
 40
2457917.252268518
  9
$TDINDWG
 40
0.0000000116
  9
$TDUSRTIMER
 40
0.0000000116
  9
$USRTIMER
 70
     1
  9
$ANGBASE
 50
0.0
  9
$ANGDIR
 70
     0
  9
$PDMODE
 70
     0
  9
$PDSIZE
 40
0.0
  9
$PLINEWID
 40
0.0
  9
$SPLFRAME
 70
     0
  9
$SPLINETYPE
 70
     6
  9
$SPLINESEGS
 70
     8
  9
$HANDSEED
  5
2A3
  9
$SURFTAB1
 70
     6
  9
$SURFTAB2
 70
     6
  9
$SURFTYPE
 70
     6
  9
$SURFU
 70
     6
  9
$SURFV
 70
     6
  9
$UCSBASE
  2

  9
$UCSNAME
  2

  9
$UCSORG
 10
0.0
 20
0.0
 30
0.0
  9
$UCSXDIR
 10
1.0
 20
0.0
 30
0.0
  9
$UCSYDIR
 10
0.0
 20
1.0
 30
0.0
  9
$UCSORTHOREF
  2

  9
$UCSORTHOVIEW
 70
     0
  9
$UCSORGTOP
 10
0.0
 20
0.0
 30
0.0
  9
$UCSORGBOTTOM
 10
0.0
 20
0.0
 30
0.0
  9
$UCSORGLEFT
 10
0.0
 20
0.0
 30
0.0
  9
$UCSORGRIGHT
 10
0.0
 20
0.0
 30
0.0
  9
$UCSORGFRONT
 10
0.0
 20
0.0
 30
0.0
  9
$UCSORGBACK
 10
0.0
 20
0.0
 30
0.0
  9
$PUCSBASE
  2

  9
$PUCSNAME
  2

  9
$PUCSORG
 10
0.0
 20
0.0
 30
0.0
  9
$PUCSXDIR
 10
1.0
 20
0.0
 30
0.0
  9
$PUCSYDIR
 10
0.0
 20
1.0
 30
0.0
  9
$PUCSORTHOREF
  2

  9
$PUCSORTHOVIEW
 70
     0
  9
$PUCSORGTOP
 10
0.0
 20
0.0
 30
0.0
  9
$PUCSORGBOTTOM
 10
0.0
 20
0.0
 30
0.0
  9
$PUCSORGLEFT
 10
0.0
 20
0.0
 30
0.0
  9
$PUCSORGRIGHT
 10
0.0
 20
0.0
 30
0.0
  9
$PUCSORGFRONT
 10
0.0
 20
0.0
 30
0.0
  9
$PUCSORGBACK
 10
0.0
 20
0.0
 30
0.0
  9
$USERI1
 70
     0
  9
$USERI2
 70
     0
  9
$USERI3
 70
     0
  9
$USERI4
 70
     0
  9
$USERI5
 70
     0
  9
$USERR1
 40
0.0
  9
$USERR2
 40
0.0
  9
$USERR3
 40
0.0
  9
$USERR4
 40
0.0
  9
$USERR5
 40
0.0
  9
$WORLDVIEW
 70
     1
  9
$SHADEDGE
 70
     3
  9
$SHADEDIF
 70
    70
  9
$TILEMODE
 70
     1
  9
$MAXACTVP
 70
    64
  9
$PINSBASE
 10
0.0
 20
0.0
 30
0.0
  9
$PLIMCHECK
 70
     0
  9
$PEXTMIN
 10
1.000000000000000E+20
 20
1.000000000000000E+20
 30
1.000000000000000E+20
  9
$PEXTMAX
 10
-1.000000000000000E+20
 20
-1.000000000000000E+20
 30
-1.000000000000000E+20
  9
$PLIMMIN
 10
0.0
 20
0.0
  9
$PLIMMAX
 10
12.0
 20
9.0
  9
$UNITMODE
 70
     0
  9
$VISRETAIN
 70
     1
  9
$PLINEGEN
 70
     0
  9
$PSLTSCALE
 70
     1
  9
$TREEDEPTH
 70
  3020
  9
$CMLSTYLE
  2
Standard
  9
$CMLJUST
 70
     0
  9
$CMLSCALE
 40
1.0
  9
$PROXYGRAPHICS
 70
     1
  9
$MEASUREMENT
 70
     0
  9
$CELWEIGHT
370
    -1
  9
$ENDCAPS
280
     0
  9
$JOINSTYLE
280
     0
  9
$LWDISPLAY
290
     1
  9
$INSUNITS
 70
     1
  9
$HYPERLINKBASE
  1

  9
$STYLESHEET
  1

  9
$XEDIT
290
     1
  9
$CEPSNTYPE
380
     0
  9
$PSTYLEMODE
290
     1
  9
$FINGERPRINTGUID
  2
{99D7C41D-9DDF-98D7-5890-0CC1AA593598}
  9
$VERSIONGUID
  2
{FAEB1C32-E019-11D5-929B-00C0DF256EC4}
  9
$EXTNAMES
290
     1
  9
$PSVPSCALE
 40
0.0
  9
$OLESTARTUP
290
     0
  9
$SORTENTS
280
   127
  9
$INDEXCTL
280
     0
  9
$HIDETEXT
280
     1
  9
$XCLIPFRAME
280
     2
  9
$HALOGAP
280
     0
  9
$OBSCOLOR
 70
   257
  9
$OBSLTYPE
280
     0
  9
$INTERSECTIONDISPLAY
280
     0
  9
$INTERSECTIONCOLOR
 70
   257
  9
$DIMASSOC
280
     2
  9
$PROJECTNAME
  1

  9
$CAMERADISPLAY
290
     0
  9
$LENSLENGTH
 40
50.0
  9
$CAMERAHEIGHT
 40
0.0
  9
$STEPSPERSEC
 40
2.0
  9
$STEPSIZE
 40
6.0
  9
$3DDWFPREC
 40
2.0
  9
$PSOLWIDTH
 40
0.25
  9
$PSOLHEIGHT
 40
4.0
  9
$LOFTANG1
 40
1.570796326794897
  9
$LOFTANG2
 40
1.570796326794897
  9
$LOFTMAG1
 40
0.0
  9
$LOFTMAG2
 40
0.0
  9
$LOFTPARAM
 70
     7
  9
$LOFTNORMALS
280
     1
  9
$LATITUDE
 40
37.795
  9
$LONGITUDE
 40
-122.394
  9
$NORTHDIRECTION
 40
0.0
  9
$TIMEZONE
 70
 -8000
  9
$LIGHTGLYPHDISPLAY
280
     1
  9
$TILEMODELIGHTSYNCH
280
     1
  9
$CMATERIAL
347
3C
  9
$SOLIDHIST
280
     1
  9
$SHOWHIST
280
     1
  9
$DWFFRAME
280
     2
  9
$DGNFRAME
280
     2
  9
$REALWORLDSCALE
290
     1
  9
$INTERFERECOLOR
 62
   256
  9
$CSHADOW
280
     0
  9
$SHADOWPLANELOCATION
 40
0.0
  0
ENDSEC
  0
SECTION
  2
CLASSES
  0
CLASS
  1
ACDBDICTIONARYWDFLT
  2
AcDbDictionaryWithDefault
  3
ObjectDBX Classes
 90
        0
 91
        4
280
     0
281
     0
  0
CLASS
  1
VISUALSTYLE
  2
AcDbVisualStyle
  3
ObjectDBX Classes
 90
     4095
 91
        4
280
     0
281
     0
  0
CLASS
  1
MATERIAL
  2
AcDbMaterial
  3
ObjectDBX Classes
 90
     1153
 91
        4
280
     0
281
     0
  0
CLASS
  1
SUN
  2
AcDbSun
  3
SCENEOE
 90
     1024
 91
        4
280
     0
281
     0
  0
ENDSEC
  0
SECTION
  2
TABLES
  0
TABLE
  2
VPORT
  5
8
330
0
100
AcDbSymbolTable
 70
     1
  0
VPORT
  5
29
330
8
100
AcDbSymbolTableRecord
100
AcDbViewportTableRecord
  2
*Active
 70
     0
 10
0.0
 20
0.0
 11
1.0
 21
1.0
 12
0.0
 22
0.0
 13
0.0
 23
0.0
 14
0.5
 24
0.5
 15
0.5
 25
0.5
 16
0.0
 26
0.0
 36
1.0
 17
91.00082462281999
 27
-128.4993055234307
 37
0.0
 40
256.9986110468615
 41
0.7081814508812795
 42
50.0
 43
0.0
 44
0.0
 50
0.0
 51
0.0
 71
     0
 72
   100
 73
     1
 74
     3
 75
     0
 76
     0
 77
     0
 78
     0
281
     0
 65
     1
110
0.0
120
0.0
130
0.0
111
1.0
121
0.0
131
0.0
112
0.0
122
1.0
132
0.0
 79
     0
146
0.0
 60
     3
 61
     5
292
     1
282
     1
141
0.0
142
0.0
 63
   250
361
3F
  0
ENDTAB
  0
TABLE
  2
LTYPE
  5
5
330
0
100
AcDbSymbolTable
 70
    17
  0
LTYPE
  5
14
330
5
100
AcDbSymbolTableRecord
100
AcDbLinetypeTableRecord
  2
ByBlock
 70
     0
  3

 72
    65
 73
     0
 40
0.0
  0
LTYPE
  5
15
330
5
100
AcDbSymbolTableRecord
100
AcDbLinetypeTableRecord
  2
ByLayer
 70
     0
  3

 72
    65
 73
     0
 40
0.0
  0
LTYPE
  5
16
330
5
100
AcDbSymbolTableRecord
100
AcDbLinetypeTableRecord
  2
Continuous
 70
     0
  3
Solid line
 72
    65
 73
     0
 40
0.0
  0
LTYPE
  5
C2
330
5
100
AcDbSymbolTableRecord
100
AcDbLinetypeTableRecord
  2
AI-Linetype-1
 70
     0
  3
Adobe Illustrator Linetype No. 1
 72
    65
 73
     2
 40
3.500014142644928
 49
2.000003083046956
 74
     0
 49
-1.500011059597972
 74
     0
  0
LTYPE
  5
C7
330
5
100
AcDbSymbolTableRecord
100
AcDbLinetypeTableRecord
  2
AI-Linetype-2
 70
     0
  3
Adobe Illustrator Linetype No. 2
 72
    65
 73
     2
 40
3.500014142644928
 49
2.000003083046956
 74
     0
 49
-1.500011059597972
 74
     0
  0
LTYPE
  5
CC
330
5
100
AcDbSymbolTableRecord
100
AcDbLinetypeTableRecord
  2
AI-Linetype-3
 70
     0
  3
Adobe Illustrator Linetype No. 3
 72
    65
 73
     2
 40
3.500014142644928
 49
2.000003083046956
 74
     0
 49
-1.500011059597972
 74
     0
  0
LTYPE
  5
D1
330
5
100
AcDbSymbolTableRecord
100
AcDbLinetypeTableRecord
  2
AI-Linetype-4
 70
     0
  3
Adobe Illustrator Linetype No. 4
 72
    65
 73
     2
 40
3.500014142644928
 49
2.000003083046956
 74
     0
 49
-1.500011059597972
 74
     0
  0
LTYPE
  5
D6
330
5
100
AcDbSymbolTableRecord
100
AcDbLinetypeTableRecord
  2
AI-Linetype-5
 70
     0
  3
Adobe Illustrator Linetype No. 5
 72
    65
 73
     2
 40
3.500014142644928
 49
2.000003083046956
 74
     0
 49
-1.500011059597972
 74
     0
  0
LTYPE
  5
DB
330
5
100
AcDbSymbolTableRecord
100
AcDbLinetypeTableRecord
  2
AI-Linetype-6
 70
     0
  3
Adobe Illustrator Linetype No. 6
 72
    65
 73
     2
 40
3.500014142644928
 49
2.000003083046956
 74
     0
 49
-1.500011059597972
 74
     0
  0
LTYPE
  5
E0
330
5
100
AcDbSymbolTableRecord
100
AcDbLinetypeTableRecord
  2
AI-Linetype-7
 70
     0
  3
Adobe Illustrator Linetype No. 7
 72
    65
 73
     2
 40
3.500014142644928
 49
2.000003083046956
 74
     0
 49
-1.500011059597972
 74
     0
  0
LTYPE
  5
E5
330
5
100
AcDbSymbolTableRecord
100
AcDbLinetypeTableRecord
  2
AI-Linetype-8
 70
     0
  3
Adobe Illustrator Linetype No. 8
 72
    65
 73
     2
 40
3.500014142644928
 49
2.000003083046956
 74
     0
 49
-1.500011059597972
 74
     0
  0
LTYPE
  5
EA
330
5
100
AcDbSymbolTableRecord
100
AcDbLinetypeTableRecord
  2
AI-Linetype-9
 70
     0
  3
Adobe Illustrator Linetype No. 9
 72
    65
 73
     2
 40
3.500014142644928
 49
2.000003083046956
 74
     0
 49
-1.500011059597972
 74
     0
  0
LTYPE
  5
EF
330
5
100
AcDbSymbolTableRecord
100
AcDbLinetypeTableRecord
  2
AI-Linetype-10
 70
     0
  3
Adobe Illustrator Linetype No. 10
 72
    65
 73
     2
 40
3.500014142644928
 49
2.000003083046956
 74
     0
 49
-1.500011059597972
 74
     0
  0
LTYPE
  5
F4
330
5
100
AcDbSymbolTableRecord
100
AcDbLinetypeTableRecord
  2
AI-Linetype-11
 70
     0
  3
Adobe Illustrator Linetype No. 11
 72
    65
 73
     2
 40
3.500014142644928
 49
2.000003083046956
 74
     0
 49
-1.500011059597972
 74
     0
  0
LTYPE
  5
F9
330
5
100
AcDbSymbolTableRecord
100
AcDbLinetypeTableRecord
  2
AI-Linetype-12
 70
     0
  3
Adobe Illustrator Linetype No. 12
 72
    65
 73
     2
 40
3.500014142644928
 49
2.000003083046956
 74
     0
 49
-1.500011059597972
 74
     0
  0
LTYPE
  5
FE
330
5
100
AcDbSymbolTableRecord
100
AcDbLinetypeTableRecord
  2
AI-Linetype-13
 70
     0
  3
Adobe Illustrator Linetype No. 13
 72
    65
 73
     2
 40
3.500014142644928
 49
2.000003083046956
 74
     0
 49
-1.500011059597972
 74
     0
  0
LTYPE
  5
103
330
5
100
AcDbSymbolTableRecord
100
AcDbLinetypeTableRecord
  2
AI-Linetype-14
 70
     0
  3
Adobe Illustrator Linetype No. 14
 72
    65
 73
     2
 40
3.500014142644928
 49
2.000003083046956
 74
     0
 49
-1.500011059597972
 74
     0
  0
LTYPE
  5
108
330
5
100
AcDbSymbolTableRecord
100
AcDbLinetypeTableRecord
  2
AI-Linetype-15
 70
     0
  3
Adobe Illustrator Linetype No. 15
 72
    65
 73
     2
 40
3.500014142644928
 49
2.000003083046956
 74
     0
 49
-1.500011059597972
 74
     0
  0
LTYPE
  5
10D
330
5
100
AcDbSymbolTableRecord
100
AcDbLinetypeTableRecord
  2
AI-Linetype-16
 70
     0
  3
Adobe Illustrator Linetype No. 16
 72
    65
 73
     2
 40
3.500014142644928
 49
2.000003083046956
 74
     0
 49
-1.500011059597972
 74
     0
  0
ENDTAB
  0
TABLE
  2
LAYER
  5
2
330
0
100
AcDbSymbolTable
 70
     2
  0
LAYER
  5
10
330
2
100
AcDbSymbolTableRecord
100
AcDbLayerTableRecord
  2
0
 70
     0
 62
     7
  6
Continuous
370
    -3
390
F
347
3E
  0
LAYER
  5
40
330
2
100
AcDbSymbolTableRecord
100
AcDbLayerTableRecord
  2
_U+30EC_U+30A4_U+30E4_U+30FC 1
 70
     0
 62
     7
  6
Continuous
370
    -3
390
F
347
3E
  0
ENDTAB
  0
TABLE
  2
STYLE
  5
3
330
0
100
AcDbSymbolTable
 70
     1
  0
STYLE
  5
11
330
3
100
AcDbSymbolTableRecord
100
AcDbTextStyleTableRecord
  2
Standard
 70
     0
 40
0.0
 41
1.0
 50
0.0
 71
     0
 42
0.2
  3
txt
  4

  0
ENDTAB
  0
TABLE
  2
VIEW
  5
6
330
0
100
AcDbSymbolTable
 70
     0
  0
ENDTAB
  0
TABLE
  2
UCS
  5
7
330
0
100
AcDbSymbolTable
 70
     0
  0
ENDTAB
  0
TABLE
  2
APPID
  5
9
330
0
100
AcDbSymbolTable
 70
     1
  0
APPID
  5
12
330
9
100
AcDbSymbolTableRecord
100
AcDbRegAppTableRecord
  2
ACAD
 70
     0
  0
ENDTAB
  0
TABLE
  2
DIMSTYLE
  5
A
330
0
100
AcDbSymbolTable
 70
     1
100
AcDbDimStyleTable
  0
DIMSTYLE
105
27
330
A
100
AcDbSymbolTableRecord
100
AcDbDimStyleTableRecord
  2
Standard
 70
     0
178
     0
340
11
  0
ENDTAB
  0
TABLE
  2
BLOCK_RECORD
  5
1
330
0
100
AcDbSymbolTable
 70
    15
  0
BLOCK_RECORD
  5
1F
330
1
100
AcDbSymbolTableRecord
100
AcDbBlockTableRecord
  2
*Model_Space
340
22
 70
     0
280
     1
281
     0
  0
BLOCK_RECORD
  5
1B
330
1
100
AcDbSymbolTableRecord
100
AcDbBlockTableRecord
  2
*Paper_Space
340
1E
 70
     0
280
     1
281
     0
  0
BLOCK_RECORD
  5
23
330
1
100
AcDbSymbolTableRecord
100
AcDbBlockTableRecord
  2
*Paper_Space0
340
26
 70
     0
280
     1
281
     0
  0
BLOCK_RECORD
  5
134
330
1
100
AcDbSymbolTableRecord
100
AcDbBlockTableRecord
  2
block 2
340
0
102
{BLKREFS
331
135
102
}
 70
     0
280
     1
281
     0
  0
BLOCK_RECORD
  5
14C
330
1
100
AcDbSymbolTableRecord
100
AcDbBlockTableRecord
  2
block 3
340
0
102
{BLKREFS
331
14D
102
}
 70
     0
280
     1
281
     0
  0
BLOCK_RECORD
  5
185
330
1
100
AcDbSymbolTableRecord
100
AcDbBlockTableRecord
  2
block 4
340
0
102
{BLKREFS
331
186
102
}
 70
     0
280
     1
281
     0
  0
BLOCK_RECORD
  5
1B4
330
1
100
AcDbSymbolTableRecord
100
AcDbBlockTableRecord
  2
block 5
340
0
102
{BLKREFS
331
1B5
102
}
 70
     0
280
     1
281
     0
  0
BLOCK_RECORD
  5
1C9
330
1
100
AcDbSymbolTableRecord
100
AcDbBlockTableRecord
  2
block 6
340
0
102
{BLKREFS
331
1CA
102
}
 70
     0
280
     1
281
     0
  0
BLOCK_RECORD
  5
1F2
330
1
100
AcDbSymbolTableRecord
100
AcDbBlockTableRecord
  2
block 7
340
0
102
{BLKREFS
331
1F3
102
}
 70
     0
280
     1
281
     0
  0
BLOCK_RECORD
  5
204
330
1
100
AcDbSymbolTableRecord
100
AcDbBlockTableRecord
  2
block 8
340
0
102
{BLKREFS
331
205
102
}
 70
     0
280
     1
281
     0
  0
BLOCK_RECORD
  5
218
330
1
100
AcDbSymbolTableRecord
100
AcDbBlockTableRecord
  2
block 9
340
0
102
{BLKREFS
331
219
102
}
 70
     0
280
     1
281
     0
  0
BLOCK_RECORD
  5
236
330
1
100
AcDbSymbolTableRecord
100
AcDbBlockTableRecord
  2
block 10
340
0
102
{BLKREFS
331
237
102
}
 70
     0
280
     1
281
     0
  0
BLOCK_RECORD
  5
23C
330
1
100
AcDbSymbolTableRecord
100
AcDbBlockTableRecord
  2
block 11
340
0
102
{BLKREFS
331
23D
102
}
 70
     0
280
     1
281
     0
  0
BLOCK_RECORD
  5
24C
330
1
100
AcDbSymbolTableRecord
100
AcDbBlockTableRecord
  2
block 12
340
0
102
{BLKREFS
331
24D
102
}
 70
     0
280
     1
281
     0
  0
BLOCK_RECORD
  5
260
330
1
100
AcDbSymbolTableRecord
100
AcDbBlockTableRecord
  2
block 13
340
0
102
{BLKREFS
331
261
102
}
 70
     0
280
     1
281
     0
  0
BLOCK_RECORD
  5
274
330
1
100
AcDbSymbolTableRecord
100
AcDbBlockTableRecord
  2
block 14
340
0
102
{BLKREFS
331
275
102
}
 70
     0
280
     1
281
     0
  0
BLOCK_RECORD
  5
299
330
1
100
AcDbSymbolTableRecord
100
AcDbBlockTableRecord
  2
block 15
340
0
102
{BLKREFS
331
29A
102
}
 70
     0
280
     1
281
     0
  0
ENDTAB
  0
ENDSEC
  0
SECTION
  2
BLOCKS
  0
BLOCK
  5
20
330
1F
100
AcDbEntity
  8
0
100
AcDbBlockBegin
  2
*Model_Space
 70
     0
 10
0.0
 20
0.0
 30
0.0
  3
*Model_Space
  1

  0
ENDBLK
  5
21
330
1F
100
AcDbEntity
  8
0
100
AcDbBlockEnd
  0
BLOCK
  5
1C
330
1B
100
AcDbEntity
 67
     1
  8
0
100
AcDbBlockBegin
  2
*Paper_Space
 70
     0
 10
0.0
 20
0.0
 30
0.0
  3
*Paper_Space
  1

  0
ENDBLK
  5
1D
330
1B
100
AcDbEntity
 67
     1
  8
0
100
AcDbBlockEnd
  0
BLOCK
  5
24
330
23
100
AcDbEntity
  8
0
100
AcDbBlockBegin
  2
*Paper_Space0
 70
     0
 10
0.0
 20
0.0
 30
0.0
  3
*Paper_Space0
  1

  0
ENDBLK
  5
25
330
23
100
AcDbEntity
  8
0
100
AcDbBlockEnd
  0
BLOCK
  5
136
330
134
100
AcDbEntity
  8
0
100
AcDbBlockBegin
  2
block 2
 70
     0
 10
0.0
 20
0.0
 30
0.0
  3
block 2
  1

  0
SPLINE
  5
138
330
134
100
AcDbEntity
  8
_U+30EC_U+30A4_U+30E4_U+30FC 1
370
     0
100
AcDbSpline
210
0.0
220
0.0
230
1.0
 70
    11
 71
     3
 72
    26
 73
    22
 74
     0
 42
0.0000000001
 43
0.0000000001
 12
1.0
 22
0.0
 32
0.0
 13
1.0
 23
0.0
 33
0.0
 40
0.0
 40
0.0
 40
0.0
 40
0.0
 40
1.0
 40
1.0
 40
1.0
 40
2.0
 40
2.0
 40
2.0
 40
3.0
 40
3.0
 40
3.0
 40
4.0
 40
4.0
 40
4.0
 40
5.0
 40
5.0
 40
5.0
 40
6.0
 40
6.0
 40
6.0
 40
7.0
 40
7.0
 40
7.0
 40
7.0
 10
89.95282115806735
 20
-137.3821397225989
 30
0.0
 10
89.95282115806735
 20
-137.3821397225989
 30
0.0
 10
89.95282115806735
 20
-136.1880696274113
 30
0.0
 10
89.95282115806735
 20
-136.1880696274113
 30
0.0
 10
89.95282115806735
 20
-136.1880696274113
 30
0.0
 10
89.60934513818795
 20
-136.1880696274113
 30
0.0
 10
89.60934513818795
 20
-136.1880696274113
 30
0.0
 10
89.60934513818795
 20
-136.1880696274113
 30
0.0
 10
89.60934513818795
 20
-136.0278726873472
 30
0.0
 10
89.60934513818795
 20
-136.0278726873472
 30
0.0
 10
89.95506047013276
 20
-136.0120252481151
 30
0.0
 10
90.00346406170053
 20
-135.8359808688188
 30
0.0
 10
90.03429766629351
 20
-135.7123019408983
 30
0.0
 10
90.03429766629351
 20
-135.7123019408983
 30
0.0
 10
90.18622637719304
 20
-135.7123019408983
 30
0.0
 10
90.18622637719304
 20
-135.7123019408983
 30
0.0
 10
90.18622637719304
 20
-135.7123019408983
 30
0.0
 10
90.18622637719304
 20
-137.3821397225989
 30
0.0
 10
90.18622637719304
 20
-137.3821397225989
 30
0.0
 10
90.18622637719304
 20
-137.3821397225989
 30
0.0
 10
89.95282115806735
 20
-137.3821397225989
 30
0.0
 10
89.95282115806735
 20
-137.3821397225989
 30
0.0
  0
HATCH
  5
139
330
134
100
AcDbEntity
  8
_U+30EC_U+30A4_U+30E4_U+30FC 1
 62
   179
420
  2234388
100
AcDbHatch
 10
0.0
 20
0.0
 30
0.0
210
0.0
220
0.0
230
1.0
  2
SOLID
 70
     1
 71
     0
 91
        1
 92
        1
 93
        1
 72
     4
 94
        3
 73
     0
 74
     1
 95
       26
 96
       22
 40
0.0
 40
0.0
 40
0.0
 40
0.0
 40
1.0
 40
1.0
 40
1.0
 40
2.0
 40
2.0
 40
2.0
 40
3.0
 40
3.0
 40
3.0
 40
4.0
 40
4.0
 40
4.0
 40
5.0
 40
5.0
 40
5.0
 40
6.0
 40
6.0
 40
6.0
 40
7.0
 40
7.0
 40
7.0
 40
7.0
 10
89.95282115806735
 20
-137.3821397225989
 10
89.95282115806735
 20
-137.3821397225989
 10
89.95282115806735
 20
-136.1880696274113
 10
89.95282115806735
 20
-136.1880696274113
 10
89.95282115806735
 20
-136.1880696274113
 10
89.60934513818795
 20
-136.1880696274113
 10
89.60934513818795
 20
-136.1880696274113
 10
89.60934513818795
 20
-136.1880696274113
 10
89.60934513818795
 20
-136.0278726873472
 10
89.60934513818795
 20
-136.0278726873472
 10
89.95506047013276
 20
-136.0120252481151
 10
90.00346406170053
 20
-135.8359808688188
 10
90.03429766629351
 20
-135.7123019408983
 10
90.03429766629351
 20
-135.7123019408983
 10
90.18622637719304
 20
-135.7123019408983
 10
90.18622637719304
 20
-135.7123019408983
 10
90.18622637719304
 20
-135.7123019408983
 10
90.18622637719304
 20
-137.3821397225989
 10
90.18622637719304
 20
-137.3821397225989
 10
90.18622637719304
 20
-137.3821397225989
 10
89.95282115806735
 20
-137.3821397225989
 10
89.95282115806735
 20
-137.3821397225989
 97
        0
 97
        0
 75
     2
 76
     1
 98
        0
  0
SPLINE
  5
13A
330
134
100
AcDbEntity
  8
_U+30EC_U+30A4_U+30E4_U+30FC 1
370
     0
100
AcDbSpline
210
0.0
220
0.0
230
1.0
 70
    11
 71
     3
 72
    29
 73
    25
 74
     0
 42
0.0000000001
 43
0.0000000001
 12
1.0
 22
0.0
 32
0.0
 13
1.0
 23
0.0
 33
0.0
 40
0.0
 40
0.0
 40
0.0
 40
0.0
 40
1.0
 40
1.0
 40
1.0
 40
2.0
 40
2.0
 40
2.0
 40
3.0
 40
3.0
 40
3.0
 40
4.0
 40
4.0
 40
4.0
 40
5.0
 40
5.0
 40
5.0
 40
6.0
 40
6.0
 40
6.0
 40
7.0
 40
7.0
 40
7.0
 40
8.0
 40
8.0
 40
8.0
 40
8.0
 10
91.64160696493683
 20
-137.189903394522
 30
0.0
 10
91.52929685211768
 20
-137.4165906774514
 30
0.0
 10
91.34860159391633
 20
-137.4372612503629
 30
0.0
 10
91.22750648760979
 20
-137.4372612503629
 30
0.0
 10
91.06024710180091
 20
-137.4372612503629
 30
0.0
 10
90.91262476025796
 20
-137.3869628562783
 30
0.0
 10
90.81357826505703
 20
-137.189903394522
 30
0.0
 10
90.70574677636871
 20
-136.9797525699217
 30
0.0
 10
90.68593747732852
 20
-136.7234374658192
 30
0.0
 10
90.68593747732852
 20
-136.5470485769744
 30
0.0
 10
90.68593747732852
 20
-136.3916747705896
 30
0.0
 10
90.7035074643033
 20
-136.1195122272549
 30
0.0
 10
90.81357826505703
 20
-135.9041937594267
 30
0.0
 10
90.92588837787618
 20
-135.6847411770163
 30
0.0
 10
91.09332001845931
 20
-135.659591979974
 30
0.0
 10
91.22750648760979
 20
-135.659591979974
 30
0.0
 10
91.39287107090179
 20
-135.659591979974
 30
0.0
 10
91.54238821496163
 20
-135.7078233167675
 30
0.0
 10
91.64160696493683
 20
-135.9041937594267
 30
0.0
 10
91.74495982949432
 20
-136.1126220362844
 30
0.0
 10
91.76907549789107
 20
-136.3596353825768
 30
0.0
 10
91.76907549789107
 20
-136.5470485769744
 30
0.0
 10
91.76907549789107
 20
-136.7323947140808
 30
0.0
 10
91.74702688678546
 20
-136.9818196272129
 30
0.0
 10
91.64160696493683
 20
-137.189903394522
 30
0.0
  0
SPLINE
  5
13B
330
134
100
AcDbEntity
  8
_U+30EC_U+30A4_U+30E4_U+30FC 1
370
     0
100
AcDbSpline
210
0.0
220
0.0
230
1.0
 70
    11
 71
     3
 72
    17
 73
    13
 74
     0
 42
0.0000000001
 43
0.0000000001
 12
1.0
 22
0.0
 32
0.0
 13
1.0
 23
0.0
 33
0.0
 40
0.0
 40
0.0
 40
0.0
 40
0.0
 40
1.0
 40
1.0
 40
1.0
 40
2.0
 40
2.0
 40
2.0
 40
3.0
 40
3.0
 40
3.0
 40
4.0
 40
4.0
 40
4.0
 40
4.0
 10
91.22750648760979
 20
-135.8676757472831
 30
0.0
 10
90.96774628802196
 20
-135.8676757472831
 30
0.0
 10
90.9193426964542
 20
-136.1742892454703
 30
0.0
 10
90.9193426964542
 20
-136.5470485769744
 30
0.0
 10
90.9193426964542
 20
-136.8929361636934
 30
0.0
 10
90.95672198246916
 20
-137.2267659162141
 30
0.0
 10
91.22750648760979
 20
-137.2267659162141
 30
0.0
 10
91.48519962990648
 20
-137.2267659162141
 30
0.0
 10
91.53584253353965
 20
-136.9225639848666
 30
0.0
 10
91.53584253353965
 20
-136.5470485769744
 30
0.0
 10
91.53584253353965
 20
-136.2018500093523
 30
0.0
 10
91.49622393545928
 20
-135.8676757472831
 30
0.0
 10
91.22750648760979
 20
-135.8676757472831
 30
0.0
  0
HATCH
  5
13C
330
134
100
AcDbEntity
  8
_U+30EC_U+30A4_U+30E4_U+30FC 1
 62
   179
420
  2234388
100
AcDbHatch
 10
0.0
 20
0.0
 30
0.0
210
0.0
220
0.0
230
1.0
  2
SOLID
 70
     1
 71
     0
 91
        2
 92
        1
 93
        1
 72
     4
 94
        3
 73
     0
 74
     1
 95
       29
 96
       25
 40
0.0
 40
0.0
 40
0.0
 40
0.0
 40
1.0
 40
1.0
 40
1.0
 40
2.0
 40
2.0
 40
2.0
 40
3.0
 40
3.0
 40
3.0
 40
4.0
 40
4.0
 40
4.0
 40
5.0
 40
5.0
 40
5.0
 40
6.0
 40
6.0
 40
6.0
 40
7.0
 40
7.0
 40
7.0
 40
8.0
 40
8.0
 40
8.0
 40
8.0
 10
91.64160696493683
 20
-137.189903394522
 10
91.52929685211768
 20
-137.4165906774514
 10
91.34860159391633
 20
-137.4372612503629
 10
91.22750648760979
 20
-137.4372612503629
 10
91.06024710180091
 20
-137.4372612503629
 10
90.91262476025796
 20
-137.3869628562783
 10
90.81357826505703
 20
-137.189903394522
 10
90.70574677636871
 20
-136.9797525699217
 10
90.68593747732852
 20
-136.7234374658192
 10
90.68593747732852
 20
-136.5470485769744
 10
90.68593747732852
 20
-136.3916747705896
 10
90.7035074643033
 20
-136.1195122272549
 10
90.81357826505703
 20
-135.9041937594267
 10
90.92588837787618
 20
-135.6847411770163
 10
91.09332001845931
 20
-135.659591979974
 10
91.22750648760979
 20
-135.659591979974
 10
91.39287107090179
 20
-135.659591979974
 10
91.54238821496163
 20
-135.7078233167675
 10
91.64160696493683
 20
-135.9041937594267
 10
91.74495982949432
 20
-136.1126220362844
 10
91.76907549789107
 20
-136.3596353825768
 10
91.76907549789107
 20
-136.5470485769744
 10
91.76907549789107
 20
-136.7323947140808
 10
91.74702688678546
 20
-136.9818196272129
 10
91.64160696493683
 20
-137.189903394522
 97
        0
 97
        0
 92
        1
 93
        1
 72
     4
 94
        3
 73
     0
 74
     1
 95
       17
 96
       13
 40
0.0
 40
0.0
 40
0.0
 40
0.0
 40
1.0
 40
1.0
 40
1.0
 40
2.0
 40
2.0
 40
2.0
 40
3.0
 40
3.0
 40
3.0
 40
4.0
 40
4.0
 40
4.0
 40
4.0
 10
91.22750648760979
 20
-135.8676757472831
 10
90.96774628802196
 20
-135.8676757472831
 10
90.9193426964542
 20
-136.1742892454703
 10
90.9193426964542
 20
-136.5470485769744
 10
90.9193426964542
 20
-136.8929361636934
 10
90.95672198246916
 20
-137.2267659162141
 10
91.22750648760979
 20
-137.2267659162141
 10
91.48519962990648
 20
-137.2267659162141
 10
91.53584253353965
 20
-136.9225639848666
 10
91.53584253353965
 20
-136.5470485769744
 10
91.53584253353965
 20
-136.2018500093523
 10
91.49622393545928
 20
-135.8676757472831
 10
91.22750648760979
 20
-135.8676757472831
 97
        0
 97
        0
 75
     2
 76
     1
 98
        0
  0
SPLINE
  5
13D
330
134
100
AcDbEntity
  8
_U+30EC_U+30A4_U+30E4_U+30FC 1
370
     0
100
AcDbSpline
210
0.0
220
0.0
230
1.0
 70
    11
 71
     3
 72
    29
 73
    25
 74
     0
 42
0.0000000001
 43
0.0000000001
 12
1.0
 22
0.0
 32
0.0
 13
1.0
 23
0.0
 33
0.0
 40
0.0
 40
0.0
 40
0.0
 40
0.0
 40
1.0
 40
1.0
 40
1.0
 40
2.0
 40
2.0
 40
2.0
 40
3.0
 40
3.0
 40
3.0
 40
4.0
 40
4.0
 40
4.0
 40
5.0
 40
5.0
 40
5.0
 40
6.0
 40
6.0
 40
6.0
 40
7.0
 40
7.0
 40
7.0
 40
8.0
 40
8.0
 40
8.0
 40
8.0
 10
92.86530488129756
 20
-137.189903394522
 30
0.0
 10
92.75299476847842
 20
-137.4165906774514
 30
0.0
 10
92.57247176505133
 20
-137.4372612503629
 30
0.0
 10
92.45154891351906
 20
-137.4372612503629
 30
0.0
 10
92.28446178248444
 20
-137.4372612503629
 30
0.0
 10
92.13666718616723
 20
-137.3869628562783
 30
0.0
 10
92.03779294574056
 20
-137.189903394522
 30
0.0
 10
91.92961694750372
 20
-136.9797525699217
 30
0.0
 10
91.90997990323778
 20
-136.7234374658192
 30
0.0
 10
91.90997990323778
 20
-136.5470485769744
 30
0.0
 10
91.90997990323778
 20
-136.3916747705896
 30
0.0
 10
91.92754989021256
 20
-136.1195122272549
 30
0.0
 10
92.03779294574056
 20
-135.9041937594267
 30
0.0
 10
92.1501030585597
 20
-135.6847411770163
 30
0.0
 10
92.31753469914284
 20
-135.659591979974
 30
0.0
 10
92.45154891351906
 20
-135.659591979974
 30
0.0
 10
92.61656898726253
 20
-135.659591979974
 30
0.0
 10
92.7664306408709
 20
-135.7078233167675
 30
0.0
 10
92.86530488129756
 20
-135.9041937594267
 30
0.0
 10
92.96900225540358
 20
-136.1126220362844
 30
0.0
 10
92.99311792380034
 20
-136.3596353825768
 30
0.0
 10
92.99311792380034
 20
-136.5470485769744
 30
0.0
 10
92.99311792380034
 20
-136.7323947140808
 30
0.0
 10
92.97141382224326
 20
-136.9818196272129
 30
0.0
 10
92.86530488129756
 20
-137.189903394522
 30
0.0
  0
SPLINE
  5
13E
330
134
100
AcDbEntity
  8
_U+30EC_U+30A4_U+30E4_U+30FC 1
370
     0
100
AcDbSpline
210
0.0
220
0.0
230
1.0
 70
    11
 71
     3
 72
    17
 73
    13
 74
     0
 42
0.0000000001
 43
0.0000000001
 12
1.0
 22
0.0
 32
0.0
 13
1.0
 23
0.0
 33
0.0
 40
0.0
 40
0.0
 40
0.0
 40
0.0
 40
1.0
 40
1.0
 40
1.0
 40
2.0
 40
2.0
 40
2.0
 40
3.0
 40
3.0
 40
3.0
 40
4.0
 40
4.0
 40
4.0
 40
4.0
 10
92.45154891351906
 20
-135.8676757472831
 30
0.0
 10
92.19178871393122
 20
-135.8676757472831
 30
0.0
 10
92.1432128675892
 20
-136.1742892454703
 30
0.0
 10
92.1432128675892
 20
-136.5470485769744
 30
0.0
 10
92.1432128675892
 20
-136.8929361636934
 30
0.0
 10
92.18076440837842
 20
-137.2267659162141
 30
0.0
 10
92.45154891351906
 20
-137.2267659162141
 30
0.0
 10
92.70924205581575
 20
-137.2267659162141
 30
0.0
 10
92.75988495944893
 20
-136.9225639848666
 30
0.0
 10
92.75988495944893
 20
-136.5470485769744
 30
0.0
 10
92.75988495944893
 20
-136.2018500093523
 30
0.0
 10
92.72026636136854
 20
-135.8676757472831
 30
0.0
 10
92.45154891351906
 20
-135.8676757472831
 30
0.0
  0
HATCH
  5
13F
330
134
100
AcDbEntity
  8
_U+30EC_U+30A4_U+30E4_U+30FC 1
 62
   179
420
  2234388
100
AcDbHatch
 10
0.0
 20
0.0
 30
0.0
210
0.0
220
0.0
230
1.0
  2
SOLID
 70
     1
 71
     0
 91
        2
 92
        1
 93
        1
 72
     4
 94
        3
 73
     0
 74
     1
 95
       29
 96
       25
 40
0.0
 40
0.0
 40
0.0
 40
0.0
 40
1.0
 40
1.0
 40
1.0
 40
2.0
 40
2.0
 40
2.0
 40
3.0
 40
3.0
 40
3.0
 40
4.0
 40
4.0
 40
4.0
 40
5.0
 40
5.0
 40
5.0
 40
6.0
 40
6.0
 40
6.0
 40
7.0
 40
7.0
 40
7.0
 40
8.0
 40
8.0
 40
8.0
 40
8.0
 10
92.86530488129756
 20
-137.189903394522
 10
92.75299476847842
 20
-137.4165906774514
 10
92.57247176505133
 20
-137.4372612503629
 10
92.45154891351906
 20
-137.4372612503629
 10
92.28446178248444
 20
-137.4372612503629
 10
92.13666718616723
 20
-137.3869628562783
 10
92.03779294574056
 20
-137.189903394522
 10
91.92961694750372
 20
-136.9797525699217
 10
91.90997990323778
 20
-136.7234374658192
 10
91.90997990323778
 20
-136.5470485769744
 10
91.90997990323778
 20
-136.3916747705896
 10
91.92754989021256
 20
-136.1195122272549
 10
92.03779294574056
 20
-135.9041937594267
 10
92.1501030585597
 20
-135.6847411770163
 10
92.31753469914284
 20
-135.659591979974
 10
92.45154891351906
 20
-135.659591979974
 10
92.61656898726253
 20
-135.659591979974
 10
92.7664306408709
 20
-135.7078233167675
 10
92.86530488129756
 20
-135.9041937594267
 10
92.96900225540358
 20
-136.1126220362844
 10
92.99311792380034
 20
-136.3596353825768
 10
92.99311792380034
 20
-136.5470485769744
 10
92.99311792380034
 20
-136.7323947140808
 10
92.97141382224326
 20
-136.9818196272129
 10
92.86530488129756
 20
-137.189903394522
 97
        0
 97
        0
 92
        1
 93
        1
 72
     4
 94
        3
 73
     0
 74
     1
 95
       17
 96
       13
 40
0.0
 40
0.0
 40
0.0
 40
0.0
 40
1.0
 40
1.0
 40
1.0
 40
2.0
 40
2.0
 40
2.0
 40
3.0
 40
3.0
 40
3.0
 40
4.0
 40
4.0
 40
4.0
 40
4.0
 10
92.45154891351906
 20
-135.8676757472831
 10
92.19178871393122
 20
-135.8676757472831
 10
92.1432128675892
 20
-136.1742892454703
 10
92.1432128675892
 20
-136.5470485769744
 10
92.1432128675892
 20
-136.8929361636934
 10
92.18076440837842
 20
-137.2267659162141
 10
92.45154891351906
 20
-137.2267659162141
 10
92.70924205581575
 20
-137.2267659162141
 10
92.75988495944893
 20
-136.9225639848666
 10
92.75988495944893
 20
-136.5470485769744
 10
92.75988495944893
 20
-136.2018500093523
 10
92.72026636136854
 20
-135.8676757472831
 10
92.45154891351906
 20
-135.8676757472831
 97
        0
 97
        0
 75
     2
 76
     1
 98
        0
  0
ENDBLK
  5
137
330
134
100
AcDbEntity
  8
0
100
AcDbBlockEnd
  0
BLOCK
  5
14E
330
14C
100
AcDbEntity
  8
0
100
AcDbBlockBegin
  2
block 3
 70
     0
 10
0.0
 20
0.0
 30
0.0
  3
block 3
  1

  0
SPLINE
  5
150
330
14C
100
AcDbEntity
  8
_U+30EC_U+30A4_U+30E4_U+30FC 1
370
     0
100
AcDbSpline
210
0.0
220
0.0
230
1.0
 70
    11
 71
     3
 72
    26
 73
    22
 74
     0
 42
0.0000000001
 43
0.0000000001
 12
1.0
 22
0.0
 32
0.0
 13
1.0
 23
0.0
 33
0.0
 40
0.0
 40
0.0
 40
0.0
 40
0.0
 40
1.0
 40
1.0
 40
1.0
 40
2.0
 40
2.0
 40
2.0
 40
3.0
 40
3.0
 40
3.0
 40
4.0
 40
4.0
 40
4.0
 40
5.0
 40
5.0
 40
5.0
 40
6.0
 40
6.0
 40
6.0
 40
7.0
 40
7.0
 40
7.0
 40
7.0
 10
87.93227265596832
 20
-140.4413845135008
 30
0.0
 10
87.93227265596832
 20
-140.4413845135008
 30
0.0
 10
87.93227265596832
 20
-139.2469699087646
 30
0.0
 10
87.93227265596832
 20
-139.2469699087646
 30
0.0
 10
87.93227265596832
 20
-139.2469699087646
 30
0.0
 10
87.58879663608892
 20
-139.2469699087646
 30
0.0
 10
87.58879663608892
 20
-139.2469699087646
 30
0.0
 10
87.58879663608892
 20
-139.2469699087646
 30
0.0
 10
87.58879663608892
 20
-139.0867729687005
 30
0.0
 10
87.58879663608892
 20
-139.0867729687005
 30
0.0
 10
87.93451196803373
 20
-139.0709255294684
 30
0.0
 10
87.9829155596015
 20
-138.8945366406236
 30
0.0
 10
88.01374916419448
 20
-138.7712022222516
 30
0.0
 10
88.01374916419448
 20
-138.7712022222516
 30
0.0
 10
88.165677875094
 20
-138.7712022222516
 30
0.0
 10
88.165677875094
 20
-138.7712022222516
 30
0.0
 10
88.165677875094
 20
-138.7712022222516
 30
0.0
 10
88.165677875094
 20
-140.4413845135008
 30
0.0
 10
88.165677875094
 20
-140.4413845135008
 30
0.0
 10
88.165677875094
 20
-140.4413845135008
 30
0.0
 10
87.93227265596832
 20
-140.4413845135008
 30
0.0
 10
87.93227265596832
 20
-140.4413845135008
 30
0.0
  0
HATCH
  5
151
330
14C
100
AcDbEntity
  8
_U+30EC_U+30A4_U+30E4_U+30FC 1
 62
   179
420
  2234388
100
AcDbHatch
 10
0.0
 20
0.0
 30
0.0
210
0.0
220
0.0
230
1.0
  2
SOLID
 70
     1
 71
     0
 91
        1
 92
        1
 93
        1
 72
     4
 94
        3
 73
     0
 74
     1
 95
       26
 96
       22
 40
0.0
 40
0.0
 40
0.0
 40
0.0
 40
1.0
 40
1.0
 40
1.0
 40
2.0
 40
2.0
 40
2.0
 40
3.0
 40
3.0
 40
3.0
 40
4.0
 40
4.0
 40
4.0
 40
5.0
 40
5.0
 40
5.0
 40
6.0
 40
6.0
 40
6.0
 40
7.0
 40
7.0
 40
7.0
 40
7.0
 10
87.93227265596832
 20
-140.4413845135008
 10
87.93227265596832
 20
-140.4413845135008
 10
87.93227265596832
 20
-139.2469699087646
 10
87.93227265596832
 20
-139.2469699087646
 10
87.93227265596832
 20
-139.2469699087646
 10
87.58879663608892
 20
-139.2469699087646
 10
87.58879663608892
 20
-139.2469699087646
 10
87.58879663608892
 20
-139.2469699087646
 10
87.58879663608892
 20
-139.0867729687005
 10
87.58879663608892
 20
-139.0867729687005
 10
87.93451196803373
 20
-139.0709255294684
 10
87.9829155596015
 20
-138.8945366406236
 10
88.01374916419448
 20
-138.7712022222516
 10
88.01374916419448
 20
-138.7712022222516
 10
88.165677875094
 20
-138.7712022222516
 10
88.165677875094
 20
-138.7712022222516
 10
88.165677875094
 20
-138.7712022222516
 10
88.165677875094
 20
-140.4413845135008
 10
88.165677875094
 20
-140.4413845135008
 10
88.165677875094
 20
-140.4413845135008
 10
87.93227265596832
 20
-140.4413845135008
 10
87.93227265596832
 20
-140.4413845135008
 97
        0
 97
        0
 75
     2
 76
     1
 98
        0
  0
SPLINE
  5
152
330
14C
100
AcDbEntity
  8
_U+30EC_U+30A4_U+30E4_U+30FC 1
370
     0
100
AcDbSpline
210
0.0
220
0.0
230
1.0
 70
    11
 71
     3
 72
    29
 73
    25
 74
     0
 42
0.0000000001
 43
0.0000000001
 12
1.0
 22
0.0
 32
0.0
 13
1.0
 23
0.0
 33
0.0
 40
0.0
 40
0.0
 40
0.0
 40
0.0
 40
1.0
 40
1.0
 40
1.0
 40
2.0
 40
2.0
 40
2.0
 40
3.0
 40
3.0
 40
3.0
 40
4.0
 40
4.0
 40
4.0
 40
5.0
 40
5.0
 40
5.0
 40
6.0
 40
6.0
 40
6.0
 40
7.0
 40
7.0
 40
7.0
 40
8.0
 40
8.0
 40
8.0
 40
8.0
 10
89.62088620806354
 20
-140.2491481854238
 30
0.0
 10
89.5085760952444
 20
-140.4754909588048
 30
0.0
 10
89.3280530918173
 20
-140.4961615317162
 30
0.0
 10
89.20695798551077
 20
-140.4961615317162
 30
0.0
 10
89.03969859970188
 20
-140.4961615317162
 30
0.0
 10
88.89207625815892
 20
-140.4458631376316
 30
0.0
 10
88.793029762958
 20
-140.2491481854238
 30
0.0
 10
88.68519827426968
 20
-140.0386528512751
 30
0.0
 10
88.66538897522949
 20
-139.7823377471725
 30
0.0
 10
88.66538897522949
 20
-139.6062933678762
 30
0.0
 10
88.66538897522949
 20
-139.4505750519429
 30
0.0
 10
88.68295896220427
 20
-139.1784125086082
 30
0.0
 10
88.793029762958
 20
-138.9634385503286
 30
0.0
 10
88.90533987577714
 20
-138.7436414583696
 30
0.0
 10
89.07277151636028
 20
-138.7184922613273
 30
0.0
 10
89.20695798551077
 20
-138.7184922613273
 30
0.0
 10
89.37215031402849
 20
-138.7184922613273
 30
0.0
 10
89.5218397128626
 20
-138.7663790885723
 30
0.0
 10
89.62088620806354
 20
-138.9634385503286
 30
0.0
 10
89.72441132739529
 20
-139.1715223176377
 30
0.0
 10
89.74852699579203
 20
-139.4185356639301
 30
0.0
 10
89.74852699579203
 20
-139.6062933678762
 30
0.0
 10
89.74852699579203
 20
-139.7916395049826
 30
0.0
 10
89.7266506394607
 20
-140.0410644181147
 30
0.0
 10
89.62088620806354
 20
-140.2491481854238
 30
0.0
  0
SPLINE
  5
153
330
14C
100
AcDbEntity
  8
_U+30EC_U+30A4_U+30E4_U+30FC 1
370
     0
100
AcDbSpline
210
0.0
220
0.0
230
1.0
 70
    11
 71
     3
 72
    17
 73
    13
 74
     0
 42
0.0000000001
 43
0.0000000001
 12
1.0
 22
0.0
 32
0.0
 13
1.0
 23
0.0
 33
0.0
 40
0.0
 40
0.0
 40
0.0
 40
0.0
 40
1.0
 40
1.0
 40
1.0
 40
2.0
 40
2.0
 40
2.0
 40
3.0
 40
3.0
 40
3.0
 40
4.0
 40
4.0
 40
4.0
 40
4.0
 10
89.20695798551077
 20
-138.9269205381849
 30
0.0
 10
88.94719778592292
 20
-138.9269205381849
 30
0.0
 10
88.89879419435516
 20
-139.2331895268237
 30
0.0
 10
88.89879419435516
 20
-139.6062933678762
 30
0.0
 10
88.89879419435516
 20
-139.9514919354982
 30
0.0
 10
88.93617348037013
 20
-140.2856661975675
 30
0.0
 10
89.20695798551077
 20
-140.2856661975675
 30
0.0
 10
89.46465112780746
 20
-140.2856661975675
 30
0.0
 10
89.51529403144062
 20
-139.9811197566714
 30
0.0
 10
89.51529403144062
 20
-139.6062933678762
 30
0.0
 10
89.51529403144062
 20
-139.2607502907057
 30
0.0
 10
89.47567543336025
 20
-138.9269205381849
 30
0.0
 10
89.20695798551077
 20
-138.9269205381849
 30
0.0
  0
HATCH
  5
154
330
14C
100
AcDbEntity
  8
_U+30EC_U+30A4_U+30E4_U+30FC 1
 62
   179
420
  2234388
100
AcDbHatch
 10
0.0
 20
0.0
 30
0.0
210
0.0
220
0.0
230
1.0
  2
SOLID
 70
     1
 71
     0
 91
        2
 92
        1
 93
        1
 72
     4
 94
        3
 73
     0
 74
     1
 95
       29
 96
       25
 40
0.0
 40
0.0
 40
0.0
 40
0.0
 40
1.0
 40
1.0
 40
1.0
 40
2.0
 40
2.0
 40
2.0
 40
3.0
 40
3.0
 40
3.0
 40
4.0
 40
4.0
 40
4.0
 40
5.0
 40
5.0
 40
5.0
 40
6.0
 40
6.0
 40
6.0
 40
7.0
 40
7.0
 40
7.0
 40
8.0
 40
8.0
 40
8.0
 40
8.0
 10
89.62088620806354
 20
-140.2491481854238
 10
89.5085760952444
 20
-140.4754909588048
 10
89.3280530918173
 20
-140.4961615317162
 10
89.20695798551077
 20
-140.4961615317162
 10
89.03969859970188
 20
-140.4961615317162
 10
88.89207625815892
 20
-140.4458631376316
 10
88.793029762958
 20
-140.2491481854238
 10
88.68519827426968
 20
-140.0386528512751
 10
88.66538897522949
 20
-139.7823377471725
 10
88.66538897522949
 20
-139.6062933678762
 10
88.66538897522949
 20
-139.4505750519429
 10
88.68295896220427
 20
-139.1784125086082
 10
88.793029762958
 20
-138.9634385503286
 10
88.90533987577714
 20
-138.7436414583696
 10
89.07277151636028
 20
-138.7184922613273
 10
89.20695798551077
 20
-138.7184922613273
 10
89.37215031402849
 20
-138.7184922613273
 10
89.5218397128626
 20
-138.7663790885723
 10
89.62088620806354
 20
-138.9634385503286
 10
89.72441132739529
 20
-139.1715223176377
 10
89.74852699579203
 20
-139.4185356639301
 10
89.74852699579203
 20
-139.6062933678762
 10
89.74852699579203
 20
-139.7916395049826
 10
89.7266506394607
 20
-140.0410644181147
 10
89.62088620806354
 20
-140.2491481854238
 97
        0
 97
        0
 92
        1
 93
        1
 72
     4
 94
        3
 73
     0
 74
     1
 95
       17
 96
       13
 40
0.0
 40
0.0
 40
0.0
 40
0.0
 40
1.0
 40
1.0
 40
1.0
 40
2.0
 40
2.0
 40
2.0
 40
3.0
 40
3.0
 40
3.0
 40
4.0
 40
4.0
 40
4.0
 40
4.0
 10
89.20695798551077
 20
-138.9269205381849
 10
88.94719778592292
 20
-138.9269205381849
 10
88.89879419435516
 20
-139.2331895268237
 10
88.89879419435516
 20
-139.6062933678762
 10
88.89879419435516
 20
-139.9514919354982
 10
88.93617348037013
 20
-140.2856661975675
 10
89.20695798551077
 20
-140.2856661975675
 10
89.46465112780746
 20
-140.2856661975675
 10
89.51529403144062
 20
-139.9811197566714
 10
89.51529403144062
 20
-139.6062933678762
 10
89.51529403144062
 20
-139.2607502907057
 10
89.47567543336025
 20
-138.9269205381849
 10
89.20695798551077
 20
-138.9269205381849
 97
        0
 97
        0
 75
     2
 76
     1
 98
        0
  0
SPLINE
  5
155
330
14C
100
AcDbEntity
  8
_U+30EC_U+30A4_U+30E4_U+30FC 1
370
     0
100
AcDbSpline
210
0.0
220
0.0
230
1.0
 70
    11
 71
     3
 72
    53
 73
    49
 74
     0
 42
0.0000000001
 43
0.0000000001
 12
1.0
 22
0.0
 32
0.0
 13
1.0
 23
0.0
 33
0.0
 40
0.0
 40
0.0
 40
0.0
 40
0.0
 40
1.0
 40
1.0
 40
1.0
 40
2.0
 40
2.0
 40
2.0
 40
3.0
 40
3.0
 40
3.0
 40
4.0
 40
4.0
 40
4.0
 40
5.0
 40
5.0
 40
5.0
 40
6.0
 40
6.0
 40
6.0
 40
7.0
 40
7.0
 40
7.0
 40
8.0
 40
8.0
 40
8.0
 40
9.0
 40
9.0
 40
9.0
 40
10.0
 40
10.0
 40
10.0
 40
11.0
 40
11.0
 40
11.0
 40
12.0
 40
12.0
 40
12.0
 40
13.0
 40
13.0
 40
13.0
 40
14.0
 40
14.0
 40
14.0
 40
15.0
 40
15.0
 40
15.0
 40
16.0
 40
16.0
 40
16.0
 40
16.0
 10
90.41119111237984
 20
-140.4961615317162
 30
0.0
 10
90.3297146041537
 20
-140.4961615317162
 30
0.0
 10
90.22412242753077
 20
-140.4779025256444
 30
0.0
 10
90.11835799613361
 20
-140.4090006159394
 30
0.0
 10
89.93783499270651
 20
-140.2901448216983
 30
0.0
 10
89.91578638160092
 20
-140.1485513972545
 30
0.0
 10
89.89597708256073
 20
-140.0317626603046
 30
0.0
 10
89.89597708256073
 20
-140.0317626603046
 30
0.0
 10
90.12714298962099
 20
-140.0317626603046
 30
0.0
 10
90.12714298962099
 20
-140.0317626603046
 30
0.0
 10
90.1845038294504
 20
-140.2467366185842
 30
0.0
 10
90.31662324130974
 20
-140.278776006597
 30
0.0
 10
90.41343042444525
 20
-140.278776006597
 30
0.0
 10
90.5588134539228
 20
-140.278776006597
 30
0.0
 10
90.71728784624429
 20
-140.1712890274572
 30
0.0
 10
90.71728784624429
 20
-139.9197970570339
 30
0.0
 10
90.71728784624429
 20
-139.6428113800199
 30
0.0
 10
90.53004690662097
 20
-139.5673637888929
 30
0.0
 10
90.40464543095787
 20
-139.5673637888929
 30
0.0
 10
90.37157251429947
 20
-139.5673637888929
 30
0.0
 10
90.22412242753077
 20
-139.5673637888929
 30
0.0
 10
90.13162161375182
 20
-139.7068901560455
 30
0.0
 10
90.13162161375182
 20
-139.7068901560455
 30
0.0
 10
89.94885929825932
 20
-139.686219583134
 30
0.0
 10
89.94885929825932
 20
-139.686219583134
 30
0.0
 10
89.94885929825932
 20
-139.686219583134
 30
0.0
 10
90.07443302869667
 20
-138.7712022222516
 30
0.0
 10
90.07443302869667
 20
-138.7712022222516
 30
0.0
 10
90.07443302869667
 20
-138.7712022222516
 30
0.0
 10
90.88454723205318
 20
-138.7712022222516
 30
0.0
 10
90.88454723205318
 20
-138.7712022222516
 30
0.0
 10
90.88454723205318
 20
-138.7712022222516
 30
0.0
 10
90.88454723205318
 20
-138.9816975564004
 30
0.0
 10
90.88454723205318
 20
-138.9816975564004
 30
0.0
 10
90.88454723205318
 20
-138.9816975564004
 30
0.0
 10
90.24393172657096
 20
-138.9816975564004
 30
0.0
 10
90.24393172657096
 20
-138.9816975564004
 30
0.0
 10
90.24393172657096
 20
-138.9816975564004
 30
0.0
 10
90.17571883596302
 20
-139.4392062368416
 30
0.0
 10
90.17571883596302
 20
-139.4392062368416
 30
0.0
 10
90.23945310244014
 20
-139.4023437151494
 30
0.0
 10
90.32540823479712
 20
-139.3589355120353
 30
0.0
 10
90.4485703983948
 20
-139.3589355120353
 30
0.0
 10
90.71280922211346
 20
-139.3589355120353
 30
0.0
 10
90.95947805885736
 20
-139.5604735979224
 30
0.0
 10
90.95947805885736
 20
-139.8991264841224
 30
0.0
 10
90.95947805885736
 20
-140.2422579944533
 30
0.0
 10
90.72607283973169
 20
-140.4961615317162
 30
0.0
 10
90.41119111237984
 20
-140.4961615317162
 30
0.0
  0
HATCH
  5
156
330
14C
100
AcDbEntity
  8
_U+30EC_U+30A4_U+30E4_U+30FC 1
 62
   179
420
  2234388
100
AcDbHatch
 10
0.0
 20
0.0
 30
0.0
210
0.0
220
0.0
230
1.0
  2
SOLID
 70
     1
 71
     0
 91
        1
 92
        1
 93
        1
 72
     4
 94
        3
 73
     0
 74
     1
 95
       53
 96
       49
 40
0.0
 40
0.0
 40
0.0
 40
0.0
 40
1.0
 40
1.0
 40
1.0
 40
2.0
 40
2.0
 40
2.0
 40
3.0
 40
3.0
 40
3.0
 40
4.0
 40
4.0
 40
4.0
 40
5.0
 40
5.0
 40
5.0
 40
6.0
 40
6.0
 40
6.0
 40
7.0
 40
7.0
 40
7.0
 40
8.0
 40
8.0
 40
8.0
 40
9.0
 40
9.0
 40
9.0
 40
10.0
 40
10.0
 40
10.0
 40
11.0
 40
11.0
 40
11.0
 40
12.0
 40
12.0
 40
12.0
 40
13.0
 40
13.0
 40
13.0
 40
14.0
 40
14.0
 40
14.0
 40
15.0
 40
15.0
 40
15.0
 40
16.0
 40
16.0
 40
16.0
 40
16.0
 10
90.41119111237984
 20
-140.4961615317162
 10
90.3297146041537
 20
-140.4961615317162
 10
90.22412242753077
 20
-140.4779025256444
 10
90.11835799613361
 20
-140.4090006159394
 10
89.93783499270651
 20
-140.2901448216983
 10
89.91578638160092
 20
-140.1485513972545
 10
89.89597708256073
 20
-140.0317626603046
 10
89.89597708256073
 20
-140.0317626603046
 10
90.12714298962099
 20
-140.0317626603046
 10
90.12714298962099
 20
-140.0317626603046
 10
90.1845038294504
 20
-140.2467366185842
 10
90.31662324130974
 20
-140.278776006597
 10
90.41343042444525
 20
-140.278776006597
 10
90.5588134539228
 20
-140.278776006597
 10
90.71728784624429
 20
-140.1712890274572
 10
90.71728784624429
 20
-139.9197970570339
 10
90.71728784624429
 20
-139.6428113800199
 10
90.53004690662097
 20
-139.5673637888929
 10
90.40464543095787
 20
-139.5673637888929
 10
90.37157251429947
 20
-139.5673637888929
 10
90.22412242753077
 20
-139.5673637888929
 10
90.13162161375182
 20
-139.7068901560455
 10
90.13162161375182
 20
-139.7068901560455
 10
89.94885929825932
 20
-139.686219583134
 10
89.94885929825932
 20
-139.686219583134
 10
89.94885929825932
 20
-139.686219583134
 10
90.07443302869667
 20
-138.7712022222516
 10
90.07443302869667
 20
-138.7712022222516
 10
90.07443302869667
 20
-138.7712022222516
 10
90.88454723205318
 20
-138.7712022222516
 10
90.88454723205318
 20
-138.7712022222516
 10
90.88454723205318
 20
-138.7712022222516
 10
90.88454723205318
 20
-138.9816975564004
 10
90.88454723205318
 20
-138.9816975564004
 10
90.88454723205318
 20
-138.9816975564004
 10
90.24393172657096
 20
-138.9816975564004
 10
90.24393172657096
 20
-138.9816975564004
 10
90.24393172657096
 20
-138.9816975564004
 10
90.17571883596302
 20
-139.4392062368416
 10
90.17571883596302
 20
-139.4392062368416
 10
90.23945310244014
 20
-139.4023437151494
 10
90.32540823479712
 20
-139.3589355120353
 10
90.4485703983948
 20
-139.3589355120353
 10
90.71280922211346
 20
-139.3589355120353
 10
90.95947805885736
 20
-139.5604735979224
 10
90.95947805885736
 20
-139.8991264841224
 10
90.95947805885736
 20
-140.2422579944533
 10
90.72607283973169
 20
-140.4961615317162
 10
90.41119111237984
 20
-140.4961615317162
 97
        0
 97
        0
 75
     2
 76
     1
 98
        0
  0
SPLINE
  5
157
330
14C
100
AcDbEntity
  8
_U+30EC_U+30A4_U+30E4_U+30FC 1
370
     0
100
AcDbSpline
210
0.0
220
0.0
230
1.0
 70
    11
 71
     3
 72
    32
 73
    28
 74
     0
 42
0.0000000001
 43
0.0000000001
 12
1.0
 22
0.0
 32
0.0
 13
1.0
 23
0.0
 33
0.0
 40
0.0
 40
0.0
 40
0.0
 40
0.0
 40
1.0
 40
1.0
 40
1.0
 40
2.0
 40
2.0
 40
2.0
 40
3.0
 40
3.0
 40
3.0
 40
4.0
 40
4.0
 40
4.0
 40
5.0
 40
5.0
 40
5.0
 40
6.0
 40
6.0
 40
6.0
 40
7.0
 40
7.0
 40
7.0
 40
8.0
 40
8.0
 40
8.0
 40
9.0
 40
9.0
 40
9.0
 40
9.0
 10
91.58924151356102
 20
-140.8141438450048
 30
0.0
 10
91.4745198339022
 20
-140.7087239231562
 30
0.0
 10
91.35118541553027
 20
-140.5967583198855
 30
0.0
 10
91.24111461477654
 20
-140.3542235977239
 30
0.0
 10
91.15085311306298
 20
-140.1575086455162
 30
0.0
 10
91.11571313911344
 20
-139.9632052601481
 30
0.0
 10
91.11571313911344
 20
-139.7937065622738
 30
0.0
 10
91.11571313911344
 20
-139.6131835588467
 30
0.0
 10
91.1553317371938
 20
-139.4209472307698
 30
0.0
 10
91.24111461477654
 20
-139.2331895268237
 30
0.0
 10
91.35118541553027
 20
-138.9909993142106
 30
0.0
 10
91.4745198339022
 20
-138.8786892013914
 30
0.0
 10
91.58924151356102
 20
-138.7712022222516
 30
0.0
 10
91.58924151356102
 20
-138.7712022222516
 30
0.0
 10
91.67950301527458
 20
-138.7712022222516
 30
0.0
 10
91.67950301527458
 20
-138.7712022222516
 30
0.0
 10
91.59337562814332
 20
-138.9062499652734
 30
0.0
 10
91.3689276572793
 20
-139.2631618575453
 30
0.0
 10
91.3689276572793
 20
-139.7937065622738
 30
0.0
 10
91.3689276572793
 20
-139.9494248782071
 30
0.0
 10
91.38873695631949
 20
-140.1347710153135
 30
0.0
 10
91.4524712227966
 20
-140.3407877253315
 30
0.0
 10
91.52102862295308
 20
-140.5667859891639
 30
0.0
 10
91.59544268543448
 20
-140.6839192356624
 30
0.0
 10
91.67950301527458
 20
-140.8141438450048
 30
0.0
 10
91.67950301527458
 20
-140.8141438450048
 30
0.0
 10
91.58924151356102
 20
-140.8141438450048
 30
0.0
 10
91.58924151356102
 20
-140.8141438450048
 30
0.0
  0
HATCH
  5
158
330
14C
100
AcDbEntity
  8
_U+30EC_U+30A4_U+30E4_U+30FC 1
 62
   179
420
  2234388
100
AcDbHatch
 10
0.0
 20
0.0
 30
0.0
210
0.0
220
0.0
230
1.0
  2
SOLID
 70
     1
 71
     0
 91
        1
 92
        1
 93
        1
 72
     4
 94
        3
 73
     0
 74
     1
 95
       32
 96
       28
 40
0.0
 40
0.0
 40
0.0
 40
0.0
 40
1.0
 40
1.0
 40
1.0
 40
2.0
 40
2.0
 40
2.0
 40
3.0
 40
3.0
 40
3.0
 40
4.0
 40
4.0
 40
4.0
 40
5.0
 40
5.0
 40
5.0
 40
6.0
 40
6.0
 40
6.0
 40
7.0
 40
7.0
 40
7.0
 40
8.0
 40
8.0
 40
8.0
 40
9.0
 40
9.0
 40
9.0
 40
9.0
 10
91.58924151356102
 20
-140.8141438450048
 10
91.4745198339022
 20
-140.7087239231562
 10
91.35118541553027
 20
-140.5967583198855
 10
91.24111461477654
 20
-140.3542235977239
 10
91.15085311306298
 20
-140.1575086455162
 10
91.11571313911344
 20
-139.9632052601481
 10
91.11571313911344
 20
-139.7937065622738
 10
91.11571313911344
 20
-139.6131835588467
 10
91.1553317371938
 20
-139.4209472307698
 10
91.24111461477654
 20
-139.2331895268237
 10
91.35118541553027
 20
-138.9909993142106
 10
91.4745198339022
 20
-138.8786892013914
 10
91.58924151356102
 20
-138.7712022222516
 10
91.58924151356102
 20
-138.7712022222516
 10
91.67950301527458
 20
-138.7712022222516
 10
91.67950301527458
 20
-138.7712022222516
 10
91.59337562814332
 20
-138.9062499652734
 10
91.3689276572793
 20
-139.2631618575453
 10
91.3689276572793
 20
-139.7937065622738
 10
91.3689276572793
 20
-139.9494248782071
 10
91.38873695631949
 20
-140.1347710153135
 10
91.4524712227966
 20
-140.3407877253315
 10
91.52102862295308
 20
-140.5667859891639
 10
91.59544268543448
 20
-140.6839192356624
 10
91.67950301527458
 20
-140.8141438450048
 10
91.67950301527458
 20
-140.8141438450048
 10
91.58924151356102
 20
-140.8141438450048
 10
91.58924151356102
 20
-140.8141438450048
 97
        0
 97
        0
 75
     2
 76
     1
 98
        0
  0
SPLINE
  5
159
330
14C
100
AcDbEntity
  8
_U+30EC_U+30A4_U+30E4_U+30FC 1
370
     0
100
AcDbSpline
210
0.0
220
0.0
230
1.0
 70
    11
 71
     3
 72
    26
 73
    22
 74
     0
 42
0.0000000001
 43
0.0000000001
 12
1.0
 22
0.0
 32
0.0
 13
1.0
 23
0.0
 33
0.0
 40
0.0
 40
0.0
 40
0.0
 40
0.0
 40
1.0
 40
1.0
 40
1.0
 40
2.0
 40
2.0
 40
2.0
 40
3.0
 40
3.0
 40
3.0
 40
4.0
 40
4.0
 40
4.0
 40
5.0
 40
5.0
 40
5.0
 40
6.0
 40
6.0
 40
6.0
 40
7.0
 40
7.0
 40
7.0
 40
7.0
 10
92.29789765487692
 20
-140.4413845135008
 30
0.0
 10
92.29789765487692
 20
-140.4413845135008
 30
0.0
 10
92.29789765487692
 20
-139.2469699087646
 30
0.0
 10
92.29789765487692
 20
-139.2469699087646
 30
0.0
 10
92.29789765487692
 20
-139.2469699087646
 30
0.0
 10
91.95442163499752
 20
-139.2469699087646
 30
0.0
 10
91.95442163499752
 20
-139.2469699087646
 30
0.0
 10
91.95442163499752
 20
-139.2469699087646
 30
0.0
 10
91.95442163499752
 20
-139.0867729687005
 30
0.0
 10
91.95442163499752
 20
-139.0867729687005
 30
0.0
 10
92.30030922171659
 20
-139.0709255294684
 30
0.0
 10
92.3485405585101
 20
-138.8945366406236
 30
0.0
 10
92.37954641787734
 20
-138.7712022222516
 30
0.0
 10
92.37954641787734
 20
-138.7712022222516
 30
0.0
 10
92.53113061922834
 20
-138.7712022222516
 30
0.0
 10
92.53113061922834
 20
-138.7712022222516
 30
0.0
 10
92.53113061922834
 20
-138.7712022222516
 30
0.0
 10
92.53113061922834
 20
-140.4413845135008
 30
0.0
 10
92.53113061922834
 20
-140.4413845135008
 30
0.0
 10
92.53113061922834
 20
-140.4413845135008
 30
0.0
 10
92.29789765487692
 20
-140.4413845135008
 30
0.0
 10
92.29789765487692
 20
-140.4413845135008
 30
0.0
  0
HATCH
  5
15A
330
14C
100
AcDbEntity
  8
_U+30EC_U+30A4_U+30E4_U+30FC 1
 62
   179
420
  2234388
100
AcDbHatch
 10
0.0
 20
0.0
 30
0.0
210
0.0
220
0.0
230
1.0
  2
SOLID
 70
     1
 71
     0
 91
        1
 92
        1
 93
        1
 72
     4
 94
        3
 73
     0
 74
     1
 95
       26
 96
       22
 40
0.0
 40
0.0
 40
0.0
 40
0.0
 40
1.0
 40
1.0
 40
1.0
 40
2.0
 40
2.0
 40
2.0
 40
3.0
 40
3.0
 40
3.0
 40
4.0
 40
4.0
 40
4.0
 40
5.0
 40
5.0
 40
5.0
 40
6.0
 40
6.0
 40
6.0
 40
7.0
 40
7.0
 40
7.0
 40
7.0
 10
92.29789765487692
 20
-140.4413845135008
 10
92.29789765487692
 20
-140.4413845135008
 10
92.29789765487692
 20
-139.2469699087646
 10
92.29789765487692
 20
-139.2469699087646
 10
92.29789765487692
 20
-139.2469699087646
 10
91.95442163499752
 20
-139.2469699087646
 10
91.95442163499752
 20
-139.2469699087646
 10
91.95442163499752
 20
-139.2469699087646
 10
91.95442163499752
 20
-139.0867729687005
 10
91.95442163499752
 20
-139.0867729687005
 10
92.30030922171659
 20
-139.0709255294684
 10
92.3485405585101
 20
-138.8945366406236
 10
92.37954641787734
 20
-138.7712022222516
 10
92.37954641787734
 20
-138.7712022222516
 10
92.53113061922834
 20
-138.7712022222516
 10
92.53113061922834
 20
-138.7712022222516
 10
92.53113061922834
 20
-138.7712022222516
 10
92.53113061922834
 20
-140.4413845135008
 10
92.53113061922834
 20
-140.4413845135008
 10
92.53113061922834
 20
-140.4413845135008
 10
92.29789765487692
 20
-140.4413845135008
 10
92.29789765487692
 20
-140.4413845135008
 97
        0
 97
        0
 75
     2
 76
     1
 98
        0
  0
SPLINE
  5
15B
330
14C
100
AcDbEntity
  8
_U+30EC_U+30A4_U+30E4_U+30FC 1
370
     0
100
AcDbSpline
210
0.0
220
0.0
230
1.0
 70
    11
 71
     3
 72
    29
 73
    25
 74
     0
 42
0.0000000001
 43
0.0000000001
 12
1.0
 22
0.0
 32
0.0
 13
1.0
 23
0.0
 33
0.0
 40
0.0
 40
0.0
 40
0.0
 40
0.0
 40
1.0
 40
1.0
 40
1.0
 40
2.0
 40
2.0
 40
2.0
 40
3.0
 40
3.0
 40
3.0
 40
4.0
 40
4.0
 40
4.0
 40
5.0
 40
5.0
 40
5.0
 40
6.0
 40
6.0
 40
6.0
 40
7.0
 40
7.0
 40
7.0
 40
8.0
 40
8.0
 40
8.0
 40
8.0
 10
93.98633895219787
 20
-140.2491481854238
 30
0.0
 10
93.87402883937872
 20
-140.4754909588048
 30
0.0
 10
93.69350583595163
 20
-140.4961615317162
 30
0.0
 10
93.57258298441936
 20
-140.4961615317162
 30
0.0
 10
93.40549585338474
 20
-140.4961615317162
 30
0.0
 10
93.25770125706752
 20
-140.4458631376316
 30
0.0
 10
93.15882701664086
 20
-140.2491481854238
 30
0.0
 10
93.05065101840401
 20
-140.0386528512751
 30
0.0
 10
93.03101397413809
 20
-139.7823377471725
 30
0.0
 10
93.03101397413809
 20
-139.6062933678762
 30
0.0
 10
93.03101397413809
 20
-139.4505750519429
 30
0.0
 10
93.04858396111285
 20
-139.1784125086082
 30
0.0
 10
93.15882701664086
 20
-138.9634385503286
 30
0.0
 10
93.27113712946
 20
-138.7436414583696
 30
0.0
 10
93.43856877004313
 20
-138.7184922613273
 30
0.0
 10
93.57258298441936
 20
-138.7184922613273
 30
0.0
 10
93.73760305816283
 20
-138.7184922613273
 30
0.0
 10
93.88746471177119
 20
-138.7663790885723
 30
0.0
 10
93.98633895219787
 20
-138.9634385503286
 30
0.0
 10
94.09003632630389
 20
-139.1715223176377
 30
0.0
 10
94.11415199470063
 20
-139.4185356639301
 30
0.0
 10
94.11415199470063
 20
-139.6062933678762
 30
0.0
 10
94.11415199470063
 20
-139.7916395049826
 30
0.0
 10
94.09244789314356
 20
-140.0410644181147
 30
0.0
 10
93.98633895219787
 20
-140.2491481854238
 30
0.0
  0
SPLINE
  5
15C
330
14C
100
AcDbEntity
  8
_U+30EC_U+30A4_U+30E4_U+30FC 1
370
     0
100
AcDbSpline
210
0.0
220
0.0
230
1.0
 70
    11
 71
     3
 72
    17
 73
    13
 74
     0
 42
0.0000000001
 43
0.0000000001
 12
1.0
 22
0.0
 32
0.0
 13
1.0
 23
0.0
 33
0.0
 40
0.0
 40
0.0
 40
0.0
 40
0.0
 40
1.0
 40
1.0
 40
1.0
 40
2.0
 40
2.0
 40
2.0
 40
3.0
 40
3.0
 40
3.0
 40
4.0
 40
4.0
 40
4.0
 40
4.0
 10
93.57258298441936
 20
-138.9269205381849
 30
0.0
 10
93.31282278483152
 20
-138.9269205381849
 30
0.0
 10
93.26424693848949
 20
-139.2331895268237
 30
0.0
 10
93.26424693848949
 20
-139.6062933678762
 30
0.0
 10
93.26424693848949
 20
-139.9514919354982
 30
0.0
 10
93.30179847927872
 20
-140.2856661975675
 30
0.0
 10
93.57258298441936
 20
-140.2856661975675
 30
0.0
 10
93.83027612671604
 20
-140.2856661975675
 30
0.0
 10
93.88091903034922
 20
-139.9811197566714
 30
0.0
 10
93.88091903034922
 20
-139.6062933678762
 30
0.0
 10
93.88091903034922
 20
-139.2607502907057
 30
0.0
 10
93.84130043226885
 20
-138.9269205381849
 30
0.0
 10
93.57258298441936
 20
-138.9269205381849
 30
0.0
  0
HATCH
  5
15D
330
14C
100
AcDbEntity
  8
_U+30EC_U+30A4_U+30E4_U+30FC 1
 62
   179
420
  2234388
100
AcDbHatch
 10
0.0
 20
0.0
 30
0.0
210
0.0
220
0.0
230
1.0
  2
SOLID
 70
     1
 71
     0
 91
        2
 92
        1
 93
        1
 72
     4
 94
        3
 73
     0
 74
     1
 95
       29
 96
       25
 40
0.0
 40
0.0
 40
0.0
 40
0.0
 40
1.0
 40
1.0
 40
1.0
 40
2.0
 40
2.0
 40
2.0
 40
3.0
 40
3.0
 40
3.0
 40
4.0
 40
4.0
 40
4.0
 40
5.0
 40
5.0
 40
5.0
 40
6.0
 40
6.0
 40
6.0
 40
7.0
 40
7.0
 40
7.0
 40
8.0
 40
8.0
 40
8.0
 40
8.0
 10
93.98633895219787
 20
-140.2491481854238
 10
93.87402883937872
 20
-140.4754909588048
 10
93.69350583595163
 20
-140.4961615317162
 10
93.57258298441936
 20
-140.4961615317162
 10
93.40549585338474
 20
-140.4961615317162
 10
93.25770125706752
 20
-140.4458631376316
 10
93.15882701664086
 20
-140.2491481854238
 10
93.05065101840401
 20
-140.0386528512751
 10
93.03101397413809
 20
-139.7823377471725
 10
93.03101397413809
 20
-139.6062933678762
 10
93.03101397413809
 20
-139.4505750519429
 10
93.04858396111285
 20
-139.1784125086082
 10
93.15882701664086
 20
-138.9634385503286
 10
93.27113712946
 20
-138.7436414583696
 10
93.43856877004313
 20
-138.7184922613273
 10
93.57258298441936
 20
-138.7184922613273
 10
93.73760305816283
 20
-138.7184922613273
 10
93.88746471177119
 20
-138.7663790885723
 10
93.98633895219787
 20
-138.9634385503286
 10
94.09003632630389
 20
-139.1715223176377
 10
94.11415199470063
 20
-139.4185356639301
 10
94.11415199470063
 20
-139.6062933678762
 10
94.11415199470063
 20
-139.7916395049826
 10
94.09244789314356
 20
-140.0410644181147
 10
93.98633895219787
 20
-140.2491481854238
 97
        0
 97
        0
 92
        1
 93
        1
 72
     4
 94
        3
 73
     0
 74
     1
 95
       17
 96
       13
 40
0.0
 40
0.0
 40
0.0
 40
0.0
 40
1.0
 40
1.0
 40
1.0
 40
2.0
 40
2.0
 40
2.0
 40
3.0
 40
3.0
 40
3.0
 40
4.0
 40
4.0
 40
4.0
 40
4.0
 10
93.57258298441936
 20
-138.9269205381849
 10
93.31282278483152
 20
-138.9269205381849
 10
93.26424693848949
 20
-139.2331895268237
 10
93.26424693848949
 20
-139.6062933678762
 10
93.26424693848949
 20
-139.9514919354982
 10
93.30179847927872
 20
-140.2856661975675
 10
93.57258298441936
 20
-140.2856661975675
 10
93.83027612671604
 20
-140.2856661975675
 10
93.88091903034922
 20
-139.9811197566714
 10
93.88091903034922
 20
-139.6062933678762
 10
93.88091903034922
 20
-139.2607502907057
 10
93.84130043226885
 20
-138.9269205381849
 10
93.57258298441936
 20
-138.9269205381849
 97
        0
 97
        0
 75
     2
 76
     1
 98
        0
  0
SPLINE
  5
15E
330
14C
100
AcDbEntity
  8
_U+30EC_U+30A4_U+30E4_U+30FC 1
370
     0
100
AcDbSpline
210
0.0
220
0.0
230
1.0
 70
    11
 71
     3
 72
    29
 73
    25
 74
     0
 42
0.0000000001
 43
0.0000000001
 12
1.0
 22
0.0
 32
0.0
 13
1.0
 23
0.0
 33
0.0
 40
0.0
 40
0.0
 40
0.0
 40
0.0
 40
1.0
 40
1.0
 40
1.0
 40
2.0
 40
2.0
 40
2.0
 40
3.0
 40
3.0
 40
3.0
 40
4.0
 40
4.0
 40
4.0
 40
5.0
 40
5.0
 40
5.0
 40
6.0
 40
6.0
 40
6.0
 40
7.0
 40
7.0
 40
7.0
 40
8.0
 40
8.0
 40
8.0
 40
8.0
 10
95.21072588765566
 20
-140.2491481854238
 30
0.0
 10
95.09841577483651
 20
-140.4754909588048
 30
0.0
 10
94.91789277140941
 20
-140.4961615317162
 30
0.0
 10
94.79662541032863
 20
-140.4961615317162
 30
0.0
 10
94.62919376974548
 20
-140.4961615317162
 30
0.0
 10
94.48174368297678
 20
-140.4458631376316
 30
0.0
 10
94.38252493300159
 20
-140.2491481854238
 30
0.0
 10
94.2750379538618
 20
-140.0386528512751
 30
0.0
 10
94.25505640004735
 20
-139.7823377471725
 30
0.0
 10
94.25505640004735
 20
-139.6062933678762
 30
0.0
 10
94.25505640004735
 20
-139.4505750519429
 30
0.0
 10
94.27262638702213
 20
-139.1784125086082
 30
0.0
 10
94.38252493300159
 20
-138.9634385503286
 30
0.0
 10
94.49517955536926
 20
-138.7436414583696
 30
0.0
 10
94.66226668640388
 20
-138.7184922613273
 30
0.0
 10
94.79662541032863
 20
-138.7184922613273
 30
0.0
 10
94.9616454840721
 20
-138.7184922613273
 30
0.0
 10
95.11150713768046
 20
-138.7663790885723
 30
0.0
 10
95.21072588765566
 20
-138.9634385503286
 30
0.0
 10
95.31407875221315
 20
-139.1715223176377
 30
0.0
 10
95.3381944206099
 20
-139.4185356639301
 30
0.0
 10
95.3381944206099
 20
-139.6062933678762
 30
0.0
 10
95.3381944206099
 20
-139.7916395049826
 30
0.0
 10
95.3161458095043
 20
-140.0410644181147
 30
0.0
 10
95.21072588765566
 20
-140.2491481854238
 30
0.0
  0
SPLINE
  5
15F
330
14C
100
AcDbEntity
  8
_U+30EC_U+30A4_U+30E4_U+30FC 1
370
     0
100
AcDbSpline
210
0.0
220
0.0
230
1.0
 70
    11
 71
     3
 72
    17
 73
    13
 74
     0
 42
0.0000000001
 43
0.0000000001
 12
1.0
 22
0.0
 32
0.0
 13
1.0
 23
0.0
 33
0.0
 40
0.0
 40
0.0
 40
0.0
 40
0.0
 40
1.0
 40
1.0
 40
1.0
 40
2.0
 40
2.0
 40
2.0
 40
3.0
 40
3.0
 40
3.0
 40
4.0
 40
4.0
 40
4.0
 40
4.0
 10
94.79662541032863
 20
-138.9269205381849
 30
0.0
 10
94.53686521074079
 20
-138.9269205381849
 30
0.0
 10
94.48828936439877
 20
-139.2331895268237
 30
0.0
 10
94.48828936439877
 20
-139.6062933678762
 30
0.0
 10
94.48828936439877
 20
-139.9514919354982
 30
0.0
 10
94.52584090518799
 20
-140.2856661975675
 30
0.0
 10
94.79662541032863
 20
-140.2856661975675
 30
0.0
 10
95.05431855262532
 20
-140.2856661975675
 30
0.0
 10
95.10496145625848
 20
-139.9811197566714
 30
0.0
 10
95.10496145625848
 20
-139.6062933678762
 30
0.0
 10
95.10496145625848
 20
-139.2607502907057
 30
0.0
 10
95.06534285817811
 20
-138.9269205381849
 30
0.0
 10
94.79662541032863
 20
-138.9269205381849
 30
0.0
  0
HATCH
  5
160
330
14C
100
AcDbEntity
  8
_U+30EC_U+30A4_U+30E4_U+30FC 1
 62
   179
420
  2234388
100
AcDbHatch
 10
0.0
 20
0.0
 30
0.0
210
0.0
220
0.0
230
1.0
  2
SOLID
 70
     1
 71
     0
 91
        2
 92
        1
 93
        1
 72
     4
 94
        3
 73
     0
 74
     1
 95
       29
 96
       25
 40
0.0
 40
0.0
 40
0.0
 40
0.0
 40
1.0
 40
1.0
 40
1.0
 40
2.0
 40
2.0
 40
2.0
 40
3.0
 40
3.0
 40
3.0
 40
4.0
 40
4.0
 40
4.0
 40
5.0
 40
5.0
 40
5.0
 40
6.0
 40
6.0
 40
6.0
 40
7.0
 40
7.0
 40
7.0
 40
8.0
 40
8.0
 40
8.0
 40
8.0
 10
95.21072588765566
 20
-140.2491481854238
 10
95.09841577483651
 20
-140.4754909588048
 10
94.91789277140941
 20
-140.4961615317162
 10
94.79662541032863
 20
-140.4961615317162
 10
94.62919376974548
 20
-140.4961615317162
 10
94.48174368297678
 20
-140.4458631376316
 10
94.38252493300159
 20
-140.2491481854238
 10
94.2750379538618
 20
-140.0386528512751
 10
94.25505640004735
 20
-139.7823377471725
 10
94.25505640004735
 20
-139.6062933678762
 10
94.25505640004735
 20
-139.4505750519429
 10
94.27262638702213
 20
-139.1784125086082
 10
94.38252493300159
 20
-138.9634385503286
 10
94.49517955536926
 20
-138.7436414583696
 10
94.66226668640388
 20
-138.7184922613273
 10
94.79662541032863
 20
-138.7184922613273
 10
94.9616454840721
 20
-138.7184922613273
 10
95.11150713768046
 20
-138.7663790885723
 10
95.21072588765566
 20
-138.9634385503286
 10
95.31407875221315
 20
-139.1715223176377
 10
95.3381944206099
 20
-139.4185356639301
 10
95.3381944206099
 20
-139.6062933678762
 10
95.3381944206099
 20
-139.7916395049826
 10
95.3161458095043
 20
-140.0410644181147
 10
95.21072588765566
 20
-140.2491481854238
 97
        0
 97
        0
 92
        1
 93
        1
 72
     4
 94
        3
 73
     0
 74
     1
 95
       17
 96
       13
 40
0.0
 40
0.0
 40
0.0
 40
0.0
 40
1.0
 40
1.0
 40
1.0
 40
2.0
 40
2.0
 40
2.0
 40
3.0
 40
3.0
 40
3.0
 40
4.0
 40
4.0
 40
4.0
 40
4.0
 10
94.79662541032863
 20
-138.9269205381849
 10
94.53686521074079
 20
-138.9269205381849
 10
94.48828936439877
 20
-139.2331895268237
 10
94.48828936439877
 20
-139.6062933678762
 10
94.48828936439877
 20
-139.9514919354982
 10
94.52584090518799
 20
-140.2856661975675
 10
94.79662541032863
 20
-140.2856661975675
 10
95.05431855262532
 20
-140.2856661975675
 10
95.10496145625848
 20
-139.9811197566714
 10
95.10496145625848
 20
-139.6062933678762
 10
95.10496145625848
 20
-139.2607502907057
 10
95.06534285817811
 20
-138.9269205381849
 10
94.79662541032863
 20
-138.9269205381849
 97
        0
 97
        0
 75
     2
 76
     1
 98
        0
  0
POLYLINE
  5
161
330
14C
100
AcDbEntity
  8
_U+30EC_U+30A4_U+30E4_U+30FC 1
370
     0
100
AcDb2dPolyline
 66
     1
 10
0.0
 20
0.0
 30
0.0
  0
VERTEX
  5
162
330
161
100
AcDbEntity
  8
_U+30EC_U+30A4_U+30E4_U+30FC 1
370
     0
100
AcDbVertex
100
AcDb2dVertex
 10
96.26526961569063
 20
-139.7182589711468
 30
0.0
  0
VERTEX
  5
163
330
161
100
AcDbEntity
  8
_U+30EC_U+30A4_U+30E4_U+30FC 1
370
     0
100
AcDbVertex
100
AcDb2dVertex
 10
96.26526961569063
 20
-140.2443250517445
 30
0.0
  0
VERTEX
  5
164
330
161
100
AcDbEntity
  8
_U+30EC_U+30A4_U+30E4_U+30FC 1
370
     0
100
AcDbVertex
100
AcDb2dVertex
 10
96.0606309438668
 20
-140.2443250517445
 30
0.0
  0
VERTEX
  5
165
330
161
100
AcDbEntity
  8
_U+30EC_U+30A4_U+30E4_U+30FC 1
370
     0
100
AcDbVertex
100
AcDb2dVertex
 10
96.0606309438668
 20
-139.7182589711468
 30
0.0
  0
VERTEX
  5
166
330
161
100
AcDbEntity
  8
_U+30EC_U+30A4_U+30E4_U+30FC 1
370
     0
100
AcDbVertex
100
AcDb2dVertex
 10
95.54972328340423
 20
-139.7182589711468
 30
0.0
  0
VERTEX
  5
167
330
161
100
AcDbEntity
  8
_U+30EC_U+30A4_U+30E4_U+30FC 1
370
     0
100
AcDbVertex
100
AcDb2dVertex
 10
95.54972328340423
 20
-139.4963948218967
 30
0.0
  0
VERTEX
  5
168
330
161
100
AcDbEntity
  8
_U+30EC_U+30A4_U+30E4_U+30FC 1
370
     0
100
AcDbVertex
100
AcDb2dVertex
 10
96.0606309438668
 20
-139.4963948218967
 30
0.0
  0
VERTEX
  5
169
330
161
100
AcDbEntity
  8
_U+30EC_U+30A4_U+30E4_U+30FC 1
370
     0
100
AcDbVertex
100
AcDb2dVertex
 10
96.0606309438668
 20
-138.9703287412991
 30
0.0
  0
VERTEX
  5
16A
330
161
100
AcDbEntity
  8
_U+30EC_U+30A4_U+30E4_U+30FC 1
370
     0
100
AcDbVertex
100
AcDb2dVertex
 10
96.26526961569063
 20
-138.9703287412991
 30
0.0
  0
VERTEX
  5
16B
330
161
100
AcDbEntity
  8
_U+30EC_U+30A4_U+30E4_U+30FC 1
370
     0
100
AcDbVertex
100
AcDb2dVertex
 10
96.26526961569063
 20
-139.4963948218967
 30
0.0
  0
VERTEX
  5
16C
330
161
100
AcDbEntity
  8
_U+30EC_U+30A4_U+30E4_U+30FC 1
370
     0
100
AcDbVertex
100
AcDb2dVertex
 10
96.77617727615318
 20
-139.4963948218967
 30
0.0
  0
VERTEX
  5
16D
330
161
100
AcDbEntity
  8
_U+30EC_U+30A4_U+30E4_U+30FC 1
370
     0
100
AcDbVertex
100
AcDb2dVertex
 10
96.77617727615318
 20
-139.7182589711468
 30
0.0
  0
VERTEX
  5
16E
330
161
100
AcDbEntity
  8
_U+30EC_U+30A4_U+30E4_U+30FC 1
370
     0
100
AcDbVertex
100
AcDb2dVertex
 10
96.26526961569063
 20
-139.7182589711468
 30
0.0
  0
SEQEND
  5
16F
330
161
100
AcDbEntity
  8
_U+30EC_U+30A4_U+30E4_U+30FC 1
370
     0
  0
HATCH
  5
170
330
14C
100
AcDbEntity
  8
_U+30EC_U+30A4_U+30E4_U+30FC 1
 62
   179
420
  2234388
100
AcDbHatch
 10
0.0
 20
0.0
 30
0.0
210
0.0
220
0.0
230
1.0
  2
SOLID
 70
     1
 71
     0
 91
        1
 92
        1
 93
       12
 72
     1
 10
96.26526961569063
 20
-139.7182589711468
 11
96.26526961569063
 21
-140.2443250517445
 72
     1
 10
96.26526961569063
 20
-140.2443250517445
 11
96.0606309438668
 21
-140.2443250517445
 72
     1
 10
96.0606309438668
 20
-140.2443250517445
 11
96.0606309438668
 21
-139.7182589711468
 72
     1
 10
96.0606309438668
 20
-139.7182589711468
 11
95.54972328340423
 21
-139.7182589711468
 72
     1
 10
95.54972328340423
 20
-139.7182589711468
 11
95.54972328340423
 21
-139.4963948218967
 72
     1
 10
95.54972328340423
 20
-139.4963948218967
 11
96.0606309438668
 21
-139.4963948218967
 72
     1
 10
96.0606309438668
 20
-139.4963948218967
 11
96.0606309438668
 21
-138.9703287412991
 72
     1
 10
96.0606309438668
 20
-138.9703287412991
 11
96.26526961569063
 21
-138.9703287412991
 72
     1
 10
96.26526961569063
 20
-138.9703287412991
 11
96.26526961569063
 21
-139.4963948218967
 72
     1
 10
96.26526961569063
 20
-139.4963948218967
 11
96.77617727615318
 21
-139.4963948218967
 72
     1
 10
96.77617727615318
 20
-139.4963948218967
 11
96.77617727615318
 21
-139.7182589711468
 72
     1
 10
96.77617727615318
 20
-139.7182589711468
 11
96.26526961569063
 21
-139.7182589711468
 97
        0
 75
     2
 76
     1
 98
        0
  0
SPLINE
  5
171
330
14C
100
AcDbEntity
  8
_U+30EC_U+30A4_U+30E4_U+30FC 1
370
     0
100
AcDbSpline
210
0.0
220
0.0
230
1.0
 70
    11
 71
     3
 72
    53
 73
    49
 74
     0
 42
0.0000000001
 43
0.0000000001
 12
1.0
 22
0.0
 32
0.0
 13
1.0
 23
0.0
 33
0.0
 40
0.0
 40
0.0
 40
0.0
 40
0.0
 40
1.0
 40
1.0
 40
1.0
 40
2.0
 40
2.0
 40
2.0
 40
3.0
 40
3.0
 40
3.0
 40
4.0
 40
4.0
 40
4.0
 40
5.0
 40
5.0
 40
5.0
 40
6.0
 40
6.0
 40
6.0
 40
7.0
 40
7.0
 40
7.0
 40
8.0
 40
8.0
 40
8.0
 40
9.0
 40
9.0
 40
9.0
 40
10.0
 40
10.0
 40
10.0
 40
11.0
 40
11.0
 40
11.0
 40
12.0
 40
12.0
 40
12.0
 40
13.0
 40
13.0
 40
13.0
 40
14.0
 40
14.0
 40
14.0
 40
15.0
 40
15.0
 40
15.0
 40
16.0
 40
16.0
 40
16.0
 40
16.0
 10
97.50894908586582
 20
-140.4961615317162
 30
0.0
 10
97.42764483241393
 20
-140.4961615317162
 30
0.0
 10
97.32188040101676
 20
-140.4779025256444
 30
0.0
 10
97.21611596961958
 20
-140.4090006159394
 30
0.0
 10
97.0355929661925
 20
-140.2901448216983
 30
0.0
 10
97.01354435508689
 20
-140.1485513972545
 30
0.0
 10
96.99390731082097
 20
-140.0317626603046
 30
0.0
 10
96.99390731082097
 20
-140.0317626603046
 30
0.0
 10
97.22507321788123
 20
-140.0317626603046
 30
0.0
 10
97.22507321788123
 20
-140.0317626603046
 30
0.0
 10
97.28226180293639
 20
-140.2467366185842
 30
0.0
 10
97.41420896002145
 20
-140.278776006597
 30
0.0
 10
97.51101614315698
 20
-140.278776006597
 30
0.0
 10
97.65639917263452
 20
-140.278776006597
 30
0.0
 10
97.814873564956
 20
-140.1712890274572
 30
0.0
 10
97.814873564956
 20
-139.9197970570339
 30
0.0
 10
97.814873564956
 20
-139.6428113800199
 30
0.0
 10
97.62780488010694
 20
-139.5673637888929
 30
0.0
 10
97.50240340444385
 20
-139.5673637888929
 30
0.0
 10
97.46933048778546
 20
-139.5673637888929
 30
0.0
 10
97.32188040101676
 20
-139.5673637888929
 30
0.0
 10
97.22920733246353
 20
-139.7068901560455
 30
0.0
 10
97.22920733246353
 20
-139.7068901560455
 30
0.0
 10
97.04661727174529
 20
-139.686219583134
 30
0.0
 10
97.04661727174529
 20
-139.686219583134
 30
0.0
 10
97.04661727174529
 20
-139.686219583134
 30
0.0
 10
97.17201874740839
 20
-138.7712022222516
 30
0.0
 10
97.17201874740839
 20
-138.7712022222516
 30
0.0
 10
97.17201874740839
 20
-138.7712022222516
 30
0.0
 10
97.98230520553915
 20
-138.7712022222516
 30
0.0
 10
97.98230520553915
 20
-138.7712022222516
 30
0.0
 10
97.98230520553915
 20
-138.7712022222516
 30
0.0
 10
97.98230520553915
 20
-138.9816975564004
 30
0.0
 10
97.98230520553915
 20
-138.9816975564004
 30
0.0
 10
97.98230520553915
 20
-138.9816975564004
 30
0.0
 10
97.34151744528268
 20
-138.9816975564004
 30
0.0
 10
97.34151744528268
 20
-138.9816975564004
 30
0.0
 10
97.34151744528268
 20
-138.9816975564004
 30
0.0
 10
97.27330455467474
 20
-139.4392062368416
 30
0.0
 10
97.27330455467474
 20
-139.4392062368416
 30
0.0
 10
97.33738333070038
 20
-139.4023437151494
 30
0.0
 10
97.4231662082831
 20
-139.3589355120353
 30
0.0
 10
97.54650062665505
 20
-139.3589355120353
 30
0.0
 10
97.8107394503737
 20
-139.3589355120353
 30
0.0
 10
98.05706377756907
 20
-139.5604735979224
 30
0.0
 10
98.05706377756907
 20
-139.8991264841224
 30
0.0
 10
98.05706377756907
 20
-140.2422579944533
 30
0.0
 10
97.82383081321765
 20
-140.4961615317162
 30
0.0
 10
97.50894908586582
 20
-140.4961615317162
 30
0.0
  0
HATCH
  5
172
330
14C
100
AcDbEntity
  8
_U+30EC_U+30A4_U+30E4_U+30FC 1
 62
   179
420
  2234388
100
AcDbHatch
 10
0.0
 20
0.0
 30
0.0
210
0.0
220
0.0
230
1.0
  2
SOLID
 70
     1
 71
     0
 91
        1
 92
        1
 93
        1
 72
     4
 94
        3
 73
     0
 74
     1
 95
       53
 96
       49
 40
0.0
 40
0.0
 40
0.0
 40
0.0
 40
1.0
 40
1.0
 40
1.0
 40
2.0
 40
2.0
 40
2.0
 40
3.0
 40
3.0
 40
3.0
 40
4.0
 40
4.0
 40
4.0
 40
5.0
 40
5.0
 40
5.0
 40
6.0
 40
6.0
 40
6.0
 40
7.0
 40
7.0
 40
7.0
 40
8.0
 40
8.0
 40
8.0
 40
9.0
 40
9.0
 40
9.0
 40
10.0
 40
10.0
 40
10.0
 40
11.0
 40
11.0
 40
11.0
 40
12.0
 40
12.0
 40
12.0
 40
13.0
 40
13.0
 40
13.0
 40
14.0
 40
14.0
 40
14.0
 40
15.0
 40
15.0
 40
15.0
 40
16.0
 40
16.0
 40
16.0
 40
16.0
 10
97.50894908586582
 20
-140.4961615317162
 10
97.42764483241393
 20
-140.4961615317162
 10
97.32188040101676
 20
-140.4779025256444
 10
97.21611596961958
 20
-140.4090006159394
 10
97.0355929661925
 20
-140.2901448216983
 10
97.01354435508689
 20
-140.1485513972545
 10
96.99390731082097
 20
-140.0317626603046
 10
96.99390731082097
 20
-140.0317626603046
 10
97.22507321788123
 20
-140.0317626603046
 10
97.22507321788123
 20
-140.0317626603046
 10
97.28226180293639
 20
-140.2467366185842
 10
97.41420896002145
 20
-140.278776006597
 10
97.51101614315698
 20
-140.278776006597
 10
97.65639917263452
 20
-140.278776006597
 10
97.814873564956
 20
-140.1712890274572
 10
97.814873564956
 20
-139.9197970570339
 10
97.814873564956
 20
-139.6428113800199
 10
97.62780488010694
 20
-139.5673637888929
 10
97.50240340444385
 20
-139.5673637888929
 10
97.46933048778546
 20
-139.5673637888929
 10
97.32188040101676
 20
-139.5673637888929
 10
97.22920733246353
 20
-139.7068901560455
 10
97.22920733246353
 20
-139.7068901560455
 10
97.04661727174529
 20
-139.686219583134
 10
97.04661727174529
 20
-139.686219583134
 10
97.04661727174529
 20
-139.686219583134
 10
97.17201874740839
 20
-138.7712022222516
 10
97.17201874740839
 20
-138.7712022222516
 10
97.17201874740839
 20
-138.7712022222516
 10
97.98230520553915
 20
-138.7712022222516
 10
97.98230520553915
 20
-138.7712022222516
 10
97.98230520553915
 20
-138.7712022222516
 10
97.98230520553915
 20
-138.9816975564004
 10
97.98230520553915
 20
-138.9816975564004
 10
97.98230520553915
 20
-138.9816975564004
 10
97.34151744528268
 20
-138.9816975564004
 10
97.34151744528268
 20
-138.9816975564004
 10
97.34151744528268
 20
-138.9816975564004
 10
97.27330455467474
 20
-139.4392062368416
 10
97.27330455467474
 20
-139.4392062368416
 10
97.33738333070038
 20
-139.4023437151494
 10
97.4231662082831
 20
-139.3589355120353
 10
97.54650062665505
 20
-139.3589355120353
 10
97.8107394503737
 20
-139.3589355120353
 10
98.05706377756907
 20
-139.5604735979224
 10
98.05706377756907
 20
-139.8991264841224
 10
98.05706377756907
 20
-140.2422579944533
 10
97.82383081321765
 20
-140.4961615317162
 10
97.50894908586582
 20
-140.4961615317162
 97
        0
 97
        0
 75
     2
 76
     1
 98
        0
  0
SPLINE
  5
173
330
14C
100
AcDbEntity
  8
_U+30EC_U+30A4_U+30E4_U+30FC 1
370
     0
100
AcDbSpline
210
0.0
220
0.0
230
1.0
 70
    11
 71
     3
 72
    29
 73
    25
 74
     0
 42
0.0000000001
 43
0.0000000001
 12
1.0
 22
0.0
 32
0.0
 13
1.0
 23
0.0
 33
0.0
 40
0.0
 40
0.0
 40
0.0
 40
0.0
 40
1.0
 40
1.0
 40
1.0
 40
2.0
 40
2.0
 40
2.0
 40
3.0
 40
3.0
 40
3.0
 40
4.0
 40
4.0
 40
4.0
 40
5.0
 40
5.0
 40
5.0
 40
6.0
 40
6.0
 40
6.0
 40
7.0
 40
7.0
 40
7.0
 40
8.0
 40
8.0
 40
8.0
 40
8.0
 10
98.63618432863957
 20
-140.3542235977239
 30
0.0
 10
98.52594127311157
 20
-140.5967583198855
 30
0.0
 10
98.40260685473963
 20
-140.7087239231562
 30
0.0
 10
98.28822968462934
 20
-140.8141438450048
 30
0.0
 10
98.28822968462934
 20
-140.8141438450048
 30
0.0
 10
98.19796818291579
 20
-140.8141438450048
 30
0.0
 10
98.19796818291579
 20
-140.8141438450048
 30
0.0
 10
98.28375106049852
 20
-140.6770290446919
 30
0.0
 10
98.5083712861368
 20
-140.3221842097111
 30
0.0
 10
98.5083712861368
 20
-139.7937065622738
 30
0.0
 10
98.5083712861368
 20
-139.2652289148365
 30
0.0
 10
98.28616262733819
 20
-138.9131401562439
 30
0.0
 10
98.19796818291579
 20
-138.7712022222516
 30
0.0
 10
98.19796818291579
 20
-138.7712022222516
 30
0.0
 10
98.28616262733819
 20
-138.7712022222516
 30
0.0
 10
98.28616262733819
 20
-138.7712022222516
 30
0.0
 10
98.40260685473963
 20
-138.8786892013914
 30
0.0
 10
98.52594127311157
 20
-138.9909993142106
 30
0.0
 10
98.63618432863957
 20
-139.2331895268237
 30
0.0
 10
98.72196720622229
 20
-139.4209472307698
 30
0.0
 10
98.76158580430267
 20
-139.6131835588467
 30
0.0
 10
98.76158580430267
 20
-139.7937065622738
 30
0.0
 10
98.76158580430267
 20
-139.9632052601481
 30
0.0
 10
98.72644583035311
 20
-140.155441588225
 30
0.0
 10
98.63618432863957
 20
-140.3542235977239
 30
0.0
  0
HATCH
  5
174
330
14C
100
AcDbEntity
  8
_U+30EC_U+30A4_U+30E4_U+30FC 1
 62
   179
420
  2234388
100
AcDbHatch
 10
0.0
 20
0.0
 30
0.0
210
0.0
220
0.0
230
1.0
  2
SOLID
 70
     1
 71
     0
 91
        1
 92
        1
 93
        1
 72
     4
 94
        3
 73
     0
 74
     1
 95
       29
 96
       25
 40
0.0
 40
0.0
 40
0.0
 40
0.0
 40
1.0
 40
1.0
 40
1.0
 40
2.0
 40
2.0
 40
2.0
 40
3.0
 40
3.0
 40
3.0
 40
4.0
 40
4.0
 40
4.0
 40
5.0
 40
5.0
 40
5.0
 40
6.0
 40
6.0
 40
6.0
 40
7.0
 40
7.0
 40
7.0
 40
8.0
 40
8.0
 40
8.0
 40
8.0
 10
98.63618432863957
 20
-140.3542235977239
 10
98.52594127311157
 20
-140.5967583198855
 10
98.40260685473963
 20
-140.7087239231562
 10
98.28822968462934
 20
-140.8141438450048
 10
98.28822968462934
 20
-140.8141438450048
 10
98.19796818291579
 20
-140.8141438450048
 10
98.19796818291579
 20
-140.8141438450048
 10
98.28375106049852
 20
-140.6770290446919
 10
98.5083712861368
 20
-140.3221842097111
 10
98.5083712861368
 20
-139.7937065622738
 10
98.5083712861368
 20
-139.2652289148365
 10
98.28616262733819
 20
-138.9131401562439
 10
98.19796818291579
 20
-138.7712022222516
 10
98.19796818291579
 20
-138.7712022222516
 10
98.28616262733819
 20
-138.7712022222516
 10
98.28616262733819
 20
-138.7712022222516
 10
98.40260685473963
 20
-138.8786892013914
 10
98.52594127311157
 20
-138.9909993142106
 10
98.63618432863957
 20
-139.2331895268237
 10
98.72196720622229
 20
-139.4209472307698
 10
98.76158580430267
 20
-139.6131835588467
 10
98.76158580430267
 20
-139.7937065622738
 10
98.76158580430267
 20
-139.9632052601481
 10
98.72644583035311
 20
-140.155441588225
 10
98.63618432863957
 20
-140.3542235977239
 97
        0
 97
        0
 75
     2
 76
     1
 98
        0
  0
ENDBLK
  5
14F
330
14C
100
AcDbEntity
  8
0
100
AcDbBlockEnd
  0
BLOCK
  5
187
330
185
100
AcDbEntity
  8
0
100
AcDbBlockBegin
  2
block 4
 70
     0
 10
0.0
 20
0.0
 30
0.0
  3
block 4
  1

  0
POLYLINE
  5
189
330
185
100
AcDbEntity
  8
_U+30EC_U+30A4_U+30E4_U+30FC 1
370
     0
100
AcDb2dPolyline
 66
     1
 10
0.0
 20
0.0
 30
0.0
  0
VERTEX
  5
18A
330
189
100
AcDbEntity
  8
_U+30EC_U+30A4_U+30E4_U+30FC 1
370
     0
100
AcDbVertex
100
AcDb2dVertex
 10
62.4974771979173
 20
-123.9719332914897
 30
0.0
  0
VERTEX
  5
18B
330
189
100
AcDbEntity
  8
_U+30EC_U+30A4_U+30E4_U+30FC 1
370
     0
100
AcDbVertex
100
AcDb2dVertex
 10
62.87264809626101
 20
-123.9719332914897
 30
0.0
  0
VERTEX
  5
18C
330
189
100
AcDbEntity
  8
_U+30EC_U+30A4_U+30E4_U+30FC 1
370
     0
100
AcDbVertex
100
AcDb2dVertex
 10
62.87264809626101
 20
-124.1987928291934
 30
0.0
  0
VERTEX
  5
18D
330
189
100
AcDbEntity
  8
_U+30EC_U+30A4_U+30E4_U+30FC 1
370
     0
100
AcDbVertex
100
AcDb2dVertex
 10
62.4974771979173
 20
-124.1987928291934
 30
0.0
  0
VERTEX
  5
18E
330
189
100
AcDbEntity
  8
_U+30EC_U+30A4_U+30E4_U+30FC 1
370
     0
100
AcDbVertex
100
AcDb2dVertex
 10
62.4974771979173
 20
-124.8812662448214
 30
0.0
  0
VERTEX
  5
18F
330
189
100
AcDbEntity
  8
_U+30EC_U+30A4_U+30E4_U+30FC 1
370
     0
100
AcDbVertex
100
AcDb2dVertex
 10
62.25494247575571
 20
-124.8812662448214
 30
0.0
  0
VERTEX
  5
190
330
189
100
AcDbEntity
  8
_U+30EC_U+30A4_U+30E4_U+30FC 1
370
     0
100
AcDbVertex
100
AcDb2dVertex
 10
61.20263805978615
 20
-124.1745049060223
 30
0.0
  0
VERTEX
  5
191
330
189
100
AcDbEntity
  8
_U+30EC_U+30A4_U+30E4_U+30FC 1
370
     0
100
AcDbVertex
100
AcDb2dVertex
 10
61.20263805978615
 20
-123.9719332914897
 30
0.0
  0
VERTEX
  5
192
330
189
100
AcDbEntity
  8
_U+30EC_U+30A4_U+30E4_U+30FC 1
370
     0
100
AcDbVertex
100
AcDb2dVertex
 10
62.28233098486345
 20
-123.9719332914897
 30
0.0
  0
VERTEX
  5
193
330
189
100
AcDbEntity
  8
_U+30EC_U+30A4_U+30E4_U+30FC 1
370
     0
100
AcDbVertex
100
AcDb2dVertex
 10
62.28233098486345
 20
-123.756270314113
 30
0.0
  0
VERTEX
  5
194
330
189
100
AcDbEntity
  8
_U+30EC_U+30A4_U+30E4_U+30FC 1
370
     0
100
AcDbVertex
100
AcDb2dVertex
 10
62.4974771979173
 20
-123.756270314113
 30
0.0
  0
VERTEX
  5
195
330
189
100
AcDbEntity
  8
_U+30EC_U+30A4_U+30E4_U+30FC 1
370
     0
100
AcDbVertex
100
AcDb2dVertex
 10
62.4974771979173
 20
-123.9719332914897
 30
0.0
  0
SEQEND
  5
196
330
189
100
AcDbEntity
  8
_U+30EC_U+30A4_U+30E4_U+30FC 1
370
     0
  0
POLYLINE
  5
197
330
185
100
AcDbEntity
  8
_U+30EC_U+30A4_U+30E4_U+30FC 1
370
     0
100
AcDb2dPolyline
 66
     1
 10
0.0
 20
0.0
 30
0.0
  0
VERTEX
  5
198
330
197
100
AcDbEntity
  8
_U+30EC_U+30A4_U+30E4_U+30FC 1
370
     0
100
AcDbVertex
100
AcDb2dVertex
 10
61.57315807922477
 20
-124.1987928291934
 30
0.0
  0
VERTEX
  5
199
330
197
100
AcDbEntity
  8
_U+30EC_U+30A4_U+30E4_U+30FC 1
370
     0
100
AcDbVertex
100
AcDb2dVertex
 10
62.28233098486345
 20
-124.6742160061578
 30
0.0
  0
VERTEX
  5
19A
330
197
100
AcDbEntity
  8
_U+30EC_U+30A4_U+30E4_U+30FC 1
370
     0
100
AcDbVertex
100
AcDb2dVertex
 10
62.28233098486345
 20
-124.1987928291934
 30
0.0
  0
VERTEX
  5
19B
330
197
100
AcDbEntity
  8
_U+30EC_U+30A4_U+30E4_U+30FC 1
370
     0
100
AcDbVertex
100
AcDb2dVertex
 10
61.57315807922477
 20
-124.1987928291934
 30
0.0
  0
SEQEND
  5
19C
330
197
100
AcDbEntity
  8
_U+30EC_U+30A4_U+30E4_U+30FC 1
370
     0
  0
HATCH
  5
19D
330
185
100
AcDbEntity
  8
_U+30EC_U+30A4_U+30E4_U+30FC 1
 62
   179
420
  2234388
100
AcDbHatch
 10
0.0
 20
0.0
 30
0.0
210
0.0
220
0.0
230
1.0
  2
SOLID
 70
     1
 71
     0
 91
        2
 92
        1
 93
       11
 72
     1
 10
62.4974771979173
 20
-123.9719332914897
 11
62.87264809626101
 21
-123.9719332914897
 72
     1
 10
62.87264809626101
 20
-123.9719332914897
 11
62.87264809626101
 21
-124.1987928291934
 72
     1
 10
62.87264809626101
 20
-124.1987928291934
 11
62.4974771979173
 21
-124.1987928291934
 72
     1
 10
62.4974771979173
 20
-124.1987928291934
 11
62.4974771979173
 21
-124.8812662448214
 72
     1
 10
62.4974771979173
 20
-124.8812662448214
 11
62.25494247575571
 21
-124.8812662448214
 72
     1
 10
62.25494247575571
 20
-124.8812662448214
 11
61.20263805978615
 21
-124.1745049060223
 72
     1
 10
61.20263805978615
 20
-124.1745049060223
 11
61.20263805978615
 21
-123.9719332914897
 72
     1
 10
61.20263805978615
 20
-123.9719332914897
 11
62.28233098486345
 21
-123.9719332914897
 72
     1
 10
62.28233098486345
 20
-123.9719332914897
 11
62.28233098486345
 21
-123.756270314113
 72
     1
 10
62.28233098486345
 20
-123.756270314113
 11
62.4974771979173
 21
-123.756270314113
 72
     1
 10
62.4974771979173
 20
-123.756270314113
 11
62.4974771979173
 21
-123.9719332914897
 97
        0
 92
        1
 93
        3
 72
     1
 10
61.57315807922477
 20
-124.1987928291934
 11
62.28233098486345
 21
-124.6742160061578
 72
     1
 10
62.28233098486345
 20
-124.6742160061578
 11
62.28233098486345
 21
-124.1987928291934
 72
     1
 10
62.28233098486345
 20
-124.1987928291934
 11
61.57315807922477
 21
-124.1987928291934
 97
        0
 75
     2
 76
     1
 98
        0
  0
POLYLINE
  5
19E
330
185
100
AcDbEntity
  8
_U+30EC_U+30A4_U+30E4_U+30FC 1
370
     0
100
AcDb2dPolyline
 66
     1
 10
0.0
 20
0.0
 30
0.0
  0
VERTEX
  5
19F
330
19E
100
AcDbEntity
  8
_U+30EC_U+30A4_U+30E4_U+30FC 1
370
     0
100
AcDbVertex
100
AcDb2dVertex
 10
62.87264809626101
 20
-123.5514593875149
 30
0.0
  0
VERTEX
  5
1A0
330
19E
100
AcDbEntity
  8
_U+30EC_U+30A4_U+30E4_U+30FC 1
370
     0
100
AcDbVertex
100
AcDb2dVertex
 10
62.60048555292627
 20
-123.5514593875149
 30
0.0
  0
VERTEX
  5
1A1
330
19E
100
AcDbEntity
  8
_U+30EC_U+30A4_U+30E4_U+30FC 1
370
     0
100
AcDbVertex
100
AcDb2dVertex
 10
62.60048555292627
 20
-123.2894598758617
 30
0.0
  0
VERTEX
  5
1A2
330
19E
100
AcDbEntity
  8
_U+30EC_U+30A4_U+30E4_U+30FC 1
370
     0
100
AcDbVertex
100
AcDb2dVertex
 10
62.87264809626101
 20
-123.2894598758617
 30
0.0
  0
VERTEX
  5
1A3
330
19E
100
AcDbEntity
  8
_U+30EC_U+30A4_U+30E4_U+30FC 1
370
     0
100
AcDbVertex
100
AcDb2dVertex
 10
62.87264809626101
 20
-123.5514593875149
 30
0.0
  0
SEQEND
  5
1A4
330
19E
100
AcDbEntity
  8
_U+30EC_U+30A4_U+30E4_U+30FC 1
370
     0
  0
HATCH
  5
1A5
330
185
100
AcDbEntity
  8
_U+30EC_U+30A4_U+30E4_U+30FC 1
 62
   179
420
  2234388
100
AcDbHatch
 10
0.0
 20
0.0
 30
0.0
210
0.0
220
0.0
230
1.0
  2
SOLID
 70
     1
 71
     0
 91
        1
 92
        1
 93
        4
 72
     1
 10
62.87264809626101
 20
-123.5514593875149
 11
62.60048555292627
 21
-123.5514593875149
 72
     1
 10
62.60048555292627
 20
-123.5514593875149
 11
62.60048555292627
 21
-123.2894598758617
 72
     1
 10
62.60048555292627
 20
-123.2894598758617
 11
62.87264809626101
 21
-123.2894598758617
 72
     1
 10
62.87264809626101
 20
-123.2894598758617
 11
62.87264809626101
 21
-123.5514593875149
 97
        0
 75
     2
 76
     1
 98
        0
  0
SPLINE
  5
1A6
330
185
100
AcDbEntity
  8
_U+30EC_U+30A4_U+30E4_U+30FC 1
370
     0
100
AcDbSpline
210
0.0
220
0.0
230
1.0
 70
    11
 71
     3
 72
    53
 73
    49
 74
     0
 42
0.0000000001
 43
0.0000000001
 12
1.0
 22
0.0
 32
0.0
 13
1.0
 23
0.0
 33
0.0
 40
0.0
 40
0.0
 40
0.0
 40
0.0
 40
1.0
 40
1.0
 40
1.0
 40
2.0
 40
2.0
 40
2.0
 40
3.0
 40
3.0
 40
3.0
 40
4.0
 40
4.0
 40
4.0
 40
5.0
 40
5.0
 40
5.0
 40
6.0
 40
6.0
 40
6.0
 40
7.0
 40
7.0
 40
7.0
 40
8.0
 40
8.0
 40
8.0
 40
9.0
 40
9.0
 40
9.0
 40
10.0
 40
10.0
 40
10.0
 40
11.0
 40
11.0
 40
11.0
 40
12.0
 40
12.0
 40
12.0
 40
13.0
 40
13.0
 40
13.0
 40
14.0
 40
14.0
 40
14.0
 40
15.0
 40
15.0
 40
15.0
 40
16.0
 40
16.0
 40
16.0
 40
16.0
 10
62.92759736925074
 20
-122.5432521937566
 30
0.0
 10
62.92759736925074
 20
-122.6247287019827
 30
0.0
 10
62.90933836317892
 20
-122.7303208786056
 30
0.0
 10
62.84060870824818
 20
-122.8360853100028
 30
0.0
 10
62.7215806592328
 20
-123.0166083134299
 30
0.0
 10
62.57981498001477
 20
-123.0386569245355
 30
0.0
 10
62.46319849783907
 20
-123.0584662235757
 30
0.0
 10
62.46319849783907
 20
-123.0584662235757
 30
0.0
 10
62.46319849783907
 20
-122.8273003165154
 30
0.0
 10
62.46319849783907
 20
-122.8273003165154
 30
0.0
 10
62.67817245611865
 20
-122.769939476686
 30
0.0
 10
62.71021184413148
 20
-122.6378200648267
 30
0.0
 10
62.71021184413148
 20
-122.5410128816911
 30
0.0
 10
62.71021184413148
 20
-122.3956298522136
 30
0.0
 10
62.60272486499169
 20
-122.2371554598921
 30
0.0
 10
62.35106063979418
 20
-122.2371554598921
 30
0.0
 10
62.07424721755436
 20
-122.2371554598921
 30
0.0
 10
61.99879962642738
 20
-122.4243963995154
 30
0.0
 10
61.99879962642738
 20
-122.5497978751785
 30
0.0
 10
61.99879962642738
 20
-122.5828707918369
 30
0.0
 10
61.99879962642738
 20
-122.7303208786056
 30
0.0
 10
62.13832599358
 20
-122.8228216923846
 30
0.0
 10
62.13832599358
 20
-122.8228216923846
 30
0.0
 10
62.11765542066851
 20
-123.0055840078771
 30
0.0
 10
62.11765542066851
 20
-123.0055840078771
 30
0.0
 10
62.11765542066851
 20
-123.0055840078771
 30
0.0
 10
61.20263805978615
 20
-122.8800102774397
 30
0.0
 10
61.20263805978615
 20
-122.8800102774397
 30
0.0
 10
61.20263805978615
 20
-122.8800102774397
 30
0.0
 10
61.20263805978615
 20
-122.0698960740832
 30
0.0
 10
61.20263805978615
 20
-122.0698960740832
 30
0.0
 10
61.20263805978615
 20
-122.0698960740832
 30
0.0
 10
61.41313339393491
 20
-122.0698960740832
 30
0.0
 10
61.41313339393491
 20
-122.0698960740832
 30
0.0
 10
61.41313339393491
 20
-122.0698960740832
 30
0.0
 10
61.41313339393491
 20
-122.7105115795654
 30
0.0
 10
61.41313339393491
 20
-122.7105115795654
 30
0.0
 10
61.41313339393491
 20
-122.7105115795654
 30
0.0
 10
61.87064207437609
 20
-122.7787244701734
 30
0.0
 10
61.87064207437609
 20
-122.7787244701734
 30
0.0
 10
61.83395180745818
 20
-122.7149902036963
 30
0.0
 10
61.79054360434403
 20
-122.6290350713393
 30
0.0
 10
61.79054360434403
 20
-122.5058729077416
 30
0.0
 10
61.79054360434403
 20
-122.2416340840229
 30
0.0
 10
61.99190943545689
 20
-121.994965247279
 30
0.0
 10
62.33039006688269
 20
-121.994965247279
 30
0.0
 10
62.67369383198783
 20
-121.994965247279
 30
0.0
 10
62.92759736925074
 20
-122.2283704664047
 30
0.0
 10
62.92759736925074
 20
-122.5432521937566
 30
0.0
  0
HATCH
  5
1A7
330
185
100
AcDbEntity
  8
_U+30EC_U+30A4_U+30E4_U+30FC 1
 62
   179
420
  2234388
100
AcDbHatch
 10
0.0
 20
0.0
 30
0.0
210
0.0
220
0.0
230
1.0
  2
SOLID
 70
     1
 71
     0
 91
        1
 92
        1
 93
        1
 72
     4
 94
        3
 73
     0
 74
     1
 95
       53
 96
       49
 40
0.0
 40
0.0
 40
0.0
 40
0.0
 40
1.0
 40
1.0
 40
1.0
 40
2.0
 40
2.0
 40
2.0
 40
3.0
 40
3.0
 40
3.0
 40
4.0
 40
4.0
 40
4.0
 40
5.0
 40
5.0
 40
5.0
 40
6.0
 40
6.0
 40
6.0
 40
7.0
 40
7.0
 40
7.0
 40
8.0
 40
8.0
 40
8.0
 40
9.0
 40
9.0
 40
9.0
 40
10.0
 40
10.0
 40
10.0
 40
11.0
 40
11.0
 40
11.0
 40
12.0
 40
12.0
 40
12.0
 40
13.0
 40
13.0
 40
13.0
 40
14.0
 40
14.0
 40
14.0
 40
15.0
 40
15.0
 40
15.0
 40
16.0
 40
16.0
 40
16.0
 40
16.0
 10
62.92759736925074
 20
-122.5432521937566
 10
62.92759736925074
 20
-122.6247287019827
 10
62.90933836317892
 20
-122.7303208786056
 10
62.84060870824818
 20
-122.8360853100028
 10
62.7215806592328
 20
-123.0166083134299
 10
62.57981498001477
 20
-123.0386569245355
 10
62.46319849783907
 20
-123.0584662235757
 10
62.46319849783907
 20
-123.0584662235757
 10
62.46319849783907
 20
-122.8273003165154
 10
62.46319849783907
 20
-122.8273003165154
 10
62.67817245611865
 20
-122.769939476686
 10
62.71021184413148
 20
-122.6378200648267
 10
62.71021184413148
 20
-122.5410128816911
 10
62.71021184413148
 20
-122.3956298522136
 10
62.60272486499169
 20
-122.2371554598921
 10
62.35106063979418
 20
-122.2371554598921
 10
62.07424721755436
 20
-122.2371554598921
 10
61.99879962642738
 20
-122.4243963995154
 10
61.99879962642738
 20
-122.5497978751785
 10
61.99879962642738
 20
-122.5828707918369
 10
61.99879962642738
 20
-122.7303208786056
 10
62.13832599358
 20
-122.8228216923846
 10
62.13832599358
 20
-122.8228216923846
 10
62.11765542066851
 20
-123.0055840078771
 10
62.11765542066851
 20
-123.0055840078771
 10
62.11765542066851
 20
-123.0055840078771
 10
61.20263805978615
 20
-122.8800102774397
 10
61.20263805978615
 20
-122.8800102774397
 10
61.20263805978615
 20
-122.8800102774397
 10
61.20263805978615
 20
-122.0698960740832
 10
61.20263805978615
 20
-122.0698960740832
 10
61.20263805978615
 20
-122.0698960740832
 10
61.41313339393491
 20
-122.0698960740832
 10
61.41313339393491
 20
-122.0698960740832
 10
61.41313339393491
 20
-122.0698960740832
 10
61.41313339393491
 20
-122.7105115795654
 10
61.41313339393491
 20
-122.7105115795654
 10
61.41313339393491
 20
-122.7105115795654
 10
61.87064207437609
 20
-122.7787244701734
 10
61.87064207437609
 20
-122.7787244701734
 10
61.83395180745818
 20
-122.7149902036963
 10
61.79054360434403
 20
-122.6290350713393
 10
61.79054360434403
 20
-122.5058729077416
 10
61.79054360434403
 20
-122.2416340840229
 10
61.99190943545689
 20
-121.994965247279
 10
62.33039006688269
 20
-121.994965247279
 10
62.67369383198783
 20
-121.994965247279
 10
62.92759736925074
 20
-122.2283704664047
 10
62.92759736925074
 20
-122.5432521937566
 97
        0
 97
        0
 75
     2
 76
     1
 98
        0
  0
ENDBLK
  5
188
330
185
100
AcDbEntity
  8
0
100
AcDbBlockEnd
  0
BLOCK
  5
1B6
330
1B4
100
AcDbEntity
  8
0
100
AcDbBlockBegin
  2
block 5
 70
     0
 10
0.0
 20
0.0
 30
0.0
  3
block 5
  1

  0
SPLINE
  5
1B8
330
1B4
100
AcDbEntity
  8
_U+30EC_U+30A4_U+30E4_U+30FC 1
370
     0
100
AcDbSpline
210
0.0
220
0.0
230
1.0
 70
    11
 71
     3
 72
    44
 73
    40
 74
     0
 42
0.0000000001
 43
0.0000000001
 12
1.0
 22
0.0
 32
0.0
 13
1.0
 23
0.0
 33
0.0
 40
0.0
 40
0.0
 40
0.0
 40
0.0
 40
1.0
 40
1.0
 40
1.0
 40
2.0
 40
2.0
 40
2.0
 40
3.0
 40
3.0
 40
3.0
 40
4.0
 40
4.0
 40
4.0
 40
5.0
 40
5.0
 40
5.0
 40
6.0
 40
6.0
 40
6.0
 40
7.0
 40
7.0
 40
7.0
 40
8.0
 40
8.0
 40
8.0
 40
9.0
 40
9.0
 40
9.0
 40
10.0
 40
10.0
 40
10.0
 40
11.0
 40
11.0
 40
11.0
 40
12.0
 40
12.0
 40
12.0
 40
13.0
 40
13.0
 40
13.0
 40
13.0
 10
52.46243081370731
 20
-120.6868624915297
 30
0.0
 10
52.23557127600361
 20
-120.8584282466951
 30
0.0
 10
52.13876409286809
 20
-120.9385267167272
 30
0.0
 10
52.08812118923492
 20
-121.0940727778862
 30
0.0
 10
52.08812118923492
 20
-121.0940727778862
 30
0.0
 10
52.89823539259142
 20
-121.0940727778862
 30
0.0
 10
52.89823539259142
 20
-121.0940727778862
 30
0.0
 10
52.89823539259142
 20
-121.0940727778862
 30
0.0
 10
52.89823539259142
 20
-121.3159369271363
 30
0.0
 10
52.89823539259142
 20
-121.3159369271363
 30
0.0
 10
52.89823539259142
 20
-121.3159369271363
 30
0.0
 10
51.82836098964708
 20
-121.3159369271363
 30
0.0
 10
51.82836098964708
 20
-121.3159369271363
 30
0.0
 10
51.86126165153122
 20
-120.929224958917
 30
0.0
 10
51.92964679691342
 20
-120.8446478647541
 30
0.0
 10
52.33031140184798
 20
-120.5220146725605
 30
0.0
 10
52.59661728285779
 20
-120.3070407142809
 30
0.0
 10
52.66483017346574
 20
-120.2338324352193
 30
0.0
 10
52.66483017346574
 20
-120.0851765650308
 30
0.0
 10
52.66483017346574
 20
-119.9570190129795
 30
0.0
 10
52.59007160143582
 20
-119.8152533337615
 30
0.0
 10
52.38526067483772
 20
-119.8152533337615
 30
0.0
 10
52.11447616969708
 20
-119.8152533337615
 30
0.0
 10
52.10569117620969
 20
-120.0645059921193
 30
0.0
 10
52.10121255207886
 20
-120.1904242321052
 30
0.0
 10
52.10121255207886
 20
-120.1904242321052
 30
0.0
 10
51.86797958772745
 20
-120.1904242321052
 30
0.0
 10
51.86797958772745
 20
-120.1904242321052
 30
0.0
 10
51.87676458121484
 20
-120.053137177018
 30
0.0
 10
51.88778888676764
 20
-119.9318698159372
 30
0.0
 10
51.97133245228495
 20
-119.8037122638859
 30
0.0
 10
52.08588187716951
 20
-119.629907196655
 30
0.0
 10
52.27966849821481
 20
-119.5932169297371
 30
0.0
 10
52.40076360452134
 20
-119.5932169297371
 30
0.0
 10
52.68911809663675
 20
-119.5932169297371
 30
0.0
 10
52.90495332878766
 20
-119.7923434487846
 30
0.0
 10
52.90495332878766
 20
-120.0874158770962
 30
0.0
 10
52.90495332878766
 20
-120.3344292233886
 30
0.0
 10
52.78385822248112
 20
-120.4420884573027
 30
0.0
 10
52.46243081370731
 20
-120.6868624915297
 30
0.0
  0
HATCH
  5
1B9
330
1B4
100
AcDbEntity
  8
_U+30EC_U+30A4_U+30E4_U+30FC 1
 62
   179
420
  2234388
100
AcDbHatch
 10
0.0
 20
0.0
 30
0.0
210
0.0
220
0.0
230
1.0
  2
SOLID
 70
     1
 71
     0
 91
        1
 92
        1
 93
        1
 72
     4
 94
        3
 73
     0
 74
     1
 95
       44
 96
       40
 40
0.0
 40
0.0
 40
0.0
 40
0.0
 40
1.0
 40
1.0
 40
1.0
 40
2.0
 40
2.0
 40
2.0
 40
3.0
 40
3.0
 40
3.0
 40
4.0
 40
4.0
 40
4.0
 40
5.0
 40
5.0
 40
5.0
 40
6.0
 40
6.0
 40
6.0
 40
7.0
 40
7.0
 40
7.0
 40
8.0
 40
8.0
 40
8.0
 40
9.0
 40
9.0
 40
9.0
 40
10.0
 40
10.0
 40
10.0
 40
11.0
 40
11.0
 40
11.0
 40
12.0
 40
12.0
 40
12.0
 40
13.0
 40
13.0
 40
13.0
 40
13.0
 10
52.46243081370731
 20
-120.6868624915297
 10
52.23557127600361
 20
-120.8584282466951
 10
52.13876409286809
 20
-120.9385267167272
 10
52.08812118923492
 20
-121.0940727778862
 10
52.08812118923492
 20
-121.0940727778862
 10
52.89823539259142
 20
-121.0940727778862
 10
52.89823539259142
 20
-121.0940727778862
 10
52.89823539259142
 20
-121.0940727778862
 10
52.89823539259142
 20
-121.3159369271363
 10
52.89823539259142
 20
-121.3159369271363
 10
52.89823539259142
 20
-121.3159369271363
 10
51.82836098964708
 20
-121.3159369271363
 10
51.82836098964708
 20
-121.3159369271363
 10
51.86126165153122
 20
-120.929224958917
 10
51.92964679691342
 20
-120.8446478647541
 10
52.33031140184798
 20
-120.5220146725605
 10
52.59661728285779
 20
-120.3070407142809
 10
52.66483017346574
 20
-120.2338324352193
 10
52.66483017346574
 20
-120.0851765650308
 10
52.66483017346574
 20
-119.9570190129795
 10
52.59007160143582
 20
-119.8152533337615
 10
52.38526067483772
 20
-119.8152533337615
 10
52.11447616969708
 20
-119.8152533337615
 10
52.10569117620969
 20
-120.0645059921193
 10
52.10121255207886
 20
-120.1904242321052
 10
52.10121255207886
 20
-120.1904242321052
 10
51.86797958772745
 20
-120.1904242321052
 10
51.86797958772745
 20
-120.1904242321052
 10
51.87676458121484
 20
-120.053137177018
 10
51.88778888676764
 20
-119.9318698159372
 10
51.97133245228495
 20
-119.8037122638859
 10
52.08588187716951
 20
-119.629907196655
 10
52.27966849821481
 20
-119.5932169297371
 10
52.40076360452134
 20
-119.5932169297371
 10
52.68911809663675
 20
-119.5932169297371
 10
52.90495332878766
 20
-119.7923434487846
 10
52.90495332878766
 20
-120.0874158770962
 10
52.90495332878766
 20
-120.3344292233886
 10
52.78385822248112
 20
-120.4420884573027
 10
52.46243081370731
 20
-120.6868624915297
 97
        0
 97
        0
 75
     2
 76
     1
 98
        0
  0
SPLINE
  5
1BA
330
1B4
100
AcDbEntity
  8
_U+30EC_U+30A4_U+30E4_U+30FC 1
370
     0
100
AcDbSpline
210
0.0
220
0.0
230
1.0
 70
    11
 71
     3
 72
    29
 73
    25
 74
     0
 42
0.0000000001
 43
0.0000000001
 12
1.0
 22
0.0
 32
0.0
 13
1.0
 23
0.0
 33
0.0
 40
0.0
 40
0.0
 40
0.0
 40
0.0
 40
1.0
 40
1.0
 40
1.0
 40
2.0
 40
2.0
 40
2.0
 40
3.0
 40
3.0
 40
3.0
 40
4.0
 40
4.0
 40
4.0
 40
5.0
 40
5.0
 40
5.0
 40
6.0
 40
6.0
 40
6.0
 40
7.0
 40
7.0
 40
7.0
 40
8.0
 40
8.0
 40
8.0
 40
8.0
 10
54.00342202425956
 20
-121.1237005990594
 30
0.0
 10
53.89111191144042
 20
-121.3502156272145
 30
0.0
 10
53.71058890801333
 20
-121.370886200126
 30
0.0
 10
53.58949380170679
 20
-121.370886200126
 30
0.0
 10
53.42223441589792
 20
-121.370886200126
 30
0.0
 10
53.27461207435496
 20
-121.3205878060414
 30
0.0
 10
53.17556557915402
 20
-121.1237005990594
 30
0.0
 10
53.06773409046571
 20
-120.9132052649106
 30
0.0
 10
53.04792479142552
 20
-120.6570624155823
 30
0.0
 10
53.04792479142552
 20
-120.4808457815117
 30
0.0
 10
53.04792479142552
 20
-120.3252997203527
 30
0.0
 10
53.06549477840029
 20
-120.053137177018
 30
0.0
 10
53.17556557915402
 20
-119.8379909639641
 30
0.0
 10
53.28787569197317
 20
-119.6183661267794
 30
0.0
 10
53.45530733255632
 20
-119.5932169297371
 30
0.0
 10
53.58949380170679
 20
-119.5932169297371
 30
0.0
 10
53.75468613022453
 20
-119.5932169297371
 30
0.0
 10
53.90437552905863
 20
-119.6412760117563
 30
0.0
 10
54.00342202425956
 20
-119.8379909639641
 30
0.0
 10
54.10694714359132
 20
-120.0462469860475
 30
0.0
 10
54.13106281198807
 20
-120.2932603323399
 30
0.0
 10
54.13106281198807
 20
-120.4808457815117
 30
0.0
 10
54.13106281198807
 20
-120.6661919186182
 30
0.0
 10
54.10918645565673
 20
-120.9156168317503
 30
0.0
 10
54.00342202425956
 20
-121.1237005990594
 30
0.0
  0
SPLINE
  5
1BB
330
1B4
100
AcDbEntity
  8
_U+30EC_U+30A4_U+30E4_U+30FC 1
370
     0
100
AcDbSpline
210
0.0
220
0.0
230
1.0
 70
    11
 71
     3
 72
    17
 73
    13
 74
     0
 42
0.0000000001
 43
0.0000000001
 12
1.0
 22
0.0
 32
0.0
 13
1.0
 23
0.0
 33
0.0
 40
0.0
 40
0.0
 40
0.0
 40
0.0
 40
1.0
 40
1.0
 40
1.0
 40
2.0
 40
2.0
 40
2.0
 40
3.0
 40
3.0
 40
3.0
 40
4.0
 40
4.0
 40
4.0
 40
4.0
 10
53.58949380170679
 20
-119.8014729518205
 30
0.0
 10
53.32973360211896
 20
-119.8014729518205
 30
0.0
 10
53.28133001055119
 20
-120.1080864500077
 30
0.0
 10
53.28133001055119
 20
-120.4808457815117
 30
0.0
 10
53.28133001055119
 20
-120.8263888586823
 30
0.0
 10
53.31870929656616
 20
-121.1603908659773
 30
0.0
 10
53.58949380170679
 20
-121.1603908659773
 30
0.0
 10
53.84718694400348
 20
-121.1603908659773
 30
0.0
 10
53.89782984763666
 20
-120.8560166798554
 30
0.0
 10
53.89782984763666
 20
-120.4808457815117
 30
0.0
 10
53.89782984763666
 20
-120.1354749591154
 30
0.0
 10
53.85821124955628
 20
-119.8014729518205
 30
0.0
 10
53.58949380170679
 20
-119.8014729518205
 30
0.0
  0
HATCH
  5
1BC
330
1B4
100
AcDbEntity
  8
_U+30EC_U+30A4_U+30E4_U+30FC 1
 62
   179
420
  2234388
100
AcDbHatch
 10
0.0
 20
0.0
 30
0.0
210
0.0
220
0.0
230
1.0
  2
SOLID
 70
     1
 71
     0
 91
        2
 92
        1
 93
        1
 72
     4
 94
        3
 73
     0
 74
     1
 95
       29
 96
       25
 40
0.0
 40
0.0
 40
0.0
 40
0.0
 40
1.0
 40
1.0
 40
1.0
 40
2.0
 40
2.0
 40
2.0
 40
3.0
 40
3.0
 40
3.0
 40
4.0
 40
4.0
 40
4.0
 40
5.0
 40
5.0
 40
5.0
 40
6.0
 40
6.0
 40
6.0
 40
7.0
 40
7.0
 40
7.0
 40
8.0
 40
8.0
 40
8.0
 40
8.0
 10
54.00342202425956
 20
-121.1237005990594
 10
53.89111191144042
 20
-121.3502156272145
 10
53.71058890801333
 20
-121.370886200126
 10
53.58949380170679
 20
-121.370886200126
 10
53.42223441589792
 20
-121.370886200126
 10
53.27461207435496
 20
-121.3205878060414
 10
53.17556557915402
 20
-121.1237005990594
 10
53.06773409046571
 20
-120.9132052649106
 10
53.04792479142552
 20
-120.6570624155823
 10
53.04792479142552
 20
-120.4808457815117
 10
53.04792479142552
 20
-120.3252997203527
 10
53.06549477840029
 20
-120.053137177018
 10
53.17556557915402
 20
-119.8379909639641
 10
53.28787569197317
 20
-119.6183661267794
 10
53.45530733255632
 20
-119.5932169297371
 10
53.58949380170679
 20
-119.5932169297371
 10
53.75468613022453
 20
-119.5932169297371
 10
53.90437552905863
 20
-119.6412760117563
 10
54.00342202425956
 20
-119.8379909639641
 10
54.10694714359132
 20
-120.0462469860475
 10
54.13106281198807
 20
-120.2932603323399
 10
54.13106281198807
 20
-120.4808457815117
 10
54.13106281198807
 20
-120.6661919186182
 10
54.10918645565673
 20
-120.9156168317503
 10
54.00342202425956
 20
-121.1237005990594
 97
        0
 97
        0
 92
        1
 93
        1
 72
     4
 94
        3
 73
     0
 74
     1
 95
       17
 96
       13
 40
0.0
 40
0.0
 40
0.0
 40
0.0
 40
1.0
 40
1.0
 40
1.0
 40
2.0
 40
2.0
 40
2.0
 40
3.0
 40
3.0
 40
3.0
 40
4.0
 40
4.0
 40
4.0
 40
4.0
 10
53.58949380170679
 20
-119.8014729518205
 10
53.32973360211896
 20
-119.8014729518205
 10
53.28133001055119
 20
-120.1080864500077
 10
53.28133001055119
 20
-120.4808457815117
 10
53.28133001055119
 20
-120.8263888586823
 10
53.31870929656616
 20
-121.1603908659773
 10
53.58949380170679
 20
-121.1603908659773
 10
53.84718694400348
 20
-121.1603908659773
 10
53.89782984763666
 20
-120.8560166798554
 10
53.89782984763666
 20
-120.4808457815117
 10
53.89782984763666
 20
-120.1354749591154
 10
53.85821124955628
 20
-119.8014729518205
 10
53.58949380170679
 20
-119.8014729518205
 97
        0
 97
        0
 75
     2
 76
     1
 98
        0
  0
ENDBLK
  5
1B7
330
1B4
100
AcDbEntity
  8
0
100
AcDbBlockEnd
  0
BLOCK
  5
1CB
330
1C9
100
AcDbEntity
  8
0
100
AcDbBlockBegin
  2
block 6
 70
     0
 10
0.0
 20
0.0
 30
0.0
  3
block 6
  1

  0
SPLINE
  5
1CD
330
1C9
100
AcDbEntity
  8
_U+30EC_U+30A4_U+30E4_U+30FC 1
370
     0
100
AcDbSpline
210
0.0
220
0.0
230
1.0
 70
    11
 71
     3
 72
    26
 73
    22
 74
     0
 42
0.0000000001
 43
0.0000000001
 12
1.0
 22
0.0
 32
0.0
 13
1.0
 23
0.0
 33
0.0
 40
0.0
 40
0.0
 40
0.0
 40
0.0
 40
1.0
 40
1.0
 40
1.0
 40
2.0
 40
2.0
 40
2.0
 40
3.0
 40
3.0
 40
3.0
 40
4.0
 40
4.0
 40
4.0
 40
5.0
 40
5.0
 40
5.0
 40
6.0
 40
6.0
 40
6.0
 40
7.0
 40
7.0
 40
7.0
 40
7.0
 10
90.70281844520625
 20
-117.7282144887971
 30
0.0
 10
90.70281844520625
 20
-117.7282144887971
 30
0.0
 10
90.70281844520625
 20
-116.5339721388353
 30
0.0
 10
90.70281844520625
 20
-116.5339721388353
 30
0.0
 10
90.70281844520625
 20
-116.5339721388353
 30
0.0
 10
90.35934242532683
 20
-116.5339721388353
 30
0.0
 10
90.35934242532683
 20
-116.5339721388353
 30
0.0
 10
90.35934242532683
 20
-116.5339721388353
 30
0.0
 10
90.35934242532683
 20
-116.3739474535454
 30
0.0
 10
90.35934242532683
 20
-116.3739474535454
 30
0.0
 10
90.70505775727166
 20
-116.357927759539
 30
0.0
 10
90.75346134883942
 20
-116.1817111254685
 30
0.0
 10
90.78429495343241
 20
-116.0582044523223
 30
0.0
 10
90.78429495343241
 20
-116.0582044523223
 30
0.0
 10
90.93622366433192
 20
-116.0582044523223
 30
0.0
 10
90.93622366433192
 20
-116.0582044523223
 30
0.0
 10
90.93622366433192
 20
-116.0582044523223
 30
0.0
 10
90.93622366433192
 20
-117.7282144887971
 30
0.0
 10
90.93622366433192
 20
-117.7282144887971
 30
0.0
 10
90.93622366433192
 20
-117.7282144887971
 30
0.0
 10
90.70281844520625
 20
-117.7282144887971
 30
0.0
 10
90.70281844520625
 20
-117.7282144887971
 30
0.0
  0
HATCH
  5
1CE
330
1C9
100
AcDbEntity
  8
_U+30EC_U+30A4_U+30E4_U+30FC 1
 62
   179
420
  2234388
100
AcDbHatch
 10
0.0
 20
0.0
 30
0.0
210
0.0
220
0.0
230
1.0
  2
SOLID
 70
     1
 71
     0
 91
        1
 92
        1
 93
        1
 72
     4
 94
        3
 73
     0
 74
     1
 95
       26
 96
       22
 40
0.0
 40
0.0
 40
0.0
 40
0.0
 40
1.0
 40
1.0
 40
1.0
 40
2.0
 40
2.0
 40
2.0
 40
3.0
 40
3.0
 40
3.0
 40
4.0
 40
4.0
 40
4.0
 40
5.0
 40
5.0
 40
5.0
 40
6.0
 40
6.0
 40
6.0
 40
7.0
 40
7.0
 40
7.0
 40
7.0
 10
90.70281844520625
 20
-117.7282144887971
 10
90.70281844520625
 20
-117.7282144887971
 10
90.70281844520625
 20
-116.5339721388353
 10
90.70281844520625
 20
-116.5339721388353
 10
90.70281844520625
 20
-116.5339721388353
 10
90.35934242532683
 20
-116.5339721388353
 10
90.35934242532683
 20
-116.5339721388353
 10
90.35934242532683
 20
-116.5339721388353
 10
90.35934242532683
 20
-116.3739474535454
 10
90.35934242532683
 20
-116.3739474535454
 10
90.70505775727166
 20
-116.357927759539
 10
90.75346134883942
 20
-116.1817111254685
 10
90.78429495343241
 20
-116.0582044523223
 10
90.78429495343241
 20
-116.0582044523223
 10
90.93622366433192
 20
-116.0582044523223
 10
90.93622366433192
 20
-116.0582044523223
 10
90.93622366433192
 20
-116.0582044523223
 10
90.93622366433192
 20
-117.7282144887971
 10
90.93622366433192
 20
-117.7282144887971
 10
90.93622366433192
 20
-117.7282144887971
 10
90.70281844520625
 20
-117.7282144887971
 10
90.70281844520625
 20
-117.7282144887971
 97
        0
 97
        0
 75
     2
 76
     1
 98
        0
  0
SPLINE
  5
1CF
330
1C9
100
AcDbEntity
  8
_U+30EC_U+30A4_U+30E4_U+30FC 1
370
     0
100
AcDbSpline
210
0.0
220
0.0
230
1.0
 70
    11
 71
     3
 72
    44
 73
    40
 74
     0
 42
0.0000000001
 43
0.0000000001
 12
1.0
 22
0.0
 32
0.0
 13
1.0
 23
0.0
 33
0.0
 40
0.0
 40
0.0
 40
0.0
 40
0.0
 40
1.0
 40
1.0
 40
1.0
 40
2.0
 40
2.0
 40
2.0
 40
3.0
 40
3.0
 40
3.0
 40
4.0
 40
4.0
 40
4.0
 40
5.0
 40
5.0
 40
5.0
 40
6.0
 40
6.0
 40
6.0
 40
7.0
 40
7.0
 40
7.0
 40
8.0
 40
8.0
 40
8.0
 40
9.0
 40
9.0
 40
9.0
 40
10.0
 40
10.0
 40
10.0
 40
11.0
 40
11.0
 40
11.0
 40
12.0
 40
12.0
 40
12.0
 40
13.0
 40
13.0
 40
13.0
 40
13.0
 10
92.07431095788421
 20
-117.0991400531905
 30
0.0
 10
91.84762367495476
 20
-117.2707058083559
 30
0.0
 10
91.75081649181925
 20
-117.350804278388
 30
0.0
 10
91.70017358818608
 20
-117.506350339547
 30
0.0
 10
91.70017358818608
 20
-117.506350339547
 30
0.0
 10
92.51046004631684
 20
-117.506350339547
 30
0.0
 10
92.51046004631684
 20
-117.506350339547
 30
0.0
 10
92.51046004631684
 20
-117.506350339547
 30
0.0
 10
92.51046004631684
 20
-117.7282144887971
 30
0.0
 10
92.51046004631684
 20
-117.7282144887971
 30
0.0
 10
92.51046004631684
 20
-117.7282144887971
 30
0.0
 10
91.44041338859823
 20
-117.7282144887971
 30
0.0
 10
91.44041338859823
 20
-117.7282144887971
 30
0.0
 10
91.47348630525663
 20
-117.3415025205778
 30
0.0
 10
91.54169919586458
 20
-117.2569254264149
 30
0.0
 10
91.94236380079913
 20
-116.9342922342213
 30
0.0
 10
92.20866968180894
 20
-116.7193182759417
 30
0.0
 10
92.2768825724169
 20
-116.6461099968801
 30
0.0
 10
92.2768825724169
 20
-116.4974541266916
 30
0.0
 10
92.2768825724169
 20
-116.3692965746403
 30
0.0
 10
92.20212400038697
 20
-116.2275308954223
 30
0.0
 10
91.9971408190146
 20
-116.2275308954223
 30
0.0
 10
91.72635631387396
 20
-116.2275308954223
 30
0.0
 10
91.71774357516085
 20
-116.4767835537801
 30
0.0
 10
91.71326495103003
 20
-116.602701793766
 30
0.0
 10
91.71326495103003
 20
-116.602701793766
 30
0.0
 10
91.48003198667861
 20
-116.602701793766
 30
0.0
 10
91.48003198667861
 20
-116.602701793766
 30
0.0
 10
91.48864472539174
 20
-116.4654147386788
 30
0.0
 10
91.49966903094453
 20
-116.344147377598
 30
0.0
 10
91.5833848512361
 20
-116.2159898255467
 30
0.0
 10
91.69810653089492
 20
-116.0421847583158
 30
0.0
 10
91.89172089716597
 20
-116.0054944913979
 30
0.0
 10
92.01298825824675
 20
-116.0054944913979
 30
0.0
 10
92.30099824081364
 20
-116.0054944913979
 30
0.0
 10
92.5170057277388
 20
-116.2046210104454
 30
0.0
 10
92.5170057277388
 20
-116.499693438757
 30
0.0
 10
92.5170057277388
 20
-116.7467067850494
 30
0.0
 10
92.39608287620653
 20
-116.8543660189635
 30
0.0
 10
92.07431095788421
 20
-117.0991400531905
 30
0.0
  0
HATCH
  5
1D0
330
1C9
100
AcDbEntity
  8
_U+30EC_U+30A4_U+30E4_U+30FC 1
 62
   179
420
  2234388
100
AcDbHatch
 10
0.0
 20
0.0
 30
0.0
210
0.0
220
0.0
230
1.0
  2
SOLID
 70
     1
 71
     0
 91
        1
 92
        1
 93
        1
 72
     4
 94
        3
 73
     0
 74
     1
 95
       44
 96
       40
 40
0.0
 40
0.0
 40
0.0
 40
0.0
 40
1.0
 40
1.0
 40
1.0
 40
2.0
 40
2.0
 40
2.0
 40
3.0
 40
3.0
 40
3.0
 40
4.0
 40
4.0
 40
4.0
 40
5.0
 40
5.0
 40
5.0
 40
6.0
 40
6.0
 40
6.0
 40
7.0
 40
7.0
 40
7.0
 40
8.0
 40
8.0
 40
8.0
 40
9.0
 40
9.0
 40
9.0
 40
10.0
 40
10.0
 40
10.0
 40
11.0
 40
11.0
 40
11.0
 40
12.0
 40
12.0
 40
12.0
 40
13.0
 40
13.0
 40
13.0
 40
13.0
 10
92.07431095788421
 20
-117.0991400531905
 10
91.84762367495476
 20
-117.2707058083559
 10
91.75081649181925
 20
-117.350804278388
 10
91.70017358818608
 20
-117.506350339547
 10
91.70017358818608
 20
-117.506350339547
 10
92.51046004631684
 20
-117.506350339547
 10
92.51046004631684
 20
-117.506350339547
 10
92.51046004631684
 20
-117.506350339547
 10
92.51046004631684
 20
-117.7282144887971
 10
92.51046004631684
 20
-117.7282144887971
 10
92.51046004631684
 20
-117.7282144887971
 10
91.44041338859823
 20
-117.7282144887971
 10
91.44041338859823
 20
-117.7282144887971
 10
91.47348630525663
 20
-117.3415025205778
 10
91.54169919586458
 20
-117.2569254264149
 10
91.94236380079913
 20
-116.9342922342213
 10
92.20866968180894
 20
-116.7193182759417
 10
92.2768825724169
 20
-116.6461099968801
 10
92.2768825724169
 20
-116.4974541266916
 10
92.2768825724169
 20
-116.3692965746403
 10
92.20212400038697
 20
-116.2275308954223
 10
91.9971408190146
 20
-116.2275308954223
 10
91.72635631387396
 20
-116.2275308954223
 10
91.71774357516085
 20
-116.4767835537801
 10
91.71326495103003
 20
-116.602701793766
 10
91.71326495103003
 20
-116.602701793766
 10
91.48003198667861
 20
-116.602701793766
 10
91.48003198667861
 20
-116.602701793766
 10
91.48864472539174
 20
-116.4654147386788
 10
91.49966903094453
 20
-116.344147377598
 10
91.5833848512361
 20
-116.2159898255467
 10
91.69810653089492
 20
-116.0421847583158
 10
91.89172089716597
 20
-116.0054944913979
 10
92.01298825824675
 20
-116.0054944913979
 10
92.30099824081364
 20
-116.0054944913979
 10
92.5170057277388
 20
-116.2046210104454
 10
92.5170057277388
 20
-116.499693438757
 10
92.5170057277388
 20
-116.7467067850494
 10
92.39608287620653
 20
-116.8543660189635
 10
92.07431095788421
 20
-117.0991400531905
 97
        0
 97
        0
 75
     2
 76
     1
 98
        0
  0
POLYLINE
  5
1D1
330
1C9
100
AcDbEntity
  8
_U+30EC_U+30A4_U+30E4_U+30FC 1
370
     0
100
AcDb2dPolyline
 66
     1
 10
0.0
 20
0.0
 30
0.0
  0
VERTEX
  5
1D2
330
1D1
100
AcDbEntity
  8
_U+30EC_U+30A4_U+30E4_U+30FC 1
370
     0
100
AcDbVertex
100
AcDb2dVertex
 10
93.54743378737703
 20
-117.3530435904534
 30
0.0
  0
VERTEX
  5
1D3
330
1D1
100
AcDbEntity
  8
_U+30EC_U+30A4_U+30E4_U+30FC 1
370
     0
100
AcDbVertex
100
AcDb2dVertex
 10
93.54743378737703
 20
-117.7282144887971
 30
0.0
  0
VERTEX
  5
1D4
330
1D1
100
AcDbEntity
  8
_U+30EC_U+30A4_U+30E4_U+30FC 1
370
     0
100
AcDbVertex
100
AcDb2dVertex
 10
93.32040199489907
 20
-117.7282144887971
 30
0.0
  0
VERTEX
  5
1D5
330
1D1
100
AcDbEntity
  8
_U+30EC_U+30A4_U+30E4_U+30FC 1
370
     0
100
AcDbVertex
100
AcDb2dVertex
 10
93.32040199489907
 20
-117.3530435904534
 30
0.0
  0
VERTEX
  5
1D6
330
1D1
100
AcDbEntity
  8
_U+30EC_U+30A4_U+30E4_U+30FC 1
370
     0
100
AcDbVertex
100
AcDb2dVertex
 10
92.63792857927108
 20
-117.3530435904534
 30
0.0
  0
VERTEX
  5
1D7
330
1D1
100
AcDbEntity
  8
_U+30EC_U+30A4_U+30E4_U+30FC 1
370
     0
100
AcDbVertex
100
AcDb2dVertex
 10
92.63792857927108
 20
-117.1105088682918
 30
0.0
  0
VERTEX
  5
1D8
330
1D1
100
AcDbEntity
  8
_U+30EC_U+30A4_U+30E4_U+30FC 1
370
     0
100
AcDbVertex
100
AcDb2dVertex
 10
93.34486217284434
 20
-116.0582044523223
 30
0.0
  0
VERTEX
  5
1D9
330
1D1
100
AcDbEntity
  8
_U+30EC_U+30A4_U+30E4_U+30FC 1
370
     0
100
AcDbVertex
100
AcDb2dVertex
 10
93.54743378737703
 20
-116.0582044523223
 30
0.0
  0
VERTEX
  5
1DA
330
1D1
100
AcDbEntity
  8
_U+30EC_U+30A4_U+30E4_U+30FC 1
370
     0
100
AcDbVertex
100
AcDb2dVertex
 10
93.54743378737703
 20
-117.1378973773996
 30
0.0
  0
VERTEX
  5
1DB
330
1D1
100
AcDbEntity
  8
_U+30EC_U+30A4_U+30E4_U+30FC 1
370
     0
100
AcDbVertex
100
AcDb2dVertex
 10
93.76309676475367
 20
-117.1378973773996
 30
0.0
  0
VERTEX
  5
1DC
330
1D1
100
AcDbEntity
  8
_U+30EC_U+30A4_U+30E4_U+30FC 1
370
     0
100
AcDbVertex
100
AcDb2dVertex
 10
93.76309676475367
 20
-117.3530435904534
 30
0.0
  0
VERTEX
  5
1DD
330
1D1
100
AcDbEntity
  8
_U+30EC_U+30A4_U+30E4_U+30FC 1
370
     0
100
AcDbVertex
100
AcDb2dVertex
 10
93.54743378737703
 20
-117.3530435904534
 30
0.0
  0
SEQEND
  5
1DE
330
1D1
100
AcDbEntity
  8
_U+30EC_U+30A4_U+30E4_U+30FC 1
370
     0
  0
POLYLINE
  5
1DF
330
1C9
100
AcDbEntity
  8
_U+30EC_U+30A4_U+30E4_U+30FC 1
370
     0
100
AcDb2dPolyline
 66
     1
 10
0.0
 20
0.0
 30
0.0
  0
VERTEX
  5
1E0
330
1DF
100
AcDbEntity
  8
_U+30EC_U+30A4_U+30E4_U+30FC 1
370
     0
100
AcDbVertex
100
AcDb2dVertex
 10
93.32040199489907
 20
-116.4287244717609
 30
0.0
  0
VERTEX
  5
1E1
330
1DF
100
AcDbEntity
  8
_U+30EC_U+30A4_U+30E4_U+30FC 1
370
     0
100
AcDbVertex
100
AcDb2dVertex
 10
92.84497881793459
 20
-117.1378973773996
 30
0.0
  0
VERTEX
  5
1E2
330
1DF
100
AcDbEntity
  8
_U+30EC_U+30A4_U+30E4_U+30FC 1
370
     0
100
AcDbVertex
100
AcDb2dVertex
 10
93.32040199489907
 20
-117.1378973773996
 30
0.0
  0
VERTEX
  5
1E3
330
1DF
100
AcDbEntity
  8
_U+30EC_U+30A4_U+30E4_U+30FC 1
370
     0
100
AcDbVertex
100
AcDb2dVertex
 10
93.32040199489907
 20
-116.4287244717609
 30
0.0
  0
SEQEND
  5
1E4
330
1DF
100
AcDbEntity
  8
_U+30EC_U+30A4_U+30E4_U+30FC 1
370
     0
  0
HATCH
  5
1E5
330
1C9
100
AcDbEntity
  8
_U+30EC_U+30A4_U+30E4_U+30FC 1
 62
   179
420
  2234388
100
AcDbHatch
 10
0.0
 20
0.0
 30
0.0
210
0.0
220
0.0
230
1.0
  2
SOLID
 70
     1
 71
     0
 91
        2
 92
        1
 93
       11
 72
     1
 10
93.54743378737703
 20
-117.3530435904534
 11
93.54743378737703
 21
-117.7282144887971
 72
     1
 10
93.54743378737703
 20
-117.7282144887971
 11
93.32040199489907
 21
-117.7282144887971
 72
     1
 10
93.32040199489907
 20
-117.7282144887971
 11
93.32040199489907
 21
-117.3530435904534
 72
     1
 10
93.32040199489907
 20
-117.3530435904534
 11
92.63792857927108
 21
-117.3530435904534
 72
     1
 10
92.63792857927108
 20
-117.3530435904534
 11
92.63792857927108
 21
-117.1105088682918
 72
     1
 10
92.63792857927108
 20
-117.1105088682918
 11
93.34486217284434
 21
-116.0582044523223
 72
     1
 10
93.34486217284434
 20
-116.0582044523223
 11
93.54743378737703
 21
-116.0582044523223
 72
     1
 10
93.54743378737703
 20
-116.0582044523223
 11
93.54743378737703
 21
-117.1378973773996
 72
     1
 10
93.54743378737703
 20
-117.1378973773996
 11
93.76309676475367
 21
-117.1378973773996
 72
     1
 10
93.76309676475367
 20
-117.1378973773996
 11
93.76309676475367
 21
-117.3530435904534
 72
     1
 10
93.76309676475367
 20
-117.3530435904534
 11
93.54743378737703
 21
-117.3530435904534
 97
        0
 92
        1
 93
        3
 72
     1
 10
93.32040199489907
 20
-116.4287244717609
 11
92.84497881793459
 21
-117.1378973773996
 72
     1
 10
92.84497881793459
 20
-117.1378973773996
 11
93.32040199489907
 21
-117.1378973773996
 72
     1
 10
93.32040199489907
 20
-117.1378973773996
 11
93.32040199489907
 21
-116.4287244717609
 97
        0
 75
     2
 76
     1
 98
        0
  0
ENDBLK
  5
1CC
330
1C9
100
AcDbEntity
  8
0
100
AcDbBlockEnd
  0
BLOCK
  5
1F4
330
1F2
100
AcDbEntity
  8
0
100
AcDbBlockBegin
  2
block 7
 70
     0
 10
0.0
 20
0.0
 30
0.0
  3
block 7
  1

  0
SPLINE
  5
1F6
330
1F2
100
AcDbEntity
  8
_U+30EC_U+30A4_U+30E4_U+30FC 1
370
     0
100
AcDbSpline
210
0.0
220
0.0
230
1.0
 70
    11
 71
     3
 72
    62
 73
    58
 74
     0
 42
0.0000000001
 43
0.0000000001
 12
1.0
 22
0.0
 32
0.0
 13
1.0
 23
0.0
 33
0.0
 40
0.0
 40
0.0
 40
0.0
 40
0.0
 40
1.0
 40
1.0
 40
1.0
 40
2.0
 40
2.0
 40
2.0
 40
3.0
 40
3.0
 40
3.0
 40
4.0
 40
4.0
 40
4.0
 40
5.0
 40
5.0
 40
5.0
 40
6.0
 40
6.0
 40
6.0
 40
7.0
 40
7.0
 40
7.0
 40
8.0
 40
8.0
 40
8.0
 40
9.0
 40
9.0
 40
9.0
 40
10.0
 40
10.0
 40
10.0
 40
11.0
 40
11.0
 40
11.0
 40
12.0
 40
12.0
 40
12.0
 40
13.0
 40
13.0
 40
13.0
 40
14.0
 40
14.0
 40
14.0
 40
15.0
 40
15.0
 40
15.0
 40
16.0
 40
16.0
 40
16.0
 40
17.0
 40
17.0
 40
17.0
 40
18.0
 40
18.0
 40
18.0
 40
19.0
 40
19.0
 40
19.0
 40
19.0
 10
41.92767332936183
 20
-126.0541490027747
 30
0.0
 10
41.92767332936183
 20
-126.1571573577836
 30
0.0
 10
41.90476344438492
 20
-126.3928018889747
 30
0.0
 10
41.70339761327207
 20
-126.5276773772222
 30
0.0
 10
41.58213025219128
 20
-126.6077758472543
 30
0.0
 10
41.47464327305148
 20
-126.6124267261594
 30
0.0
 10
41.38317598791809
 20
-126.6169053502902
 30
0.0
 10
41.38317598791809
 20
-126.6169053502902
 30
0.0
 10
41.38317598791809
 20
-126.3790215070337
 30
0.0
 10
41.38317598791809
 20
-126.3790215070337
 30
0.0
 10
41.46327445795016
 20
-126.3767821949683
 30
0.0
 10
41.71717799521307
 20
-126.3652411250927
 30
0.0
 10
41.71717799521307
 20
-126.0587998816797
 30
0.0
 10
41.71717799521307
 20
-125.909971756717
 30
0.0
 10
41.6417304040861
 20
-125.745296192522
 30
0.0
 10
41.39454480301942
 20
-125.745296192522
 30
0.0
 10
41.2687988178078
 20
-125.745296192522
 30
0.0
 10
41.21608885688348
 20
-125.7864650835707
 30
0.0
 10
41.18181015680524
 20
-125.820743783649
 30
0.0
 10
41.10171168677319
 20
-125.900842253681
 30
0.0
 10
41.08810355960645
 20
-126.0267604936669
 30
0.0
 10
41.08810355960645
 20
-126.0861883907875
 30
0.0
 10
41.08810355960645
 20
-126.1066867089247
 30
0.0
 10
41.09034287167186
 20
-126.145616287908
 30
0.0
 10
41.09482149580268
 20
-126.1754163638555
 30
0.0
 10
41.09482149580268
 20
-126.1754163638555
 30
0.0
 10
40.88449841642818
 20
-126.1754163638555
 30
0.0
 10
40.88449841642818
 20
-126.1754163638555
 30
0.0
 10
40.89121635262442
 20
-126.1342474728067
 30
0.0
 10
40.89362791946409
 20
-126.0884277028529
 30
0.0
 10
40.89362791946409
 20
-126.0815375118824
 30
0.0
 10
40.89362791946409
 20
-126.0107407996605
 30
0.0
 10
40.87071803448718
 20
-125.7955945866067
 30
0.0
 10
40.61440293038459
 20
-125.7955945866067
 30
0.0
 10
40.42233885708192
 20
-125.7955945866067
 30
0.0
 10
40.3627387051871
 20
-125.9375325205989
 30
0.0
 10
40.3627387051871
 20
-126.0563883148401
 30
0.0
 10
40.3627387051871
 20
-126.3423312401158
 30
0.0
 10
40.61440293038459
 20
-126.351632997926
 30
0.0
 10
40.69226208835124
 20
-126.3561116220568
 30
0.0
 10
40.69226208835124
 20
-126.3561116220568
 30
0.0
 10
40.69226208835124
 20
-126.5757364592415
 30
0.0
 10
40.69226208835124
 20
-126.5757364592415
 30
0.0
 10
40.55721434532945
 20
-126.5666069562056
 30
0.0
 10
40.15000405897292
 20
-126.5368068802582
 30
0.0
 10
40.15000405897292
 20
-126.0427801876733
 30
0.0
 10
40.15000405897292
 20
-125.8002454655118
 30
0.0
 10
40.28729111406012
 20
-125.5394517372783
 30
0.0
 10
40.6075127394141
 20
-125.5394517372783
 30
0.0
 10
40.80887857052695
 20
-125.5394517372783
 30
0.0
 10
40.89810654359492
 20
-125.642287837513
 30
0.0
 10
40.96442463168598
 20
-125.7499470714271
 30
0.0
 10
40.99422470763339
 20
-125.6834567285618
 30
0.0
 10
41.08121336863595
 20
-125.486741776354
 30
0.0
 10
41.38093667585269
 20
-125.486741776354
 30
0.0
 10
41.74697807116048
 20
-125.486741776354
 30
0.0
 10
41.92767332936183
 20
-125.7544256955579
 30
0.0
 10
41.92767332936183
 20
-126.0541490027747
 30
0.0
  0
HATCH
  5
1F7
330
1F2
100
AcDbEntity
  8
_U+30EC_U+30A4_U+30E4_U+30FC 1
 62
   179
420
  2234388
100
AcDbHatch
 10
0.0
 20
0.0
 30
0.0
210
0.0
220
0.0
230
1.0
  2
SOLID
 70
     1
 71
     0
 91
        1
 92
        1
 93
        1
 72
     4
 94
        3
 73
     0
 74
     1
 95
       62
 96
       58
 40
0.0
 40
0.0
 40
0.0
 40
0.0
 40
1.0
 40
1.0
 40
1.0
 40
2.0
 40
2.0
 40
2.0
 40
3.0
 40
3.0
 40
3.0
 40
4.0
 40
4.0
 40
4.0
 40
5.0
 40
5.0
 40
5.0
 40
6.0
 40
6.0
 40
6.0
 40
7.0
 40
7.0
 40
7.0
 40
8.0
 40
8.0
 40
8.0
 40
9.0
 40
9.0
 40
9.0
 40
10.0
 40
10.0
 40
10.0
 40
11.0
 40
11.0
 40
11.0
 40
12.0
 40
12.0
 40
12.0
 40
13.0
 40
13.0
 40
13.0
 40
14.0
 40
14.0
 40
14.0
 40
15.0
 40
15.0
 40
15.0
 40
16.0
 40
16.0
 40
16.0
 40
17.0
 40
17.0
 40
17.0
 40
18.0
 40
18.0
 40
18.0
 40
19.0
 40
19.0
 40
19.0
 40
19.0
 10
41.92767332936183
 20
-126.0541490027747
 10
41.92767332936183
 20
-126.1571573577836
 10
41.90476344438492
 20
-126.3928018889747
 10
41.70339761327207
 20
-126.5276773772222
 10
41.58213025219128
 20
-126.6077758472543
 10
41.47464327305148
 20
-126.6124267261594
 10
41.38317598791809
 20
-126.6169053502902
 10
41.38317598791809
 20
-126.6169053502902
 10
41.38317598791809
 20
-126.3790215070337
 10
41.38317598791809
 20
-126.3790215070337
 10
41.46327445795016
 20
-126.3767821949683
 10
41.71717799521307
 20
-126.3652411250927
 10
41.71717799521307
 20
-126.0587998816797
 10
41.71717799521307
 20
-125.909971756717
 10
41.6417304040861
 20
-125.745296192522
 10
41.39454480301942
 20
-125.745296192522
 10
41.2687988178078
 20
-125.745296192522
 10
41.21608885688348
 20
-125.7864650835707
 10
41.18181015680524
 20
-125.820743783649
 10
41.10171168677319
 20
-125.900842253681
 10
41.08810355960645
 20
-126.0267604936669
 10
41.08810355960645
 20
-126.0861883907875
 10
41.08810355960645
 20
-126.1066867089247
 10
41.09034287167186
 20
-126.145616287908
 10
41.09482149580268
 20
-126.1754163638555
 10
41.09482149580268
 20
-126.1754163638555
 10
40.88449841642818
 20
-126.1754163638555
 10
40.88449841642818
 20
-126.1754163638555
 10
40.89121635262442
 20
-126.1342474728067
 10
40.89362791946409
 20
-126.0884277028529
 10
40.89362791946409
 20
-126.0815375118824
 10
40.89362791946409
 20
-126.0107407996605
 10
40.87071803448718
 20
-125.7955945866067
 10
40.61440293038459
 20
-125.7955945866067
 10
40.42233885708192
 20
-125.7955945866067
 10
40.3627387051871
 20
-125.9375325205989
 10
40.3627387051871
 20
-126.0563883148401
 10
40.3627387051871
 20
-126.3423312401158
 10
40.61440293038459
 20
-126.351632997926
 10
40.69226208835124
 20
-126.3561116220568
 10
40.69226208835124
 20
-126.3561116220568
 10
40.69226208835124
 20
-126.5757364592415
 10
40.69226208835124
 20
-126.5757364592415
 10
40.55721434532945
 20
-126.5666069562056
 10
40.15000405897292
 20
-126.5368068802582
 10
40.15000405897292
 20
-126.0427801876733
 10
40.15000405897292
 20
-125.8002454655118
 10
40.28729111406012
 20
-125.5394517372783
 10
40.6075127394141
 20
-125.5394517372783
 10
40.80887857052695
 20
-125.5394517372783
 10
40.89810654359492
 20
-125.642287837513
 10
40.96442463168598
 20
-125.7499470714271
 10
40.99422470763339
 20
-125.6834567285618
 10
41.08121336863595
 20
-125.486741776354
 10
41.38093667585269
 20
-125.486741776354
 10
41.74697807116048
 20
-125.486741776354
 10
41.92767332936183
 20
-125.7544256955579
 10
41.92767332936183
 20
-126.0541490027747
 97
        0
 97
        0
 75
     2
 76
     1
 98
        0
  0
ENDBLK
  5
1F5
330
1F2
100
AcDbEntity
  8
0
100
AcDbBlockEnd
  0
BLOCK
  5
206
330
204
100
AcDbEntity
  8
0
100
AcDbBlockBegin
  2
block 8
 70
     0
 10
0.0
 20
0.0
 30
0.0
  3
block 8
  1

  0
SPLINE
  5
208
330
204
100
AcDbEntity
  8
_U+30EC_U+30A4_U+30E4_U+30FC 1
370
     0
100
AcDbSpline
210
0.0
220
0.0
230
1.0
 70
    11
 71
     3
 72
    29
 73
    25
 74
     0
 42
0.0000000001
 43
0.0000000001
 12
1.0
 22
0.0
 32
0.0
 13
1.0
 23
0.0
 33
0.0
 40
0.0
 40
0.0
 40
0.0
 40
0.0
 40
1.0
 40
1.0
 40
1.0
 40
2.0
 40
2.0
 40
2.0
 40
3.0
 40
3.0
 40
3.0
 40
4.0
 40
4.0
 40
4.0
 40
5.0
 40
5.0
 40
5.0
 40
6.0
 40
6.0
 40
6.0
 40
7.0
 40
7.0
 40
7.0
 40
8.0
 40
8.0
 40
8.0
 40
8.0
 10
41.92767332936183
 20
-132.0449977968499
 30
0.0
 10
41.92767332936183
 20
-132.3330077794168
 30
0.0
 10
41.77884520439904
 20
-132.6079263991397
 30
0.0
 10
41.40143499398992
 20
-132.6079263991397
 30
0.0
 10
41.1246215717501
 20
-132.6079263991397
 30
0.0
 10
41.02161321674112
 20
-132.4542751404975
 30
0.0
 10
40.95529512865006
 20
-132.3398979703873
 30
0.0
 10
40.89121635262442
 20
-132.4749457134091
 30
0.0
 10
40.76770967947822
 20
-132.5576280050551
 30
0.0
 10
40.59390461224736
 20
-132.5576280050551
 30
0.0
 10
40.29642061709603
 20
-132.5576280050551
 30
0.0
 10
40.15000405897292
 20
-132.3423095372269
 30
0.0
 10
40.15000405897292
 20
-132.0449977968499
 30
0.0
 10
40.15000405897292
 20
-131.7383842986626
 30
0.0
 10
40.30555012013195
 20
-131.5323675886447
 30
0.0
 10
40.59390461224736
 20
-131.5323675886447
 30
0.0
 10
40.76770967947822
 20
-131.5323675886447
 30
0.0
 10
40.89121635262442
 20
-131.6171169375818
 30
0.0
 10
40.95529512865006
 20
-131.7521646806036
 30
0.0
 10
41.0102444016398
 20
-131.6560465165652
 30
0.0
 10
41.11325275664877
 20
-131.4844807613997
 30
0.0
 10
41.39678411508483
 20
-131.4844807613997
 30
0.0
 10
41.80175508937595
 20
-131.4844807613997
 30
0.0
 10
41.92767332936183
 20
-131.7866156354561
 30
0.0
 10
41.92767332936183
 20
-132.0449977968499
 30
0.0
  0
SPLINE
  5
209
330
204
100
AcDbEntity
  8
_U+30EC_U+30A4_U+30E4_U+30FC 1
370
     0
100
AcDbSpline
210
0.0
220
0.0
230
1.0
 70
    11
 71
     3
 72
    17
 73
    13
 74
     0
 42
0.0000000001
 43
0.0000000001
 12
1.0
 22
0.0
 32
0.0
 13
1.0
 23
0.0
 33
0.0
 40
0.0
 40
0.0
 40
0.0
 40
0.0
 40
1.0
 40
1.0
 40
1.0
 40
2.0
 40
2.0
 40
2.0
 40
3.0
 40
3.0
 40
3.0
 40
4.0
 40
4.0
 40
4.0
 40
4.0
 10
40.35826008105627
 20
-132.0449977968499
 30
0.0
 10
40.35826008105627
 20
-132.2234537429858
 30
0.0
 10
40.46109618129098
 20
-132.3150932828935
 30
0.0
 10
40.6075127394141
 20
-132.3150932828935
 30
0.0
 10
40.74032117037048
 20
-132.3150932828935
 30
0.0
 10
40.86847872242177
 20
-132.2372341249268
 30
0.0
 10
40.86847872242177
 20
-132.0449977968499
 30
0.0
 10
40.86847872242177
 20
-131.8527614687729
 30
0.0
 10
40.74032117037048
 20
-131.7749023108063
 30
0.0
 10
40.6075127394141
 20
-131.7749023108063
 30
0.0
 10
40.46109618129098
 20
-131.7749023108063
 30
0.0
 10
40.35826008105627
 20
-131.8686089080051
 30
0.0
 10
40.35826008105627
 20
-132.0449977968499
 30
0.0
  0
SPLINE
  5
20A
330
204
100
AcDbEntity
  8
_U+30EC_U+30A4_U+30E4_U+30FC 1
370
     0
100
AcDbSpline
210
0.0
220
0.0
230
1.0
 70
    11
 71
     3
 72
    17
 73
    13
 74
     0
 42
0.0000000001
 43
0.0000000001
 12
1.0
 22
0.0
 32
0.0
 13
1.0
 23
0.0
 33
0.0
 40
0.0
 40
0.0
 40
0.0
 40
0.0
 40
1.0
 40
1.0
 40
1.0
 40
2.0
 40
2.0
 40
2.0
 40
3.0
 40
3.0
 40
3.0
 40
4.0
 40
4.0
 40
4.0
 40
4.0
 10
41.07208386560004
 20
-132.0449977968499
 30
0.0
 10
41.07208386560004
 20
-132.2007161127832
 30
0.0
 10
41.16579046279883
 20
-132.3653916769781
 30
0.0
 10
41.38541529998351
 20
-132.3653916769781
 30
0.0
 10
41.6072794492336
 20
-132.3653916769781
 30
0.0
 10
41.71717799521307
 20
-132.2279323671166
 30
0.0
 10
41.71717799521307
 20
-132.0449977968499
 30
0.0
 10
41.71717799521307
 20
-131.8438042205113
 30
0.0
 10
41.58454181903095
 20
-131.7246039167216
 30
0.0
 10
41.39230549095401
 20
-131.7246039167216
 30
0.0
 10
41.15201008085783
 20
-131.7246039167216
 30
0.0
 10
41.07208386560004
 20
-131.9009928055664
 30
0.0
 10
41.07208386560004
 20
-132.0449977968499
 30
0.0
  0
HATCH
  5
20B
330
204
100
AcDbEntity
  8
_U+30EC_U+30A4_U+30E4_U+30FC 1
 62
   179
420
  2234388
100
AcDbHatch
 10
0.0
 20
0.0
 30
0.0
210
0.0
220
0.0
230
1.0
  2
SOLID
 70
     1
 71
     0
 91
        3
 92
        1
 93
        1
 72
     4
 94
        3
 73
     0
 74
     1
 95
       29
 96
       25
 40
0.0
 40
0.0
 40
0.0
 40
0.0
 40
1.0
 40
1.0
 40
1.0
 40
2.0
 40
2.0
 40
2.0
 40
3.0
 40
3.0
 40
3.0
 40
4.0
 40
4.0
 40
4.0
 40
5.0
 40
5.0
 40
5.0
 40
6.0
 40
6.0
 40
6.0
 40
7.0
 40
7.0
 40
7.0
 40
8.0
 40
8.0
 40
8.0
 40
8.0
 10
41.92767332936183
 20
-132.0449977968499
 10
41.92767332936183
 20
-132.3330077794168
 10
41.77884520439904
 20
-132.6079263991397
 10
41.40143499398992
 20
-132.6079263991397
 10
41.1246215717501
 20
-132.6079263991397
 10
41.02161321674112
 20
-132.4542751404975
 10
40.95529512865006
 20
-132.3398979703873
 10
40.89121635262442
 20
-132.4749457134091
 10
40.76770967947822
 20
-132.5576280050551
 10
40.59390461224736
 20
-132.5576280050551
 10
40.29642061709603
 20
-132.5576280050551
 10
40.15000405897292
 20
-132.3423095372269
 10
40.15000405897292
 20
-132.0449977968499
 10
40.15000405897292
 20
-131.7383842986626
 10
40.30555012013195
 20
-131.5323675886447
 10
40.59390461224736
 20
-131.5323675886447
 10
40.76770967947822
 20
-131.5323675886447
 10
40.89121635262442
 20
-131.6171169375818
 10
40.95529512865006
 20
-131.7521646806036
 10
41.0102444016398
 20
-131.6560465165652
 10
41.11325275664877
 20
-131.4844807613997
 10
41.39678411508483
 20
-131.4844807613997
 10
41.80175508937595
 20
-131.4844807613997
 10
41.92767332936183
 20
-131.7866156354561
 10
41.92767332936183
 20
-132.0449977968499
 97
        0
 97
        0
 92
        1
 93
        1
 72
     4
 94
        3
 73
     0
 74
     1
 95
       17
 96
       13
 40
0.0
 40
0.0
 40
0.0
 40
0.0
 40
1.0
 40
1.0
 40
1.0
 40
2.0
 40
2.0
 40
2.0
 40
3.0
 40
3.0
 40
3.0
 40
4.0
 40
4.0
 40
4.0
 40
4.0
 10
40.35826008105627
 20
-132.0449977968499
 10
40.35826008105627
 20
-132.2234537429858
 10
40.46109618129098
 20
-132.3150932828935
 10
40.6075127394141
 20
-132.3150932828935
 10
40.74032117037048
 20
-132.3150932828935
 10
40.86847872242177
 20
-132.2372341249268
 10
40.86847872242177
 20
-132.0449977968499
 10
40.86847872242177
 20
-131.8527614687729
 10
40.74032117037048
 20
-131.7749023108063
 10
40.6075127394141
 20
-131.7749023108063
 10
40.46109618129098
 20
-131.7749023108063
 10
40.35826008105627
 20
-131.8686089080051
 10
40.35826008105627
 20
-132.0449977968499
 97
        0
 97
        0
 92
        1
 93
        1
 72
     4
 94
        3
 73
     0
 74
     1
 95
       17
 96
       13
 40
0.0
 40
0.0
 40
0.0
 40
0.0
 40
1.0
 40
1.0
 40
1.0
 40
2.0
 40
2.0
 40
2.0
 40
3.0
 40
3.0
 40
3.0
 40
4.0
 40
4.0
 40
4.0
 40
4.0
 10
41.07208386560004
 20
-132.0449977968499
 10
41.07208386560004
 20
-132.2007161127832
 10
41.16579046279883
 20
-132.3653916769781
 10
41.38541529998351
 20
-132.3653916769781
 10
41.6072794492336
 20
-132.3653916769781
 10
41.71717799521307
 20
-132.2279323671166
 10
41.71717799521307
 20
-132.0449977968499
 10
41.71717799521307
 20
-131.8438042205113
 10
41.58454181903095
 20
-131.7246039167216
 10
41.39230549095401
 20
-131.7246039167216
 10
41.15201008085783
 20
-131.7246039167216
 10
41.07208386560004
 20
-131.9009928055664
 10
41.07208386560004
 20
-132.0449977968499
 97
        0
 97
        0
 75
     2
 76
     1
 98
        0
  0
ENDBLK
  5
207
330
204
100
AcDbEntity
  8
0
100
AcDbBlockEnd
  0
BLOCK
  5
21A
330
218
100
AcDbEntity
  8
0
100
AcDbBlockBegin
  2
block 9
 70
     0
 10
0.0
 20
0.0
 30
0.0
  3
block 9
  1

  0
SPLINE
  5
21C
330
218
100
AcDbEntity
  8
_U+30EC_U+30A4_U+30E4_U+30FC 1
370
     0
100
AcDbSpline
210
0.0
220
0.0
230
1.0
 70
    11
 71
     3
 72
    26
 73
    22
 74
     0
 42
0.0000000001
 43
0.0000000001
 12
1.0
 22
0.0
 32
0.0
 13
1.0
 23
0.0
 33
0.0
 40
0.0
 40
0.0
 40
0.0
 40
0.0
 40
1.0
 40
1.0
 40
1.0
 40
2.0
 40
2.0
 40
2.0
 40
3.0
 40
3.0
 40
3.0
 40
4.0
 40
4.0
 40
4.0
 40
5.0
 40
5.0
 40
5.0
 40
6.0
 40
6.0
 40
6.0
 40
7.0
 40
7.0
 40
7.0
 40
7.0
 10
38.28482936325866
 20
-131.5427028751004
 30
0.0
 10
38.28482936325866
 20
-131.5427028751004
 30
0.0
 10
37.0905870132968
 20
-131.5427028751004
 30
0.0
 10
37.0905870132968
 20
-131.5427028751004
 30
0.0
 10
37.0905870132968
 20
-131.5427028751004
 30
0.0
 10
37.0905870132968
 20
-131.8865234045284
 30
0.0
 10
37.0905870132968
 20
-131.8865234045284
 30
0.0
 10
37.0905870132968
 20
-131.8865234045284
 30
0.0
 10
36.93039007323268
 20
-131.8865234045284
 30
0.0
 10
36.93039007323268
 20
-131.8865234045284
 30
0.0
 10
36.91454263400053
 20
-131.5406358178093
 30
0.0
 10
36.73832599993001
 20
-131.4924044810158
 30
0.0
 10
36.6148193267838
 20
-131.4613986216486
 30
0.0
 10
36.6148193267838
 20
-131.4613986216486
 30
0.0
 10
36.6148193267838
 20
-131.309469910749
 30
0.0
 10
36.6148193267838
 20
-131.309469910749
 30
0.0
 10
36.6148193267838
 20
-131.309469910749
 30
0.0
 10
38.28482936325866
 20
-131.309469910749
 30
0.0
 10
38.28482936325866
 20
-131.309469910749
 30
0.0
 10
38.28482936325866
 20
-131.309469910749
 30
0.0
 10
38.28482936325866
 20
-131.5427028751004
 30
0.0
 10
38.28482936325866
 20
-131.5427028751004
 30
0.0
  0
HATCH
  5
21D
330
218
100
AcDbEntity
  8
_U+30EC_U+30A4_U+30E4_U+30FC 1
 62
   179
420
  2234388
100
AcDbHatch
 10
0.0
 20
0.0
 30
0.0
210
0.0
220
0.0
230
1.0
  2
SOLID
 70
     1
 71
     0
 91
        1
 92
        1
 93
        1
 72
     4
 94
        3
 73
     0
 74
     1
 95
       26
 96
       22
 40
0.0
 40
0.0
 40
0.0
 40
0.0
 40
1.0
 40
1.0
 40
1.0
 40
2.0
 40
2.0
 40
2.0
 40
3.0
 40
3.0
 40
3.0
 40
4.0
 40
4.0
 40
4.0
 40
5.0
 40
5.0
 40
5.0
 40
6.0
 40
6.0
 40
6.0
 40
7.0
 40
7.0
 40
7.0
 40
7.0
 10
38.28482936325866
 20
-131.5427028751004
 10
38.28482936325866
 20
-131.5427028751004
 10
37.0905870132968
 20
-131.5427028751004
 10
37.0905870132968
 20
-131.5427028751004
 10
37.0905870132968
 20
-131.5427028751004
 10
37.0905870132968
 20
-131.8865234045284
 10
37.0905870132968
 20
-131.8865234045284
 10
37.0905870132968
 20
-131.8865234045284
 10
36.93039007323268
 20
-131.8865234045284
 10
36.93039007323268
 20
-131.8865234045284
 10
36.91454263400053
 20
-131.5406358178093
 10
36.73832599993001
 20
-131.4924044810158
 10
36.6148193267838
 20
-131.4613986216486
 10
36.6148193267838
 20
-131.4613986216486
 10
36.6148193267838
 20
-131.309469910749
 10
36.6148193267838
 20
-131.309469910749
 10
36.6148193267838
 20
-131.309469910749
 10
38.28482936325866
 20
-131.309469910749
 10
38.28482936325866
 20
-131.309469910749
 10
38.28482936325866
 20
-131.309469910749
 10
38.28482936325866
 20
-131.5427028751004
 10
38.28482936325866
 20
-131.5427028751004
 97
        0
 97
        0
 75
     2
 76
     1
 98
        0
  0
SPLINE
  5
21E
330
218
100
AcDbEntity
  8
_U+30EC_U+30A4_U+30E4_U+30FC 1
370
     0
100
AcDbSpline
210
0.0
220
0.0
230
1.0
 70
    11
 71
     3
 72
    62
 73
    58
 74
     0
 42
0.0000000001
 43
0.0000000001
 12
1.0
 22
0.0
 32
0.0
 13
1.0
 23
0.0
 33
0.0
 40
0.0
 40
0.0
 40
0.0
 40
0.0
 40
1.0
 40
1.0
 40
1.0
 40
2.0
 40
2.0
 40
2.0
 40
3.0
 40
3.0
 40
3.0
 40
4.0
 40
4.0
 40
4.0
 40
5.0
 40
5.0
 40
5.0
 40
6.0
 40
6.0
 40
6.0
 40
7.0
 40
7.0
 40
7.0
 40
8.0
 40
8.0
 40
8.0
 40
9.0
 40
9.0
 40
9.0
 40
10.0
 40
10.0
 40
10.0
 40
11.0
 40
11.0
 40
11.0
 40
12.0
 40
12.0
 40
12.0
 40
13.0
 40
13.0
 40
13.0
 40
14.0
 40
14.0
 40
14.0
 40
15.0
 40
15.0
 40
15.0
 40
16.0
 40
16.0
 40
16.0
 40
17.0
 40
17.0
 40
17.0
 40
18.0
 40
18.0
 40
18.0
 40
19.0
 40
19.0
 40
19.0
 40
19.0
 10
38.33977863624839
 20
-130.2769747938196
 30
0.0
 10
38.33977863624839
 20
-130.3761935437948
 30
0.0
 10
38.31686875127148
 20
-130.6028808267243
 30
0.0
 10
38.11550292015863
 20
-130.7327609265182
 30
0.0
 10
37.99423555907783
 20
-130.8095865558393
 30
0.0
 10
37.88674857993804
 20
-130.8144096895186
 30
0.0
 10
37.79528129480465
 20
-130.8185438041009
 30
0.0
 10
37.79528129480465
 20
-130.8185438041009
 30
0.0
 10
37.79528129480465
 20
-130.5897894638803
 30
0.0
 10
37.79528129480465
 20
-130.5897894638803
 30
0.0
 10
37.87537976483672
 20
-130.5873778970407
 30
0.0
 10
38.12928330209962
 20
-130.5763535914879
 30
0.0
 10
38.12928330209962
 20
-130.2814534179505
 30
0.0
 10
38.12928330209962
 20
-130.1384819553126
 30
0.0
 10
38.05383571097266
 20
-129.9796630534426
 30
0.0
 10
37.80665010990598
 20
-129.9796630534426
 30
0.0
 10
37.68090412469436
 20
-129.9796630534426
 30
0.0
 10
37.62819416377004
 20
-130.019281651523
 30
0.0
 10
37.5939154636918
 20
-130.0523545681814
 30
0.0
 10
37.51381699365974
 20
-130.129524707051
 30
0.0
 10
37.500208866493
 20
-130.2507920681317
 30
0.0
 10
37.500208866493
 20
-130.3079806531869
 30
0.0
 10
37.500208866493
 20
-130.3276176974528
 30
0.0
 10
37.50244817855842
 20
-130.3651692382421
 30
0.0
 10
37.50692680268924
 20
-130.3934190212211
 30
0.0
 10
37.50692680268924
 20
-130.3934190212211
 30
0.0
 10
37.29660372331474
 20
-130.3934190212211
 30
0.0
 10
37.29660372331474
 20
-130.3934190212211
 30
0.0
 10
37.30332165951098
 20
-130.3541449326893
 30
0.0
 10
37.30573322635065
 20
-130.310047710478
 30
0.0
 10
37.30573322635065
 20
-130.3031575195076
 30
0.0
 10
37.30573322635065
 20
-130.2349446288996
 30
0.0
 10
37.28282334137374
 20
-130.0282388997846
 30
0.0
 10
37.02650823727115
 20
-130.0282388997846
 30
0.0
 10
36.83444416396848
 20
-130.0282388997846
 30
0.0
 10
36.77484401207365
 20
-130.1646646810005
 30
0.0
 10
36.77484401207365
 20
-130.2790418511108
 30
0.0
 10
36.77484401207365
 20
-130.5543049803823
 30
0.0
 10
37.02650823727115
 20
-130.5632622286439
 30
0.0
 10
37.1043673952378
 20
-130.5677408527747
 30
0.0
 10
37.1043673952378
 20
-130.5677408527747
 30
0.0
 10
37.1043673952378
 20
-130.7789252060205
 30
0.0
 10
37.1043673952378
 20
-130.7789252060205
 30
0.0
 10
36.96931965221601
 20
-130.7703124673074
 30
0.0
 10
36.56210936585948
 20
-130.7413736652313
 30
0.0
 10
36.56210936585948
 20
-130.2659504882668
 30
0.0
 10
36.56210936585948
 20
-130.0323730143669
 30
0.0
 10
36.69939642094668
 20
-129.7815700630407
 30
0.0
 10
37.01961804630065
 20
-129.7815700630407
 30
0.0
 10
37.2209838774135
 20
-129.7815700630407
 30
0.0
 10
37.31021185048148
 20
-129.8807888130159
 30
0.0
 10
37.37652993857254
 20
-129.9841416775734
 30
0.0
 10
37.40633001451994
 20
-129.9200629015478
 30
0.0
 10
37.4933186755225
 20
-129.7309271594075
 30
0.0
 10
37.79304198273924
 20
-129.7309271594075
 30
0.0
 10
38.15908337804704
 20
-129.7309271594075
 30
0.0
 10
38.33977863624839
 20
-129.9886203017042
 30
0.0
 10
38.33977863624839
 20
-130.2769747938196
 30
0.0
  0
HATCH
  5
21F
330
218
100
AcDbEntity
  8
_U+30EC_U+30A4_U+30E4_U+30FC 1
 62
   179
420
  2234388
100
AcDbHatch
 10
0.0
 20
0.0
 30
0.0
210
0.0
220
0.0
230
1.0
  2
SOLID
 70
     1
 71
     0
 91
        1
 92
        1
 93
        1
 72
     4
 94
        3
 73
     0
 74
     1
 95
       62
 96
       58
 40
0.0
 40
0.0
 40
0.0
 40
0.0
 40
1.0
 40
1.0
 40
1.0
 40
2.0
 40
2.0
 40
2.0
 40
3.0
 40
3.0
 40
3.0
 40
4.0
 40
4.0
 40
4.0
 40
5.0
 40
5.0
 40
5.0
 40
6.0
 40
6.0
 40
6.0
 40
7.0
 40
7.0
 40
7.0
 40
8.0
 40
8.0
 40
8.0
 40
9.0
 40
9.0
 40
9.0
 40
10.0
 40
10.0
 40
10.0
 40
11.0
 40
11.0
 40
11.0
 40
12.0
 40
12.0
 40
12.0
 40
13.0
 40
13.0
 40
13.0
 40
14.0
 40
14.0
 40
14.0
 40
15.0
 40
15.0
 40
15.0
 40
16.0
 40
16.0
 40
16.0
 40
17.0
 40
17.0
 40
17.0
 40
18.0
 40
18.0
 40
18.0
 40
19.0
 40
19.0
 40
19.0
 40
19.0
 10
38.33977863624839
 20
-130.2769747938196
 10
38.33977863624839
 20
-130.3761935437948
 10
38.31686875127148
 20
-130.6028808267243
 10
38.11550292015863
 20
-130.7327609265182
 10
37.99423555907783
 20
-130.8095865558393
 10
37.88674857993804
 20
-130.8144096895186
 10
37.79528129480465
 20
-130.8185438041009
 10
37.79528129480465
 20
-130.8185438041009
 10
37.79528129480465
 20
-130.5897894638803
 10
37.79528129480465
 20
-130.5897894638803
 10
37.87537976483672
 20
-130.5873778970407
 10
38.12928330209962
 20
-130.5763535914879
 10
38.12928330209962
 20
-130.2814534179505
 10
38.12928330209962
 20
-130.1384819553126
 10
38.05383571097266
 20
-129.9796630534426
 10
37.80665010990598
 20
-129.9796630534426
 10
37.68090412469436
 20
-129.9796630534426
 10
37.62819416377004
 20
-130.019281651523
 10
37.5939154636918
 20
-130.0523545681814
 10
37.51381699365974
 20
-130.129524707051
 10
37.500208866493
 20
-130.2507920681317
 10
37.500208866493
 20
-130.3079806531869
 10
37.500208866493
 20
-130.3276176974528
 10
37.50244817855842
 20
-130.3651692382421
 10
37.50692680268924
 20
-130.3934190212211
 10
37.50692680268924
 20
-130.3934190212211
 10
37.29660372331474
 20
-130.3934190212211
 10
37.29660372331474
 20
-130.3934190212211
 10
37.30332165951098
 20
-130.3541449326893
 10
37.30573322635065
 20
-130.310047710478
 10
37.30573322635065
 20
-130.3031575195076
 10
37.30573322635065
 20
-130.2349446288996
 10
37.28282334137374
 20
-130.0282388997846
 10
37.02650823727115
 20
-130.0282388997846
 10
36.83444416396848
 20
-130.0282388997846
 10
36.77484401207365
 20
-130.1646646810005
 10
36.77484401207365
 20
-130.2790418511108
 10
36.77484401207365
 20
-130.5543049803823
 10
37.02650823727115
 20
-130.5632622286439
 10
37.1043673952378
 20
-130.5677408527747
 10
37.1043673952378
 20
-130.5677408527747
 10
37.1043673952378
 20
-130.7789252060205
 10
37.1043673952378
 20
-130.7789252060205
 10
36.96931965221601
 20
-130.7703124673074
 10
36.56210936585948
 20
-130.7413736652313
 10
36.56210936585948
 20
-130.2659504882668
 10
36.56210936585948
 20
-130.0323730143669
 10
36.69939642094668
 20
-129.7815700630407
 10
37.01961804630065
 20
-129.7815700630407
 10
37.2209838774135
 20
-129.7815700630407
 10
37.31021185048148
 20
-129.8807888130159
 10
37.37652993857254
 20
-129.9841416775734
 10
37.40633001451994
 20
-129.9200629015478
 10
37.4933186755225
 20
-129.7309271594075
 10
37.79304198273924
 20
-129.7309271594075
 10
38.15908337804704
 20
-129.7309271594075
 10
38.33977863624839
 20
-129.9886203017042
 10
38.33977863624839
 20
-130.2769747938196
 97
        0
 97
        0
 75
     2
 76
     1
 98
        0
  0
POLYLINE
  5
220
330
218
100
AcDbEntity
  8
_U+30EC_U+30A4_U+30E4_U+30FC 1
370
     0
100
AcDb2dPolyline
 66
     1
 10
0.0
 20
0.0
 30
0.0
  0
VERTEX
  5
221
330
220
100
AcDbEntity
  8
_U+30EC_U+30A4_U+30E4_U+30FC 1
370
     0
100
AcDbVertex
100
AcDb2dVertex
 10
38.28482936325866
 20
-129.5018283096384
 30
0.0
  0
VERTEX
  5
222
330
220
100
AcDbEntity
  8
_U+30EC_U+30A4_U+30E4_U+30FC 1
370
     0
100
AcDbVertex
100
AcDb2dVertex
 10
38.01266681992391
 20
-129.5018283096384
 30
0.0
  0
VERTEX
  5
223
330
220
100
AcDbEntity
  8
_U+30EC_U+30A4_U+30E4_U+30FC 1
370
     0
100
AcDbVertex
100
AcDb2dVertex
 10
38.01266681992391
 20
-129.2400010527595
 30
0.0
  0
VERTEX
  5
224
330
220
100
AcDbEntity
  8
_U+30EC_U+30A4_U+30E4_U+30FC 1
370
     0
100
AcDbVertex
100
AcDb2dVertex
 10
38.28482936325866
 20
-129.2400010527595
 30
0.0
  0
VERTEX
  5
225
330
220
100
AcDbEntity
  8
_U+30EC_U+30A4_U+30E4_U+30FC 1
370
     0
100
AcDbVertex
100
AcDb2dVertex
 10
38.28482936325866
 20
-129.5018283096384
 30
0.0
  0
SEQEND
  5
226
330
220
100
AcDbEntity
  8
_U+30EC_U+30A4_U+30E4_U+30FC 1
370
     0
  0
HATCH
  5
227
330
218
100
AcDbEntity
  8
_U+30EC_U+30A4_U+30E4_U+30FC 1
 62
   179
420
  2234388
100
AcDbHatch
 10
0.0
 20
0.0
 30
0.0
210
0.0
220
0.0
230
1.0
  2
SOLID
 70
     1
 71
     0
 91
        1
 92
        1
 93
        4
 72
     1
 10
38.28482936325866
 20
-129.5018283096384
 11
38.01266681992391
 21
-129.5018283096384
 72
     1
 10
38.01266681992391
 20
-129.5018283096384
 11
38.01266681992391
 21
-129.2400010527595
 72
     1
 10
38.01266681992391
 20
-129.2400010527595
 11
38.28482936325866
 21
-129.2400010527595
 72
     1
 10
38.28482936325866
 20
-129.2400010527595
 11
38.28482936325866
 21
-129.5018283096384
 97
        0
 75
     2
 76
     1
 98
        0
  0
SPLINE
  5
228
330
218
100
AcDbEntity
  8
_U+30EC_U+30A4_U+30E4_U+30FC 1
370
     0
100
AcDbSpline
210
0.0
220
0.0
230
1.0
 70
    11
 71
     3
 72
    53
 73
    49
 74
     0
 42
0.0000000001
 43
0.0000000001
 12
1.0
 22
0.0
 32
0.0
 13
1.0
 23
0.0
 33
0.0
 40
0.0
 40
0.0
 40
0.0
 40
0.0
 40
1.0
 40
1.0
 40
1.0
 40
2.0
 40
2.0
 40
2.0
 40
3.0
 40
3.0
 40
3.0
 40
4.0
 40
4.0
 40
4.0
 40
5.0
 40
5.0
 40
5.0
 40
6.0
 40
6.0
 40
6.0
 40
7.0
 40
7.0
 40
7.0
 40
8.0
 40
8.0
 40
8.0
 40
9.0
 40
9.0
 40
9.0
 40
10.0
 40
10.0
 40
10.0
 40
11.0
 40
11.0
 40
11.0
 40
12.0
 40
12.0
 40
12.0
 40
13.0
 40
13.0
 40
13.0
 40
14.0
 40
14.0
 40
14.0
 40
15.0
 40
15.0
 40
15.0
 40
16.0
 40
16.0
 40
16.0
 40
16.0
 10
38.33977863624839
 20
-128.4937933706543
 30
0.0
 10
38.33977863624839
 20
-128.5752698788805
 30
0.0
 10
38.32151963017657
 20
-128.6808620555034
 30
0.0
 10
38.25278997524583
 20
-128.7866264869006
 30
0.0
 10
38.13376192623045
 20
-128.9671494903277
 30
0.0
 10
37.99199624701242
 20
-128.9891981014333
 30
0.0
 10
37.87537976483672
 20
-129.0091796552477
 30
0.0
 10
37.87537976483672
 20
-129.0091796552477
 30
0.0
 10
37.87537976483672
 20
-128.7776692386389
 30
0.0
 10
37.87537976483672
 20
-128.7776692386389
 30
0.0
 10
38.0903537231163
 20
-128.7204806535838
 30
0.0
 10
38.12239311112913
 20
-128.5883612417244
 30
0.0
 10
38.12239311112913
 20
-128.4915540585889
 30
0.0
 10
38.12239311112913
 20
-128.3463432838856
 30
0.0
 10
38.01490613198933
 20
-128.1876966367899
 30
0.0
 10
37.76324190679183
 20
-128.1876966367899
 30
0.0
 10
37.48642848455201
 20
-128.1876966367899
 30
0.0
 10
37.41098089342503
 20
-128.3749375764132
 30
0.0
 10
37.41098089342503
 20
-128.5003390520763
 30
0.0
 10
37.41098089342503
 20
-128.5334119687347
 30
0.0
 10
37.41098089342503
 20
-128.6808620555034
 30
0.0
 10
37.55050726057765
 20
-128.7735351240566
 30
0.0
 10
37.55050726057765
 20
-128.7735351240566
 30
0.0
 10
37.52983668766615
 20
-128.9561251847749
 30
0.0
 10
37.52983668766615
 20
-128.9561251847749
 30
0.0
 10
37.52983668766615
 20
-128.9561251847749
 30
0.0
 10
36.6148193267838
 20
-128.8307237091118
 30
0.0
 10
36.6148193267838
 20
-128.8307237091118
 30
0.0
 10
36.6148193267838
 20
-128.8307237091118
 30
0.0
 10
36.6148193267838
 20
-128.020437250981
 30
0.0
 10
36.6148193267838
 20
-128.020437250981
 30
0.0
 10
36.6148193267838
 20
-128.020437250981
 30
0.0
 10
36.82531466093256
 20
-128.020437250981
 30
0.0
 10
36.82531466093256
 20
-128.020437250981
 30
0.0
 10
36.82531466093256
 20
-128.020437250981
 30
0.0
 10
36.82531466093256
 20
-128.6610527564632
 30
0.0
 10
36.82531466093256
 20
-128.6610527564632
 30
0.0
 10
36.82531466093256
 20
-128.6610527564632
 30
0.0
 10
37.28282334137374
 20
-128.7292656470712
 30
0.0
 10
37.28282334137374
 20
-128.7292656470712
 30
0.0
 10
37.24613307445583
 20
-128.665531380594
 30
0.0
 10
37.20272487134168
 20
-128.5795762482371
 30
0.0
 10
37.20272487134168
 20
-128.4564140846394
 30
0.0
 10
37.20272487134168
 20
-128.1921752609207
 30
0.0
 10
37.40409070245453
 20
-127.9455064241768
 30
0.0
 10
37.74257133388033
 20
-127.9455064241768
 30
0.0
 10
38.08587509898548
 20
-127.9455064241768
 30
0.0
 10
38.33977863624839
 20
-128.1789116433025
 30
0.0
 10
38.33977863624839
 20
-128.4937933706543
 30
0.0
  0
HATCH
  5
229
330
218
100
AcDbEntity
  8
_U+30EC_U+30A4_U+30E4_U+30FC 1
 62
   179
420
  2234388
100
AcDbHatch
 10
0.0
 20
0.0
 30
0.0
210
0.0
220
0.0
230
1.0
  2
SOLID
 70
     1
 71
     0
 91
        1
 92
        1
 93
        1
 72
     4
 94
        3
 73
     0
 74
     1
 95
       53
 96
       49
 40
0.0
 40
0.0
 40
0.0
 40
0.0
 40
1.0
 40
1.0
 40
1.0
 40
2.0
 40
2.0
 40
2.0
 40
3.0
 40
3.0
 40
3.0
 40
4.0
 40
4.0
 40
4.0
 40
5.0
 40
5.0
 40
5.0
 40
6.0
 40
6.0
 40
6.0
 40
7.0
 40
7.0
 40
7.0
 40
8.0
 40
8.0
 40
8.0
 40
9.0
 40
9.0
 40
9.0
 40
10.0
 40
10.0
 40
10.0
 40
11.0
 40
11.0
 40
11.0
 40
12.0
 40
12.0
 40
12.0
 40
13.0
 40
13.0
 40
13.0
 40
14.0
 40
14.0
 40
14.0
 40
15.0
 40
15.0
 40
15.0
 40
16.0
 40
16.0
 40
16.0
 40
16.0
 10
38.33977863624839
 20
-128.4937933706543
 10
38.33977863624839
 20
-128.5752698788805
 10
38.32151963017657
 20
-128.6808620555034
 10
38.25278997524583
 20
-128.7866264869006
 10
38.13376192623045
 20
-128.9671494903277
 10
37.99199624701242
 20
-128.9891981014333
 10
37.87537976483672
 20
-129.0091796552477
 10
37.87537976483672
 20
-129.0091796552477
 10
37.87537976483672
 20
-128.7776692386389
 10
37.87537976483672
 20
-128.7776692386389
 10
38.0903537231163
 20
-128.7204806535838
 10
38.12239311112913
 20
-128.5883612417244
 10
38.12239311112913
 20
-128.4915540585889
 10
38.12239311112913
 20
-128.3463432838856
 10
38.01490613198933
 20
-128.1876966367899
 10
37.76324190679183
 20
-128.1876966367899
 10
37.48642848455201
 20
-128.1876966367899
 10
37.41098089342503
 20
-128.3749375764132
 10
37.41098089342503
 20
-128.5003390520763
 10
37.41098089342503
 20
-128.5334119687347
 10
37.41098089342503
 20
-128.6808620555034
 10
37.55050726057765
 20
-128.7735351240566
 10
37.55050726057765
 20
-128.7735351240566
 10
37.52983668766615
 20
-128.9561251847749
 10
37.52983668766615
 20
-128.9561251847749
 10
37.52983668766615
 20
-128.9561251847749
 10
36.6148193267838
 20
-128.8307237091118
 10
36.6148193267838
 20
-128.8307237091118
 10
36.6148193267838
 20
-128.8307237091118
 10
36.6148193267838
 20
-128.020437250981
 10
36.6148193267838
 20
-128.020437250981
 10
36.6148193267838
 20
-128.020437250981
 10
36.82531466093256
 20
-128.020437250981
 10
36.82531466093256
 20
-128.020437250981
 10
36.82531466093256
 20
-128.020437250981
 10
36.82531466093256
 20
-128.6610527564632
 10
36.82531466093256
 20
-128.6610527564632
 10
36.82531466093256
 20
-128.6610527564632
 10
37.28282334137374
 20
-128.7292656470712
 10
37.28282334137374
 20
-128.7292656470712
 10
37.24613307445583
 20
-128.665531380594
 10
37.20272487134168
 20
-128.5795762482371
 10
37.20272487134168
 20
-128.4564140846394
 10
37.20272487134168
 20
-128.1921752609207
 10
37.40409070245453
 20
-127.9455064241768
 10
37.74257133388033
 20
-127.9455064241768
 10
38.08587509898548
 20
-127.9455064241768
 10
38.33977863624839
 20
-128.1789116433025
 10
38.33977863624839
 20
-128.4937933706543
 97
        0
 97
        0
 75
     2
 76
     1
 98
        0
  0
ENDBLK
  5
21B
330
218
100
AcDbEntity
  8
0
100
AcDbBlockEnd
  0
BLOCK
  5
238
330
236
100
AcDbEntity
  8
0
100
AcDbBlockBegin
  2
block 10
 70
     0
 10
0.0
 20
0.0
 30
0.0
  3
block 10
  1

  0
SPLINE
  5
23A
330
236
100
AcDbEntity
  8
_U+30EC_U+30A4_U+30E4_U+30FC 1
370
     0
100
AcDbSpline
210
0.0
220
0.0
230
1.0
 70
    11
 71
     3
 72
    53
 73
    49
 74
     0
 42
0.0000000001
 43
0.0000000001
 12
1.0
 22
0.0
 32
0.0
 13
1.0
 23
0.0
 33
0.0
 40
0.0
 40
0.0
 40
0.0
 40
0.0
 40
1.0
 40
1.0
 40
1.0
 40
2.0
 40
2.0
 40
2.0
 40
3.0
 40
3.0
 40
3.0
 40
4.0
 40
4.0
 40
4.0
 40
5.0
 40
5.0
 40
5.0
 40
6.0
 40
6.0
 40
6.0
 40
7.0
 40
7.0
 40
7.0
 40
8.0
 40
8.0
 40
8.0
 40
9.0
 40
9.0
 40
9.0
 40
10.0
 40
10.0
 40
10.0
 40
11.0
 40
11.0
 40
11.0
 40
12.0
 40
12.0
 40
12.0
 40
13.0
 40
13.0
 40
13.0
 40
14.0
 40
14.0
 40
14.0
 40
15.0
 40
15.0
 40
15.0
 40
16.0
 40
16.0
 40
16.0
 40
16.0
 10
47.3326836361703
 20
-131.3787163300026
 30
0.0
 10
47.25120712794414
 20
-131.3787163300026
 30
0.0
 10
47.14561495132124
 20
-131.3604573239307
 30
0.0
 10
47.03985051992407
 20
-131.2918999237743
 30
0.0
 10
46.85932751649698
 20
-131.1726996199846
 30
0.0
 10
46.83727890539138
 20
-131.0311061955408
 30
0.0
 10
46.81746960635119
 20
-130.9143174585909
 30
0.0
 10
46.81746960635119
 20
-130.9143174585909
 30
0.0
 10
47.04863551341145
 20
-130.9143174585909
 30
0.0
 10
47.04863551341145
 20
-130.9143174585909
 30
0.0
 10
47.10599635324086
 20
-131.1292914168705
 30
0.0
 10
47.2381157651002
 20
-131.1616753144318
 30
0.0
 10
47.33492294823571
 20
-131.1616753144318
 30
0.0
 10
47.48030597771326
 20
-131.1616753144318
 30
0.0
 10
47.63878037003475
 20
-131.054188335292
 30
0.0
 10
47.63878037003475
 20
-130.8023518553202
 30
0.0
 10
47.63878037003475
 20
-130.5257106878547
 30
0.0
 10
47.45153943041142
 20
-130.4499185871792
 30
0.0
 10
47.32613795474833
 20
-130.4499185871792
 30
0.0
 10
47.29306503808993
 20
-130.4499185871792
 30
0.0
 10
47.14561495132124
 20
-130.4499185871792
 30
0.0
 10
47.05311413754228
 20
-130.5897894638803
 30
0.0
 10
47.05311413754228
 20
-130.5897894638803
 30
0.0
 10
46.87035182204978
 20
-130.5691188909688
 30
0.0
 10
46.87035182204978
 20
-130.5691188909688
 30
0.0
 10
46.87035182204978
 20
-130.5691188909688
 30
0.0
 10
46.99592555248713
 20
-129.6541015300865
 30
0.0
 10
46.99592555248713
 20
-129.6541015300865
 30
0.0
 10
46.99592555248713
 20
-129.6541015300865
 30
0.0
 10
47.80603975584363
 20
-129.6541015300865
 30
0.0
 10
47.80603975584363
 20
-129.6541015300865
 30
0.0
 10
47.80603975584363
 20
-129.6541015300865
 30
0.0
 10
47.80603975584363
 20
-129.8642523546867
 30
0.0
 10
47.80603975584363
 20
-129.8642523546867
 30
0.0
 10
47.80603975584363
 20
-129.8642523546867
 30
0.0
 10
47.16542425036143
 20
-129.8642523546867
 30
0.0
 10
47.16542425036143
 20
-129.8642523546867
 30
0.0
 10
47.16542425036143
 20
-129.8642523546867
 30
0.0
 10
47.09721135975348
 20
-130.3217610351279
 30
0.0
 10
47.09721135975348
 20
-130.3217610351279
 30
0.0
 10
47.1609456262306
 20
-130.2852430229842
 30
0.0
 10
47.24690075858759
 20
-130.2418348198701
 30
0.0
 10
47.37006292218526
 20
-130.2418348198701
 30
0.0
 10
47.63430174590393
 20
-130.2418348198701
 30
0.0
 10
47.88097058264781
 20
-130.4430283962087
 30
0.0
 10
47.88097058264781
 20
-130.7816812824088
 30
0.0
 10
47.88097058264781
 20
-131.1251573022882
 30
0.0
 10
47.64756536352214
 20
-131.3787163300026
 30
0.0
 10
47.3326836361703
 20
-131.3787163300026
 30
0.0
  0
HATCH
  5
23B
330
236
100
AcDbEntity
  8
_U+30EC_U+30A4_U+30E4_U+30FC 1
 62
   179
420
  2234388
100
AcDbHatch
 10
0.0
 20
0.0
 30
0.0
210
0.0
220
0.0
230
1.0
  2
SOLID
 70
     1
 71
     0
 91
        1
 92
        1
 93
        1
 72
     4
 94
        3
 73
     0
 74
     1
 95
       53
 96
       49
 40
0.0
 40
0.0
 40
0.0
 40
0.0
 40
1.0
 40
1.0
 40
1.0
 40
2.0
 40
2.0
 40
2.0
 40
3.0
 40
3.0
 40
3.0
 40
4.0
 40
4.0
 40
4.0
 40
5.0
 40
5.0
 40
5.0
 40
6.0
 40
6.0
 40
6.0
 40
7.0
 40
7.0
 40
7.0
 40
8.0
 40
8.0
 40
8.0
 40
9.0
 40
9.0
 40
9.0
 40
10.0
 40
10.0
 40
10.0
 40
11.0
 40
11.0
 40
11.0
 40
12.0
 40
12.0
 40
12.0
 40
13.0
 40
13.0
 40
13.0
 40
14.0
 40
14.0
 40
14.0
 40
15.0
 40
15.0
 40
15.0
 40
16.0
 40
16.0
 40
16.0
 40
16.0
 10
47.3326836361703
 20
-131.3787163300026
 10
47.25120712794414
 20
-131.3787163300026
 10
47.14561495132124
 20
-131.3604573239307
 10
47.03985051992407
 20
-131.2918999237743
 10
46.85932751649698
 20
-131.1726996199846
 10
46.83727890539138
 20
-131.0311061955408
 10
46.81746960635119
 20
-130.9143174585909
 10
46.81746960635119
 20
-130.9143174585909
 10
47.04863551341145
 20
-130.9143174585909
 10
47.04863551341145
 20
-130.9143174585909
 10
47.10599635324086
 20
-131.1292914168705
 10
47.2381157651002
 20
-131.1616753144318
 10
47.33492294823571
 20
-131.1616753144318
 10
47.48030597771326
 20
-131.1616753144318
 10
47.63878037003475
 20
-131.054188335292
 10
47.63878037003475
 20
-130.8023518553202
 10
47.63878037003475
 20
-130.5257106878547
 10
47.45153943041142
 20
-130.4499185871792
 10
47.32613795474833
 20
-130.4499185871792
 10
47.29306503808993
 20
-130.4499185871792
 10
47.14561495132124
 20
-130.4499185871792
 10
47.05311413754228
 20
-130.5897894638803
 10
47.05311413754228
 20
-130.5897894638803
 10
46.87035182204978
 20
-130.5691188909688
 10
46.87035182204978
 20
-130.5691188909688
 10
46.87035182204978
 20
-130.5691188909688
 10
46.99592555248713
 20
-129.6541015300865
 10
46.99592555248713
 20
-129.6541015300865
 10
46.99592555248713
 20
-129.6541015300865
 10
47.80603975584363
 20
-129.6541015300865
 10
47.80603975584363
 20
-129.6541015300865
 10
47.80603975584363
 20
-129.6541015300865
 10
47.80603975584363
 20
-129.8642523546867
 10
47.80603975584363
 20
-129.8642523546867
 10
47.80603975584363
 20
-129.8642523546867
 10
47.16542425036143
 20
-129.8642523546867
 10
47.16542425036143
 20
-129.8642523546867
 10
47.16542425036143
 20
-129.8642523546867
 10
47.09721135975348
 20
-130.3217610351279
 10
47.09721135975348
 20
-130.3217610351279
 10
47.1609456262306
 20
-130.2852430229842
 10
47.24690075858759
 20
-130.2418348198701
 10
47.37006292218526
 20
-130.2418348198701
 10
47.63430174590393
 20
-130.2418348198701
 10
47.88097058264781
 20
-130.4430283962087
 10
47.88097058264781
 20
-130.7816812824088
 10
47.88097058264781
 20
-131.1251573022882
 10
47.64756536352214
 20
-131.3787163300026
 10
47.3326836361703
 20
-131.3787163300026
 97
        0
 97
        0
 75
     2
 76
     1
 98
        0
  0
ENDBLK
  5
239
330
236
100
AcDbEntity
  8
0
100
AcDbBlockEnd
  0
BLOCK
  5
23E
330
23C
100
AcDbEntity
  8
0
100
AcDbBlockBegin
  2
block 11
 70
     0
 10
0.0
 20
0.0
 30
0.0
  3
block 11
  1

  0
SPLINE
  5
240
330
23C
100
AcDbEntity
  8
_U+30EC_U+30A4_U+30E4_U+30FC 1
370
     0
100
AcDbSpline
210
0.0
220
0.0
230
1.0
 70
    11
 71
     3
 72
    26
 73
    22
 74
     0
 42
0.0000000001
 43
0.0000000001
 12
1.0
 22
0.0
 32
0.0
 13
1.0
 23
0.0
 33
0.0
 40
0.0
 40
0.0
 40
0.0
 40
0.0
 40
1.0
 40
1.0
 40
1.0
 40
2.0
 40
2.0
 40
2.0
 40
3.0
 40
3.0
 40
3.0
 40
4.0
 40
4.0
 40
4.0
 40
5.0
 40
5.0
 40
5.0
 40
6.0
 40
6.0
 40
6.0
 40
7.0
 40
7.0
 40
7.0
 40
7.0
 10
49.15944551722403
 20
-140.4965060412648
 30
0.0
 10
49.15944551722403
 20
-140.4965060412648
 30
0.0
 10
49.15944551722403
 20
-139.3020914365287
 30
0.0
 10
49.15944551722403
 20
-139.3020914365287
 30
0.0
 10
49.15944551722403
 20
-139.3020914365287
 30
0.0
 10
48.81596949734462
 20
-139.3020914365287
 30
0.0
 10
48.81596949734462
 20
-139.3020914365287
 30
0.0
 10
48.81596949734462
 20
-139.3020914365287
 30
0.0
 10
48.81596949734462
 20
-139.1418944964645
 30
0.0
 10
48.81596949734462
 20
-139.1418944964645
 30
0.0
 10
49.16168482928944
 20
-139.1260470572324
 30
0.0
 10
49.2100884208572
 20
-138.9496581683876
 30
0.0
 10
49.24092202545019
 20
-138.8263237500157
 30
0.0
 10
49.24092202545019
 20
-138.8263237500157
 30
0.0
 10
49.39285073634971
 20
-138.8263237500157
 30
0.0
 10
49.39285073634971
 20
-138.8263237500157
 30
0.0
 10
49.39285073634971
 20
-138.8263237500157
 30
0.0
 10
49.39285073634971
 20
-140.4965060412648
 30
0.0
 10
49.39285073634971
 20
-140.4965060412648
 30
0.0
 10
49.39285073634971
 20
-140.4965060412648
 30
0.0
 10
49.15944551722403
 20
-140.4965060412648
 30
0.0
 10
49.15944551722403
 20
-140.4965060412648
 30
0.0
  0
HATCH
  5
241
330
23C
100
AcDbEntity
  8
_U+30EC_U+30A4_U+30E4_U+30FC 1
 62
   179
420
  2234388
100
AcDbHatch
 10
0.0
 20
0.0
 30
0.0
210
0.0
220
0.0
230
1.0
  2
SOLID
 70
     1
 71
     0
 91
        1
 92
        1
 93
        1
 72
     4
 94
        3
 73
     0
 74
     1
 95
       26
 96
       22
 40
0.0
 40
0.0
 40
0.0
 40
0.0
 40
1.0
 40
1.0
 40
1.0
 40
2.0
 40
2.0
 40
2.0
 40
3.0
 40
3.0
 40
3.0
 40
4.0
 40
4.0
 40
4.0
 40
5.0
 40
5.0
 40
5.0
 40
6.0
 40
6.0
 40
6.0
 40
7.0
 40
7.0
 40
7.0
 40
7.0
 10
49.15944551722403
 20
-140.4965060412648
 10
49.15944551722403
 20
-140.4965060412648
 10
49.15944551722403
 20
-139.3020914365287
 10
49.15944551722403
 20
-139.3020914365287
 10
49.15944551722403
 20
-139.3020914365287
 10
48.81596949734462
 20
-139.3020914365287
 10
48.81596949734462
 20
-139.3020914365287
 10
48.81596949734462
 20
-139.3020914365287
 10
48.81596949734462
 20
-139.1418944964645
 10
48.81596949734462
 20
-139.1418944964645
 10
49.16168482928944
 20
-139.1260470572324
 10
49.2100884208572
 20
-138.9496581683876
 10
49.24092202545019
 20
-138.8263237500157
 10
49.24092202545019
 20
-138.8263237500157
 10
49.39285073634971
 20
-138.8263237500157
 10
49.39285073634971
 20
-138.8263237500157
 10
49.39285073634971
 20
-138.8263237500157
 10
49.39285073634971
 20
-140.4965060412648
 10
49.39285073634971
 20
-140.4965060412648
 10
49.39285073634971
 20
-140.4965060412648
 10
49.15944551722403
 20
-140.4965060412648
 10
49.15944551722403
 20
-140.4965060412648
 97
        0
 97
        0
 75
     2
 76
     1
 98
        0
  0
SPLINE
  5
242
330
23C
100
AcDbEntity
  8
_U+30EC_U+30A4_U+30E4_U+30FC 1
370
     0
100
AcDbSpline
210
0.0
220
0.0
230
1.0
 70
    11
 71
     3
 72
    26
 73
    22
 74
     0
 42
0.0000000001
 43
0.0000000001
 12
1.0
 22
0.0
 32
0.0
 13
1.0
 23
0.0
 33
0.0
 40
0.0
 40
0.0
 40
0.0
 40
0.0
 40
1.0
 40
1.0
 40
1.0
 40
2.0
 40
2.0
 40
2.0
 40
3.0
 40
3.0
 40
3.0
 40
4.0
 40
4.0
 40
4.0
 40
5.0
 40
5.0
 40
5.0
 40
6.0
 40
6.0
 40
6.0
 40
7.0
 40
7.0
 40
7.0
 40
7.0
 10
50.3834879431333
 20
-140.4965060412648
 30
0.0
 10
50.3834879431333
 20
-140.4965060412648
 30
0.0
 10
50.3834879431333
 20
-139.3020914365287
 30
0.0
 10
50.3834879431333
 20
-139.3020914365287
 30
0.0
 10
50.3834879431333
 20
-139.3020914365287
 30
0.0
 10
50.04001192325389
 20
-139.3020914365287
 30
0.0
 10
50.04001192325389
 20
-139.3020914365287
 30
0.0
 10
50.04001192325389
 20
-139.3020914365287
 30
0.0
 10
50.04001192325389
 20
-139.1418944964645
 30
0.0
 10
50.04001192325389
 20
-139.1418944964645
 30
0.0
 10
50.38572725519871
 20
-139.1260470572324
 30
0.0
 10
50.43413084676647
 20
-138.9496581683876
 30
0.0
 10
50.46496445135946
 20
-138.8263237500157
 30
0.0
 10
50.46496445135946
 20
-138.8263237500157
 30
0.0
 10
50.61689316225898
 20
-138.8263237500157
 30
0.0
 10
50.61689316225898
 20
-138.8263237500157
 30
0.0
 10
50.61689316225898
 20
-138.8263237500157
 30
0.0
 10
50.61689316225898
 20
-140.4965060412648
 30
0.0
 10
50.61689316225898
 20
-140.4965060412648
 30
0.0
 10
50.61689316225898
 20
-140.4965060412648
 30
0.0
 10
50.3834879431333
 20
-140.4965060412648
 30
0.0
 10
50.3834879431333
 20
-140.4965060412648
 30
0.0
  0
HATCH
  5
243
330
23C
100
AcDbEntity
  8
_U+30EC_U+30A4_U+30E4_U+30FC 1
 62
   179
420
  2234388
100
AcDbHatch
 10
0.0
 20
0.0
 30
0.0
210
0.0
220
0.0
230
1.0
  2
SOLID
 70
     1
 71
     0
 91
        1
 92
        1
 93
        1
 72
     4
 94
        3
 73
     0
 74
     1
 95
       26
 96
       22
 40
0.0
 40
0.0
 40
0.0
 40
0.0
 40
1.0
 40
1.0
 40
1.0
 40
2.0
 40
2.0
 40
2.0
 40
3.0
 40
3.0
 40
3.0
 40
4.0
 40
4.0
 40
4.0
 40
5.0
 40
5.0
 40
5.0
 40
6.0
 40
6.0
 40
6.0
 40
7.0
 40
7.0
 40
7.0
 40
7.0
 10
50.3834879431333
 20
-140.4965060412648
 10
50.3834879431333
 20
-140.4965060412648
 10
50.3834879431333
 20
-139.3020914365287
 10
50.3834879431333
 20
-139.3020914365287
 10
50.3834879431333
 20
-139.3020914365287
 10
50.04001192325389
 20
-139.3020914365287
 10
50.04001192325389
 20
-139.3020914365287
 10
50.04001192325389
 20
-139.3020914365287
 10
50.04001192325389
 20
-139.1418944964645
 10
50.04001192325389
 20
-139.1418944964645
 10
50.38572725519871
 20
-139.1260470572324
 10
50.43413084676647
 20
-138.9496581683876
 10
50.46496445135946
 20
-138.8263237500157
 10
50.46496445135946
 20
-138.8263237500157
 10
50.61689316225898
 20
-138.8263237500157
 10
50.61689316225898
 20
-138.8263237500157
 10
50.61689316225898
 20
-138.8263237500157
 10
50.61689316225898
 20
-140.4965060412648
 10
50.61689316225898
 20
-140.4965060412648
 10
50.61689316225898
 20
-140.4965060412648
 10
50.3834879431333
 20
-140.4965060412648
 10
50.3834879431333
 20
-140.4965060412648
 97
        0
 97
        0
 75
     2
 76
     1
 98
        0
  0
ENDBLK
  5
23F
330
23C
100
AcDbEntity
  8
0
100
AcDbBlockEnd
  0
BLOCK
  5
24E
330
24C
100
AcDbEntity
  8
0
100
AcDbBlockBegin
  2
block 12
 70
     0
 10
0.0
 20
0.0
 30
0.0
  3
block 12
  1

  0
SPLINE
  5
250
330
24C
100
AcDbEntity
  8
_U+30EC_U+30A4_U+30E4_U+30FC 1
370
     0
100
AcDbSpline
210
0.0
220
0.0
230
1.0
 70
    11
 71
     3
 72
    26
 73
    22
 74
     0
 42
0.0000000001
 43
0.0000000001
 12
1.0
 22
0.0
 32
0.0
 13
1.0
 23
0.0
 33
0.0
 40
0.0
 40
0.0
 40
0.0
 40
0.0
 40
1.0
 40
1.0
 40
1.0
 40
2.0
 40
2.0
 40
2.0
 40
3.0
 40
3.0
 40
3.0
 40
4.0
 40
4.0
 40
4.0
 40
5.0
 40
5.0
 40
5.0
 40
6.0
 40
6.0
 40
6.0
 40
7.0
 40
7.0
 40
7.0
 40
7.0
 10
133.6455891592969
 20
-137.2057508337541
 30
0.0
 10
133.6455891592969
 20
-137.2057508337541
 30
0.0
 10
133.6455891592969
 20
-136.0116807385665
 30
0.0
 10
133.6455891592969
 20
-136.0116807385665
 30
0.0
 10
133.6455891592969
 20
-136.0116807385665
 30
0.0
 10
133.3021131394175
 20
-136.0116807385665
 30
0.0
 10
133.3021131394175
 20
-136.0116807385665
 30
0.0
 10
133.3021131394175
 20
-136.0116807385665
 30
0.0
 10
133.3021131394175
 20
-135.8514837985024
 30
0.0
 10
133.3021131394175
 20
-135.8514837985024
 30
0.0
 10
133.6476562165881
 20
-135.8356363592703
 30
0.0
 10
133.6962320629301
 20
-135.659591979974
 30
0.0
 10
133.7268934127488
 20
-135.5359130520535
 30
0.0
 10
133.7268934127488
 20
-135.5359130520535
 30
0.0
 10
133.8788221236483
 20
-135.5359130520535
 30
0.0
 10
133.8788221236483
 20
-135.5359130520535
 30
0.0
 10
133.8788221236483
 20
-135.5359130520535
 30
0.0
 10
133.8788221236483
 20
-137.2057508337541
 30
0.0
 10
133.8788221236483
 20
-137.2057508337541
 30
0.0
 10
133.8788221236483
 20
-137.2057508337541
 30
0.0
 10
133.6455891592969
 20
-137.2057508337541
 30
0.0
 10
133.6455891592969
 20
-137.2057508337541
 30
0.0
  0
HATCH
  5
251
330
24C
100
AcDbEntity
  8
_U+30EC_U+30A4_U+30E4_U+30FC 1
 62
   179
420
  2234388
100
AcDbHatch
 10
0.0
 20
0.0
 30
0.0
210
0.0
220
0.0
230
1.0
  2
SOLID
 70
     1
 71
     0
 91
        1
 92
        1
 93
        1
 72
     4
 94
        3
 73
     0
 74
     1
 95
       26
 96
       22
 40
0.0
 40
0.0
 40
0.0
 40
0.0
 40
1.0
 40
1.0
 40
1.0
 40
2.0
 40
2.0
 40
2.0
 40
3.0
 40
3.0
 40
3.0
 40
4.0
 40
4.0
 40
4.0
 40
5.0
 40
5.0
 40
5.0
 40
6.0
 40
6.0
 40
6.0
 40
7.0
 40
7.0
 40
7.0
 40
7.0
 10
133.6455891592969
 20
-137.2057508337541
 10
133.6455891592969
 20
-137.2057508337541
 10
133.6455891592969
 20
-136.0116807385665
 10
133.6455891592969
 20
-136.0116807385665
 10
133.6455891592969
 20
-136.0116807385665
 10
133.3021131394175
 20
-136.0116807385665
 10
133.3021131394175
 20
-136.0116807385665
 10
133.3021131394175
 20
-136.0116807385665
 10
133.3021131394175
 20
-135.8514837985024
 10
133.3021131394175
 20
-135.8514837985024
 10
133.6476562165881
 20
-135.8356363592703
 10
133.6962320629301
 20
-135.659591979974
 10
133.7268934127488
 20
-135.5359130520535
 10
133.7268934127488
 20
-135.5359130520535
 10
133.8788221236483
 20
-135.5359130520535
 10
133.8788221236483
 20
-135.5359130520535
 10
133.8788221236483
 20
-135.5359130520535
 10
133.8788221236483
 20
-137.2057508337541
 10
133.8788221236483
 20
-137.2057508337541
 10
133.8788221236483
 20
-137.2057508337541
 10
133.6455891592969
 20
-137.2057508337541
 10
133.6455891592969
 20
-137.2057508337541
 97
        0
 97
        0
 75
     2
 76
     1
 98
        0
  0
SPLINE
  5
252
330
24C
100
AcDbEntity
  8
_U+30EC_U+30A4_U+30E4_U+30FC 1
370
     0
100
AcDbSpline
210
0.0
220
0.0
230
1.0
 70
    11
 71
     3
 72
    62
 73
    58
 74
     0
 42
0.0000000001
 43
0.0000000001
 12
1.0
 22
0.0
 32
0.0
 13
1.0
 23
0.0
 33
0.0
 40
0.0
 40
0.0
 40
0.0
 40
0.0
 40
1.0
 40
1.0
 40
1.0
 40
2.0
 40
2.0
 40
2.0
 40
3.0
 40
3.0
 40
3.0
 40
4.0
 40
4.0
 40
4.0
 40
5.0
 40
5.0
 40
5.0
 40
6.0
 40
6.0
 40
6.0
 40
7.0
 40
7.0
 40
7.0
 40
8.0
 40
8.0
 40
8.0
 40
9.0
 40
9.0
 40
9.0
 40
10.0
 40
10.0
 40
10.0
 40
11.0
 40
11.0
 40
11.0
 40
12.0
 40
12.0
 40
12.0
 40
13.0
 40
13.0
 40
13.0
 40
14.0
 40
14.0
 40
14.0
 40
15.0
 40
15.0
 40
15.0
 40
16.0
 40
16.0
 40
16.0
 40
17.0
 40
17.0
 40
17.0
 40
18.0
 40
18.0
 40
18.0
 40
19.0
 40
19.0
 40
19.0
 40
19.0
 10
134.9113172405777
 20
-137.2608723615181
 30
0.0
 10
134.8120984906026
 20
-137.2608723615181
 30
0.0
 10
134.5854112076731
 20
-137.2381347313155
 30
0.0
 10
134.4555311078792
 20
-137.0365966454283
 30
0.0
 10
134.3787054785581
 20
-136.9153292843476
 30
0.0
 10
134.3742268544273
 20
-136.8078423052078
 30
0.0
 10
134.3697482302965
 20
-136.7165472748486
 30
0.0
 10
134.3697482302965
 20
-136.7165472748486
 30
0.0
 10
134.5988470800656
 20
-136.7165472748486
 30
0.0
 10
134.5988470800656
 20
-136.7165472748486
 30
0.0
 10
134.6009141373567
 20
-136.7964734901065
 30
0.0
 10
134.6119384429095
 20
-137.0503770273694
 30
0.0
 10
134.9068386164469
 20
-137.0503770273694
 30
0.0
 10
135.0501545886333
 20
-137.0503770273694
 30
0.0
 10
135.2086289809548
 20
-136.9749294362424
 30
0.0
 10
135.2086289809548
 20
-136.7275715804014
 30
0.0
 10
135.2086289809548
 20
-136.6021701047383
 30
0.0
 10
135.1690103828744
 20
-136.5491156342655
 30
0.0
 10
135.135937466216
 20
-136.5150091889615
 30
0.0
 10
135.0587673273464
 20
-136.4347384641552
 30
0.0
 10
134.9378444758142
 20
-136.4213025917627
 30
0.0
 10
134.880655890759
 20
-136.4213025917627
 30
0.0
 10
134.8606743369446
 20
-136.4213025917627
 30
0.0
 10
134.8231227961553
 20
-136.4237141586024
 30
0.0
 10
134.7945285036278
 20
-136.4278482731847
 30
0.0
 10
134.7945285036278
 20
-136.4278482731847
 30
0.0
 10
134.7945285036278
 20
-136.2176974485845
 30
0.0
 10
134.7945285036278
 20
-136.2176974485845
 30
0.0
 10
134.8341471017081
 20
-136.224587639555
 30
0.0
 10
134.8782443239193
 20
-136.2266546968461
 30
0.0
 10
134.8847900053413
 20
-136.2266546968461
 30
0.0
 10
134.9530028959493
 20
-136.2266546968461
 30
0.0
 10
135.1600531346128
 20
-136.2039170666435
 30
0.0
 10
135.1600531346128
 20
-135.9476019625409
 30
0.0
 10
135.1600531346128
 20
-135.7553656344639
 30
0.0
 10
135.0236273533969
 20
-135.6961099921176
 30
0.0
 10
134.9092501832866
 20
-135.6961099921176
 30
0.0
 10
134.6339870540151
 20
-135.6961099921176
 30
0.0
 10
134.6250298057535
 20
-135.9476019625409
 30
0.0
 10
134.6205511816227
 20
-136.0254611205075
 30
0.0
 10
134.6205511816227
 20
-136.0254611205075
 30
0.0
 10
134.4093668283768
 20
-136.0254611205075
 30
0.0
 10
134.4093668283768
 20
-136.0254611205075
 30
0.0
 10
134.4183240766385
 20
-135.8904133774857
 30
0.0
 10
134.446918369166
 20
-135.4832030911292
 30
0.0
 10
134.9223415461305
 20
-135.4832030911292
 30
0.0
 10
135.155574510482
 20
-135.4832030911292
 30
0.0
 10
135.4067219713567
 20
-135.6203178914421
 30
0.0
 10
135.4067219713567
 20
-135.9407117715704
 30
0.0
 10
135.4067219713567
 20
-136.141905347909
 30
0.0
 10
135.3075032213815
 20
-136.2314778305255
 30
0.0
 10
135.204150356824
 20
-136.2976236638423
 30
0.0
 10
135.2678846233011
 20
-136.3272514850154
 30
0.0
 10
135.4573648749898
 20
-136.4144124007922
 30
0.0
 10
135.4573648749898
 20
-136.714135708009
 30
0.0
 10
135.4573648749898
 20
-137.080349358091
 30
0.0
 10
135.1996717326931
 20
-137.2608723615181
 30
0.0
 10
134.9113172405777
 20
-137.2608723615181
 30
0.0
  0
HATCH
  5
253
330
24C
100
AcDbEntity
  8
_U+30EC_U+30A4_U+30E4_U+30FC 1
 62
   179
420
  2234388
100
AcDbHatch
 10
0.0
 20
0.0
 30
0.0
210
0.0
220
0.0
230
1.0
  2
SOLID
 70
     1
 71
     0
 91
        1
 92
        1
 93
        1
 72
     4
 94
        3
 73
     0
 74
     1
 95
       62
 96
       58
 40
0.0
 40
0.0
 40
0.0
 40
0.0
 40
1.0
 40
1.0
 40
1.0
 40
2.0
 40
2.0
 40
2.0
 40
3.0
 40
3.0
 40
3.0
 40
4.0
 40
4.0
 40
4.0
 40
5.0
 40
5.0
 40
5.0
 40
6.0
 40
6.0
 40
6.0
 40
7.0
 40
7.0
 40
7.0
 40
8.0
 40
8.0
 40
8.0
 40
9.0
 40
9.0
 40
9.0
 40
10.0
 40
10.0
 40
10.0
 40
11.0
 40
11.0
 40
11.0
 40
12.0
 40
12.0
 40
12.0
 40
13.0
 40
13.0
 40
13.0
 40
14.0
 40
14.0
 40
14.0
 40
15.0
 40
15.0
 40
15.0
 40
16.0
 40
16.0
 40
16.0
 40
17.0
 40
17.0
 40
17.0
 40
18.0
 40
18.0
 40
18.0
 40
19.0
 40
19.0
 40
19.0
 40
19.0
 10
134.9113172405777
 20
-137.2608723615181
 10
134.8120984906026
 20
-137.2608723615181
 10
134.5854112076731
 20
-137.2381347313155
 10
134.4555311078792
 20
-137.0365966454283
 10
134.3787054785581
 20
-136.9153292843476
 10
134.3742268544273
 20
-136.8078423052078
 10
134.3697482302965
 20
-136.7165472748486
 10
134.3697482302965
 20
-136.7165472748486
 10
134.5988470800656
 20
-136.7165472748486
 10
134.5988470800656
 20
-136.7165472748486
 10
134.6009141373567
 20
-136.7964734901065
 10
134.6119384429095
 20
-137.0503770273694
 10
134.9068386164469
 20
-137.0503770273694
 10
135.0501545886333
 20
-137.0503770273694
 10
135.2086289809548
 20
-136.9749294362424
 10
135.2086289809548
 20
-136.7275715804014
 10
135.2086289809548
 20
-136.6021701047383
 10
135.1690103828744
 20
-136.5491156342655
 10
135.135937466216
 20
-136.5150091889615
 10
135.0587673273464
 20
-136.4347384641552
 10
134.9378444758142
 20
-136.4213025917627
 10
134.880655890759
 20
-136.4213025917627
 10
134.8606743369446
 20
-136.4213025917627
 10
134.8231227961553
 20
-136.4237141586024
 10
134.7945285036278
 20
-136.4278482731847
 10
134.7945285036278
 20
-136.4278482731847
 10
134.7945285036278
 20
-136.2176974485845
 10
134.7945285036278
 20
-136.2176974485845
 10
134.8341471017081
 20
-136.224587639555
 10
134.8782443239193
 20
-136.2266546968461
 10
134.8847900053413
 20
-136.2266546968461
 10
134.9530028959493
 20
-136.2266546968461
 10
135.1600531346128
 20
-136.2039170666435
 10
135.1600531346128
 20
-135.9476019625409
 10
135.1600531346128
 20
-135.7553656344639
 10
135.0236273533969
 20
-135.6961099921176
 10
134.9092501832866
 20
-135.6961099921176
 10
134.6339870540151
 20
-135.6961099921176
 10
134.6250298057535
 20
-135.9476019625409
 10
134.6205511816227
 20
-136.0254611205075
 10
134.6205511816227
 20
-136.0254611205075
 10
134.4093668283768
 20
-136.0254611205075
 10
134.4093668283768
 20
-136.0254611205075
 10
134.4183240766385
 20
-135.8904133774857
 10
134.446918369166
 20
-135.4832030911292
 10
134.9223415461305
 20
-135.4832030911292
 10
135.155574510482
 20
-135.4832030911292
 10
135.4067219713567
 20
-135.6203178914421
 10
135.4067219713567
 20
-135.9407117715704
 10
135.4067219713567
 20
-136.141905347909
 10
135.3075032213815
 20
-136.2314778305255
 10
135.204150356824
 20
-136.2976236638423
 10
135.2678846233011
 20
-136.3272514850154
 10
135.4573648749898
 20
-136.4144124007922
 10
135.4573648749898
 20
-136.714135708009
 10
135.4573648749898
 20
-137.080349358091
 10
135.1996717326931
 20
-137.2608723615181
 10
134.9113172405777
 20
-137.2608723615181
 97
        0
 97
        0
 75
     2
 76
     1
 98
        0
  0
ENDBLK
  5
24F
330
24C
100
AcDbEntity
  8
0
100
AcDbBlockEnd
  0
BLOCK
  5
262
330
260
100
AcDbEntity
  8
0
100
AcDbBlockBegin
  2
block 13
 70
     0
 10
0.0
 20
0.0
 30
0.0
  3
block 13
  1

  0
SPLINE
  5
264
330
260
100
AcDbEntity
  8
_U+30EC_U+30A4_U+30E4_U+30FC 1
370
     0
100
AcDbSpline
210
0.0
220
0.0
230
1.0
 70
    11
 71
     3
 72
    29
 73
    25
 74
     0
 42
0.0000000001
 43
0.0000000001
 12
1.0
 22
0.0
 32
0.0
 13
1.0
 23
0.0
 33
0.0
 40
0.0
 40
0.0
 40
0.0
 40
0.0
 40
1.0
 40
1.0
 40
1.0
 40
2.0
 40
2.0
 40
2.0
 40
3.0
 40
3.0
 40
3.0
 40
4.0
 40
4.0
 40
4.0
 40
5.0
 40
5.0
 40
5.0
 40
6.0
 40
6.0
 40
6.0
 40
7.0
 40
7.0
 40
7.0
 40
8.0
 40
8.0
 40
8.0
 40
8.0
 10
141.7949625296554
 20
-132.0456868159469
 30
0.0
 10
141.7949625296554
 20
-132.3230170025095
 30
0.0
 10
141.6464789142412
 20
-132.5872558262282
 30
0.0
 10
141.2688964490578
 20
-132.5872558262282
 30
0.0
 10
140.9922552815922
 20
-132.5872558262282
 30
0.0
 10
140.8892469265832
 20
-132.4398057394595
 30
0.0
 10
140.8227565837179
 20
-132.3295626839315
 30
0.0
 10
140.7586778076923
 20
-132.459787293274
 30
0.0
 10
140.6353433893203
 20
-132.5390244894347
 30
0.0
 10
140.4613660673152
 20
-132.5390244894347
 30
0.0
 10
140.1640543269382
 20
-132.5390244894347
 30
0.0
 10
140.017637768815
 20
-132.3316297412227
 30
0.0
 10
140.017637768815
 20
-132.0456868159469
 30
0.0
 10
140.017637768815
 20
-131.7507866424095
 30
0.0
 10
140.1730115751998
 20
-131.5523491424591
 30
0.0
 10
140.4613660673152
 20
-131.5523491424591
 30
0.0
 10
140.6353433893203
 20
-131.5523491424591
 30
0.0
 10
140.7586778076923
 20
-131.6339979054596
 30
0.0
 10
140.8227565837179
 20
-131.7638780052535
 30
0.0
 10
140.8775336019334
 20
-131.6715494462488
 30
0.0
 10
140.9805419569424
 20
-131.5061848629568
 30
0.0
 10
141.264417824927
 20
-131.5061848629568
 30
0.0
 10
141.6692165444438
 20
-131.5061848629568
 30
0.0
 10
141.7949625296554
 20
-131.7969509219119
 30
0.0
 10
141.7949625296554
 20
-132.0456868159469
 30
0.0
  0
SPLINE
  5
265
330
260
100
AcDbEntity
  8
_U+30EC_U+30A4_U+30E4_U+30FC 1
370
     0
100
AcDbSpline
210
0.0
220
0.0
230
1.0
 70
    11
 71
     3
 72
    17
 73
    13
 74
     0
 42
0.0000000001
 43
0.0000000001
 12
1.0
 22
0.0
 32
0.0
 13
1.0
 23
0.0
 33
0.0
 40
0.0
 40
0.0
 40
0.0
 40
0.0
 40
1.0
 40
1.0
 40
1.0
 40
2.0
 40
2.0
 40
2.0
 40
3.0
 40
3.0
 40
3.0
 40
4.0
 40
4.0
 40
4.0
 40
4.0
 10
140.2257215361241
 20
-132.0456868159469
 30
0.0
 10
140.2257215361241
 20
-132.2172525711124
 30
0.0
 10
140.3287298911331
 20
-132.3054470155348
 30
0.0
 10
140.4751464492562
 20
-132.3054470155348
 30
0.0
 10
140.6077826254383
 20
-132.3054470155348
 30
0.0
 10
140.7359401774896
 20
-132.2303439339563
 30
0.0
 10
140.7359401774896
 20
-132.0456868159469
 30
0.0
 10
140.7359401774896
 20
-131.860685188389
 30
0.0
 10
140.6077826254383
 20
-131.7859266163591
 30
0.0
 10
140.4751464492562
 20
-131.7859266163591
 30
0.0
 10
140.3287298911331
 20
-131.7859266163591
 30
0.0
 10
140.2257215361241
 20
-131.8761881180726
 30
0.0
 10
140.2257215361241
 20
-132.0456868159469
 30
0.0
  0
SPLINE
  5
266
330
260
100
AcDbEntity
  8
_U+30EC_U+30A4_U+30E4_U+30FC 1
370
     0
100
AcDbSpline
210
0.0
220
0.0
230
1.0
 70
    11
 71
     3
 72
    17
 73
    13
 74
     0
 42
0.0000000001
 43
0.0000000001
 12
1.0
 22
0.0
 32
0.0
 13
1.0
 23
0.0
 33
0.0
 40
0.0
 40
0.0
 40
0.0
 40
0.0
 40
1.0
 40
1.0
 40
1.0
 40
2.0
 40
2.0
 40
2.0
 40
3.0
 40
3.0
 40
3.0
 40
4.0
 40
4.0
 40
4.0
 40
4.0
 10
140.9395453206679
 20
-132.0456868159469
 30
0.0
 10
140.9395453206679
 20
-132.1952039600068
 30
0.0
 10
141.0332519178667
 20
-132.3536783523282
 30
0.0
 10
141.2530490098256
 20
-132.3536783523282
 30
0.0
 10
141.4749131590757
 20
-132.3536783523282
 30
0.0
 10
141.5844671955067
 20
-132.2217311952432
 30
0.0
 10
141.5844671955067
 20
-132.0456868159469
 30
0.0
 10
141.5844671955067
 20
-131.8520724496759
 30
0.0
 10
141.4518310193245
 20
-131.7373507700171
 30
0.0
 10
141.2595946912476
 20
-131.7373507700171
 30
0.0
 10
141.0194715359257
 20
-131.7373507700171
 30
0.0
 10
140.9395453206679
 20
-131.9071939774399
 30
0.0
 10
140.9395453206679
 20
-132.0456868159469
 30
0.0
  0
HATCH
  5
267
330
260
100
AcDbEntity
  8
_U+30EC_U+30A4_U+30E4_U+30FC 1
 62
   179
420
  2234388
100
AcDbHatch
 10
0.0
 20
0.0
 30
0.0
210
0.0
220
0.0
230
1.0
  2
SOLID
 70
     1
 71
     0
 91
        3
 92
        1
 93
        1
 72
     4
 94
        3
 73
     0
 74
     1
 95
       29
 96
       25
 40
0.0
 40
0.0
 40
0.0
 40
0.0
 40
1.0
 40
1.0
 40
1.0
 40
2.0
 40
2.0
 40
2.0
 40
3.0
 40
3.0
 40
3.0
 40
4.0
 40
4.0
 40
4.0
 40
5.0
 40
5.0
 40
5.0
 40
6.0
 40
6.0
 40
6.0
 40
7.0
 40
7.0
 40
7.0
 40
8.0
 40
8.0
 40
8.0
 40
8.0
 10
141.7949625296554
 20
-132.0456868159469
 10
141.7949625296554
 20
-132.3230170025095
 10
141.6464789142412
 20
-132.5872558262282
 10
141.2688964490578
 20
-132.5872558262282
 10
140.9922552815922
 20
-132.5872558262282
 10
140.8892469265832
 20
-132.4398057394595
 10
140.8227565837179
 20
-132.3295626839315
 10
140.7586778076923
 20
-132.459787293274
 10
140.6353433893203
 20
-132.5390244894347
 10
140.4613660673152
 20
-132.5390244894347
 10
140.1640543269382
 20
-132.5390244894347
 10
140.017637768815
 20
-132.3316297412227
 10
140.017637768815
 20
-132.0456868159469
 10
140.017637768815
 20
-131.7507866424095
 10
140.1730115751998
 20
-131.5523491424591
 10
140.4613660673152
 20
-131.5523491424591
 10
140.6353433893203
 20
-131.5523491424591
 10
140.7586778076923
 20
-131.6339979054596
 10
140.8227565837179
 20
-131.7638780052535
 10
140.8775336019334
 20
-131.6715494462488
 10
140.9805419569424
 20
-131.5061848629568
 10
141.264417824927
 20
-131.5061848629568
 10
141.6692165444438
 20
-131.5061848629568
 10
141.7949625296554
 20
-131.7969509219119
 10
141.7949625296554
 20
-132.0456868159469
 97
        0
 97
        0
 92
        1
 93
        1
 72
     4
 94
        3
 73
     0
 74
     1
 95
       17
 96
       13
 40
0.0
 40
0.0
 40
0.0
 40
0.0
 40
1.0
 40
1.0
 40
1.0
 40
2.0
 40
2.0
 40
2.0
 40
3.0
 40
3.0
 40
3.0
 40
4.0
 40
4.0
 40
4.0
 40
4.0
 10
140.2257215361241
 20
-132.0456868159469
 10
140.2257215361241
 20
-132.2172525711124
 10
140.3287298911331
 20
-132.3054470155348
 10
140.4751464492562
 20
-132.3054470155348
 10
140.6077826254383
 20
-132.3054470155348
 10
140.7359401774896
 20
-132.2303439339563
 10
140.7359401774896
 20
-132.0456868159469
 10
140.7359401774896
 20
-131.860685188389
 10
140.6077826254383
 20
-131.7859266163591
 10
140.4751464492562
 20
-131.7859266163591
 10
140.3287298911331
 20
-131.7859266163591
 10
140.2257215361241
 20
-131.8761881180726
 10
140.2257215361241
 20
-132.0456868159469
 97
        0
 97
        0
 92
        1
 93
        1
 72
     4
 94
        3
 73
     0
 74
     1
 95
       17
 96
       13
 40
0.0
 40
0.0
 40
0.0
 40
0.0
 40
1.0
 40
1.0
 40
1.0
 40
2.0
 40
2.0
 40
2.0
 40
3.0
 40
3.0
 40
3.0
 40
4.0
 40
4.0
 40
4.0
 40
4.0
 10
140.9395453206679
 20
-132.0456868159469
 10
140.9395453206679
 20
-132.1952039600068
 10
141.0332519178667
 20
-132.3536783523282
 10
141.2530490098256
 20
-132.3536783523282
 10
141.4749131590757
 20
-132.3536783523282
 10
141.5844671955067
 20
-132.2217311952432
 10
141.5844671955067
 20
-132.0456868159469
 10
141.5844671955067
 20
-131.8520724496759
 10
141.4518310193245
 20
-131.7373507700171
 10
141.2595946912476
 20
-131.7373507700171
 10
141.0194715359257
 20
-131.7373507700171
 10
140.9395453206679
 20
-131.9071939774399
 10
140.9395453206679
 20
-132.0456868159469
 97
        0
 97
        0
 75
     2
 76
     1
 98
        0
  0
ENDBLK
  5
263
330
260
100
AcDbEntity
  8
0
100
AcDbBlockEnd
  0
BLOCK
  5
276
330
274
100
AcDbEntity
  8
0
100
AcDbBlockBegin
  2
block 14
 70
     0
 10
0.0
 20
0.0
 30
0.0
  3
block 14
  1

  0
POLYLINE
  5
278
330
274
100
AcDbEntity
  8
_U+30EC_U+30A4_U+30E4_U+30FC 1
370
     0
100
AcDb2dPolyline
 66
     1
 10
0.0
 20
0.0
 30
0.0
  0
VERTEX
  5
279
330
278
100
AcDbEntity
  8
_U+30EC_U+30A4_U+30E4_U+30FC 1
370
     0
100
AcDbVertex
100
AcDb2dVertex
 10
141.3650146130963
 20
-127.1999877611688
 30
0.0
  0
VERTEX
  5
27A
330
278
100
AcDbEntity
  8
_U+30EC_U+30A4_U+30E4_U+30FC 1
370
     0
100
AcDbVertex
100
AcDb2dVertex
 10
141.74018551144
 20
-127.1999877611688
 30
0.0
  0
VERTEX
  5
27B
330
278
100
AcDbEntity
  8
_U+30EC_U+30A4_U+30E4_U+30FC 1
370
     0
100
AcDbVertex
100
AcDb2dVertex
 10
141.74018551144
 20
-127.4268472988725
 30
0.0
  0
VERTEX
  5
27C
330
278
100
AcDbEntity
  8
_U+30EC_U+30A4_U+30E4_U+30FC 1
370
     0
100
AcDbVertex
100
AcDb2dVertex
 10
141.3650146130963
 20
-127.4268472988725
 30
0.0
  0
VERTEX
  5
27D
330
278
100
AcDbEntity
  8
_U+30EC_U+30A4_U+30E4_U+30FC 1
370
     0
100
AcDbVertex
100
AcDb2dVertex
 10
141.3650146130963
 20
-128.1093207145005
 30
0.0
  0
VERTEX
  5
27E
330
278
100
AcDbEntity
  8
_U+30EC_U+30A4_U+30E4_U+30FC 1
370
     0
100
AcDbVertex
100
AcDb2dVertex
 10
141.1224798909347
 20
-128.1093207145005
 30
0.0
  0
VERTEX
  5
27F
330
278
100
AcDbEntity
  8
_U+30EC_U+30A4_U+30E4_U+30FC 1
370
     0
100
AcDbVertex
100
AcDb2dVertex
 10
140.0700032201908
 20
-127.4025593757014
 30
0.0
  0
VERTEX
  5
280
330
278
100
AcDbEntity
  8
_U+30EC_U+30A4_U+30E4_U+30FC 1
370
     0
100
AcDbVertex
100
AcDb2dVertex
 10
140.0700032201908
 20
-127.1999877611688
 30
0.0
  0
VERTEX
  5
281
330
278
100
AcDbEntity
  8
_U+30EC_U+30A4_U+30E4_U+30FC 1
370
     0
100
AcDbVertex
100
AcDb2dVertex
 10
141.1500406548166
 20
-127.1999877611688
 30
0.0
  0
VERTEX
  5
282
330
278
100
AcDbEntity
  8
_U+30EC_U+30A4_U+30E4_U+30FC 1
370
     0
100
AcDbVertex
100
AcDb2dVertex
 10
141.1500406548166
 20
-126.9843247837921
 30
0.0
  0
VERTEX
  5
283
330
278
100
AcDbEntity
  8
_U+30EC_U+30A4_U+30E4_U+30FC 1
370
     0
100
AcDbVertex
100
AcDb2dVertex
 10
141.3650146130963
 20
-126.9843247837921
 30
0.0
  0
VERTEX
  5
284
330
278
100
AcDbEntity
  8
_U+30EC_U+30A4_U+30E4_U+30FC 1
370
     0
100
AcDbVertex
100
AcDb2dVertex
 10
141.3650146130963
 20
-127.1999877611688
 30
0.0
  0
SEQEND
  5
285
330
278
100
AcDbEntity
  8
_U+30EC_U+30A4_U+30E4_U+30FC 1
370
     0
  0
POLYLINE
  5
286
330
274
100
AcDbEntity
  8
_U+30EC_U+30A4_U+30E4_U+30FC 1
370
     0
100
AcDb2dPolyline
 66
     1
 10
0.0
 20
0.0
 30
0.0
  0
VERTEX
  5
287
330
286
100
AcDbEntity
  8
_U+30EC_U+30A4_U+30E4_U+30FC 1
370
     0
100
AcDbVertex
100
AcDb2dVertex
 10
140.4406954944037
 20
-127.4268472988725
 30
0.0
  0
VERTEX
  5
288
330
286
100
AcDbEntity
  8
_U+30EC_U+30A4_U+30E4_U+30FC 1
370
     0
100
AcDbVertex
100
AcDb2dVertex
 10
141.1500406548166
 20
-127.9022704758369
 30
0.0
  0
VERTEX
  5
289
330
286
100
AcDbEntity
  8
_U+30EC_U+30A4_U+30E4_U+30FC 1
370
     0
100
AcDbVertex
100
AcDb2dVertex
 10
141.1500406548166
 20
-127.4268472988725
 30
0.0
  0
VERTEX
  5
28A
330
286
100
AcDbEntity
  8
_U+30EC_U+30A4_U+30E4_U+30FC 1
370
     0
100
AcDbVertex
100
AcDb2dVertex
 10
140.4406954944037
 20
-127.4268472988725
 30
0.0
  0
SEQEND
  5
28B
330
286
100
AcDbEntity
  8
_U+30EC_U+30A4_U+30E4_U+30FC 1
370
     0
  0
HATCH
  5
28C
330
274
100
AcDbEntity
  8
_U+30EC_U+30A4_U+30E4_U+30FC 1
 62
   179
420
  2234388
100
AcDbHatch
 10
0.0
 20
0.0
 30
0.0
210
0.0
220
0.0
230
1.0
  2
SOLID
 70
     1
 71
     0
 91
        2
 92
        1
 93
       11
 72
     1
 10
141.3650146130963
 20
-127.1999877611688
 11
141.74018551144
 21
-127.1999877611688
 72
     1
 10
141.74018551144
 20
-127.1999877611688
 11
141.74018551144
 21
-127.4268472988725
 72
     1
 10
141.74018551144
 20
-127.4268472988725
 11
141.3650146130963
 21
-127.4268472988725
 72
     1
 10
141.3650146130963
 20
-127.4268472988725
 11
141.3650146130963
 21
-128.1093207145005
 72
     1
 10
141.3650146130963
 20
-128.1093207145005
 11
141.1224798909347
 21
-128.1093207145005
 72
     1
 10
141.1224798909347
 20
-128.1093207145005
 11
140.0700032201908
 21
-127.4025593757014
 72
     1
 10
140.0700032201908
 20
-127.4025593757014
 11
140.0700032201908
 21
-127.1999877611688
 72
     1
 10
140.0700032201908
 20
-127.1999877611688
 11
141.1500406548166
 21
-127.1999877611688
 72
     1
 10
141.1500406548166
 20
-127.1999877611688
 11
141.1500406548166
 21
-126.9843247837921
 72
     1
 10
141.1500406548166
 20
-126.9843247837921
 11
141.3650146130963
 21
-126.9843247837921
 72
     1
 10
141.3650146130963
 20
-126.9843247837921
 11
141.3650146130963
 21
-127.1999877611688
 97
        0
 92
        1
 93
        3
 72
     1
 10
140.4406954944037
 20
-127.4268472988725
 11
141.1500406548166
 21
-127.9022704758369
 72
     1
 10
141.1500406548166
 20
-127.9022704758369
 11
141.1500406548166
 21
-127.4268472988725
 72
     1
 10
141.1500406548166
 20
-127.4268472988725
 11
140.4406954944037
 21
-127.4268472988725
 97
        0
 75
     2
 76
     1
 98
        0
  0
ENDBLK
  5
277
330
274
100
AcDbEntity
  8
0
100
AcDbBlockEnd
  0
BLOCK
  5
29B
330
299
100
AcDbEntity
  8
0
100
AcDbBlockBegin
  2
block 15
 70
     0
 10
0.0
 20
0.0
 30
0.0
  3
block 15
  1

  0
SPLINE
  5
29D
330
299
100
AcDbEntity
  8
_U+30EC_U+30A4_U+30E4_U+30FC 1
370
     0
100
AcDbSpline
210
0.0
220
0.0
230
1.0
 70
    11
 71
     3
 72
    26
 73
    22
 74
     0
 42
0.0000000001
 43
0.0000000001
 12
1.0
 22
0.0
 32
0.0
 13
1.0
 23
0.0
 33
0.0
 40
0.0
 40
0.0
 40
0.0
 40
0.0
 40
1.0
 40
1.0
 40
1.0
 40
2.0
 40
2.0
 40
2.0
 40
3.0
 40
3.0
 40
3.0
 40
4.0
 40
4.0
 40
4.0
 40
5.0
 40
5.0
 40
5.0
 40
6.0
 40
6.0
 40
6.0
 40
7.0
 40
7.0
 40
7.0
 40
7.0
 10
144.9165635488403
 20
-131.2085286130312
 30
0.0
 10
144.9165635488403
 20
-131.2085286130312
 30
0.0
 10
143.7224934536527
 20
-131.2085286130312
 30
0.0
 10
143.7224934536527
 20
-131.2085286130312
 30
0.0
 10
143.7224934536527
 20
-131.2085286130312
 30
0.0
 10
143.7224934536527
 20
-131.5516601233621
 30
0.0
 10
143.7224934536527
 20
-131.5516601233621
 30
0.0
 10
143.7224934536527
 20
-131.5516601233621
 30
0.0
 10
143.5622965135886
 20
-131.5516601233621
 30
0.0
 10
143.5622965135886
 20
-131.5516601233621
 30
0.0
 10
143.5461045648079
 20
-131.2061170461915
 30
0.0
 10
143.3700601855116
 20
-131.1575411998495
 30
0.0
 10
143.2463812575912
 20
-131.1268798500308
 30
0.0
 10
143.2463812575912
 20
-131.1268798500308
 30
0.0
 10
143.2463812575912
 20
-130.9749511391313
 30
0.0
 10
143.2463812575912
 20
-130.9749511391313
 30
0.0
 10
143.2463812575912
 20
-130.9749511391313
 30
0.0
 10
144.9165635488403
 20
-130.9749511391313
 30
0.0
 10
144.9165635488403
 20
-130.9749511391313
 30
0.0
 10
144.9165635488403
 20
-130.9749511391313
 30
0.0
 10
144.9165635488403
 20
-131.2085286130312
 30
0.0
 10
144.9165635488403
 20
-131.2085286130312
 30
0.0
  0
HATCH
  5
29E
330
299
100
AcDbEntity
  8
_U+30EC_U+30A4_U+30E4_U+30FC 1
 62
   179
420
  2234388
100
AcDbHatch
 10
0.0
 20
0.0
 30
0.0
210
0.0
220
0.0
230
1.0
  2
SOLID
 70
     1
 71
     0
 91
        1
 92
        1
 93
        1
 72
     4
 94
        3
 73
     0
 74
     1
 95
       26
 96
       22
 40
0.0
 40
0.0
 40
0.0
 40
0.0
 40
1.0
 40
1.0
 40
1.0
 40
2.0
 40
2.0
 40
2.0
 40
3.0
 40
3.0
 40
3.0
 40
4.0
 40
4.0
 40
4.0
 40
5.0
 40
5.0
 40
5.0
 40
6.0
 40
6.0
 40
6.0
 40
7.0
 40
7.0
 40
7.0
 40
7.0
 10
144.9165635488403
 20
-131.2085286130312
 10
144.9165635488403
 20
-131.2085286130312
 10
143.7224934536527
 20
-131.2085286130312
 10
143.7224934536527
 20
-131.2085286130312
 10
143.7224934536527
 20
-131.2085286130312
 10
143.7224934536527
 20
-131.5516601233621
 10
143.7224934536527
 20
-131.5516601233621
 10
143.7224934536527
 20
-131.5516601233621
 10
143.5622965135886
 20
-131.5516601233621
 10
143.5622965135886
 20
-131.5516601233621
 10
143.5461045648079
 20
-131.2061170461915
 10
143.3700601855116
 20
-131.1575411998495
 10
143.2463812575912
 20
-131.1268798500308
 10
143.2463812575912
 20
-131.1268798500308
 10
143.2463812575912
 20
-130.9749511391313
 10
143.2463812575912
 20
-130.9749511391313
 10
143.2463812575912
 20
-130.9749511391313
 10
144.9165635488403
 20
-130.9749511391313
 10
144.9165635488403
 20
-130.9749511391313
 10
144.9165635488403
 20
-130.9749511391313
 10
144.9165635488403
 20
-131.2085286130312
 10
144.9165635488403
 20
-131.2085286130312
 97
        0
 97
        0
 75
     2
 76
     1
 98
        0
  0
SPLINE
  5
29F
330
299
100
AcDbEntity
  8
_U+30EC_U+30A4_U+30E4_U+30FC 1
370
     0
100
AcDbSpline
210
0.0
220
0.0
230
1.0
 70
    11
 71
     3
 72
    44
 73
    40
 74
     0
 42
0.0000000001
 43
0.0000000001
 12
1.0
 22
0.0
 32
0.0
 13
1.0
 23
0.0
 33
0.0
 40
0.0
 40
0.0
 40
0.0
 40
0.0
 40
1.0
 40
1.0
 40
1.0
 40
2.0
 40
2.0
 40
2.0
 40
3.0
 40
3.0
 40
3.0
 40
4.0
 40
4.0
 40
4.0
 40
5.0
 40
5.0
 40
5.0
 40
6.0
 40
6.0
 40
6.0
 40
7.0
 40
7.0
 40
7.0
 40
8.0
 40
8.0
 40
8.0
 40
9.0
 40
9.0
 40
9.0
 40
10.0
 40
10.0
 40
10.0
 40
11.0
 40
11.0
 40
11.0
 40
12.0
 40
12.0
 40
12.0
 40
13.0
 40
13.0
 40
13.0
 40
13.0
 10
144.2874891132337
 20
-129.8366915908047
 30
0.0
 10
144.4590548683991
 20
-130.0633788737342
 30
0.0
 10
144.5389810836569
 20
-130.1605305664182
 30
0.0
 10
144.6946993995902
 20
-130.2108289605029
 30
0.0
 10
144.6946993995902
 20
-130.2108289605029
 30
0.0
 10
144.6946993995902
 20
-129.4008870119206
 30
0.0
 10
144.6946993995902
 20
-129.4008870119206
 30
0.0
 10
144.6946993995902
 20
-129.4008870119206
 30
0.0
 10
144.9165635488403
 20
-129.4008870119206
 30
0.0
 10
144.9165635488403
 20
-129.4008870119206
 30
0.0
 10
144.9165635488403
 20
-129.4008870119206
 30
0.0
 10
144.9165635488403
 20
-130.4705891600907
 30
0.0
 10
144.9165635488403
 20
-130.4705891600907
 30
0.0
 10
144.5300238353953
 20
-130.4378607529808
 30
0.0
 10
144.4452744864581
 20
-130.3696478623729
 30
0.0
 10
144.1228135490387
 20
-129.9689832574383
 30
0.0
 10
143.9074950812106
 20
-129.70233286688
 30
0.0
 10
143.8344590569234
 20
-129.634119976272
 30
0.0
 10
143.6856309319605
 20
-129.634119976272
 30
0.0
 10
143.5574733799093
 20
-129.634119976272
 30
0.0
 10
143.4158799554655
 20
-129.7092230578505
 30
0.0
 10
143.4158799554655
 20
-129.9138617296743
 30
0.0
 10
143.4158799554655
 20
-130.1846462348149
 30
0.0
 10
143.6653048685976
 20
-130.1936034830766
 30
0.0
 10
143.7910508538092
 20
-130.1977375976589
 30
0.0
 10
143.7910508538092
 20
-130.1977375976589
 30
0.0
 10
143.7910508538092
 20
-130.4313150715589
 30
0.0
 10
143.7910508538092
 20
-130.4313150715589
 30
0.0
 10
143.6535915439477
 20
-130.4223578232972
 30
0.0
 10
143.5323241828669
 20
-130.4113335177444
 30
0.0
 10
143.4045111403641
 20
-130.3279622070013
 30
0.0
 10
143.230533818359
 20
-130.2132405273425
 30
0.0
 10
143.1940158062154
 20
-130.019281651523
 30
0.0
 10
143.1940158062154
 20
-129.8983587999907
 30
0.0
 10
143.1940158062154
 20
-129.6100043078753
 30
0.0
 10
143.3927978157143
 20
-129.3943413304986
 30
0.0
 10
143.6880424988002
 20
-129.3943413304986
 30
0.0
 10
143.9350558450926
 20
-129.3943413304986
 30
0.0
 10
144.0425428242324
 20
-129.5152641820309
 30
0.0
 10
144.2874891132337
 20
-129.8366915908047
 30
0.0
  0
HATCH
  5
2A0
330
299
100
AcDbEntity
  8
_U+30EC_U+30A4_U+30E4_U+30FC 1
 62
   179
420
  2234388
100
AcDbHatch
 10
0.0
 20
0.0
 30
0.0
210
0.0
220
0.0
230
1.0
  2
SOLID
 70
     1
 71
     0
 91
        1
 92
        1
 93
        1
 72
     4
 94
        3
 73
     0
 74
     1
 95
       44
 96
       40
 40
0.0
 40
0.0
 40
0.0
 40
0.0
 40
1.0
 40
1.0
 40
1.0
 40
2.0
 40
2.0
 40
2.0
 40
3.0
 40
3.0
 40
3.0
 40
4.0
 40
4.0
 40
4.0
 40
5.0
 40
5.0
 40
5.0
 40
6.0
 40
6.0
 40
6.0
 40
7.0
 40
7.0
 40
7.0
 40
8.0
 40
8.0
 40
8.0
 40
9.0
 40
9.0
 40
9.0
 40
10.0
 40
10.0
 40
10.0
 40
11.0
 40
11.0
 40
11.0
 40
12.0
 40
12.0
 40
12.0
 40
13.0
 40
13.0
 40
13.0
 40
13.0
 10
144.2874891132337
 20
-129.8366915908047
 10
144.4590548683991
 20
-130.0633788737342
 10
144.5389810836569
 20
-130.1605305664182
 10
144.6946993995902
 20
-130.2108289605029
 10
144.6946993995902
 20
-130.2108289605029
 10
144.6946993995902
 20
-129.4008870119206
 10
144.6946993995902
 20
-129.4008870119206
 10
144.6946993995902
 20
-129.4008870119206
 10
144.9165635488403
 20
-129.4008870119206
 10
144.9165635488403
 20
-129.4008870119206
 10
144.9165635488403
 20
-129.4008870119206
 10
144.9165635488403
 20
-130.4705891600907
 10
144.9165635488403
 20
-130.4705891600907
 10
144.5300238353953
 20
-130.4378607529808
 10
144.4452744864581
 20
-130.3696478623729
 10
144.1228135490387
 20
-129.9689832574383
 10
143.9074950812106
 20
-129.70233286688
 10
143.8344590569234
 20
-129.634119976272
 10
143.6856309319605
 20
-129.634119976272
 10
143.5574733799093
 20
-129.634119976272
 10
143.4158799554655
 20
-129.7092230578505
 10
143.4158799554655
 20
-129.9138617296743
 10
143.4158799554655
 20
-130.1846462348149
 10
143.6653048685976
 20
-130.1936034830766
 10
143.7910508538092
 20
-130.1977375976589
 10
143.7910508538092
 20
-130.1977375976589
 10
143.7910508538092
 20
-130.4313150715589
 10
143.7910508538092
 20
-130.4313150715589
 10
143.6535915439477
 20
-130.4223578232972
 10
143.5323241828669
 20
-130.4113335177444
 10
143.4045111403641
 20
-130.3279622070013
 10
143.230533818359
 20
-130.2132405273425
 10
143.1940158062154
 20
-130.019281651523
 10
143.1940158062154
 20
-129.8983587999907
 10
143.1940158062154
 20
-129.6100043078753
 10
143.3927978157143
 20
-129.3943413304986
 10
143.6880424988002
 20
-129.3943413304986
 10
143.9350558450926
 20
-129.3943413304986
 10
144.0425428242324
 20
-129.5152641820309
 10
144.2874891132337
 20
-129.8366915908047
 97
        0
 97
        0
 75
     2
 76
     1
 98
        0
  0
ENDBLK
  5
29C
330
299
100
AcDbEntity
  8
0
100
AcDbBlockEnd
  0
ENDSEC
  0
SECTION
  2
ENTITIES
  0
POLYLINE
  5
41
330
1F
100
AcDbEntity
  8
_U+30EC_U+30A4_U+30E4_U+30FC 1
370
     0
100
AcDb2dPolyline
 66
     1
 10
0.0
 20
0.0
 30
0.0
  0
VERTEX
  5
42
330
41
100
AcDbEntity
  8
_U+30EC_U+30A4_U+30E4_U+30FC 1
370
     0
100
AcDbVertex
100
AcDb2dVertex
 10
45.44959467381757
 20
-124.9420708020979
 30
0.0
  0
VERTEX
  5
43
330
41
100
AcDbEntity
  8
_U+30EC_U+30A4_U+30E4_U+30FC 1
370
     0
100
AcDbVertex
100
AcDb2dVertex
 10
45.44959467381757
 20
-127.1176513571094
 30
0.0
  0
VERTEX
  5
44
330
41
100
AcDbEntity
  8
_U+30EC_U+30A4_U+30E4_U+30FC 1
370
     0
100
AcDbVertex
100
AcDb2dVertex
 10
46.09623632398704
 20
-127.1176513571094
 30
0.0
  0
VERTEX
  5
45
330
41
100
AcDbEntity
  8
_U+30EC_U+30A4_U+30E4_U+30FC 1
370
     0
100
AcDbVertex
100
AcDb2dVertex
 10
46.09623632398704
 20
-125.7065402463511
 30
0.0
  0
VERTEX
  5
46
330
41
100
AcDbEntity
  8
_U+30EC_U+30A4_U+30E4_U+30FC 1
370
     0
100
AcDbVertex
100
AcDb2dVertex
 10
48.80098347720541
 20
-125.7065402463511
 30
0.0
  0
VERTEX
  5
47
330
41
100
AcDbEntity
  8
_U+30EC_U+30A4_U+30E4_U+30FC 1
370
     0
100
AcDbVertex
100
AcDb2dVertex
 10
48.80098347720541
 20
-125.3537624686615
 30
0.0
  0
VERTEX
  5
48
330
41
100
AcDbEntity
  8
_U+30EC_U+30A4_U+30E4_U+30FC 1
370
     0
100
AcDbVertex
100
AcDb2dVertex
 10
49.50653901476075
 20
-125.3537624686615
 30
0.0
  0
VERTEX
  5
49
330
41
100
AcDbEntity
  8
_U+30EC_U+30A4_U+30E4_U+30FC 1
370
     0
100
AcDbVertex
100
AcDb2dVertex
 10
49.50653901476075
 20
-125.7065402463511
 30
0.0
  0
VERTEX
  5
4A
330
41
100
AcDbEntity
  8
_U+30EC_U+30A4_U+30E4_U+30FC 1
370
     0
100
AcDbVertex
100
AcDb2dVertex
 10
59.73709430931309
 20
-125.7065402463511
 30
0.0
  0
VERTEX
  5
4B
330
41
100
AcDbEntity
  8
_U+30EC_U+30A4_U+30E4_U+30FC 1
370
     0
100
AcDbVertex
100
AcDb2dVertex
 10
59.73709430931309
 20
-129.0581055232913
 30
0.0
  0
VERTEX
  5
4C
330
41
100
AcDbEntity
  8
_U+30EC_U+30A4_U+30E4_U+30FC 1
370
     0
100
AcDbVertex
100
AcDb2dVertex
 10
53.73987224009275
 20
-129.0581055232913
 30
0.0
  0
VERTEX
  5
4D
330
41
100
AcDbEntity
  8
_U+30EC_U+30A4_U+30E4_U+30FC 1
370
     0
100
AcDbVertex
100
AcDb2dVertex
 10
53.73987224009275
 20
-135.0553277440142
 30
0.0
  0
VERTEX
  5
4E
330
41
100
AcDbEntity
  8
_U+30EC_U+30A4_U+30E4_U+30FC 1
370
     0
100
AcDbVertex
100
AcDb2dVertex
 10
88.1357046959153
 20
-135.0553277440142
 30
0.0
  0
VERTEX
  5
4F
330
41
100
AcDbEntity
  8
_U+30EC_U+30A4_U+30E4_U+30FC 1
370
     0
100
AcDbVertex
100
AcDb2dVertex
 10
128.7638888566979
 20
-135.0553277440142
 30
0.0
  0
VERTEX
  5
50
330
41
100
AcDbEntity
  8
_U+30EC_U+30A4_U+30E4_U+30FC 1
370
     0
100
AcDbVertex
100
AcDb2dVertex
 10
128.7638888566979
 20
-129.1166666343875
 30
0.0
  0
VERTEX
  5
51
330
41
100
AcDbEntity
  8
_U+30EC_U+30A4_U+30E4_U+30FC 1
370
     0
100
AcDbVertex
100
AcDb2dVertex
 10
138.4063638542875
 20
-129.1166666343875
 30
0.0
  0
VERTEX
  5
52
330
41
100
AcDbEntity
  8
_U+30EC_U+30A4_U+30E4_U+30FC 1
370
     0
100
AcDbVertex
100
AcDb2dVertex
 10
138.4063638542875
 20
-126.0593180240406
 30
0.0
  0
VERTEX
  5
53
330
41
100
AcDbEntity
  8
_U+30EC_U+30A4_U+30E4_U+30FC 1
370
     0
100
AcDbVertex
100
AcDb2dVertex
 10
137.7597221877823
 20
-126.0593180240406
 30
0.0
  0
VERTEX
  5
54
330
41
100
AcDbEntity
  8
_U+30EC_U+30A4_U+30E4_U+30FC 1
370
     0
100
AcDbVertex
100
AcDb2dVertex
 10
137.7597221877823
 20
-128.2936360790378
 30
0.0
  0
VERTEX
  5
55
330
41
100
AcDbEntity
  8
_U+30EC_U+30A4_U+30E4_U+30FC 1
370
     0
100
AcDbVertex
100
AcDb2dVertex
 10
127.9408583013479
 20
-128.2936360790378
 30
0.0
  0
VERTEX
  5
56
330
41
100
AcDbEntity
  8
_U+30EC_U+30A4_U+30E4_U+30FC 1
370
     0
100
AcDbVertex
100
AcDb2dVertex
 10
127.9408583013479
 20
-134.2319444108865
 30
0.0
  0
VERTEX
  5
57
330
41
100
AcDbEntity
  8
_U+30EC_U+30A4_U+30E4_U+30FC 1
370
     0
100
AcDbVertex
100
AcDb2dVertex
 10
88.4295685773071
 20
-134.2319444108865
 30
0.0
  0
VERTEX
  5
58
330
41
100
AcDbEntity
  8
_U+30EC_U+30A4_U+30E4_U+30FC 1
370
     0
100
AcDbVertex
100
AcDb2dVertex
 10
54.44542777764809
 20
-134.2319444108865
 30
0.0
  0
VERTEX
  5
59
330
41
100
AcDbEntity
  8
_U+30EC_U+30A4_U+30E4_U+30FC 1
370
     0
100
AcDbVertex
100
AcDb2dVertex
 10
54.44542777764809
 20
-129.8222221897667
 30
0.0
  0
VERTEX
  5
5A
330
41
100
AcDbEntity
  8
_U+30EC_U+30A4_U+30E4_U+30FC 1
370
     0
100
AcDbVertex
100
AcDb2dVertex
 10
60.50138887376355
 20
-129.8222221897667
 30
0.0
  0
VERTEX
  5
5B
330
41
100
AcDbEntity
  8
_U+30EC_U+30A4_U+30E4_U+30FC 1
370
     0
100
AcDbVertex
100
AcDb2dVertex
 10
60.50138887376355
 20
-124.8833333021125
 30
0.0
  0
VERTEX
  5
5C
330
41
100
AcDbEntity
  8
_U+30EC_U+30A4_U+30E4_U+30FC 1
370
     0
100
AcDbVertex
100
AcDb2dVertex
 10
45.44959467381757
 20
-124.9420708020979
 30
0.0
  0
SEQEND
  5
5E
330
41
100
AcDbEntity
  8
_U+30EC_U+30A4_U+30E4_U+30FC 1
370
     0
  0
HATCH
  5
5D
330
1F
100
AcDbEntity
  8
_U+30EC_U+30A4_U+30E4_U+30FC 1
 62
   253
420
 10066329
100
AcDbHatch
 10
0.0
 20
0.0
 30
0.0
210
0.0
220
0.0
230
1.0
  2
SOLID
 70
     1
 71
     0
 91
        1
 92
        1
 93
       26
 72
     1
 10
45.44959467381757
 20
-124.9420708020979
 11
45.44959467381757
 21
-127.1176513571094
 72
     1
 10
45.44959467381757
 20
-127.1176513571094
 11
46.09623632398704
 21
-127.1176513571094
 72
     1
 10
46.09623632398704
 20
-127.1176513571094
 11
46.09623632398704
 21
-125.7065402463511
 72
     1
 10
46.09623632398704
 20
-125.7065402463511
 11
48.80098347720541
 21
-125.7065402463511
 72
     1
 10
48.80098347720541
 20
-125.7065402463511
 11
48.80098347720541
 21
-125.3537624686615
 72
     1
 10
48.80098347720541
 20
-125.3537624686615
 11
49.50653901476075
 21
-125.3537624686615
 72
     1
 10
49.50653901476075
 20
-125.3537624686615
 11
49.50653901476075
 21
-125.7065402463511
 72
     1
 10
49.50653901476075
 20
-125.7065402463511
 11
59.73709430931309
 21
-125.7065402463511
 72
     1
 10
59.73709430931309
 20
-125.7065402463511
 11
59.73709430931309
 21
-129.0581055232913
 72
     1
 10
59.73709430931309
 20
-129.0581055232913
 11
53.73987224009275
 21
-129.0581055232913
 72
     1
 10
53.73987224009275
 20
-129.0581055232913
 11
53.73987224009275
 21
-135.0553277440142
 72
     1
 10
53.73987224009275
 20
-135.0553277440142
 11
88.1357046959153
 21
-135.0553277440142
 72
     1
 10
88.1357046959153
 20
-135.0553277440142
 11
128.7638888566979
 21
-135.0553277440142
 72
     1
 10
128.7638888566979
 20
-135.0553277440142
 11
128.7638888566979
 21
-129.1166666343875
 72
     1
 10
128.7638888566979
 20
-129.1166666343875
 11
138.4063638542875
 21
-129.1166666343875
 72
     1
 10
138.4063638542875
 20
-129.1166666343875
 11
138.4063638542875
 21
-126.0593180240406
 72
     1
 10
138.4063638542875
 20
-126.0593180240406
 11
137.7597221877823
 21
-126.0593180240406
 72
     1
 10
137.7597221877823
 20
-126.0593180240406
 11
137.7597221877823
 21
-128.2936360790378
 72
     1
 10
137.7597221877823
 20
-128.2936360790378
 11
127.9408583013479
 21
-128.2936360790378
 72
     1
 10
127.9408583013479
 20
-128.2936360790378
 11
127.9408583013479
 21
-134.2319444108865
 72
     1
 10
127.9408583013479
 20
-134.2319444108865
 11
88.4295685773071
 21
-134.2319444108865
 72
     1
 10
88.4295685773071
 20
-134.2319444108865
 11
54.44542777764809
 21
-134.2319444108865
 72
     1
 10
54.44542777764809
 20
-134.2319444108865
 11
54.44542777764809
 21
-129.8222221897667
 72
     1
 10
54.44542777764809
 20
-129.8222221897667
 11
60.50138887376355
 21
-129.8222221897667
 72
     1
 10
60.50138887376355
 20
-129.8222221897667
 11
60.50138887376355
 21
-124.8833333021125
 72
     1
 10
60.50138887376355
 20
-124.8833333021125
 11
45.44959467381757
 21
-124.9420708020979
 97
        0
 75
     2
 76
     1
 98
        0
  0
POLYLINE
  5
5F
330
1F
100
AcDbEntity
  8
_U+30EC_U+30A4_U+30E4_U+30FC 1
 62
   179
420
  2234388
370
    25
100
AcDb2dPolyline
 66
     1
 10
0.0
 20
0.0
 30
0.0
  0
VERTEX
  5
60
330
5F
100
AcDbEntity
  8
_U+30EC_U+30A4_U+30E4_U+30FC 1
 62
   179
420
  2234388
370
    25
100
AcDbVertex
100
AcDb2dVertex
 10
53.72780724040055
 20
-135.0463671884607
 30
0.0
  0
VERTEX
  5
61
330
5F
100
AcDbEntity
  8
_U+30EC_U+30A4_U+30E4_U+30FC 1
 62
   179
420
  2234388
370
    25
100
AcDbVertex
100
AcDb2dVertex
 10
128.7277258825488
 20
-135.0463671884607
 30
0.0
  0
SEQEND
  5
62
330
5F
100
AcDbEntity
  8
_U+30EC_U+30A4_U+30E4_U+30FC 1
 62
   179
420
  2234388
370
    25
  0
POLYLINE
  5
63
330
1F
100
AcDbEntity
  8
_U+30EC_U+30A4_U+30E4_U+30FC 1
 62
   179
420
  2234388
370
    25
100
AcDb2dPolyline
 66
     1
 10
0.0
 20
0.0
 30
0.0
  0
VERTEX
  5
64
330
63
100
AcDbEntity
  8
_U+30EC_U+30A4_U+30E4_U+30FC 1
 62
   179
420
  2234388
370
    25
100
AcDbVertex
100
AcDb2dVertex
 10
53.72780724040055
 20
-129.0460405232943
 30
0.0
  0
VERTEX
  5
65
330
63
100
AcDbEntity
  8
_U+30EC_U+30A4_U+30E4_U+30FC 1
 62
   179
420
  2234388
370
    25
100
AcDbVertex
100
AcDb2dVertex
 10
53.72780724040055
 20
-135.0463671884607
 30
0.0
  0
SEQEND
  5
66
330
63
100
AcDbEntity
  8
_U+30EC_U+30A4_U+30E4_U+30FC 1
 62
   179
420
  2234388
370
    25
  0
POLYLINE
  5
67
330
1F
100
AcDbEntity
  8
_U+30EC_U+30A4_U+30E4_U+30FC 1
 62
   179
420
  2234388
370
    25
100
AcDb2dPolyline
 66
     1
 10
0.0
 20
0.0
 30
0.0
  0
VERTEX
  5
68
330
67
100
AcDbEntity
  8
_U+30EC_U+30A4_U+30E4_U+30FC 1
 62
   179
420
  2234388
370
    25
100
AcDbVertex
100
AcDb2dVertex
 10
128.7277258825488
 20
-129.0460405232943
 30
0.0
  0
VERTEX
  5
69
330
67
100
AcDbEntity
  8
_U+30EC_U+30A4_U+30E4_U+30FC 1
 62
   179
420
  2234388
370
    25
100
AcDbVertex
100
AcDb2dVertex
 10
128.7277258825488
 20
-135.0463671884607
 30
0.0
  0
SEQEND
  5
6A
330
67
100
AcDbEntity
  8
_U+30EC_U+30A4_U+30E4_U+30FC 1
 62
   179
420
  2234388
370
    25
  0
POLYLINE
  5
6B
330
1F
100
AcDbEntity
  8
_U+30EC_U+30A4_U+30E4_U+30FC 1
 62
   179
420
  2234388
370
    25
100
AcDb2dPolyline
 66
     1
 10
0.0
 20
0.0
 30
0.0
  0
VERTEX
  5
6C
330
6B
100
AcDbEntity
  8
_U+30EC_U+30A4_U+30E4_U+30FC 1
 62
   179
420
  2234388
370
    25
100
AcDbVertex
100
AcDb2dVertex
 10
54.47781277682187
 20
-134.2960088553149
 30
0.0
  0
VERTEX
  5
6D
330
6B
100
AcDbEntity
  8
_U+30EC_U+30A4_U+30E4_U+30FC 1
 62
   179
420
  2234388
370
    25
100
AcDbVertex
100
AcDb2dVertex
 10
127.9777203461275
 20
-134.2960088553149
 30
0.0
  0
SEQEND
  5
6E
330
6B
100
AcDbEntity
  8
_U+30EC_U+30A4_U+30E4_U+30FC 1
 62
   179
420
  2234388
370
    25
  0
POLYLINE
  5
6F
330
1F
100
AcDbEntity
  8
_U+30EC_U+30A4_U+30E4_U+30FC 1
 62
   179
420
  2234388
370
    25
100
AcDb2dPolyline
 66
     1
 10
0.0
 20
0.0
 30
0.0
  0
VERTEX
  5
70
330
6F
100
AcDbEntity
  8
_U+30EC_U+30A4_U+30E4_U+30FC 1
 62
   179
420
  2234388
370
    25
100
AcDbVertex
100
AcDb2dVertex
 10
54.47781277682187
 20
-129.7960460786624
 30
0.0
  0
VERTEX
  5
71
330
6F
100
AcDbEntity
  8
_U+30EC_U+30A4_U+30E4_U+30FC 1
 62
   179
420
  2234388
370
    25
100
AcDbVertex
100
AcDb2dVertex
 10
54.47781277682187
 20
-134.2960088553149
 30
0.0
  0
SEQEND
  5
72
330
6F
100
AcDbEntity
  8
_U+30EC_U+30A4_U+30E4_U+30FC 1
 62
   179
420
  2234388
370
    25
  0
POLYLINE
  5
73
330
1F
100
AcDbEntity
  8
_U+30EC_U+30A4_U+30E4_U+30FC 1
 62
   179
420
  2234388
370
    25
100
AcDb2dPolyline
 66
     1
 10
0.0
 20
0.0
 30
0.0
  0
VERTEX
  5
74
330
73
100
AcDbEntity
  8
_U+30EC_U+30A4_U+30E4_U+30FC 1
 62
   179
420
  2234388
370
    25
100
AcDbVertex
100
AcDb2dVertex
 10
45.47785217309666
 20
-124.9210452465474
 30
0.0
  0
VERTEX
  5
75
330
73
100
AcDbEntity
  8
_U+30EC_U+30A4_U+30E4_U+30FC 1
 62
   179
420
  2234388
370
    25
100
AcDbVertex
100
AcDb2dVertex
 10
60.47778651263868
 20
-124.9210452465474
 30
0.0
  0
SEQEND
  5
76
330
73
100
AcDbEntity
  8
_U+30EC_U+30A4_U+30E4_U+30FC 1
 62
   179
420
  2234388
370
    25
  0
POLYLINE
  5
77
330
1F
100
AcDbEntity
  8
_U+30EC_U+30A4_U+30E4_U+30FC 1
 62
   179
420
  2234388
370
    25
100
AcDb2dPolyline
 66
     1
 10
0.0
 20
0.0
 30
0.0
  0
VERTEX
  5
78
330
77
100
AcDbEntity
  8
_U+30EC_U+30A4_U+30E4_U+30FC 1
 62
   179
420
  2234388
370
    25
100
AcDbVertex
100
AcDb2dVertex
 10
45.47785217309666
 20
-124.9210452465474
 30
0.0
  0
VERTEX
  5
79
330
77
100
AcDbEntity
  8
_U+30EC_U+30A4_U+30E4_U+30FC 1
 62
   179
420
  2234388
370
    25
100
AcDbVertex
100
AcDb2dVertex
 10
45.47785217309666
 20
-127.1710619126518
 30
0.0
  0
SEQEND
  5
7A
330
77
100
AcDbEntity
  8
_U+30EC_U+30A4_U+30E4_U+30FC 1
 62
   179
420
  2234388
370
    25
  0
POLYLINE
  5
7B
330
1F
100
AcDbEntity
  8
_U+30EC_U+30A4_U+30E4_U+30FC 1
 62
   179
420
  2234388
370
    25
100
AcDb2dPolyline
 66
     1
 10
0.0
 20
0.0
 30
0.0
  0
VERTEX
  5
7C
330
7B
100
AcDbEntity
  8
_U+30EC_U+30A4_U+30E4_U+30FC 1
 62
   179
420
  2234388
370
    25
100
AcDbVertex
100
AcDb2dVertex
 10
45.47785217309666
 20
-127.1710619126518
 30
0.0
  0
VERTEX
  5
7D
330
7B
100
AcDbEntity
  8
_U+30EC_U+30A4_U+30E4_U+30FC 1
 62
   179
420
  2234388
370
    25
100
AcDbVertex
100
AcDb2dVertex
 10
46.22768132063359
 20
-127.1710619126518
 30
0.0
  0
SEQEND
  5
7E
330
7B
100
AcDbEntity
  8
_U+30EC_U+30A4_U+30E4_U+30FC 1
 62
   179
420
  2234388
370
    25
  0
POLYLINE
  5
7F
330
1F
100
AcDbEntity
  8
_U+30EC_U+30A4_U+30E4_U+30FC 1
 62
   179
420
  2234388
370
    25
100
AcDb2dPolyline
 66
     1
 10
0.0
 20
0.0
 30
0.0
  0
VERTEX
  5
80
330
7F
100
AcDbEntity
  8
_U+30EC_U+30A4_U+30E4_U+30FC 1
 62
   179
420
  2234388
370
    25
100
AcDbVertex
100
AcDb2dVertex
 10
46.22768132063359
 20
-125.6710508019156
 30
0.0
  0
VERTEX
  5
81
330
7F
100
AcDbEntity
  8
_U+30EC_U+30A4_U+30E4_U+30FC 1
 62
   179
420
  2234388
370
    25
100
AcDbVertex
100
AcDb2dVertex
 10
46.22768132063359
 20
-127.1710619126518
 30
0.0
  0
SEQEND
  5
82
330
7F
100
AcDbEntity
  8
_U+30EC_U+30A4_U+30E4_U+30FC 1
 62
   179
420
  2234388
370
    25
  0
POLYLINE
  5
83
330
1F
100
AcDbEntity
  8
_U+30EC_U+30A4_U+30E4_U+30FC 1
 62
   179
420
  2234388
370
    25
100
AcDb2dPolyline
 66
     1
 10
0.0
 20
0.0
 30
0.0
  0
VERTEX
  5
84
330
83
100
AcDbEntity
  8
_U+30EC_U+30A4_U+30E4_U+30FC 1
 62
   179
420
  2234388
370
    25
100
AcDbVertex
100
AcDb2dVertex
 10
46.22768132063359
 20
-125.6710508019156
 30
0.0
  0
VERTEX
  5
85
330
83
100
AcDbEntity
  8
_U+30EC_U+30A4_U+30E4_U+30FC 1
 62
   179
420
  2234388
370
    25
100
AcDbVertex
100
AcDb2dVertex
 10
48.85284180921573
 20
-125.6710508019156
 30
0.0
  0
SEQEND
  5
86
330
83
100
AcDbEntity
  8
_U+30EC_U+30A4_U+30E4_U+30FC 1
 62
   179
420
  2234388
370
    25
  0
POLYLINE
  5
87
330
1F
100
AcDbEntity
  8
_U+30EC_U+30A4_U+30E4_U+30FC 1
 62
   179
420
  2234388
370
    25
100
AcDb2dPolyline
 66
     1
 10
0.0
 20
0.0
 30
0.0
  0
VERTEX
  5
88
330
87
100
AcDbEntity
  8
_U+30EC_U+30A4_U+30E4_U+30FC 1
 62
   179
420
  2234388
370
    25
100
AcDbVertex
100
AcDb2dVertex
 10
53.72780724040055
 20
-129.0460405232943
 30
0.0
  0
VERTEX
  5
89
330
87
100
AcDbEntity
  8
_U+30EC_U+30A4_U+30E4_U+30FC 1
 62
   179
420
  2234388
370
    25
100
AcDbVertex
100
AcDb2dVertex
 10
59.72760458733297
 20
-129.0460405232943
 30
0.0
  0
SEQEND
  5
8A
330
87
100
AcDbEntity
  8
_U+30EC_U+30A4_U+30E4_U+30FC 1
 62
   179
420
  2234388
370
    25
  0
POLYLINE
  5
8B
330
1F
100
AcDbEntity
  8
_U+30EC_U+30A4_U+30E4_U+30FC 1
 62
   179
420
  2234388
370
    25
100
AcDb2dPolyline
 66
     1
 10
0.0
 20
0.0
 30
0.0
  0
VERTEX
  5
8C
330
8B
100
AcDbEntity
  8
_U+30EC_U+30A4_U+30E4_U+30FC 1
 62
   179
420
  2234388
370
    25
100
AcDbVertex
100
AcDb2dVertex
 10
54.47781277682187
 20
-129.7960460786624
 30
0.0
  0
VERTEX
  5
8D
330
8B
100
AcDbEntity
  8
_U+30EC_U+30A4_U+30E4_U+30FC 1
 62
   179
420
  2234388
370
    25
100
AcDbVertex
100
AcDb2dVertex
 10
60.47778651263868
 20
-129.7960460786624
 30
0.0
  0
SEQEND
  5
8E
330
8B
100
AcDbEntity
  8
_U+30EC_U+30A4_U+30E4_U+30FC 1
 62
   179
420
  2234388
370
    25
  0
POLYLINE
  5
8F
330
1F
100
AcDbEntity
  8
_U+30EC_U+30A4_U+30E4_U+30FC 1
 62
   179
420
  2234388
370
    25
100
AcDb2dPolyline
 66
     1
 10
0.0
 20
0.0
 30
0.0
  0
VERTEX
  5
90
330
8F
100
AcDbEntity
  8
_U+30EC_U+30A4_U+30E4_U+30FC 1
 62
   179
420
  2234388
370
    25
100
AcDbVertex
100
AcDb2dVertex
 10
60.47778651263868
 20
-124.9210452465474
 30
0.0
  0
VERTEX
  5
91
330
8F
100
AcDbEntity
  8
_U+30EC_U+30A4_U+30E4_U+30FC 1
 62
   179
420
  2234388
370
    25
100
AcDbVertex
100
AcDb2dVertex
 10
60.47778651263868
 20
-129.7960460786624
 30
0.0
  0
SEQEND
  5
92
330
8F
100
AcDbEntity
  8
_U+30EC_U+30A4_U+30E4_U+30FC 1
 62
   179
420
  2234388
370
    25
  0
POLYLINE
  5
93
330
1F
100
AcDbEntity
  8
_U+30EC_U+30A4_U+30E4_U+30FC 1
 62
   179
420
  2234388
370
    25
100
AcDb2dPolyline
 66
     1
 10
0.0
 20
0.0
 30
0.0
  0
VERTEX
  5
94
330
93
100
AcDbEntity
  8
_U+30EC_U+30A4_U+30E4_U+30FC 1
 62
   179
420
  2234388
370
    25
100
AcDbVertex
100
AcDb2dVertex
 10
59.72760458733297
 20
-125.6710508019156
 30
0.0
  0
VERTEX
  5
95
330
93
100
AcDbEntity
  8
_U+30EC_U+30A4_U+30E4_U+30FC 1
 62
   179
420
  2234388
370
    25
100
AcDbVertex
100
AcDb2dVertex
 10
59.72760458733297
 20
-129.0460405232943
 30
0.0
  0
SEQEND
  5
96
330
93
100
AcDbEntity
  8
_U+30EC_U+30A4_U+30E4_U+30FC 1
 62
   179
420
  2234388
370
    25
  0
POLYLINE
  5
97
330
1F
100
AcDbEntity
  8
_U+30EC_U+30A4_U+30E4_U+30FC 1
 62
   179
420
  2234388
370
    25
100
AcDb2dPolyline
 66
     1
 10
0.0
 20
0.0
 30
0.0
  0
VERTEX
  5
98
330
97
100
AcDbEntity
  8
_U+30EC_U+30A4_U+30E4_U+30FC 1
 62
   179
420
  2234388
370
    25
100
AcDbVertex
100
AcDb2dVertex
 10
48.85284180921573
 20
-125.2960480242315
 30
0.0
  0
VERTEX
  5
99
330
97
100
AcDbEntity
  8
_U+30EC_U+30A4_U+30E4_U+30FC 1
 62
   179
420
  2234388
370
    25
100
AcDbVertex
100
AcDb2dVertex
 10
48.85284180921573
 20
-125.6710508019156
 30
0.0
  0
SEQEND
  5
9A
330
97
100
AcDbEntity
  8
_U+30EC_U+30A4_U+30E4_U+30FC 1
 62
   179
420
  2234388
370
    25
  0
POLYLINE
  5
9B
330
1F
100
AcDbEntity
  8
_U+30EC_U+30A4_U+30E4_U+30FC 1
 62
   179
420
  2234388
370
    25
100
AcDb2dPolyline
 66
     1
 10
0.0
 20
0.0
 30
0.0
  0
VERTEX
  5
9C
330
9B
100
AcDbEntity
  8
_U+30EC_U+30A4_U+30E4_U+30FC 1
 62
   179
420
  2234388
370
    25
100
AcDbVertex
100
AcDb2dVertex
 10
49.60281206786017
 20
-125.2960480242315
 30
0.0
  0
VERTEX
  5
9D
330
9B
100
AcDbEntity
  8
_U+30EC_U+30A4_U+30E4_U+30FC 1
 62
   179
420
  2234388
370
    25
100
AcDbVertex
100
AcDb2dVertex
 10
49.60281206786017
 20
-125.6710508019156
 30
0.0
  0
SEQEND
  5
9E
330
9B
100
AcDbEntity
  8
_U+30EC_U+30A4_U+30E4_U+30FC 1
 62
   179
420
  2234388
370
    25
  0
POLYLINE
  5
9F
330
1F
100
AcDbEntity
  8
_U+30EC_U+30A4_U+30E4_U+30FC 1
 62
   179
420
  2234388
370
    25
100
AcDb2dPolyline
 66
     1
 10
0.0
 20
0.0
 30
0.0
  0
VERTEX
  5
A0
330
9F
100
AcDbEntity
  8
_U+30EC_U+30A4_U+30E4_U+30FC 1
 62
   179
420
  2234388
370
    25
100
AcDbVertex
100
AcDb2dVertex
 10
48.85284180921573
 20
-125.2960480242315
 30
0.0
  0
VERTEX
  5
A1
330
9F
100
AcDbEntity
  8
_U+30EC_U+30A4_U+30E4_U+30FC 1
 62
   179
420
  2234388
370
    25
100
AcDbVertex
100
AcDb2dVertex
 10
49.60281206786017
 20
-125.2960480242315
 30
0.0
  0
SEQEND
  5
A2
330
9F
100
AcDbEntity
  8
_U+30EC_U+30A4_U+30E4_U+30FC 1
 62
   179
420
  2234388
370
    25
  0
POLYLINE
  5
A3
330
1F
100
AcDbEntity
  8
_U+30EC_U+30A4_U+30E4_U+30FC 1
 62
   179
420
  2234388
370
    25
100
AcDb2dPolyline
 66
     1
 10
0.0
 20
0.0
 30
0.0
  0
VERTEX
  5
A4
330
A3
100
AcDbEntity
  8
_U+30EC_U+30A4_U+30E4_U+30FC 1
 62
   179
420
  2234388
370
    25
100
AcDbVertex
100
AcDb2dVertex
 10
49.60281206786017
 20
-125.6710508019156
 30
0.0
  0
VERTEX
  5
A5
330
A3
100
AcDbEntity
  8
_U+30EC_U+30A4_U+30E4_U+30FC 1
 62
   179
420
  2234388
370
    25
100
AcDbVertex
100
AcDb2dVertex
 10
59.72760458733297
 20
-125.6710508019156
 30
0.0
  0
SEQEND
  5
A6
330
A3
100
AcDbEntity
  8
_U+30EC_U+30A4_U+30E4_U+30FC 1
 62
   179
420
  2234388
370
    25
  0
POLYLINE
  5
A7
330
1F
100
AcDbEntity
  8
_U+30EC_U+30A4_U+30E4_U+30FC 1
 62
   179
420
  2234388
370
    25
100
AcDb2dPolyline
 66
     1
 10
0.0
 20
0.0
 30
0.0
  0
VERTEX
  5
A8
330
A7
100
AcDbEntity
  8
_U+30EC_U+30A4_U+30E4_U+30FC 1
 62
   179
420
  2234388
370
    25
100
AcDbVertex
100
AcDb2dVertex
 10
127.9777203461275
 20
-128.2962113568147
 30
0.0
  0
VERTEX
  5
A9
330
A7
100
AcDbEntity
  8
_U+30EC_U+30A4_U+30E4_U+30FC 1
 62
   179
420
  2234388
370
    25
100
AcDbVertex
100
AcDb2dVertex
 10
127.9777203461275
 20
-134.2960088553149
 30
0.0
  0
SEQEND
  5
AA
330
A7
100
AcDbEntity
  8
_U+30EC_U+30A4_U+30E4_U+30FC 1
 62
   179
420
  2234388
370
    25
  0
POLYLINE
  5
AB
330
1F
100
AcDbEntity
  8
_U+30EC_U+30A4_U+30E4_U+30FC 1
 62
   179
420
  2234388
370
    25
100
AcDb2dPolyline
 66
     1
 10
0.0
 20
0.0
 30
0.0
  0
VERTEX
  5
AC
330
AB
100
AcDbEntity
  8
_U+30EC_U+30A4_U+30E4_U+30FC 1
 62
   179
420
  2234388
370
    25
100
AcDbVertex
100
AcDb2dVertex
 10
128.7277258825488
 20
-129.0460405232943
 30
0.0
  0
VERTEX
  5
AD
330
AB
100
AcDbEntity
  8
_U+30EC_U+30A4_U+30E4_U+30FC 1
 62
   179
420
  2234388
370
    25
100
AcDbVertex
100
AcDb2dVertex
 10
138.4776920226953
 20
-129.0460405232943
 30
0.0
  0
SEQEND
  5
AE
330
AB
100
AcDbEntity
  8
_U+30EC_U+30A4_U+30E4_U+30FC 1
 62
   179
420
  2234388
370
    25
  0
POLYLINE
  5
AF
330
1F
100
AcDbEntity
  8
_U+30EC_U+30A4_U+30E4_U+30FC 1
 62
   179
420
  2234388
370
    25
100
AcDb2dPolyline
 66
     1
 10
0.0
 20
0.0
 30
0.0
  0
VERTEX
  5
B0
330
AF
100
AcDbEntity
  8
_U+30EC_U+30A4_U+30E4_U+30FC 1
 62
   179
420
  2234388
370
    25
100
AcDbVertex
100
AcDb2dVertex
 10
137.7280392640428
 20
-126.0462299684885
 30
0.0
  0
VERTEX
  5
B1
330
AF
100
AcDbEntity
  8
_U+30EC_U+30A4_U+30E4_U+30FC 1
 62
   179
420
  2234388
370
    25
100
AcDbVertex
100
AcDb2dVertex
 10
138.4776920226953
 20
-126.0462299684885
 30
0.0
  0
SEQEND
  5
B2
330
AF
100
AcDbEntity
  8
_U+30EC_U+30A4_U+30E4_U+30FC 1
 62
   179
420
  2234388
370
    25
  0
POLYLINE
  5
B3
330
1F
100
AcDbEntity
  8
_U+30EC_U+30A4_U+30E4_U+30FC 1
 62
   179
420
  2234388
370
    25
100
AcDb2dPolyline
 66
     1
 10
0.0
 20
0.0
 30
0.0
  0
VERTEX
  5
B4
330
B3
100
AcDbEntity
  8
_U+30EC_U+30A4_U+30E4_U+30FC 1
 62
   179
420
  2234388
370
    25
100
AcDbVertex
100
AcDb2dVertex
 10
137.7280392640428
 20
-126.0462299684885
 30
0.0
  0
VERTEX
  5
B5
330
B3
100
AcDbEntity
  8
_U+30EC_U+30A4_U+30E4_U+30FC 1
 62
   179
420
  2234388
370
    25
100
AcDbVertex
100
AcDb2dVertex
 10
137.7280392640428
 20
-128.2962113568147
 30
0.0
  0
SEQEND
  5
B6
330
B3
100
AcDbEntity
  8
_U+30EC_U+30A4_U+30E4_U+30FC 1
 62
   179
420
  2234388
370
    25
  0
POLYLINE
  5
B7
330
1F
100
AcDbEntity
  8
_U+30EC_U+30A4_U+30E4_U+30FC 1
 62
   179
420
  2234388
370
    25
100
AcDb2dPolyline
 66
     1
 10
0.0
 20
0.0
 30
0.0
  0
VERTEX
  5
B8
330
B7
100
AcDbEntity
  8
_U+30EC_U+30A4_U+30E4_U+30FC 1
 62
   179
420
  2234388
370
    25
100
AcDbVertex
100
AcDb2dVertex
 10
127.9777203461275
 20
-128.2962113568147
 30
0.0
  0
VERTEX
  5
B9
330
B7
100
AcDbEntity
  8
_U+30EC_U+30A4_U+30E4_U+30FC 1
 62
   179
420
  2234388
370
    25
100
AcDbVertex
100
AcDb2dVertex
 10
137.7280392640428
 20
-128.2962113568147
 30
0.0
  0
SEQEND
  5
BA
330
B7
100
AcDbEntity
  8
_U+30EC_U+30A4_U+30E4_U+30FC 1
 62
   179
420
  2234388
370
    25
  0
POLYLINE
  5
BB
330
1F
100
AcDbEntity
  8
_U+30EC_U+30A4_U+30E4_U+30FC 1
 62
   179
420
  2234388
370
    25
100
AcDb2dPolyline
 66
     1
 10
0.0
 20
0.0
 30
0.0
  0
VERTEX
  5
BC
330
BB
100
AcDbEntity
  8
_U+30EC_U+30A4_U+30E4_U+30FC 1
 62
   179
420
  2234388
370
    25
100
AcDbVertex
100
AcDb2dVertex
 10
138.4776920226953
 20
-126.0462299684885
 30
0.0
  0
VERTEX
  5
BD
330
BB
100
AcDbEntity
  8
_U+30EC_U+30A4_U+30E4_U+30FC 1
 62
   179
420
  2234388
370
    25
100
AcDbVertex
100
AcDb2dVertex
 10
138.4776920226953
 20
-129.0460405232943
 30
0.0
  0
SEQEND
  5
BE
330
BB
100
AcDbEntity
  8
_U+30EC_U+30A4_U+30E4_U+30FC 1
 62
   179
420
  2234388
370
    25
  0
POLYLINE
  5
BF
330
1F
100
AcDbEntity
  8
_U+30EC_U+30A4_U+30E4_U+30FC 1
  6
AI-Linetype-1
 62
   179
420
  2234388
370
    25
100
AcDb2dPolyline
 66
     1
 10
0.0
 20
0.0
 30
0.0
  0
VERTEX
  5
C0
330
BF
100
AcDbEntity
  8
_U+30EC_U+30A4_U+30E4_U+30FC 1
  6
AI-Linetype-1
 62
   179
420
  2234388
370
    25
100
AcDbVertex
100
AcDb2dVertex
 10
132.4776830091016
 20
-135.0463671884607
 30
0.0
  0
VERTEX
  5
C1
330
BF
100
AcDbEntity
  8
_U+30EC_U+30A4_U+30E4_U+30FC 1
  6
AI-Linetype-1
 62
   179
420
  2234388
370
    25
100
AcDbVertex
100
AcDb2dVertex
 10
137.8706673159596
 20
-135.0463671884607
 30
0.0
  0
SEQEND
  5
C3
330
BF
100
AcDbEntity
  8
_U+30EC_U+30A4_U+30E4_U+30FC 1
  6
AI-Linetype-1
 62
   179
420
  2234388
370
    25
  0
POLYLINE
  5
C4
330
1F
100
AcDbEntity
  8
_U+30EC_U+30A4_U+30E4_U+30FC 1
  6
AI-Linetype-2
 62
   179
420
  2234388
370
    25
100
AcDb2dPolyline
 66
     1
 10
0.0
 20
0.0
 30
0.0
  0
VERTEX
  5
C5
330
C4
100
AcDbEntity
  8
_U+30EC_U+30A4_U+30E4_U+30FC 1
  6
AI-Linetype-2
 62
   179
420
  2234388
370
    25
100
AcDbVertex
100
AcDb2dVertex
 10
132.4776830091016
 20
-129.0460405232943
 30
0.0
  0
VERTEX
  5
C6
330
C4
100
AcDbEntity
  8
_U+30EC_U+30A4_U+30E4_U+30FC 1
  6
AI-Linetype-2
 62
   179
420
  2234388
370
    25
100
AcDbVertex
100
AcDb2dVertex
 10
132.4776830091016
 20
-135.0463671884607
 30
0.0
  0
SEQEND
  5
C8
330
C4
100
AcDbEntity
  8
_U+30EC_U+30A4_U+30E4_U+30FC 1
  6
AI-Linetype-2
 62
   179
420
  2234388
370
    25
  0
POLYLINE
  5
C9
330
1F
100
AcDbEntity
  8
_U+30EC_U+30A4_U+30E4_U+30FC 1
  6
AI-Linetype-3
 62
   179
420
  2234388
370
    25
100
AcDb2dPolyline
 66
     1
 10
0.0
 20
0.0
 30
0.0
  0
VERTEX
  5
CA
330
C9
100
AcDbEntity
  8
_U+30EC_U+30A4_U+30E4_U+30FC 1
  6
AI-Linetype-3
 62
   179
420
  2234388
370
    25
100
AcDbVertex
100
AcDb2dVertex
 10
133.2280413232917
 20
-134.2960088553149
 30
0.0
  0
VERTEX
  5
CB
330
C9
100
AcDbEntity
  8
_U+30EC_U+30A4_U+30E4_U+30FC 1
  6
AI-Linetype-3
 62
   179
420
  2234388
370
    25
100
AcDbVertex
100
AcDb2dVertex
 10
138.8101145142145
 20
-134.2960088553149
 30
0.0
  0
SEQEND
  5
CD
330
C9
100
AcDbEntity
  8
_U+30EC_U+30A4_U+30E4_U+30FC 1
  6
AI-Linetype-3
 62
   179
420
  2234388
370
    25
  0
POLYLINE
  5
CE
330
1F
100
AcDbEntity
  8
_U+30EC_U+30A4_U+30E4_U+30FC 1
  6
AI-Linetype-4
 62
   179
420
  2234388
370
    25
100
AcDb2dPolyline
 66
     1
 10
0.0
 20
0.0
 30
0.0
  0
VERTEX
  5
CF
330
CE
100
AcDbEntity
  8
_U+30EC_U+30A4_U+30E4_U+30FC 1
  6
AI-Linetype-4
 62
   179
420
  2234388
370
    25
100
AcDbVertex
100
AcDb2dVertex
 10
133.2280413232917
 20
-129.7960460786624
 30
0.0
  0
VERTEX
  5
D0
330
CE
100
AcDbEntity
  8
_U+30EC_U+30A4_U+30E4_U+30FC 1
  6
AI-Linetype-4
 62
   179
420
  2234388
370
    25
100
AcDbVertex
100
AcDb2dVertex
 10
133.2280413232917
 20
-134.2960088553149
 30
0.0
  0
SEQEND
  5
D2
330
CE
100
AcDbEntity
  8
_U+30EC_U+30A4_U+30E4_U+30FC 1
  6
AI-Linetype-4
 62
   179
420
  2234388
370
    25
  0
POLYLINE
  5
D3
330
1F
100
AcDbEntity
  8
_U+30EC_U+30A4_U+30E4_U+30FC 1
  6
AI-Linetype-5
 62
   179
420
  2234388
370
    25
100
AcDb2dPolyline
 66
     1
 10
0.0
 20
0.0
 30
0.0
  0
VERTEX
  5
D4
330
D3
100
AcDbEntity
  8
_U+30EC_U+30A4_U+30E4_U+30FC 1
  6
AI-Linetype-5
 62
   179
420
  2234388
370
    25
100
AcDbVertex
100
AcDb2dVertex
 10
124.2277279417977
 20
-124.9210452465474
 30
0.0
  0
VERTEX
  5
D5
330
D3
100
AcDbEntity
  8
_U+30EC_U+30A4_U+30E4_U+30FC 1
  6
AI-Linetype-5
 62
   179
420
  2234388
370
    25
100
AcDbVertex
100
AcDb2dVertex
 10
139.2276622813397
 20
-124.9210452465474
 30
0.0
  0
SEQEND
  5
D7
330
D3
100
AcDbEntity
  8
_U+30EC_U+30A4_U+30E4_U+30FC 1
  6
AI-Linetype-5
 62
   179
420
  2234388
370
    25
  0
POLYLINE
  5
D8
330
1F
100
AcDbEntity
  8
_U+30EC_U+30A4_U+30E4_U+30FC 1
  6
AI-Linetype-6
 62
   179
420
  2234388
370
    25
100
AcDb2dPolyline
 66
     1
 10
0.0
 20
0.0
 30
0.0
  0
VERTEX
  5
D9
330
D8
100
AcDbEntity
  8
_U+30EC_U+30A4_U+30E4_U+30FC 1
  6
AI-Linetype-6
 62
   179
420
  2234388
370
    25
100
AcDbVertex
100
AcDb2dVertex
 10
124.2277279417977
 20
-124.9210452465474
 30
0.0
  0
VERTEX
  5
DA
330
D8
100
AcDbEntity
  8
_U+30EC_U+30A4_U+30E4_U+30FC 1
  6
AI-Linetype-6
 62
   179
420
  2234388
370
    25
100
AcDbVertex
100
AcDb2dVertex
 10
124.2277279417977
 20
-127.1710619126518
 30
0.0
  0
SEQEND
  5
DC
330
D8
100
AcDbEntity
  8
_U+30EC_U+30A4_U+30E4_U+30FC 1
  6
AI-Linetype-6
 62
   179
420
  2234388
370
    25
  0
POLYLINE
  5
DD
330
1F
100
AcDbEntity
  8
_U+30EC_U+30A4_U+30E4_U+30FC 1
  6
AI-Linetype-7
 62
   179
420
  2234388
370
    25
100
AcDb2dPolyline
 66
     1
 10
0.0
 20
0.0
 30
0.0
  0
VERTEX
  5
DE
330
DD
100
AcDbEntity
  8
_U+30EC_U+30A4_U+30E4_U+30FC 1
  6
AI-Linetype-7
 62
   179
420
  2234388
370
    25
100
AcDbVertex
100
AcDb2dVertex
 10
124.2277279417977
 20
-127.1710619126518
 30
0.0
  0
VERTEX
  5
DF
330
DD
100
AcDbEntity
  8
_U+30EC_U+30A4_U+30E4_U+30FC 1
  6
AI-Linetype-7
 62
   179
420
  2234388
370
    25
100
AcDbVertex
100
AcDb2dVertex
 10
124.9777334782191
 20
-127.1710619126518
 30
0.0
  0
SEQEND
  5
E1
330
DD
100
AcDbEntity
  8
_U+30EC_U+30A4_U+30E4_U+30FC 1
  6
AI-Linetype-7
 62
   179
420
  2234388
370
    25
  0
POLYLINE
  5
E2
330
1F
100
AcDbEntity
  8
_U+30EC_U+30A4_U+30E4_U+30FC 1
  6
AI-Linetype-8
 62
   179
420
  2234388
370
    25
100
AcDb2dPolyline
 66
     1
 10
0.0
 20
0.0
 30
0.0
  0
VERTEX
  5
E3
330
E2
100
AcDbEntity
  8
_U+30EC_U+30A4_U+30E4_U+30FC 1
  6
AI-Linetype-8
 62
   179
420
  2234388
370
    25
100
AcDbVertex
100
AcDb2dVertex
 10
124.9777334782191
 20
-125.6710508019156
 30
0.0
  0
VERTEX
  5
E4
330
E2
100
AcDbEntity
  8
_U+30EC_U+30A4_U+30E4_U+30FC 1
  6
AI-Linetype-8
 62
   179
420
  2234388
370
    25
100
AcDbVertex
100
AcDb2dVertex
 10
124.9777334782191
 20
-127.1710619126518
 30
0.0
  0
SEQEND
  5
E6
330
E2
100
AcDbEntity
  8
_U+30EC_U+30A4_U+30E4_U+30FC 1
  6
AI-Linetype-8
 62
   179
420
  2234388
370
    25
  0
POLYLINE
  5
E7
330
1F
100
AcDbEntity
  8
_U+30EC_U+30A4_U+30E4_U+30FC 1
  6
AI-Linetype-9
 62
   179
420
  2234388
370
    25
100
AcDb2dPolyline
 66
     1
 10
0.0
 20
0.0
 30
0.0
  0
VERTEX
  5
E8
330
E7
100
AcDbEntity
  8
_U+30EC_U+30A4_U+30E4_U+30FC 1
  6
AI-Linetype-9
 62
   179
420
  2234388
370
    25
100
AcDbVertex
100
AcDb2dVertex
 10
124.9777334782191
 20
-125.6710508019156
 30
0.0
  0
VERTEX
  5
E9
330
E7
100
AcDbEntity
  8
_U+30EC_U+30A4_U+30E4_U+30FC 1
  6
AI-Linetype-9
 62
   179
420
  2234388
370
    25
100
AcDbVertex
100
AcDb2dVertex
 10
127.602544412544
 20
-125.6710508019156
 30
0.0
  0
SEQEND
  5
EB
330
E7
100
AcDbEntity
  8
_U+30EC_U+30A4_U+30E4_U+30FC 1
  6
AI-Linetype-9
 62
   179
420
  2234388
370
    25
  0
POLYLINE
  5
EC
330
1F
100
AcDbEntity
  8
_U+30EC_U+30A4_U+30E4_U+30FC 1
  6
AI-Linetype-10
 62
   179
420
  2234388
370
    25
100
AcDb2dPolyline
 66
     1
 10
0.0
 20
0.0
 30
0.0
  0
VERTEX
  5
ED
330
EC
100
AcDbEntity
  8
_U+30EC_U+30A4_U+30E4_U+30FC 1
  6
AI-Linetype-10
 62
   179
420
  2234388
370
    25
100
AcDbVertex
100
AcDb2dVertex
 10
133.2280413232917
 20
-129.7960460786624
 30
0.0
  0
VERTEX
  5
EE
330
EC
100
AcDbEntity
  8
_U+30EC_U+30A4_U+30E4_U+30FC 1
  6
AI-Linetype-10
 62
   179
420
  2234388
370
    25
100
AcDbVertex
100
AcDb2dVertex
 10
139.2276622813397
 20
-129.7960460786624
 30
0.0
  0
SEQEND
  5
F0
330
EC
100
AcDbEntity
  8
_U+30EC_U+30A4_U+30E4_U+30FC 1
  6
AI-Linetype-10
 62
   179
420
  2234388
370
    25
  0
POLYLINE
  5
F1
330
1F
100
AcDbEntity
  8
_U+30EC_U+30A4_U+30E4_U+30FC 1
  6
AI-Linetype-11
 62
   179
420
  2234388
370
    25
100
AcDb2dPolyline
 66
     1
 10
0.0
 20
0.0
 30
0.0
  0
VERTEX
  5
F2
330
F1
100
AcDbEntity
  8
_U+30EC_U+30A4_U+30E4_U+30FC 1
  6
AI-Linetype-11
 62
   179
420
  2234388
370
    25
100
AcDbVertex
100
AcDb2dVertex
 10
139.2276622813397
 20
-124.9210452465474
 30
0.0
  0
VERTEX
  5
F3
330
F1
100
AcDbEntity
  8
_U+30EC_U+30A4_U+30E4_U+30FC 1
  6
AI-Linetype-11
 62
   179
420
  2234388
370
    25
100
AcDbVertex
100
AcDb2dVertex
 10
139.2276622813397
 20
-129.7960460786624
 30
0.0
  0
SEQEND
  5
F5
330
F1
100
AcDbEntity
  8
_U+30EC_U+30A4_U+30E4_U+30FC 1
  6
AI-Linetype-11
 62
   179
420
  2234388
370
    25
  0
POLYLINE
  5
F6
330
1F
100
AcDbEntity
  8
_U+30EC_U+30A4_U+30E4_U+30FC 1
  6
AI-Linetype-12
 62
   179
420
  2234388
370
    25
100
AcDb2dPolyline
 66
     1
 10
0.0
 20
0.0
 30
0.0
  0
VERTEX
  5
F7
330
F6
100
AcDbEntity
  8
_U+30EC_U+30A4_U+30E4_U+30FC 1
  6
AI-Linetype-12
 62
   179
420
  2234388
370
    25
100
AcDbVertex
100
AcDb2dVertex
 10
138.4776920226953
 20
-125.6710508019156
 30
0.0
  0
VERTEX
  5
F8
330
F6
100
AcDbEntity
  8
_U+30EC_U+30A4_U+30E4_U+30FC 1
  6
AI-Linetype-12
 62
   179
420
  2234388
370
    25
100
AcDbVertex
100
AcDb2dVertex
 10
138.4776920226953
 20
-126.0462299684885
 30
0.0
  0
SEQEND
  5
FA
330
F6
100
AcDbEntity
  8
_U+30EC_U+30A4_U+30E4_U+30FC 1
  6
AI-Linetype-12
 62
   179
420
  2234388
370
    25
  0
POLYLINE
  5
FB
330
1F
100
AcDbEntity
  8
_U+30EC_U+30A4_U+30E4_U+30FC 1
  6
AI-Linetype-13
 62
   179
420
  2234388
370
    25
100
AcDb2dPolyline
 66
     1
 10
0.0
 20
0.0
 30
0.0
  0
VERTEX
  5
FC
330
FB
100
AcDbEntity
  8
_U+30EC_U+30A4_U+30E4_U+30FC 1
  6
AI-Linetype-13
 62
   179
420
  2234388
370
    25
100
AcDbVertex
100
AcDb2dVertex
 10
127.602544412544
 20
-125.2960480242315
 30
0.0
  0
VERTEX
  5
FD
330
FB
100
AcDbEntity
  8
_U+30EC_U+30A4_U+30E4_U+30FC 1
  6
AI-Linetype-13
 62
   179
420
  2234388
370
    25
100
AcDbVertex
100
AcDb2dVertex
 10
127.602544412544
 20
-125.6710508019156
 30
0.0
  0
SEQEND
  5
FF
330
FB
100
AcDbEntity
  8
_U+30EC_U+30A4_U+30E4_U+30FC 1
  6
AI-Linetype-13
 62
   179
420
  2234388
370
    25
  0
POLYLINE
  5
100
330
1F
100
AcDbEntity
  8
_U+30EC_U+30A4_U+30E4_U+30FC 1
  6
AI-Linetype-14
 62
   179
420
  2234388
370
    25
100
AcDb2dPolyline
 66
     1
 10
0.0
 20
0.0
 30
0.0
  0
VERTEX
  5
101
330
100
100
AcDbEntity
  8
_U+30EC_U+30A4_U+30E4_U+30FC 1
  6
AI-Linetype-14
 62
   179
420
  2234388
370
    25
100
AcDbVertex
100
AcDb2dVertex
 10
128.3525499679121
 20
-125.2960480242315
 30
0.0
  0
VERTEX
  5
102
330
100
100
AcDbEntity
  8
_U+30EC_U+30A4_U+30E4_U+30FC 1
  6
AI-Linetype-14
 62
   179
420
  2234388
370
    25
100
AcDbVertex
100
AcDb2dVertex
 10
128.3525499679121
 20
-125.6710508019156
 30
0.0
  0
SEQEND
  5
104
330
100
100
AcDbEntity
  8
_U+30EC_U+30A4_U+30E4_U+30FC 1
  6
AI-Linetype-14
 62
   179
420
  2234388
370
    25
  0
POLYLINE
  5
105
330
1F
100
AcDbEntity
  8
_U+30EC_U+30A4_U+30E4_U+30FC 1
  6
AI-Linetype-15
 62
   179
420
  2234388
370
    25
100
AcDb2dPolyline
 66
     1
 10
0.0
 20
0.0
 30
0.0
  0
VERTEX
  5
106
330
105
100
AcDbEntity
  8
_U+30EC_U+30A4_U+30E4_U+30FC 1
  6
AI-Linetype-15
 62
   179
420
  2234388
370
    25
100
AcDbVertex
100
AcDb2dVertex
 10
127.602544412544
 20
-125.2960480242315
 30
0.0
  0
VERTEX
  5
107
330
105
100
AcDbEntity
  8
_U+30EC_U+30A4_U+30E4_U+30FC 1
  6
AI-Linetype-15
 62
   179
420
  2234388
370
    25
100
AcDbVertex
100
AcDb2dVertex
 10
128.3525499679121
 20
-125.2960480242315
 30
0.0
  0
SEQEND
  5
109
330
105
100
AcDbEntity
  8
_U+30EC_U+30A4_U+30E4_U+30FC 1
  6
AI-Linetype-15
 62
   179
420
  2234388
370
    25
  0
POLYLINE
  5
10A
330
1F
100
AcDbEntity
  8
_U+30EC_U+30A4_U+30E4_U+30FC 1
  6
AI-Linetype-16
 62
   179
420
  2234388
370
    25
100
AcDb2dPolyline
 66
     1
 10
0.0
 20
0.0
 30
0.0
  0
VERTEX
  5
10B
330
10A
100
AcDbEntity
  8
_U+30EC_U+30A4_U+30E4_U+30FC 1
  6
AI-Linetype-16
 62
   179
420
  2234388
370
    25
100
AcDbVertex
100
AcDb2dVertex
 10
128.3525499679121
 20
-125.6710508019156
 30
0.0
  0
VERTEX
  5
10C
330
10A
100
AcDbEntity
  8
_U+30EC_U+30A4_U+30E4_U+30FC 1
  6
AI-Linetype-16
 62
   179
420
  2234388
370
    25
100
AcDbVertex
100
AcDb2dVertex
 10
138.4776920226953
 20
-125.6710508019156
 30
0.0
  0
SEQEND
  5
10E
330
10A
100
AcDbEntity
  8
_U+30EC_U+30A4_U+30E4_U+30FC 1
  6
AI-Linetype-16
 62
   179
420
  2234388
370
    25
  0
SPLINE
  5
10F
330
1F
100
AcDbEntity
  8
_U+30EC_U+30A4_U+30E4_U+30FC 1
 62
   179
420
  2234388
370
     9
100
AcDbSpline
210
0.0
220
0.0
230
1.0
 70
    11
 71
     3
 72
    17
 73
    13
 74
     0
 42
0.0000000001
 43
0.0000000001
 12
1.0
 22
0.0
 32
0.0
 13
1.0
 23
0.0
 33
0.0
 40
0.0
 40
0.0
 40
0.0
 40
0.0
 40
1.0
 40
1.0
 40
1.0
 40
2.0
 40
2.0
 40
2.0
 40
3.0
 40
3.0
 40
3.0
 40
4.0
 40
4.0
 40
4.0
 40
4.0
 10
142.3027555362209
 20
-126.0462299684885
 30
0.0
 10
142.3027555362209
 20
-126.0047080240545
 30
0.0
 10
142.2693474815177
 20
-125.9711235796182
 30
0.0
 10
142.2280055199983
 20
-125.9711235796182
 30
0.0
 10
142.1863388725243
 20
-125.9711235796182
 30
0.0
 10
142.1525427622754
 20
-126.0047080240545
 30
0.0
 10
142.1525427622754
 20
-126.0462299684885
 30
0.0
 10
142.1525427622754
 20
-126.0875755240336
 30
0.0
 10
142.1863388725243
 20
-126.120983579581
 30
0.0
 10
142.2280055199983
 20
-126.120983579581
 30
0.0
 10
142.2693474815177
 20
-126.120983579581
 30
0.0
 10
142.3027555362209
 20
-126.0875755240336
 30
0.0
 10
142.3027555362209
 20
-126.0462299684885
 30
0.0
  0
SPLINE
  5
110
330
1F
100
AcDbEntity
  8
_U+30EC_U+30A4_U+30E4_U+30FC 1
 62
   179
420
  2234388
370
     9
100
AcDbSpline
210
0.0
220
0.0
230
1.0
 70
    11
 71
     3
 72
    17
 73
    13
 74
     0
 42
0.0000000001
 43
0.0000000001
 12
1.0
 22
0.0
 32
0.0
 13
1.0
 23
0.0
 33
0.0
 40
0.0
 40
0.0
 40
0.0
 40
0.0
 40
1.0
 40
1.0
 40
1.0
 40
2.0
 40
2.0
 40
2.0
 40
3.0
 40
3.0
 40
3.0
 40
4.0
 40
4.0
 40
4.0
 40
4.0
 10
145.3027424041293
 20
-126.0462299684885
 30
0.0
 10
145.3027424041293
 20
-126.0047080240545
 30
0.0
 10
145.2693343494261
 20
-125.9711235796182
 30
0.0
 10
145.2276360171566
 20
-125.9711235796182
 30
0.0
 10
145.1863257404327
 20
-125.9711235796182
 30
0.0
 10
145.152886074823
 20
-126.0047080240545
 30
0.0
 10
145.152886074823
 20
-126.0462299684885
 30
0.0
 10
145.152886074823
 20
-126.0875755240336
 30
0.0
 10
145.1863257404327
 20
-126.120983579581
 30
0.0
 10
145.2276360171566
 20
-126.120983579581
 30
0.0
 10
145.2693343494261
 20
-126.120983579581
 30
0.0
 10
145.3027424041293
 20
-126.0875755240336
 30
0.0
 10
145.3027424041293
 20
-126.0462299684885
 30
0.0
  0
SPLINE
  5
111
330
1F
100
AcDbEntity
  8
_U+30EC_U+30A4_U+30E4_U+30FC 1
 62
   179
420
  2234388
370
     9
100
AcDbSpline
210
0.0
220
0.0
230
1.0
 70
    11
 71
     3
 72
    17
 73
    13
 74
     0
 42
0.0000000001
 43
0.0000000001
 12
1.0
 22
0.0
 32
0.0
 13
1.0
 23
0.0
 33
0.0
 40
0.0
 40
0.0
 40
0.0
 40
0.0
 40
1.0
 40
1.0
 40
1.0
 40
2.0
 40
2.0
 40
2.0
 40
3.0
 40
3.0
 40
3.0
 40
4.0
 40
4.0
 40
4.0
 40
4.0
 10
142.3027555362209
 20
-129.0460405232943
 30
0.0
 10
142.3027555362209
 20
-129.0043421899711
 30
0.0
 10
142.2693474815177
 20
-128.9712869122018
 30
0.0
 10
142.2280055199983
 20
-128.9712869122018
 30
0.0
 10
142.1863388725243
 20
-128.9712869122018
 30
0.0
 10
142.1525427622754
 20
-129.0043421899711
 30
0.0
 10
142.1525427622754
 20
-129.0460405232943
 30
0.0
 10
142.1525427622754
 20
-129.0877388566169
 30
0.0
 10
142.1863388725243
 20
-129.1211469121639
 30
0.0
 10
142.2280055199983
 20
-129.1211469121639
 30
0.0
 10
142.2693474815177
 20
-129.1211469121639
 30
0.0
 10
142.3027555362209
 20
-129.0877388566169
 30
0.0
 10
142.3027555362209
 20
-129.0460405232943
 30
0.0
  0
SPLINE
  5
112
330
1F
100
AcDbEntity
  8
_U+30EC_U+30A4_U+30E4_U+30FC 1
 62
   179
420
  2234388
370
     9
100
AcDbSpline
210
0.0
220
0.0
230
1.0
 70
    11
 71
     3
 72
    17
 73
    13
 74
     0
 42
0.0000000001
 43
0.0000000001
 12
1.0
 22
0.0
 32
0.0
 13
1.0
 23
0.0
 33
0.0
 40
0.0
 40
0.0
 40
0.0
 40
0.0
 40
1.0
 40
1.0
 40
1.0
 40
2.0
 40
2.0
 40
2.0
 40
3.0
 40
3.0
 40
3.0
 40
4.0
 40
4.0
 40
4.0
 40
4.0
 10
142.3027555362209
 20
-135.0463671884607
 30
0.0
 10
142.3027555362209
 20
-135.0046688551375
 30
0.0
 10
142.2693474815177
 20
-134.9712607995905
 30
0.0
 10
142.2280055199983
 20
-134.9712607995905
 30
0.0
 10
142.1863388725243
 20
-134.9712607995905
 30
0.0
 10
142.1525427622754
 20
-135.0046688551375
 30
0.0
 10
142.1525427622754
 20
-135.0463671884607
 30
0.0
 10
142.1525427622754
 20
-135.0877127440062
 30
0.0
 10
142.1863388725243
 20
-135.1207680217755
 30
0.0
 10
142.2280055199983
 20
-135.1207680217755
 30
0.0
 10
142.2693474815177
 20
-135.1207680217755
 30
0.0
 10
142.3027555362209
 20
-135.0877127440062
 30
0.0
 10
142.3027555362209
 20
-135.0463671884607
 30
0.0
  0
SPLINE
  5
113
330
1F
100
AcDbEntity
  8
_U+30EC_U+30A4_U+30E4_U+30FC 1
 62
   179
420
  2234388
370
     9
100
AcDbSpline
210
0.0
220
0.0
230
1.0
 70
    11
 71
     3
 72
    17
 73
    13
 74
     0
 42
0.0000000001
 43
0.0000000001
 12
1.0
 22
0.0
 32
0.0
 13
1.0
 23
0.0
 33
0.0
 40
0.0
 40
0.0
 40
0.0
 40
0.0
 40
1.0
 40
1.0
 40
1.0
 40
2.0
 40
2.0
 40
2.0
 40
3.0
 40
3.0
 40
3.0
 40
4.0
 40
4.0
 40
4.0
 40
4.0
 10
145.3027424041293
 20
-135.0463671884607
 30
0.0
 10
145.3027424041293
 20
-135.0046688551375
 30
0.0
 10
145.2693343494261
 20
-134.9712607995905
 30
0.0
 10
145.2276360171566
 20
-134.9712607995905
 30
0.0
 10
145.1863257404327
 20
-134.9712607995905
 30
0.0
 10
145.152886074823
 20
-135.0046688551375
 30
0.0
 10
145.152886074823
 20
-135.0463671884607
 30
0.0
 10
145.152886074823
 20
-135.0877127440062
 30
0.0
 10
145.1863257404327
 20
-135.1207680217755
 30
0.0
 10
145.2276360171566
 20
-135.1207680217755
 30
0.0
 10
145.2693343494261
 20
-135.1207680217755
 30
0.0
 10
145.3027424041293
 20
-135.0877127440062
 30
0.0
 10
145.3027424041293
 20
-135.0463671884607
 30
0.0
  0
SPLINE
  5
114
330
1F
100
AcDbEntity
  8
_U+30EC_U+30A4_U+30E4_U+30FC 1
 62
   179
420
  2234388
370
     9
100
AcDbSpline
210
0.0
220
0.0
230
1.0
 70
    11
 71
     3
 72
    17
 73
    13
 74
     0
 42
0.0000000001
 43
0.0000000001
 12
1.0
 22
0.0
 32
0.0
 13
1.0
 23
0.0
 33
0.0
 40
0.0
 40
0.0
 40
0.0
 40
0.0
 40
1.0
 40
1.0
 40
1.0
 40
2.0
 40
2.0
 40
2.0
 40
3.0
 40
3.0
 40
3.0
 40
4.0
 40
4.0
 40
4.0
 40
4.0
 10
138.5527666320284
 20
-138.0463541321551
 30
0.0
 10
138.5527666320284
 20
-138.0043382988323
 30
0.0
 10
138.519355077188
 20
-137.9712477432848
 30
0.0
 10
138.4776920226953
 20
-137.9712477432848
 30
0.0
 10
138.4363499653908
 20
-137.9712477432848
 30
0.0
 10
138.4025856357225
 20
-138.0043382988323
 30
0.0
 10
138.4025856357225
 20
-138.0463541321551
 30
0.0
 10
138.4025856357225
 20
-138.0876996877005
 30
0.0
 10
138.4363499653908
 20
-138.1211077432476
 30
0.0
 10
138.4776920226953
 20
-138.1211077432476
 30
0.0
 10
138.519355077188
 20
-138.1211077432476
 30
0.0
 10
138.5527666320284
 20
-138.0876996877005
 30
0.0
 10
138.5527666320284
 20
-138.0463541321551
 30
0.0
  0
SPLINE
  5
115
330
1F
100
AcDbEntity
  8
_U+30EC_U+30A4_U+30E4_U+30FC 1
 62
   179
420
  2234388
370
     9
100
AcDbSpline
210
0.0
220
0.0
230
1.0
 70
    11
 71
     3
 72
    17
 73
    13
 74
     0
 42
0.0000000001
 43
0.0000000001
 12
1.0
 22
0.0
 32
0.0
 13
1.0
 23
0.0
 33
0.0
 40
0.0
 40
0.0
 40
0.0
 40
0.0
 40
1.0
 40
1.0
 40
1.0
 40
2.0
 40
2.0
 40
2.0
 40
3.0
 40
3.0
 40
3.0
 40
4.0
 40
4.0
 40
4.0
 40
4.0
 10
128.8028322695215
 20
-138.0463541321551
 30
0.0
 10
128.8028322695215
 20
-138.0043382988323
 30
0.0
 10
128.7693889370414
 20
-137.9712477432848
 30
0.0
 10
128.7277258825488
 20
-137.9712477432848
 30
0.0
 10
128.686380328048
 20
-137.9712477432848
 30
0.0
 10
128.652619495576
 20
-138.0043382988323
 30
0.0
 10
128.652619495576
 20
-138.0463541321551
 30
0.0
 10
128.652619495576
 20
-138.0876996877005
 30
0.0
 10
128.686380328048
 20
-138.1211077432476
 30
0.0
 10
128.7277258825488
 20
-138.1211077432476
 30
0.0
 10
128.7693889370414
 20
-138.1211077432476
 30
0.0
 10
128.8028322695215
 20
-138.0876996877005
 30
0.0
 10
128.8028322695215
 20
-138.0463541321551
 30
0.0
  0
SPLINE
  5
116
330
1F
100
AcDbEntity
  8
_U+30EC_U+30A4_U+30E4_U+30FC 1
 62
   179
420
  2234388
370
     9
100
AcDbSpline
210
0.0
220
0.0
230
1.0
 70
    11
 71
     3
 72
    17
 73
    13
 74
     0
 42
0.0000000001
 43
0.0000000001
 12
1.0
 22
0.0
 32
0.0
 13
1.0
 23
0.0
 33
0.0
 40
0.0
 40
0.0
 40
0.0
 40
0.0
 40
1.0
 40
1.0
 40
1.0
 40
2.0
 40
2.0
 40
2.0
 40
3.0
 40
3.0
 40
3.0
 40
4.0
 40
4.0
 40
4.0
 40
4.0
 10
132.5527893960744
 20
-141.0459882980717
 30
0.0
 10
132.5527893960744
 20
-141.0046427425269
 30
0.0
 10
132.5190285636024
 20
-140.9712346869792
 30
0.0
 10
132.4776830091016
 20
-140.9712346869792
 30
0.0
 10
132.4363727323777
 20
-140.9712346869792
 30
0.0
 10
132.4029293998976
 20
-141.0046427425269
 30
0.0
 10
132.4029293998976
 20
-141.0459882980717
 30
0.0
 10
132.4029293998976
 20
-141.0876866313949
 30
0.0
 10
132.4363727323777
 20
-141.1214474647197
 30
0.0
 10
132.4776830091016
 20
-141.1214474647197
 30
0.0
 10
132.5190285636024
 20
-141.1214474647197
 30
0.0
 10
132.5527893960744
 20
-141.0876866313949
 30
0.0
 10
132.5527893960744
 20
-141.0459882980717
 30
0.0
  0
SPLINE
  5
117
330
1F
100
AcDbEntity
  8
_U+30EC_U+30A4_U+30E4_U+30FC 1
 62
   179
420
  2234388
370
     9
100
AcDbSpline
210
0.0
220
0.0
230
1.0
 70
    11
 71
     3
 72
    17
 73
    13
 74
     0
 42
0.0000000001
 43
0.0000000001
 12
1.0
 22
0.0
 32
0.0
 13
1.0
 23
0.0
 33
0.0
 40
0.0
 40
0.0
 40
0.0
 40
0.0
 40
1.0
 40
1.0
 40
1.0
 40
2.0
 40
2.0
 40
2.0
 40
3.0
 40
3.0
 40
3.0
 40
4.0
 40
4.0
 40
4.0
 40
4.0
 10
138.5527666320284
 20
-118.9210713591588
 30
0.0
 10
138.5527666320284
 20
-118.8797258036133
 30
0.0
 10
138.519355077188
 20
-118.8459649702885
 30
0.0
 10
138.4776920226953
 20
-118.8459649702885
 30
0.0
 10
138.4363499653908
 20
-118.8459649702885
 30
0.0
 10
138.4025856357225
 20
-118.8797258036133
 30
0.0
 10
138.4025856357225
 20
-118.9210713591588
 30
0.0
 10
138.4025856357225
 20
-118.9624169147039
 30
0.0
 10
138.4363499653908
 20
-118.9960013591398
 30
0.0
 10
138.4776920226953
 20
-118.9960013591398
 30
0.0
 10
138.519355077188
 20
-118.9960013591398
 30
0.0
 10
138.5527666320284
 20
-118.9624169147039
 30
0.0
 10
138.5527666320284
 20
-118.9210713591588
 30
0.0
  0
SPLINE
  5
118
330
1F
100
AcDbEntity
  8
_U+30EC_U+30A4_U+30E4_U+30FC 1
 62
   179
420
  2234388
370
     9
100
AcDbSpline
210
0.0
220
0.0
230
1.0
 70
    11
 71
     3
 72
    17
 73
    13
 74
     0
 42
0.0000000001
 43
0.0000000001
 12
1.0
 22
0.0
 32
0.0
 13
1.0
 23
0.0
 33
0.0
 40
0.0
 40
0.0
 40
0.0
 40
0.0
 40
1.0
 40
1.0
 40
1.0
 40
2.0
 40
2.0
 40
2.0
 40
3.0
 40
3.0
 40
3.0
 40
4.0
 40
4.0
 40
4.0
 40
4.0
 10
53.80273723848893
 20
-138.0463541321551
 30
0.0
 10
53.80273723848893
 20
-138.0043382988323
 30
0.0
 10
53.7691527949013
 20
-137.9712477432848
 30
0.0
 10
53.72780724040055
 20
-137.9712477432848
 30
0.0
 10
53.68628529701542
 20
-137.9712477432848
 30
0.0
 10
53.65270085342779
 20
-138.0043382988323
 30
0.0
 10
53.65270085342779
 20
-138.0463541321551
 30
0.0
 10
53.65270085342779
 20
-138.0876996877005
 30
0.0
 10
53.68628529701542
 20
-138.1211077432476
 30
0.0
 10
53.72780724040055
 20
-138.1211077432476
 30
0.0
 10
53.7691527949013
 20
-138.1211077432476
 30
0.0
 10
53.80273723848893
 20
-138.0876996877005
 30
0.0
 10
53.80273723848893
 20
-138.0463541321551
 30
0.0
  0
SPLINE
  5
119
330
1F
100
AcDbEntity
  8
_U+30EC_U+30A4_U+30E4_U+30FC 1
 62
   179
420
  2234388
370
     9
100
AcDbSpline
210
0.0
220
0.0
230
1.0
 70
    11
 71
     3
 72
    17
 73
    13
 74
     0
 42
0.0000000001
 43
0.0000000001
 12
1.0
 22
0.0
 32
0.0
 13
1.0
 23
0.0
 33
0.0
 40
0.0
 40
0.0
 40
0.0
 40
0.0
 40
1.0
 40
1.0
 40
1.0
 40
2.0
 40
2.0
 40
2.0
 40
3.0
 40
3.0
 40
3.0
 40
4.0
 40
4.0
 40
4.0
 40
4.0
 10
53.80273723848893
 20
-141.0459882980717
 30
0.0
 10
53.80273723848893
 20
-141.0046427425269
 30
0.0
 10
53.7691527949013
 20
-140.9712346869792
 30
0.0
 10
53.72780724040055
 20
-140.9712346869792
 30
0.0
 10
53.68628529701542
 20
-140.9712346869792
 30
0.0
 10
53.65270085342779
 20
-141.0046427425269
 30
0.0
 10
53.65270085342779
 20
-141.0459882980717
 30
0.0
 10
53.65270085342779
 20
-141.0876866313949
 30
0.0
 10
53.68628529701542
 20
-141.1214474647197
 30
0.0
 10
53.72780724040055
 20
-141.1214474647197
 30
0.0
 10
53.7691527949013
 20
-141.1214474647197
 30
0.0
 10
53.80273723848893
 20
-141.0876866313949
 30
0.0
 10
53.80273723848893
 20
-141.0459882980717
 30
0.0
  0
SPLINE
  5
11A
330
1F
100
AcDbEntity
  8
_U+30EC_U+30A4_U+30E4_U+30FC 1
 62
   179
420
  2234388
370
     9
100
AcDbSpline
210
0.0
220
0.0
230
1.0
 70
    11
 71
     3
 72
    17
 73
    13
 74
     0
 42
0.0000000001
 43
0.0000000001
 12
1.0
 22
0.0
 32
0.0
 13
1.0
 23
0.0
 33
0.0
 40
0.0
 40
0.0
 40
0.0
 40
0.0
 40
1.0
 40
1.0
 40
1.0
 40
2.0
 40
2.0
 40
2.0
 40
3.0
 40
3.0
 40
3.0
 40
4.0
 40
4.0
 40
4.0
 40
4.0
 10
45.55278332194521
 20
-118.9210713591588
 30
0.0
 10
45.55278332194521
 20
-118.8797258036133
 30
0.0
 10
45.51919772759741
 20
-118.8459649702885
 30
0.0
 10
45.47785217309666
 20
-118.8459649702885
 30
0.0
 10
45.43633022971153
 20
-118.8459649702885
 30
0.0
 10
45.4027457861239
 20
-118.8797258036133
 30
0.0
 10
45.4027457861239
 20
-118.9210713591588
 30
0.0
 10
45.4027457861239
 20
-118.9624169147039
 30
0.0
 10
45.43633022971153
 20
-118.9960013591398
 30
0.0
 10
45.47785217309666
 20
-118.9960013591398
 30
0.0
 10
45.51919772759741
 20
-118.9960013591398
 30
0.0
 10
45.55278332194521
 20
-118.9624169147039
 30
0.0
 10
45.55278332194521
 20
-118.9210713591588
 30
0.0
  0
SPLINE
  5
11B
330
1F
100
AcDbEntity
  8
_U+30EC_U+30A4_U+30E4_U+30FC 1
 62
   179
420
  2234388
370
     9
100
AcDbSpline
210
0.0
220
0.0
230
1.0
 70
    11
 71
     3
 72
    17
 73
    13
 74
     0
 42
0.0000000001
 43
0.0000000001
 12
1.0
 22
0.0
 32
0.0
 13
1.0
 23
0.0
 33
0.0
 40
0.0
 40
0.0
 40
0.0
 40
0.0
 40
1.0
 40
1.0
 40
1.0
 40
2.0
 40
2.0
 40
2.0
 40
3.0
 40
3.0
 40
3.0
 40
4.0
 40
4.0
 40
4.0
 40
4.0
 10
45.55278332194521
 20
-121.9210583028531
 30
0.0
 10
45.55278332194521
 20
-121.879712747308
 30
0.0
 10
45.51919772759741
 20
-121.8461283028717
 30
0.0
 10
45.47785217309666
 20
-121.8461283028717
 30
0.0
 10
45.43633022971153
 20
-121.8461283028717
 30
0.0
 10
45.4027457861239
 20
-121.879712747308
 30
0.0
 10
45.4027457861239
 20
-121.9210583028531
 30
0.0
 10
45.4027457861239
 20
-121.9625802472871
 30
0.0
 10
45.43633022971153
 20
-121.9961646917231
 30
0.0
 10
45.47785217309666
 20
-121.9961646917231
 30
0.0
 10
45.51919772759741
 20
-121.9961646917231
 30
0.0
 10
45.55278332194521
 20
-121.9625802472871
 30
0.0
 10
45.55278332194521
 20
-121.9210583028531
 30
0.0
  0
SPLINE
  5
11C
330
1F
100
AcDbEntity
  8
_U+30EC_U+30A4_U+30E4_U+30FC 1
 62
   179
420
  2234388
370
     9
100
AcDbSpline
210
0.0
220
0.0
230
1.0
 70
    11
 71
     3
 72
    17
 73
    13
 74
     0
 42
0.0000000001
 43
0.0000000001
 12
1.0
 22
0.0
 32
0.0
 13
1.0
 23
0.0
 33
0.0
 40
0.0
 40
0.0
 40
0.0
 40
0.0
 40
1.0
 40
1.0
 40
1.0
 40
2.0
 40
2.0
 40
2.0
 40
3.0
 40
3.0
 40
3.0
 40
4.0
 40
4.0
 40
4.0
 40
4.0
 10
60.55271651072706
 20
-121.9210583028531
 30
0.0
 10
60.55271651072706
 20
-121.879712747308
 30
0.0
 10
60.51913206713942
 20
-121.8461283028717
 30
0.0
 10
60.47778651263868
 20
-121.8461283028717
 30
0.0
 10
60.43626456925355
 20
-121.8461283028717
 30
0.0
 10
60.40268012566592
 20
-121.879712747308
 30
0.0
 10
60.40268012566592
 20
-121.9210583028531
 30
0.0
 10
60.40268012566592
 20
-121.9625802472871
 30
0.0
 10
60.43626456925355
 20
-121.9961646917231
 30
0.0
 10
60.47778651263868
 20
-121.9961646917231
 30
0.0
 10
60.51913206713942
 20
-121.9961646917231
 30
0.0
 10
60.55271651072706
 20
-121.9625802472871
 30
0.0
 10
60.55271651072706
 20
-121.9210583028531
 30
0.0
  0
SPLINE
  5
11D
330
1F
100
AcDbEntity
  8
_U+30EC_U+30A4_U+30E4_U+30FC 1
 62
   179
420
  2234388
370
     9
100
AcDbSpline
210
0.0
220
0.0
230
1.0
 70
    11
 71
     3
 72
    17
 73
    13
 74
     0
 42
0.0000000001
 43
0.0000000001
 12
1.0
 22
0.0
 32
0.0
 13
1.0
 23
0.0
 33
0.0
 40
0.0
 40
0.0
 40
0.0
 40
0.0
 40
1.0
 40
1.0
 40
1.0
 40
2.0
 40
2.0
 40
2.0
 40
3.0
 40
3.0
 40
3.0
 40
4.0
 40
4.0
 40
4.0
 40
4.0
 10
45.55278332194521
 20
-132.0460274669886
 30
0.0
 10
45.55278332194521
 20
-132.0046819114432
 30
0.0
 10
45.51919772759741
 20
-131.9712738558961
 30
0.0
 10
45.47785217309666
 20
-131.9712738558961
 30
0.0
 10
45.43633022971153
 20
-131.9712738558961
 30
0.0
 10
45.4027457861239
 20
-132.0046819114432
 30
0.0
 10
45.4027457861239
 20
-132.0460274669886
 30
0.0
 10
45.4027457861239
 20
-132.0877258003112
 30
0.0
 10
45.43633022971153
 20
-132.1211338558589
 30
0.0
 10
45.47785217309666
 20
-132.1211338558589
 30
0.0
 10
45.51919772759741
 20
-132.1211338558589
 30
0.0
 10
45.55278332194521
 20
-132.0877258003112
 30
0.0
 10
45.55278332194521
 20
-132.0460274669886
 30
0.0
  0
SPLINE
  5
11E
330
1F
100
AcDbEntity
  8
_U+30EC_U+30A4_U+30E4_U+30FC 1
 62
   179
420
  2234388
370
     9
100
AcDbSpline
210
0.0
220
0.0
230
1.0
 70
    11
 71
     3
 72
    17
 73
    13
 74
     0
 42
0.0000000001
 43
0.0000000001
 12
1.0
 22
0.0
 32
0.0
 13
1.0
 23
0.0
 33
0.0
 40
0.0
 40
0.0
 40
0.0
 40
0.0
 40
1.0
 40
1.0
 40
1.0
 40
2.0
 40
2.0
 40
2.0
 40
3.0
 40
3.0
 40
3.0
 40
4.0
 40
4.0
 40
4.0
 40
4.0
 10
49.30277457551476
 20
-132.0460274669886
 30
0.0
 10
49.30277457551476
 20
-132.0046819114432
 30
0.0
 10
49.26915485415025
 20
-131.9712738558961
 30
0.0
 10
49.22766943213741
 20
-131.9712738558961
 30
0.0
 10
49.18632263404125
 20
-131.9712738558961
 30
0.0
 10
49.15273819045363
 20
-132.0046819114432
 30
0.0
 10
49.15273819045363
 20
-132.0460274669886
 30
0.0
 10
49.15273819045363
 20
-132.0877258003112
 30
0.0
 10
49.18632263404125
 20
-132.1211338558589
 30
0.0
 10
49.22766943213741
 20
-132.1211338558589
 30
0.0
 10
49.26915485415025
 20
-132.1211338558589
 30
0.0
 10
49.30277457551476
 20
-132.0877258003112
 30
0.0
 10
49.30277457551476
 20
-132.0460274669886
 30
0.0
  0
SPLINE
  5
11F
330
1F
100
AcDbEntity
  8
_U+30EC_U+30A4_U+30E4_U+30FC 1
 62
   179
420
  2234388
370
     9
100
AcDbSpline
210
0.0
220
0.0
230
1.0
 70
    11
 71
     3
 72
    17
 73
    13
 74
     0
 42
0.0000000001
 43
0.0000000001
 12
1.0
 22
0.0
 32
0.0
 13
1.0
 23
0.0
 33
0.0
 40
0.0
 40
0.0
 40
0.0
 40
0.0
 40
1.0
 40
1.0
 40
1.0
 40
2.0
 40
2.0
 40
2.0
 40
3.0
 40
3.0
 40
3.0
 40
4.0
 40
4.0
 40
4.0
 40
4.0
 10
39.55280843536823
 20
-124.9210452465474
 30
0.0
 10
39.55280843536823
 20
-124.8796996910023
 30
0.0
 10
39.51904760289621
 20
-124.8461152465664
 30
0.0
 10
39.47770204839547
 20
-124.8461152465664
 30
0.0
 10
39.43635649389473
 20
-124.8461152465664
 30
0.0
 10
39.40277205030709
 20
-124.8796996910023
 30
0.0
 10
39.40277205030709
 20
-124.9210452465474
 30
0.0
 10
39.40277205030709
 20
-124.9623908020929
 30
0.0
 10
39.43635649389473
 20
-124.9961516354177
 30
0.0
 10
39.47770204839547
 20
-124.9961516354177
 30
0.0
 10
39.51904760289621
 20
-124.9961516354177
 30
0.0
 10
39.55280843536823
 20
-124.9623908020929
 30
0.0
 10
39.55280843536823
 20
-124.9210452465474
 30
0.0
  0
SPLINE
  5
120
330
1F
100
AcDbEntity
  8
_U+30EC_U+30A4_U+30E4_U+30FC 1
 62
   179
420
  2234388
370
     9
100
AcDbSpline
210
0.0
220
0.0
230
1.0
 70
    11
 71
     3
 72
    17
 73
    13
 74
     0
 42
0.0000000001
 43
0.0000000001
 12
1.0
 22
0.0
 32
0.0
 13
1.0
 23
0.0
 33
0.0
 40
0.0
 40
0.0
 40
0.0
 40
0.0
 40
1.0
 40
1.0
 40
1.0
 40
2.0
 40
2.0
 40
2.0
 40
3.0
 40
3.0
 40
3.0
 40
4.0
 40
4.0
 40
4.0
 40
4.0
 10
42.55279530327664
 20
-124.9210452465474
 30
0.0
 10
42.55279530327664
 20
-124.8796996910023
 30
0.0
 10
42.519210859689
 20
-124.8461152465664
 30
0.0
 10
42.47768891630387
 20
-124.8461152465664
 30
0.0
 10
42.43634443383549
 20
-124.8461152465664
 30
0.0
 10
42.4027589182155
 20
-124.8796996910023
 30
0.0
 10
42.4027589182155
 20
-124.9210452465474
 30
0.0
 10
42.4027589182155
 20
-124.9623908020929
 30
0.0
 10
42.43634443383549
 20
-124.9961516354177
 30
0.0
 10
42.47768891630387
 20
-124.9961516354177
 30
0.0
 10
42.519210859689
 20
-124.9961516354177
 30
0.0
 10
42.55279530327664
 20
-124.9623908020929
 30
0.0
 10
42.55279530327664
 20
-124.9210452465474
 30
0.0
  0
SPLINE
  5
121
330
1F
100
AcDbEntity
  8
_U+30EC_U+30A4_U+30E4_U+30FC 1
 62
   179
420
  2234388
370
     9
100
AcDbSpline
210
0.0
220
0.0
230
1.0
 70
    11
 71
     3
 72
    17
 73
    13
 74
     0
 42
0.0000000001
 43
0.0000000001
 12
1.0
 22
0.0
 32
0.0
 13
1.0
 23
0.0
 33
0.0
 40
0.0
 40
0.0
 40
0.0
 40
0.0
 40
1.0
 40
1.0
 40
1.0
 40
2.0
 40
2.0
 40
2.0
 40
3.0
 40
3.0
 40
3.0
 40
4.0
 40
4.0
 40
4.0
 40
4.0
 10
42.55279530327664
 20
-127.1710619126518
 30
0.0
 10
42.55279530327664
 20
-127.1297163571064
 30
0.0
 10
42.519210859689
 20
-127.0961319126704
 30
0.0
 10
42.47768891630387
 20
-127.0961319126704
 30
0.0
 10
42.43634443383549
 20
-127.0961319126704
 30
0.0
 10
42.4027589182155
 20
-127.1297163571064
 30
0.0
 10
42.4027589182155
 20
-127.1710619126518
 30
0.0
 10
42.4027589182155
 20
-127.2124074681969
 30
0.0
 10
42.43634443383549
 20
-127.2461683015218
 30
0.0
 10
42.47768891630387
 20
-127.2461683015218
 30
0.0
 10
42.519210859689
 20
-127.2461683015218
 30
0.0
 10
42.55279530327664
 20
-127.2124074681969
 30
0.0
 10
42.55279530327664
 20
-127.1710619126518
 30
0.0
  0
SPLINE
  5
122
330
1F
100
AcDbEntity
  8
_U+30EC_U+30A4_U+30E4_U+30FC 1
 62
   179
420
  2234388
370
     9
100
AcDbSpline
210
0.0
220
0.0
230
1.0
 70
    11
 71
     3
 72
    17
 73
    13
 74
     0
 42
0.0000000001
 43
0.0000000001
 12
1.0
 22
0.0
 32
0.0
 13
1.0
 23
0.0
 33
0.0
 40
0.0
 40
0.0
 40
0.0
 40
0.0
 40
1.0
 40
1.0
 40
1.0
 40
2.0
 40
2.0
 40
2.0
 40
3.0
 40
3.0
 40
3.0
 40
4.0
 40
4.0
 40
4.0
 40
4.0
 10
39.55280843536823
 20
-135.0463671884607
 30
0.0
 10
39.55280843536823
 20
-135.0046688551375
 30
0.0
 10
39.51904760289621
 20
-134.9712607995905
 30
0.0
 10
39.47770204839547
 20
-134.9712607995905
 30
0.0
 10
39.43635649389473
 20
-134.9712607995905
 30
0.0
 10
39.40277205030709
 20
-135.0046688551375
 30
0.0
 10
39.40277205030709
 20
-135.0463671884607
 30
0.0
 10
39.40277205030709
 20
-135.0877127440062
 30
0.0
 10
39.43635649389473
 20
-135.1207680217755
 30
0.0
 10
39.47770204839547
 20
-135.1207680217755
 30
0.0
 10
39.51904760289621
 20
-135.1207680217755
 30
0.0
 10
39.55280843536823
 20
-135.0877127440062
 30
0.0
 10
39.55280843536823
 20
-135.0463671884607
 30
0.0
  0
SPLINE
  5
123
330
1F
100
AcDbEntity
  8
_U+30EC_U+30A4_U+30E4_U+30FC 1
 62
   179
420
  2234388
370
     9
100
AcDbSpline
210
0.0
220
0.0
230
1.0
 70
    11
 71
     3
 72
    17
 73
    13
 74
     0
 42
0.0000000001
 43
0.0000000001
 12
1.0
 22
0.0
 32
0.0
 13
1.0
 23
0.0
 33
0.0
 40
0.0
 40
0.0
 40
0.0
 40
0.0
 40
1.0
 40
1.0
 40
1.0
 40
2.0
 40
2.0
 40
2.0
 40
3.0
 40
3.0
 40
3.0
 40
4.0
 40
4.0
 40
4.0
 40
4.0
 10
42.55279530327664
 20
-135.0463671884607
 30
0.0
 10
42.55279530327664
 20
-135.0046688551375
 30
0.0
 10
42.519210859689
 20
-134.9712607995905
 30
0.0
 10
42.47768891630387
 20
-134.9712607995905
 30
0.0
 10
42.43634443383549
 20
-134.9712607995905
 30
0.0
 10
42.4027589182155
 20
-135.0046688551375
 30
0.0
 10
42.4027589182155
 20
-135.0463671884607
 30
0.0
 10
42.4027589182155
 20
-135.0877127440062
 30
0.0
 10
42.43634443383549
 20
-135.1207680217755
 30
0.0
 10
42.47768891630387
 20
-135.1207680217755
 30
0.0
 10
42.519210859689
 20
-135.1207680217755
 30
0.0
 10
42.55279530327664
 20
-135.0877127440062
 30
0.0
 10
42.55279530327664
 20
-135.0463671884607
 30
0.0
  0
SPLINE
  5
124
330
1F
100
AcDbEntity
  8
_U+30EC_U+30A4_U+30E4_U+30FC 1
 62
   179
420
  2234388
370
     9
100
AcDbSpline
210
0.0
220
0.0
230
1.0
 70
    11
 71
     3
 72
    17
 73
    13
 74
     0
 42
0.0000000001
 43
0.0000000001
 12
1.0
 22
0.0
 32
0.0
 13
1.0
 23
0.0
 33
0.0
 40
0.0
 40
0.0
 40
0.0
 40
0.0
 40
1.0
 40
1.0
 40
1.0
 40
2.0
 40
2.0
 40
2.0
 40
3.0
 40
3.0
 40
3.0
 40
4.0
 40
4.0
 40
4.0
 40
4.0
 10
45.50833332195625
 20
-138.0463541321551
 30
0.0
 10
45.50833332195625
 20
-138.0046557988319
 30
0.0
 10
45.47474772873142
 20
-137.9712477432848
 30
0.0
 10
45.43322578534629
 20
-137.9712477432848
 30
0.0
 10
45.39188023084554
 20
-137.9712477432848
 30
0.0
 10
45.35829578725792
 20
-138.0046557988319
 30
0.0
 10
45.35829578725792
 20
-138.0463541321551
 30
0.0
 10
45.35829578725792
 20
-138.0876996877005
 30
0.0
 10
45.39188023084554
 20
-138.1207549654698
 30
0.0
 10
45.43322578534629
 20
-138.1207549654698
 30
0.0
 10
45.47474772873142
 20
-138.1207549654698
 30
0.0
 10
45.50833332195625
 20
-138.0876996877005
 30
0.0
 10
45.50833332195625
 20
-138.0463541321551
 30
0.0
  0
SPLINE
  5
125
330
1F
100
AcDbEntity
  8
_U+30EC_U+30A4_U+30E4_U+30FC 1
 62
   179
420
  2234388
370
     9
100
AcDbSpline
210
0.0
220
0.0
230
1.0
 70
    11
 71
     3
 72
    17
 73
    13
 74
     0
 42
0.0000000001
 43
0.0000000001
 12
1.0
 22
0.0
 32
0.0
 13
1.0
 23
0.0
 33
0.0
 40
0.0
 40
0.0
 40
0.0
 40
0.0
 40
1.0
 40
1.0
 40
1.0
 40
2.0
 40
2.0
 40
2.0
 40
3.0
 40
3.0
 40
3.0
 40
4.0
 40
4.0
 40
4.0
 40
4.0
 10
42.55279530327664
 20
-129.0460405232943
 30
0.0
 10
42.55279530327664
 20
-129.0043421899711
 30
0.0
 10
42.519210859689
 20
-128.9712869122018
 30
0.0
 10
42.47768891630387
 20
-128.9712869122018
 30
0.0
 10
42.43634443383549
 20
-128.9712869122018
 30
0.0
 10
42.4027589182155
 20
-129.0043421899711
 30
0.0
 10
42.4027589182155
 20
-129.0460405232943
 30
0.0
 10
42.4027589182155
 20
-129.0877388566169
 30
0.0
 10
42.43634443383549
 20
-129.1211469121639
 30
0.0
 10
42.47768891630387
 20
-129.1211469121639
 30
0.0
 10
42.519210859689
 20
-129.1211469121639
 30
0.0
 10
42.55279530327664
 20
-129.0877388566169
 30
0.0
 10
42.55279530327664
 20
-129.0460405232943
 30
0.0
  0
SPLINE
  5
126
330
1F
100
AcDbEntity
  8
_U+30EC_U+30A4_U+30E4_U+30FC 1
 62
   179
420
  2234388
370
     9
100
AcDbSpline
210
0.0
220
0.0
230
1.0
 70
    11
 71
     3
 72
    17
 73
    13
 74
     0
 42
0.0000000001
 43
0.0000000001
 12
1.0
 22
0.0
 32
0.0
 13
1.0
 23
0.0
 33
0.0
 40
0.0
 40
0.0
 40
0.0
 40
0.0
 40
1.0
 40
1.0
 40
1.0
 40
2.0
 40
2.0
 40
2.0
 40
3.0
 40
3.0
 40
3.0
 40
4.0
 40
4.0
 40
4.0
 40
4.0
 10
63.55270337863546
 20
-125.6710508019156
 30
0.0
 10
63.55270337863546
 20
-125.6297052463705
 30
0.0
 10
63.51929532393221
 20
-125.5959444130456
 30
0.0
 10
63.47777498413053
 20
-125.5959444130456
 30
0.0
 10
63.43625143716195
 20
-125.5959444130456
 30
0.0
 10
63.40284338245871
 20
-125.6297052463705
 30
0.0
 10
63.40284338245871
 20
-125.6710508019156
 30
0.0
 10
63.40284338245871
 20
-125.7125727463496
 30
0.0
 10
63.43625143716195
 20
-125.7459808018969
 30
0.0
 10
63.47777498413053
 20
-125.7459808018969
 30
0.0
 10
63.51929532393221
 20
-125.7459808018969
 30
0.0
 10
63.55270337863546
 20
-125.7125727463496
 30
0.0
 10
63.55270337863546
 20
-125.6710508019156
 30
0.0
  0
SPLINE
  5
127
330
1F
100
AcDbEntity
  8
_U+30EC_U+30A4_U+30E4_U+30FC 1
 62
   179
420
  2234388
370
     9
100
AcDbSpline
210
0.0
220
0.0
230
1.0
 70
    11
 71
     3
 72
    17
 73
    13
 74
     0
 42
0.0000000001
 43
0.0000000001
 12
1.0
 22
0.0
 32
0.0
 13
1.0
 23
0.0
 33
0.0
 40
0.0
 40
0.0
 40
0.0
 40
0.0
 40
1.0
 40
1.0
 40
1.0
 40
2.0
 40
2.0
 40
2.0
 40
3.0
 40
3.0
 40
3.0
 40
4.0
 40
4.0
 40
4.0
 40
4.0
 10
63.55270337863546
 20
-129.0460405232943
 30
0.0
 10
63.55270337863546
 20
-129.0043421899711
 30
0.0
 10
63.51929532393221
 20
-128.9712869122018
 30
0.0
 10
63.47777498413053
 20
-128.9712869122018
 30
0.0
 10
63.43625143716195
 20
-128.9712869122018
 30
0.0
 10
63.40284338245871
 20
-129.0043421899711
 30
0.0
 10
63.40284338245871
 20
-129.0460405232943
 30
0.0
 10
63.40284338245871
 20
-129.0877388566169
 30
0.0
 10
63.43625143716195
 20
-129.1211469121639
 30
0.0
 10
63.47777498413053
 20
-129.1211469121639
 30
0.0
 10
63.51929532393221
 20
-129.1211469121639
 30
0.0
 10
63.55270337863546
 20
-129.0877388566169
 30
0.0
 10
63.55270337863546
 20
-129.0460405232943
 30
0.0
  0
POLYLINE
  5
128
330
1F
100
AcDbEntity
  8
_U+30EC_U+30A4_U+30E4_U+30FC 1
 62
   179
420
  2234388
370
     9
100
AcDb2dPolyline
 66
     1
 10
0.0
 20
0.0
 30
0.0
  0
VERTEX
  5
129
330
128
100
AcDbEntity
  8
_U+30EC_U+30A4_U+30E4_U+30FC 1
 62
   179
420
  2234388
370
     9
100
AcDbVertex
100
AcDb2dVertex
 10
45.50833332195625
 20
-138.0463541321551
 30
0.0
  0
VERTEX
  5
12A
330
128
100
AcDbEntity
  8
_U+30EC_U+30A4_U+30E4_U+30FC 1
 62
   179
420
  2234388
370
     9
100
AcDbVertex
100
AcDb2dVertex
 10
128.7277258825488
 20
-138.0463541321551
 30
0.0
  0
SEQEND
  5
12B
330
128
100
AcDbEntity
  8
_U+30EC_U+30A4_U+30E4_U+30FC 1
 62
   179
420
  2234388
370
     9
  0
POLYLINE
  5
12C
330
1F
100
AcDbEntity
  8
_U+30EC_U+30A4_U+30E4_U+30FC 1
 62
   179
420
  2234388
370
     9
100
AcDb2dPolyline
 66
     1
 10
0.0
 20
0.0
 30
0.0
  0
VERTEX
  5
12D
330
12C
100
AcDbEntity
  8
_U+30EC_U+30A4_U+30E4_U+30FC 1
 62
   179
420
  2234388
370
     9
100
AcDbVertex
100
AcDb2dVertex
 10
53.72780724040055
 20
-136.951155521318
 30
0.0
  0
VERTEX
  5
12E
330
12C
100
AcDbEntity
  8
_U+30EC_U+30A4_U+30E4_U+30FC 1
 62
   179
420
  2234388
370
     9
100
AcDbVertex
100
AcDb2dVertex
 10
53.72780724040055
 20
-138.7960069097454
 30
0.0
  0
SEQEND
  5
12F
330
12C
100
AcDbEntity
  8
_U+30EC_U+30A4_U+30E4_U+30FC 1
 62
   179
420
  2234388
370
     9
  0
POLYLINE
  5
130
330
1F
100
AcDbEntity
  8
_U+30EC_U+30A4_U+30E4_U+30FC 1
 62
   179
420
  2234388
370
     9
100
AcDb2dPolyline
 66
     1
 10
0.0
 20
0.0
 30
0.0
  0
VERTEX
  5
131
330
130
100
AcDbEntity
  8
_U+30EC_U+30A4_U+30E4_U+30FC 1
 62
   179
420
  2234388
370
     9
100
AcDbVertex
100
AcDb2dVertex
 10
128.7277258825488
 20
-136.951155521318
 30
0.0
  0
VERTEX
  5
132
330
130
100
AcDbEntity
  8
_U+30EC_U+30A4_U+30E4_U+30FC 1
 62
   179
420
  2234388
370
     9
100
AcDbVertex
100
AcDb2dVertex
 10
128.7277258825488
 20
-138.7960069097454
 30
0.0
  0
SEQEND
  5
133
330
130
100
AcDbEntity
  8
_U+30EC_U+30A4_U+30E4_U+30FC 1
 62
   179
420
  2234388
370
     9
  0
INSERT
  5
135
330
1F
100
AcDbEntity
  8
_U+30EC_U+30A4_U+30E4_U+30FC 1
100
AcDbBlockReference
  2
block 2
 10
0.0
 20
0.0
 30
0.0
  0
POLYLINE
  5
140
330
1F
100
AcDbEntity
  8
_U+30EC_U+30A4_U+30E4_U+30FC 1
 62
   179
420
  2234388
370
     9
100
AcDb2dPolyline
 66
     1
 10
0.0
 20
0.0
 30
0.0
  0
VERTEX
  5
141
330
140
100
AcDbEntity
  8
_U+30EC_U+30A4_U+30E4_U+30FC 1
 62
   179
420
  2234388
370
     9
100
AcDbVertex
100
AcDb2dVertex
 10
53.72780724040055
 20
-141.0459882980717
 30
0.0
  0
VERTEX
  5
142
330
140
100
AcDbEntity
  8
_U+30EC_U+30A4_U+30E4_U+30FC 1
 62
   179
420
  2234388
370
     9
100
AcDbVertex
100
AcDb2dVertex
 10
132.4776830091016
 20
-141.0459882980717
 30
0.0
  0
SEQEND
  5
143
330
140
100
AcDbEntity
  8
_U+30EC_U+30A4_U+30E4_U+30FC 1
 62
   179
420
  2234388
370
     9
  0
POLYLINE
  5
144
330
1F
100
AcDbEntity
  8
_U+30EC_U+30A4_U+30E4_U+30FC 1
 62
   179
420
  2234388
370
     9
100
AcDb2dPolyline
 66
     1
 10
0.0
 20
0.0
 30
0.0
  0
VERTEX
  5
145
330
144
100
AcDbEntity
  8
_U+30EC_U+30A4_U+30E4_U+30FC 1
 62
   179
420
  2234388
370
     9
100
AcDbVertex
100
AcDb2dVertex
 10
53.72780724040055
 20
-136.951155521318
 30
0.0
  0
VERTEX
  5
146
330
144
100
AcDbEntity
  8
_U+30EC_U+30A4_U+30E4_U+30FC 1
 62
   179
420
  2234388
370
     9
100
AcDbVertex
100
AcDb2dVertex
 10
53.72780724040055
 20
-141.7959938534398
 30
0.0
  0
SEQEND
  5
147
330
144
100
AcDbEntity
  8
_U+30EC_U+30A4_U+30E4_U+30FC 1
 62
   179
420
  2234388
370
     9
  0
POLYLINE
  5
148
330
1F
100
AcDbEntity
  8
_U+30EC_U+30A4_U+30E4_U+30FC 1
 62
   179
420
  2234388
370
     9
100
AcDb2dPolyline
 66
     1
 10
0.0
 20
0.0
 30
0.0
  0
VERTEX
  5
149
330
148
100
AcDbEntity
  8
_U+30EC_U+30A4_U+30E4_U+30FC 1
 62
   179
420
  2234388
370
     9
100
AcDbVertex
100
AcDb2dVertex
 10
132.4776830091016
 20
-136.951155521318
 30
0.0
  0
VERTEX
  5
14A
330
148
100
AcDbEntity
  8
_U+30EC_U+30A4_U+30E4_U+30FC 1
 62
   179
420
  2234388
370
     9
100
AcDbVertex
100
AcDb2dVertex
 10
132.4776830091016
 20
-141.7959938534398
 30
0.0
  0
SEQEND
  5
14B
330
148
100
AcDbEntity
  8
_U+30EC_U+30A4_U+30E4_U+30FC 1
 62
   179
420
  2234388
370
     9
  0
INSERT
  5
14D
330
1F
100
AcDbEntity
  8
_U+30EC_U+30A4_U+30E4_U+30FC 1
100
AcDbBlockReference
  2
block 3
 10
0.0
 20
0.0
 30
0.0
  0
POLYLINE
  5
175
330
1F
100
AcDbEntity
  8
_U+30EC_U+30A4_U+30E4_U+30FC 1
 62
   179
420
  2234388
370
     9
100
AcDb2dPolyline
 66
     1
 10
0.0
 20
0.0
 30
0.0
  0
VERTEX
  5
176
330
175
100
AcDbEntity
  8
_U+30EC_U+30A4_U+30E4_U+30FC 1
 62
   179
420
  2234388
370
     9
100
AcDbVertex
100
AcDb2dVertex
 10
63.47777498413053
 20
-125.6710508019156
 30
0.0
  0
VERTEX
  5
177
330
175
100
AcDbEntity
  8
_U+30EC_U+30A4_U+30E4_U+30FC 1
 62
   179
420
  2234388
370
     9
100
AcDbVertex
100
AcDb2dVertex
 10
63.47777498413053
 20
-121.7276302473458
 30
0.0
  0
SEQEND
  5
178
330
175
100
AcDbEntity
  8
_U+30EC_U+30A4_U+30E4_U+30FC 1
 62
   179
420
  2234388
370
     9
  0
POLYLINE
  5
179
330
1F
100
AcDbEntity
  8
_U+30EC_U+30A4_U+30E4_U+30FC 1
 62
   179
420
  2234388
370
     9
100
AcDb2dPolyline
 66
     1
 10
0.0
 20
0.0
 30
0.0
  0
VERTEX
  5
17A
330
179
100
AcDbEntity
  8
_U+30EC_U+30A4_U+30E4_U+30FC 1
 62
   179
420
  2234388
370
     9
100
AcDbVertex
100
AcDb2dVertex
 10
63.47777498413053
 20
-125.6710508019156
 30
0.0
  0
VERTEX
  5
17B
330
179
100
AcDbEntity
  8
_U+30EC_U+30A4_U+30E4_U+30FC 1
 62
   179
420
  2234388
370
     9
100
AcDbVertex
100
AcDb2dVertex
 10
63.47777498413053
 20
-129.0460405232943
 30
0.0
  0
SEQEND
  5
17C
330
179
100
AcDbEntity
  8
_U+30EC_U+30A4_U+30E4_U+30FC 1
 62
   179
420
  2234388
370
     9
  0
POLYLINE
  5
17D
330
1F
100
AcDbEntity
  8
_U+30EC_U+30A4_U+30E4_U+30FC 1
 62
   179
420
  2234388
370
     9
100
AcDb2dPolyline
 66
     1
 10
0.0
 20
0.0
 30
0.0
  0
VERTEX
  5
17E
330
17D
100
AcDbEntity
  8
_U+30EC_U+30A4_U+30E4_U+30FC 1
 62
   179
420
  2234388
370
     9
100
AcDbVertex
100
AcDb2dVertex
 10
61.63274720681416
 20
-125.6710508019156
 30
0.0
  0
VERTEX
  5
17F
330
17D
100
AcDbEntity
  8
_U+30EC_U+30A4_U+30E4_U+30FC 1
 62
   179
420
  2234388
370
     9
100
AcDbVertex
100
AcDb2dVertex
 10
64.22760252808402
 20
-125.6710508019156
 30
0.0
  0
SEQEND
  5
180
330
17D
100
AcDbEntity
  8
_U+30EC_U+30A4_U+30E4_U+30FC 1
 62
   179
420
  2234388
370
     9
  0
POLYLINE
  5
181
330
1F
100
AcDbEntity
  8
_U+30EC_U+30A4_U+30E4_U+30FC 1
 62
   179
420
  2234388
370
     9
100
AcDb2dPolyline
 66
     1
 10
0.0
 20
0.0
 30
0.0
  0
VERTEX
  5
182
330
181
100
AcDbEntity
  8
_U+30EC_U+30A4_U+30E4_U+30FC 1
 62
   179
420
  2234388
370
     9
100
AcDbVertex
100
AcDb2dVertex
 10
61.63274720681416
 20
-129.0460405232943
 30
0.0
  0
VERTEX
  5
183
330
181
100
AcDbEntity
  8
_U+30EC_U+30A4_U+30E4_U+30FC 1
 62
   179
420
  2234388
370
     9
100
AcDbVertex
100
AcDb2dVertex
 10
64.22760252808402
 20
-129.0460405232943
 30
0.0
  0
SEQEND
  5
184
330
181
100
AcDbEntity
  8
_U+30EC_U+30A4_U+30E4_U+30FC 1
 62
   179
420
  2234388
370
     9
  0
INSERT
  5
186
330
1F
100
AcDbEntity
  8
_U+30EC_U+30A4_U+30E4_U+30FC 1
100
AcDbBlockReference
  2
block 4
 10
0.0
 20
0.0
 30
0.0
  0
POLYLINE
  5
1A8
330
1F
100
AcDbEntity
  8
_U+30EC_U+30A4_U+30E4_U+30FC 1
 62
   179
420
  2234388
370
     9
100
AcDb2dPolyline
 66
     1
 10
0.0
 20
0.0
 30
0.0
  0
VERTEX
  5
1A9
330
1A8
100
AcDbEntity
  8
_U+30EC_U+30A4_U+30E4_U+30FC 1
 62
   179
420
  2234388
370
     9
100
AcDbVertex
100
AcDb2dVertex
 10
45.47785217309666
 20
-121.9210583028531
 30
0.0
  0
VERTEX
  5
1AA
330
1A8
100
AcDbEntity
  8
_U+30EC_U+30A4_U+30E4_U+30FC 1
 62
   179
420
  2234388
370
     9
100
AcDbVertex
100
AcDb2dVertex
 10
60.47778651263868
 20
-121.9210583028531
 30
0.0
  0
SEQEND
  5
1AB
330
1A8
100
AcDbEntity
  8
_U+30EC_U+30A4_U+30E4_U+30FC 1
 62
   179
420
  2234388
370
     9
  0
POLYLINE
  5
1AC
330
1F
100
AcDbEntity
  8
_U+30EC_U+30A4_U+30E4_U+30FC 1
 62
   179
420
  2234388
370
     9
100
AcDb2dPolyline
 66
     1
 10
0.0
 20
0.0
 30
0.0
  0
VERTEX
  5
1AD
330
1AC
100
AcDbEntity
  8
_U+30EC_U+30A4_U+30E4_U+30FC 1
 62
   179
420
  2234388
370
     9
100
AcDbVertex
100
AcDb2dVertex
 10
45.47785217309666
 20
-123.0160805248017
 30
0.0
  0
VERTEX
  5
1AE
330
1AC
100
AcDbEntity
  8
_U+30EC_U+30A4_U+30E4_U+30FC 1
 62
   179
420
  2234388
370
     9
100
AcDbVertex
100
AcDb2dVertex
 10
45.47785217309666
 20
-121.1710880252628
 30
0.0
  0
SEQEND
  5
1AF
330
1AC
100
AcDbEntity
  8
_U+30EC_U+30A4_U+30E4_U+30FC 1
 62
   179
420
  2234388
370
     9
  0
POLYLINE
  5
1B0
330
1F
100
AcDbEntity
  8
_U+30EC_U+30A4_U+30E4_U+30FC 1
 62
   179
420
  2234388
370
     9
100
AcDb2dPolyline
 66
     1
 10
0.0
 20
0.0
 30
0.0
  0
VERTEX
  5
1B1
330
1B0
100
AcDbEntity
  8
_U+30EC_U+30A4_U+30E4_U+30FC 1
 62
   179
420
  2234388
370
     9
100
AcDbVertex
100
AcDb2dVertex
 10
60.47778651263868
 20
-123.0160805248017
 30
0.0
  0
VERTEX
  5
1B2
330
1B0
100
AcDbEntity
  8
_U+30EC_U+30A4_U+30E4_U+30FC 1
 62
   179
420
  2234388
370
     9
100
AcDbVertex
100
AcDb2dVertex
 10
60.47778651263868
 20
-121.1710880252628
 30
0.0
  0
SEQEND
  5
1B3
330
1B0
100
AcDbEntity
  8
_U+30EC_U+30A4_U+30E4_U+30FC 1
 62
   179
420
  2234388
370
     9
  0
INSERT
  5
1B5
330
1F
100
AcDbEntity
  8
_U+30EC_U+30A4_U+30E4_U+30FC 1
100
AcDbBlockReference
  2
block 5
 10
0.0
 20
0.0
 30
0.0
  0
POLYLINE
  5
1BD
330
1F
100
AcDbEntity
  8
_U+30EC_U+30A4_U+30E4_U+30FC 1
 62
   179
420
  2234388
370
     9
100
AcDb2dPolyline
 66
     1
 10
0.0
 20
0.0
 30
0.0
  0
VERTEX
  5
1BE
330
1BD
100
AcDbEntity
  8
_U+30EC_U+30A4_U+30E4_U+30FC 1
 62
   179
420
  2234388
370
     9
100
AcDbVertex
100
AcDb2dVertex
 10
45.47785217309666
 20
-118.9210713591588
 30
0.0
  0
VERTEX
  5
1BF
330
1BD
100
AcDbEntity
  8
_U+30EC_U+30A4_U+30E4_U+30FC 1
 62
   179
420
  2234388
370
     9
100
AcDbVertex
100
AcDb2dVertex
 10
138.4776920226953
 20
-118.9210713591588
 30
0.0
  0
SEQEND
  5
1C0
330
1BD
100
AcDbEntity
  8
_U+30EC_U+30A4_U+30E4_U+30FC 1
 62
   179
420
  2234388
370
     9
  0
POLYLINE
  5
1C1
330
1F
100
AcDbEntity
  8
_U+30EC_U+30A4_U+30E4_U+30FC 1
 62
   179
420
  2234388
370
     9
100
AcDb2dPolyline
 66
     1
 10
0.0
 20
0.0
 30
0.0
  0
VERTEX
  5
1C2
330
1C1
100
AcDbEntity
  8
_U+30EC_U+30A4_U+30E4_U+30FC 1
 62
   179
420
  2234388
370
     9
100
AcDbVertex
100
AcDb2dVertex
 10
45.47785217309666
 20
-123.0160805248017
 30
0.0
  0
VERTEX
  5
1C3
330
1C1
100
AcDbEntity
  8
_U+30EC_U+30A4_U+30E4_U+30FC 1
 62
   179
420
  2234388
370
     9
100
AcDbVertex
100
AcDb2dVertex
 10
45.47785217309666
 20
-118.1710658037906
 30
0.0
  0
SEQEND
  5
1C4
330
1C1
100
AcDbEntity
  8
_U+30EC_U+30A4_U+30E4_U+30FC 1
 62
   179
420
  2234388
370
     9
  0
POLYLINE
  5
1C5
330
1F
100
AcDbEntity
  8
_U+30EC_U+30A4_U+30E4_U+30FC 1
 62
   179
420
  2234388
370
     9
100
AcDb2dPolyline
 66
     1
 10
0.0
 20
0.0
 30
0.0
  0
VERTEX
  5
1C6
330
1C5
100
AcDbEntity
  8
_U+30EC_U+30A4_U+30E4_U+30FC 1
 62
   179
420
  2234388
370
     9
100
AcDbVertex
100
AcDb2dVertex
 10
138.4776920226953
 20
-124.1410888578535
 30
0.0
  0
VERTEX
  5
1C7
330
1C5
100
AcDbEntity
  8
_U+30EC_U+30A4_U+30E4_U+30FC 1
 62
   179
420
  2234388
370
     9
100
AcDbVertex
100
AcDb2dVertex
 10
138.4776920226953
 20
-118.1710658037906
 30
0.0
  0
SEQEND
  5
1C8
330
1C5
100
AcDbEntity
  8
_U+30EC_U+30A4_U+30E4_U+30FC 1
 62
   179
420
  2234388
370
     9
  0
INSERT
  5
1CA
330
1F
100
AcDbEntity
  8
_U+30EC_U+30A4_U+30E4_U+30FC 1
100
AcDbBlockReference
  2
block 6
 10
0.0
 20
0.0
 30
0.0
  0
POLYLINE
  5
1E6
330
1F
100
AcDbEntity
  8
_U+30EC_U+30A4_U+30E4_U+30FC 1
 62
   179
420
  2234388
370
     9
100
AcDb2dPolyline
 66
     1
 10
0.0
 20
0.0
 30
0.0
  0
VERTEX
  5
1E7
330
1E6
100
AcDbEntity
  8
_U+30EC_U+30A4_U+30E4_U+30FC 1
 62
   179
420
  2234388
370
     9
100
AcDbVertex
100
AcDb2dVertex
 10
42.47768891630387
 20
-124.9210452465474
 30
0.0
  0
VERTEX
  5
1E8
330
1E6
100
AcDbEntity
  8
_U+30EC_U+30A4_U+30E4_U+30FC 1
 62
   179
420
  2234388
370
     9
100
AcDbVertex
100
AcDb2dVertex
 10
42.47768891630387
 20
-127.1710619126518
 30
0.0
  0
SEQEND
  5
1E9
330
1E6
100
AcDbEntity
  8
_U+30EC_U+30A4_U+30E4_U+30FC 1
 62
   179
420
  2234388
370
     9
  0
POLYLINE
  5
1EA
330
1F
100
AcDbEntity
  8
_U+30EC_U+30A4_U+30E4_U+30FC 1
 62
   179
420
  2234388
370
     9
100
AcDb2dPolyline
 66
     1
 10
0.0
 20
0.0
 30
0.0
  0
VERTEX
  5
1EB
330
1EA
100
AcDbEntity
  8
_U+30EC_U+30A4_U+30E4_U+30FC 1
 62
   179
420
  2234388
370
     9
100
AcDbVertex
100
AcDb2dVertex
 10
43.57271111058975
 20
-124.9210452465474
 30
0.0
  0
VERTEX
  5
1EC
330
1EA
100
AcDbEntity
  8
_U+30EC_U+30A4_U+30E4_U+30FC 1
 62
   179
420
  2234388
370
     9
100
AcDbVertex
100
AcDb2dVertex
 10
41.72768337988255
 20
-124.9210452465474
 30
0.0
  0
SEQEND
  5
1ED
330
1EA
100
AcDbEntity
  8
_U+30EC_U+30A4_U+30E4_U+30FC 1
 62
   179
420
  2234388
370
     9
  0
POLYLINE
  5
1EE
330
1F
100
AcDbEntity
  8
_U+30EC_U+30A4_U+30E4_U+30FC 1
 62
   179
420
  2234388
370
     9
100
AcDb2dPolyline
 66
     1
 10
0.0
 20
0.0
 30
0.0
  0
VERTEX
  5
1EF
330
1EE
100
AcDbEntity
  8
_U+30EC_U+30A4_U+30E4_U+30FC 1
 62
   179
420
  2234388
370
     9
100
AcDbVertex
100
AcDb2dVertex
 10
43.57271111058975
 20
-127.1710619126518
 30
0.0
  0
VERTEX
  5
1F0
330
1EE
100
AcDbEntity
  8
_U+30EC_U+30A4_U+30E4_U+30FC 1
 62
   179
420
  2234388
370
     9
100
AcDbVertex
100
AcDb2dVertex
 10
41.72768337988255
 20
-127.1710619126518
 30
0.0
  0
SEQEND
  5
1F1
330
1EE
100
AcDbEntity
  8
_U+30EC_U+30A4_U+30E4_U+30FC 1
 62
   179
420
  2234388
370
     9
  0
INSERT
  5
1F3
330
1F
100
AcDbEntity
  8
_U+30EC_U+30A4_U+30E4_U+30FC 1
100
AcDbBlockReference
  2
block 7
 10
0.0
 20
0.0
 30
0.0
  0
POLYLINE
  5
1F8
330
1F
100
AcDbEntity
  8
_U+30EC_U+30A4_U+30E4_U+30FC 1
 62
   179
420
  2234388
370
     9
100
AcDb2dPolyline
 66
     1
 10
0.0
 20
0.0
 30
0.0
  0
VERTEX
  5
1F9
330
1F8
100
AcDbEntity
  8
_U+30EC_U+30A4_U+30E4_U+30FC 1
 62
   179
420
  2234388
370
     9
100
AcDbVertex
100
AcDb2dVertex
 10
42.47768891630387
 20
-129.0460405232943
 30
0.0
  0
VERTEX
  5
1FA
330
1F8
100
AcDbEntity
  8
_U+30EC_U+30A4_U+30E4_U+30FC 1
 62
   179
420
  2234388
370
     9
100
AcDbVertex
100
AcDb2dVertex
 10
42.47768891630387
 20
-135.0463671884607
 30
0.0
  0
SEQEND
  5
1FB
330
1F8
100
AcDbEntity
  8
_U+30EC_U+30A4_U+30E4_U+30FC 1
 62
   179
420
  2234388
370
     9
  0
POLYLINE
  5
1FC
330
1F
100
AcDbEntity
  8
_U+30EC_U+30A4_U+30E4_U+30FC 1
 62
   179
420
  2234388
370
     9
100
AcDb2dPolyline
 66
     1
 10
0.0
 20
0.0
 30
0.0
  0
VERTEX
  5
1FD
330
1FC
100
AcDbEntity
  8
_U+30EC_U+30A4_U+30E4_U+30FC 1
 62
   179
420
  2234388
370
     9
100
AcDbVertex
100
AcDb2dVertex
 10
51.82284256677803
 20
-129.0460405232943
 30
0.0
  0
VERTEX
  5
1FE
330
1FC
100
AcDbEntity
  8
_U+30EC_U+30A4_U+30E4_U+30FC 1
 62
   179
420
  2234388
370
     9
100
AcDbVertex
100
AcDb2dVertex
 10
41.72768337988255
 20
-129.0460405232943
 30
0.0
  0
SEQEND
  5
1FF
330
1FC
100
AcDbEntity
  8
_U+30EC_U+30A4_U+30E4_U+30FC 1
 62
   179
420
  2234388
370
     9
  0
POLYLINE
  5
200
330
1F
100
AcDbEntity
  8
_U+30EC_U+30A4_U+30E4_U+30FC 1
 62
   179
420
  2234388
370
     9
100
AcDb2dPolyline
 66
     1
 10
0.0
 20
0.0
 30
0.0
  0
VERTEX
  5
201
330
200
100
AcDbEntity
  8
_U+30EC_U+30A4_U+30E4_U+30FC 1
 62
   179
420
  2234388
370
     9
100
AcDbVertex
100
AcDb2dVertex
 10
51.82284256677803
 20
-135.0463671884607
 30
0.0
  0
VERTEX
  5
202
330
200
100
AcDbEntity
  8
_U+30EC_U+30A4_U+30E4_U+30FC 1
 62
   179
420
  2234388
370
     9
100
AcDbVertex
100
AcDb2dVertex
 10
41.72768337988255
 20
-135.0463671884607
 30
0.0
  0
SEQEND
  5
203
330
200
100
AcDbEntity
  8
_U+30EC_U+30A4_U+30E4_U+30FC 1
 62
   179
420
  2234388
370
     9
  0
INSERT
  5
205
330
1F
100
AcDbEntity
  8
_U+30EC_U+30A4_U+30E4_U+30FC 1
100
AcDbBlockReference
  2
block 8
 10
0.0
 20
0.0
 30
0.0
  0
POLYLINE
  5
20C
330
1F
100
AcDbEntity
  8
_U+30EC_U+30A4_U+30E4_U+30FC 1
 62
   179
420
  2234388
370
     9
100
AcDb2dPolyline
 66
     1
 10
0.0
 20
0.0
 30
0.0
  0
VERTEX
  5
20D
330
20C
100
AcDbEntity
  8
_U+30EC_U+30A4_U+30E4_U+30FC 1
 62
   179
420
  2234388
370
     9
100
AcDbVertex
100
AcDb2dVertex
 10
39.47770204839547
 20
-124.9210452465474
 30
0.0
  0
VERTEX
  5
20E
330
20C
100
AcDbEntity
  8
_U+30EC_U+30A4_U+30E4_U+30FC 1
 62
   179
420
  2234388
370
     9
100
AcDbVertex
100
AcDb2dVertex
 10
39.47770204839547
 20
-135.0463671884607
 30
0.0
  0
SEQEND
  5
20F
330
20C
100
AcDbEntity
  8
_U+30EC_U+30A4_U+30E4_U+30FC 1
 62
   179
420
  2234388
370
     9
  0
POLYLINE
  5
210
330
1F
100
AcDbEntity
  8
_U+30EC_U+30A4_U+30E4_U+30FC 1
 62
   179
420
  2234388
370
     9
100
AcDb2dPolyline
 66
     1
 10
0.0
 20
0.0
 30
0.0
  0
VERTEX
  5
211
330
210
100
AcDbEntity
  8
_U+30EC_U+30A4_U+30E4_U+30FC 1
 62
   179
420
  2234388
370
     9
100
AcDbVertex
100
AcDb2dVertex
 10
43.57271111058975
 20
-124.9210452465474
 30
0.0
  0
VERTEX
  5
212
330
210
100
AcDbEntity
  8
_U+30EC_U+30A4_U+30E4_U+30FC 1
 62
   179
420
  2234388
370
     9
100
AcDbVertex
100
AcDb2dVertex
 10
38.72769651197415
 20
-124.9210452465474
 30
0.0
  0
SEQEND
  5
213
330
210
100
AcDbEntity
  8
_U+30EC_U+30A4_U+30E4_U+30FC 1
 62
   179
420
  2234388
370
     9
  0
POLYLINE
  5
214
330
1F
100
AcDbEntity
  8
_U+30EC_U+30A4_U+30E4_U+30FC 1
 62
   179
420
  2234388
370
     9
100
AcDb2dPolyline
 66
     1
 10
0.0
 20
0.0
 30
0.0
  0
VERTEX
  5
215
330
214
100
AcDbEntity
  8
_U+30EC_U+30A4_U+30E4_U+30FC 1
 62
   179
420
  2234388
370
     9
100
AcDbVertex
100
AcDb2dVertex
 10
51.82284256677803
 20
-135.0463671884607
 30
0.0
  0
VERTEX
  5
216
330
214
100
AcDbEntity
  8
_U+30EC_U+30A4_U+30E4_U+30FC 1
 62
   179
420
  2234388
370
     9
100
AcDbVertex
100
AcDb2dVertex
 10
38.72769651197415
 20
-135.0463671884607
 30
0.0
  0
SEQEND
  5
217
330
214
100
AcDbEntity
  8
_U+30EC_U+30A4_U+30E4_U+30FC 1
 62
   179
420
  2234388
370
     9
  0
INSERT
  5
219
330
1F
100
AcDbEntity
  8
_U+30EC_U+30A4_U+30E4_U+30FC 1
100
AcDbBlockReference
  2
block 9
 10
0.0
 20
0.0
 30
0.0
  0
POLYLINE
  5
22A
330
1F
100
AcDbEntity
  8
_U+30EC_U+30A4_U+30E4_U+30FC 1
 62
   179
420
  2234388
370
     9
100
AcDb2dPolyline
 66
     1
 10
0.0
 20
0.0
 30
0.0
  0
VERTEX
  5
22B
330
22A
100
AcDbEntity
  8
_U+30EC_U+30A4_U+30E4_U+30FC 1
 62
   179
420
  2234388
370
     9
100
AcDbVertex
100
AcDb2dVertex
 10
45.47785217309666
 20
-132.0460274669886
 30
0.0
  0
VERTEX
  5
22C
330
22A
100
AcDbEntity
  8
_U+30EC_U+30A4_U+30E4_U+30FC 1
 62
   179
420
  2234388
370
     9
100
AcDbVertex
100
AcDb2dVertex
 10
49.22766943213741
 20
-132.0460274669886
 30
0.0
  0
SEQEND
  5
22D
330
22A
100
AcDbEntity
  8
_U+30EC_U+30A4_U+30E4_U+30FC 1
 62
   179
420
  2234388
370
     9
  0
POLYLINE
  5
22E
330
1F
100
AcDbEntity
  8
_U+30EC_U+30A4_U+30E4_U+30FC 1
 62
   179
420
  2234388
370
     9
100
AcDb2dPolyline
 66
     1
 10
0.0
 20
0.0
 30
0.0
  0
VERTEX
  5
22F
330
22E
100
AcDbEntity
  8
_U+30EC_U+30A4_U+30E4_U+30FC 1
 62
   179
420
  2234388
370
     9
100
AcDbVertex
100
AcDb2dVertex
 10
45.47785217309666
 20
-129.0760266343976
 30
0.0
  0
VERTEX
  5
230
330
22E
100
AcDbEntity
  8
_U+30EC_U+30A4_U+30E4_U+30FC 1
 62
   179
420
  2234388
370
     9
100
AcDbVertex
100
AcDb2dVertex
 10
45.47785217309666
 20
-141.3464138535521
 30
0.0
  0
SEQEND
  5
231
330
22E
100
AcDbEntity
  8
_U+30EC_U+30A4_U+30E4_U+30FC 1
 62
   179
420
  2234388
370
     9
  0
POLYLINE
  5
232
330
1F
100
AcDbEntity
  8
_U+30EC_U+30A4_U+30E4_U+30FC 1
 62
   179
420
  2234388
370
     9
100
AcDb2dPolyline
 66
     1
 10
0.0
 20
0.0
 30
0.0
  0
VERTEX
  5
233
330
232
100
AcDbEntity
  8
_U+30EC_U+30A4_U+30E4_U+30FC 1
 62
   179
420
  2234388
370
     9
100
AcDbVertex
100
AcDb2dVertex
 10
49.22766943213741
 20
-127.2010127459776
 30
0.0
  0
VERTEX
  5
234
330
232
100
AcDbEntity
  8
_U+30EC_U+30A4_U+30E4_U+30FC 1
 62
   179
420
  2234388
370
     9
100
AcDbVertex
100
AcDb2dVertex
 10
49.22766943213741
 20
-132.7960330223568
 30
0.0
  0
SEQEND
  5
235
330
232
100
AcDbEntity
  8
_U+30EC_U+30A4_U+30E4_U+30FC 1
 62
   179
420
  2234388
370
     9
  0
INSERT
  5
237
330
1F
100
AcDbEntity
  8
_U+30EC_U+30A4_U+30E4_U+30FC 1
100
AcDbBlockReference
  2
block 10
 10
0.0
 20
0.0
 30
0.0
  0
INSERT
  5
23D
330
1F
100
AcDbEntity
  8
_U+30EC_U+30A4_U+30E4_U+30FC 1
100
AcDbBlockReference
  2
block 11
 10
0.0
 20
0.0
 30
0.0
  0
POLYLINE
  5
244
330
1F
100
AcDbEntity
  8
_U+30EC_U+30A4_U+30E4_U+30FC 1
 62
   179
420
  2234388
370
     9
100
AcDb2dPolyline
 66
     1
 10
0.0
 20
0.0
 30
0.0
  0
VERTEX
  5
245
330
244
100
AcDbEntity
  8
_U+30EC_U+30A4_U+30E4_U+30FC 1
 62
   179
420
  2234388
370
     9
100
AcDbVertex
100
AcDb2dVertex
 10
128.7277258825488
 20
-138.0463541321551
 30
0.0
  0
VERTEX
  5
246
330
244
100
AcDbEntity
  8
_U+30EC_U+30A4_U+30E4_U+30FC 1
 62
   179
420
  2234388
370
     9
100
AcDbVertex
100
AcDb2dVertex
 10
138.4776920226953
 20
-138.0463541321551
 30
0.0
  0
SEQEND
  5
247
330
244
100
AcDbEntity
  8
_U+30EC_U+30A4_U+30E4_U+30FC 1
 62
   179
420
  2234388
370
     9
  0
POLYLINE
  5
248
330
1F
100
AcDbEntity
  8
_U+30EC_U+30A4_U+30E4_U+30FC 1
 62
   179
420
  2234388
370
     9
100
AcDb2dPolyline
 66
     1
 10
0.0
 20
0.0
 30
0.0
  0
VERTEX
  5
249
330
248
100
AcDbEntity
  8
_U+30EC_U+30A4_U+30E4_U+30FC 1
 62
   179
420
  2234388
370
     9
100
AcDbVertex
100
AcDb2dVertex
 10
138.4776920226953
 20
-130.9511816339286
 30
0.0
  0
VERTEX
  5
24A
330
248
100
AcDbEntity
  8
_U+30EC_U+30A4_U+30E4_U+30FC 1
 62
   179
420
  2234388
370
     9
100
AcDbVertex
100
AcDb2dVertex
 10
138.4776920226953
 20
-138.7960069097454
 30
0.0
  0
SEQEND
  5
24B
330
248
100
AcDbEntity
  8
_U+30EC_U+30A4_U+30E4_U+30FC 1
 62
   179
420
  2234388
370
     9
  0
INSERT
  5
24D
330
1F
100
AcDbEntity
  8
_U+30EC_U+30A4_U+30E4_U+30FC 1
100
AcDbBlockReference
  2
block 12
 10
0.0
 20
0.0
 30
0.0
  0
POLYLINE
  5
254
330
1F
100
AcDbEntity
  8
_U+30EC_U+30A4_U+30E4_U+30FC 1
 62
   179
420
  2234388
370
     9
100
AcDb2dPolyline
 66
     1
 10
0.0
 20
0.0
 30
0.0
  0
VERTEX
  5
255
330
254
100
AcDbEntity
  8
_U+30EC_U+30A4_U+30E4_U+30FC 1
 62
   179
420
  2234388
370
     9
100
AcDbVertex
100
AcDb2dVertex
 10
142.2280055199983
 20
-129.0460405232943
 30
0.0
  0
VERTEX
  5
256
330
254
100
AcDbEntity
  8
_U+30EC_U+30A4_U+30E4_U+30FC 1
 62
   179
420
  2234388
370
     9
100
AcDbVertex
100
AcDb2dVertex
 10
142.2280055199983
 20
-135.0463671884607
 30
0.0
  0
SEQEND
  5
257
330
254
100
AcDbEntity
  8
_U+30EC_U+30A4_U+30E4_U+30FC 1
 62
   179
420
  2234388
370
     9
  0
POLYLINE
  5
258
330
1F
100
AcDbEntity
  8
_U+30EC_U+30A4_U+30E4_U+30FC 1
 62
   179
420
  2234388
370
     9
100
AcDb2dPolyline
 66
     1
 10
0.0
 20
0.0
 30
0.0
  0
VERTEX
  5
259
330
258
100
AcDbEntity
  8
_U+30EC_U+30A4_U+30E4_U+30FC 1
 62
   179
420
  2234388
370
     9
100
AcDbVertex
100
AcDb2dVertex
 10
140.3827978074253
 20
-129.0460405232943
 30
0.0
  0
VERTEX
  5
25A
330
258
100
AcDbEntity
  8
_U+30EC_U+30A4_U+30E4_U+30FC 1
 62
   179
420
  2234388
370
     9
100
AcDbVertex
100
AcDb2dVertex
 10
142.9776582975887
 20
-129.0460405232943
 30
0.0
  0
SEQEND
  5
25B
330
258
100
AcDbEntity
  8
_U+30EC_U+30A4_U+30E4_U+30FC 1
 62
   179
420
  2234388
370
     9
  0
POLYLINE
  5
25C
330
1F
100
AcDbEntity
  8
_U+30EC_U+30A4_U+30E4_U+30FC 1
 62
   179
420
  2234388
370
     9
100
AcDb2dPolyline
 66
     1
 10
0.0
 20
0.0
 30
0.0
  0
VERTEX
  5
25D
330
25C
100
AcDbEntity
  8
_U+30EC_U+30A4_U+30E4_U+30FC 1
 62
   179
420
  2234388
370
     9
100
AcDbVertex
100
AcDb2dVertex
 10
130.6325141672869
 20
-135.0463671884607
 30
0.0
  0
VERTEX
  5
25E
330
25C
100
AcDbEntity
  8
_U+30EC_U+30A4_U+30E4_U+30FC 1
 62
   179
420
  2234388
370
     9
100
AcDbVertex
100
AcDb2dVertex
 10
142.9776582975887
 20
-135.0463671884607
 30
0.0
  0
SEQEND
  5
25F
330
25C
100
AcDbEntity
  8
_U+30EC_U+30A4_U+30E4_U+30FC 1
 62
   179
420
  2234388
370
     9
  0
INSERT
  5
261
330
1F
100
AcDbEntity
  8
_U+30EC_U+30A4_U+30E4_U+30FC 1
100
AcDbBlockReference
  2
block 13
 10
0.0
 20
0.0
 30
0.0
  0
POLYLINE
  5
268
330
1F
100
AcDbEntity
  8
_U+30EC_U+30A4_U+30E4_U+30FC 1
 62
   179
420
  2234388
370
     9
100
AcDb2dPolyline
 66
     1
 10
0.0
 20
0.0
 30
0.0
  0
VERTEX
  5
269
330
268
100
AcDbEntity
  8
_U+30EC_U+30A4_U+30E4_U+30FC 1
 62
   179
420
  2234388
370
     9
100
AcDbVertex
100
AcDb2dVertex
 10
142.2280055199983
 20
-126.0462299684885
 30
0.0
  0
VERTEX
  5
26A
330
268
100
AcDbEntity
  8
_U+30EC_U+30A4_U+30E4_U+30FC 1
 62
   179
420
  2234388
370
     9
100
AcDbVertex
100
AcDb2dVertex
 10
142.2280055199983
 20
-129.0460405232943
 30
0.0
  0
SEQEND
  5
26B
330
268
100
AcDbEntity
  8
_U+30EC_U+30A4_U+30E4_U+30FC 1
 62
   179
420
  2234388
370
     9
  0
POLYLINE
  5
26C
330
1F
100
AcDbEntity
  8
_U+30EC_U+30A4_U+30E4_U+30FC 1
 62
   179
420
  2234388
370
     9
100
AcDb2dPolyline
 66
     1
 10
0.0
 20
0.0
 30
0.0
  0
VERTEX
  5
26D
330
26C
100
AcDbEntity
  8
_U+30EC_U+30A4_U+30E4_U+30FC 1
 62
   179
420
  2234388
370
     9
100
AcDbVertex
100
AcDb2dVertex
 10
140.3827978074253
 20
-126.0462299684885
 30
0.0
  0
VERTEX
  5
26E
330
26C
100
AcDbEntity
  8
_U+30EC_U+30A4_U+30E4_U+30FC 1
 62
   179
420
  2234388
370
     9
100
AcDbVertex
100
AcDb2dVertex
 10
142.9776582975887
 20
-126.0462299684885
 30
0.0
  0
SEQEND
  5
26F
330
26C
100
AcDbEntity
  8
_U+30EC_U+30A4_U+30E4_U+30FC 1
 62
   179
420
  2234388
370
     9
  0
POLYLINE
  5
270
330
1F
100
AcDbEntity
  8
_U+30EC_U+30A4_U+30E4_U+30FC 1
 62
   179
420
  2234388
370
     9
100
AcDb2dPolyline
 66
     1
 10
0.0
 20
0.0
 30
0.0
  0
VERTEX
  5
271
330
270
100
AcDbEntity
  8
_U+30EC_U+30A4_U+30E4_U+30FC 1
 62
   179
420
  2234388
370
     9
100
AcDbVertex
100
AcDb2dVertex
 10
140.3827978074253
 20
-129.0460405232943
 30
0.0
  0
VERTEX
  5
272
330
270
100
AcDbEntity
  8
_U+30EC_U+30A4_U+30E4_U+30FC 1
 62
   179
420
  2234388
370
     9
100
AcDbVertex
100
AcDb2dVertex
 10
142.9776582975887
 20
-129.0460405232943
 30
0.0
  0
SEQEND
  5
273
330
270
100
AcDbEntity
  8
_U+30EC_U+30A4_U+30E4_U+30FC 1
 62
   179
420
  2234388
370
     9
  0
INSERT
  5
275
330
1F
100
AcDbEntity
  8
_U+30EC_U+30A4_U+30E4_U+30FC 1
100
AcDbBlockReference
  2
block 14
 10
0.0
 20
0.0
 30
0.0
  0
POLYLINE
  5
28D
330
1F
100
AcDbEntity
  8
_U+30EC_U+30A4_U+30E4_U+30FC 1
 62
   179
420
  2234388
370
     9
100
AcDb2dPolyline
 66
     1
 10
0.0
 20
0.0
 30
0.0
  0
VERTEX
  5
28E
330
28D
100
AcDbEntity
  8
_U+30EC_U+30A4_U+30E4_U+30FC 1
 62
   179
420
  2234388
370
     9
100
AcDbVertex
100
AcDb2dVertex
 10
145.2276360171566
 20
-126.0462299684885
 30
0.0
  0
VERTEX
  5
28F
330
28D
100
AcDbEntity
  8
_U+30EC_U+30A4_U+30E4_U+30FC 1
 62
   179
420
  2234388
370
     9
100
AcDbVertex
100
AcDb2dVertex
 10
145.2276360171566
 20
-135.0463671884607
 30
0.0
  0
SEQEND
  5
290
330
28D
100
AcDbEntity
  8
_U+30EC_U+30A4_U+30E4_U+30FC 1
 62
   179
420
  2234388
370
     9
  0
POLYLINE
  5
291
330
1F
100
AcDbEntity
  8
_U+30EC_U+30A4_U+30E4_U+30FC 1
 62
   179
420
  2234388
370
     9
100
AcDb2dPolyline
 66
     1
 10
0.0
 20
0.0
 30
0.0
  0
VERTEX
  5
292
330
291
100
AcDbEntity
  8
_U+30EC_U+30A4_U+30E4_U+30FC 1
 62
   179
420
  2234388
370
     9
100
AcDbVertex
100
AcDb2dVertex
 10
140.3827978074253
 20
-126.0462299684885
 30
0.0
  0
VERTEX
  5
293
330
291
100
AcDbEntity
  8
_U+30EC_U+30A4_U+30E4_U+30FC 1
 62
   179
420
  2234388
370
     9
100
AcDbVertex
100
AcDb2dVertex
 10
145.9776415535779
 20
-126.0462299684885
 30
0.0
  0
SEQEND
  5
294
330
291
100
AcDbEntity
  8
_U+30EC_U+30A4_U+30E4_U+30FC 1
 62
   179
420
  2234388
370
     9
  0
POLYLINE
  5
295
330
1F
100
AcDbEntity
  8
_U+30EC_U+30A4_U+30E4_U+30FC 1
 62
   179
420
  2234388
370
     9
100
AcDb2dPolyline
 66
     1
 10
0.0
 20
0.0
 30
0.0
  0
VERTEX
  5
296
330
295
100
AcDbEntity
  8
_U+30EC_U+30A4_U+30E4_U+30FC 1
 62
   179
420
  2234388
370
     9
100
AcDbVertex
100
AcDb2dVertex
 10
130.6325141672869
 20
-135.0463671884607
 30
0.0
  0
VERTEX
  5
297
330
295
100
AcDbEntity
  8
_U+30EC_U+30A4_U+30E4_U+30FC 1
 62
   179
420
  2234388
370
     9
100
AcDbVertex
100
AcDb2dVertex
 10
145.9776415535779
 20
-135.0463671884607
 30
0.0
  0
SEQEND
  5
298
330
295
100
AcDbEntity
  8
_U+30EC_U+30A4_U+30E4_U+30FC 1
 62
   179
420
  2234388
370
     9
  0
INSERT
  5
29A
330
1F
100
AcDbEntity
  8
_U+30EC_U+30A4_U+30E4_U+30FC 1
100
AcDbBlockReference
  2
block 15
 10
0.0
 20
0.0
 30
0.0
  0
ENDSEC
  0
SECTION
  2
OBJECTS
  0
DICTIONARY
  5
C
330
0
100
AcDbDictionary
281
     1
  3
ACAD_GROUP
350
D
  3
ACAD_LAYOUT
350
1A
  3
ACAD_MATERIAL
350
3B
  3
ACAD_MLEADERSTYLE
350
2A2
  3
ACAD_MLINESTYLE
350
17
  3
ACAD_PLOTSETTINGS
350
19
  3
ACAD_PLOTSTYLENAME
350
E
  3
ACAD_TABLESTYLE
350
2A1
  3
ACAD_VISUALSTYLE
350
2A
  0
SUN
  5
3F
330
29
100
AcDbSun
 90
        1
290
     0
 63
     7
421
 16777215
 40
1.0
291
     1
 91
  2455826
 92
 54000000
292
     0
 70
     2
 71
   256
280
     1
  0
DICTIONARY
  5
D
102
{ACAD_REACTORS
330
C
102
}
330
C
100
AcDbDictionary
281
     1
  0
DICTIONARY
  5
1A
102
{ACAD_REACTORS
330
C
102
}
330
C
100
AcDbDictionary
281
     1
  3
Layout1
350
1E
  3
Layout2
350
26
  3
Model
350
22
  0
DICTIONARY
  5
3B
102
{ACAD_REACTORS
330
C
102
}
330
C
100
AcDbDictionary
281
     1
  3
ByBlock
350
3D
  3
ByLayer
350
3C
  3
Global
350
3E
  0
DICTIONARY
  5
2A2
102
{ACAD_REACTORS
330
C
102
}
330
C
100
AcDbDictionary
281
     1
  0
DICTIONARY
  5
17
102
{ACAD_REACTORS
330
C
102
}
330
C
100
AcDbDictionary
281
     1
  3
Standard
350
18
  0
DICTIONARY
  5
19
102
{ACAD_REACTORS
330
C
102
}
330
C
100
AcDbDictionary
281
     1
  0
ACDBDICTIONARYWDFLT
  5
E
102
{ACAD_REACTORS
330
C
102
}
330
C
100
AcDbDictionary
281
     1
  3
Normal
350
F
100
AcDbDictionaryWithDefault
340
F
  0
DICTIONARY
  5
2A1
102
{ACAD_REACTORS
330
C
102
}
330
C
100
AcDbDictionary
281
     1
  0
DICTIONARY
  5
2A
102
{ACAD_REACTORS
330
C
102
}
330
C
100
AcDbDictionary
281
     1
  3
2dWireframe
350
2F
  3
3D Hidden
350
31
  3
3dWireframe
350
30
  3
Basic
350
32
  3
Brighten
350
36
  3
ColorChange
350
3A
  3
Conceptual
350
34
  3
Dim
350
35
  3
Facepattern
350
39
  3
Flat
350
2B
  3
FlatWithEdges
350
2C
  3
Gouraud
350
2D
  3
GouraudWithEdges
350
2E
  3
Linepattern
350
38
  3
Realistic
350
33
  3
Thicken
350
37
  0
LAYOUT
  5
1E
102
{ACAD_REACTORS
330
1A
102
}
330
1A
100
AcDbPlotSettings
  1

  2
none_device
  4

  6

 40
0.0
 41
0.0
 42
0.0
 43
0.0
 44
0.0
 45
0.0
 46
0.0
 47
0.0
 48
0.0
 49
0.0
140
0.0
141
0.0
142
1.0
143
1.0
 70
   688
 72
     0
 73
     0
 74
     5
  7

 75
    16
 76
     0
 77
     2
 78
   300
147
1.0
148
0.0
149
0.0
100
AcDbLayout
  1
Layout1
 70
     1
 71
     1
 10
0.0
 20
0.0
 11
12.0
 21
9.0
 12
0.0
 22
0.0
 32
0.0
 14
1.000000000000000E+20
 24
1.000000000000000E+20
 34
1.000000000000000E+20
 15
-1.000000000000000E+20
 25
-1.000000000000000E+20
 35
-1.000000000000000E+20
146
0.0
 13
0.0
 23
0.0
 33
0.0
 16
1.0
 26
0.0
 36
0.0
 17
0.0
 27
1.0
 37
0.0
 76
     0
330
1B
  0
LAYOUT
  5
26
102
{ACAD_REACTORS
330
1A
102
}
330
1A
100
AcDbPlotSettings
  1

  2
none_device
  4

  6

 40
0.0
 41
0.0
 42
0.0
 43
0.0
 44
0.0
 45
0.0
 46
0.0
 47
0.0
 48
0.0
 49
0.0
140
0.0
141
0.0
142
1.0
143
1.0
 70
   688
 72
     0
 73
     0
 74
     5
  7

 75
    16
 76
     0
 77
     2
 78
   300
147
1.0
148
0.0
149
0.0
100
AcDbLayout
  1
Layout2
 70
     1
 71
     2
 10
0.0
 20
0.0
 11
0.0
 21
0.0
 12
0.0
 22
0.0
 32
0.0
 14
0.0
 24
0.0
 34
0.0
 15
0.0
 25
0.0
 35
0.0
146
0.0
 13
0.0
 23
0.0
 33
0.0
 16
1.0
 26
0.0
 36
0.0
 17
0.0
 27
1.0
 37
0.0
 76
     0
330
23
  0
LAYOUT
  5
22
102
{ACAD_REACTORS
330
1A
102
}
330
1A
100
AcDbPlotSettings
  1

  2
none_device
  4

  6

 40
0.0
 41
0.0
 42
0.0
 43
0.0
 44
0.0
 45
0.0
 46
0.0
 47
0.0
 48
0.0
 49
0.0
140
0.0
141
0.0
142
1.0
143
1.0
 70
  1712
 72
     0
 73
     0
 74
     0
  7

 75
     0
 76
     0
 77
     2
 78
   300
147
1.0
148
0.0
149
0.0
100
AcDbLayout
  1
Model
 70
     1
 71
     0
 10
0.0
 20
0.0
 11
12.0
 21
9.0
 12
0.0
 22
0.0
 32
0.0
 14
1.000000000000000E+20
 24
1.000000000000000E+20
 34
1.000000000000000E+20
 15
-1.000000000000000E+20
 25
-1.000000000000000E+20
 35
-1.000000000000000E+20
146
0.0
 13
0.0
 23
0.0
 33
0.0
 16
1.0
 26
0.0
 36
0.0
 17
0.0
 27
1.0
 37
0.0
 76
     0
330
1F
331
29
  0
MATERIAL
  5
3D
102
{ACAD_REACTORS
330
3B
102
}
330
3B
100
AcDbMaterial
  1
ByBlock
 72
     1
 94
      127
  0
MATERIAL
  5
3C
102
{ACAD_REACTORS
330
3B
102
}
330
3B
100
AcDbMaterial
  1
ByLayer
 72
     1
 94
      127
  0
MATERIAL
  5
3E
102
{ACAD_REACTORS
330
3B
102
}
330
3B
100
AcDbMaterial
  1
Global
 72
     1
 94
      127
  0
MLINESTYLE
  5
18
102
{ACAD_REACTORS
330
17
102
}
330
17
100
AcDbMlineStyle
  2
Standard
 70
     0
  3

 62
   256
 51
90.0
 52
90.0
 71
     2
 49
0.5
 62
   256
  6
BYLAYER
 49
-0.5
 62
   256
  6
BYLAYER
  0
ACDBPLACEHOLDER
  5
F
102
{ACAD_REACTORS
330
E
102
}
330
E
  0
VISUALSTYLE
  5
2F
102
{ACAD_REACTORS
330
2A
102
}
330
2A
100
AcDbVisualStyle
  2
2dWireframe
 70
     4
177
     2
291
     0
 71
     0
176
     1
 72
     2
176
     1
 73
     0
176
     1
 90
        0
176
     1
 40
-0.6
176
     1
 41
-30.0
176
     1
 62
     5
 63
     7
421
 16777215
176
     1
 74
     1
176
     1
 91
        4
176
     1
 64
     7
176
     1
 65
   257
176
     1
 75
     1
176
     1
175
     1
176
     1
 42
1.0
176
     1
 92
        0
176
     1
 66
   257
176
     1
 43
1.0
176
     1
 76
     1
176
     1
 77
     6
176
     1
 78
     2
176
     1
 67
     7
176
     1
 79
     5
176
     1
170
     0
176
     1
171
     0
176
     1
290
     0
176
     1
 93
        1
176
     1
 44
0.0
176
     1
173
     0
176
     1
  0
VISUALSTYLE
  5
31
102
{ACAD_REACTORS
330
2A
102
}
330
2A
100
AcDbVisualStyle
  2
3D Hidden
 70
     6
177
     2
291
     0
 71
     1
176
     1
 72
     2
176
     1
 73
     2
176
     1
 90
        0
176
     1
 40
-0.6
176
     1
 41
-30.0
176
     1
 62
     5
 63
     7
421
 16777215
176
     1
 74
     2
176
     1
 91
        2
176
     1
 64
     7
176
     1
 65
   257
176
     1
 75
     2
176
     1
175
     1
176
     1
 42
40.0
176
     1
 92
        0
176
     1
 66
   257
176
     1
 43
1.0
176
     1
 76
     1
176
     1
 77
     6
176
     1
 78
     2
176
     1
 67
     7
176
     1
 79
     3
176
     1
170
     0
176
     1
171
     0
176
     1
290
     0
176
     1
 93
        1
176
     1
 44
0.0
176
     1
173
     0
176
     1
  0
VISUALSTYLE
  5
30
102
{ACAD_REACTORS
330
2A
102
}
330
2A
100
AcDbVisualStyle
  2
3dWireframe
 70
     5
177
     2
291
     0
 71
     0
176
     1
 72
     2
176
     1
 73
     0
176
     1
 90
        0
176
     1
 40
-0.6
176
     1
 41
-30.0
176
     1
 62
     5
 63
     7
421
 16777215
176
     1
 74
     1
176
     1
 91
        4
176
     1
 64
     7
176
     1
 65
   257
176
     1
 75
     1
176
     1
175
     1
176
     1
 42
1.0
176
     1
 92
        0
176
     1
 66
   257
176
     1
 43
1.0
176
     1
 76
     1
176
     1
 77
     6
176
     1
 78
     2
176
     1
 67
     7
176
     1
 79
     5
176
     1
170
     0
176
     1
171
     0
176
     1
290
     0
176
     1
 93
        1
176
     1
 44
0.0
176
     1
173
     0
176
     1
  0
VISUALSTYLE
  5
32
102
{ACAD_REACTORS
330
2A
102
}
330
2A
100
AcDbVisualStyle
  2
Basic
 70
     7
177
     2
291
     1
 71
     1
176
     1
 72
     0
176
     1
 73
     1
176
     1
 90
        0
176
     1
 40
-0.6
176
     1
 41
-30.0
176
     1
 62
     5
 63
     7
421
 16777215
176
     1
 74
     0
176
     1
 91
        4
176
     1
 64
     7
176
     1
 65
   257
176
     1
 75
     1
176
     1
175
     1
176
     1
 42
1.0
176
     1
 92
        8
176
     1
 66
     7
176
     1
 43
1.0
176
     1
 76
     1
176
     1
 77
     6
176
     1
 78
     2
176
     1
 67
     7
176
     1
 79
     5
176
     1
170
     0
176
     1
171
     0
176
     1
290
     0
176
     1
 93
        1
176
     1
 44
0.0
176
     1
173
     0
176
     1
  0
VISUALSTYLE
  5
36
102
{ACAD_REACTORS
330
2A
102
}
330
2A
100
AcDbVisualStyle
  2
Brighten
 70
    12
177
     2
291
     1
 71
     2
176
     1
 72
     2
176
     1
 73
     0
176
     1
 90
        0
176
     1
 40
-0.6
176
     1
 41
-30.0
176
     1
 62
     5
 63
     7
421
 16777215
176
     1
 74
     1
176
     1
 91
        4
176
     1
 64
     7
176
     1
 65
   257
176
     1
 75
     1
176
     1
175
     1
176
     1
 42
1.0
176
     1
 92
        8
176
     1
 66
     7
176
     1
 43
1.0
176
     1
 76
     1
176
     1
 77
     6
176
     1
 78
     2
176
     1
 67
     7
176
     1
 79
     5
176
     1
170
     0
176
     1
171
     0
176
     1
290
     0
176
     1
 93
        1
176
     1
 44
50.0
176
     1
173
     0
176
     1
  0
VISUALSTYLE
  5
3A
102
{ACAD_REACTORS
330
2A
102
}
330
2A
100
AcDbVisualStyle
  2
ColorChange
 70
    16
177
     2
291
     1
 71
     2
176
     1
 72
     2
176
     1
 73
     3
176
     1
 90
        0
176
     1
 40
-0.6
176
     1
 41
-30.0
176
     1
 62
     5
 63
     8
421
  8421504
176
     1
 74
     1
176
     1
 91
        4
176
     1
 64
     7
176
     1
 65
   257
176
     1
 75
     1
176
     1
175
     1
176
     1
 42
1.0
176
     1
 92
        8
176
     1
 66
     8
424
  8421504
176
     1
 43
1.0
176
     1
 76
     1
176
     1
 77
     6
176
     1
 78
     2
176
     1
 67
     7
176
     1
 79
     5
176
     1
170
     0
176
     1
171
     0
176
     1
290
     0
176
     1
 93
        1
176
     1
 44
0.0
176
     1
173
     0
176
     1
  0
VISUALSTYLE
  5
34
102
{ACAD_REACTORS
330
2A
102
}
330
2A
100
AcDbVisualStyle
  2
Conceptual
 70
     9
177
     2
291
     0
 71
     3
176
     1
 72
     2
176
     1
 73
     0
176
     1
 90
        0
176
     1
 40
-0.6
176
     1
 41
-30.0
176
     1
 62
     5
 63
     7
421
 16777215
176
     1
 74
     2
176
     1
 91
        2
176
     1
 64
     7
176
     1
 65
   257
176
     1
 75
     1
176
     1
175
     1
176
     1
 42
40.0
176
     1
 92
        8
176
     1
 66
     7
176
     1
 43
1.0
176
     1
 76
     1
176
     1
 77
     6
176
     1
 78
     2
176
     1
 67
     7
176
     1
 79
     3
176
     1
170
     0
176
     1
171
     0
176
     1
290
     0
176
     1
 93
        1
176
     1
 44
0.0
176
     1
173
     0
176
     1
  0
VISUALSTYLE
  5
35
102
{ACAD_REACTORS
330
2A
102
}
330
2A
100
AcDbVisualStyle
  2
Dim
 70
    11
177
     2
291
     1
 71
     2
176
     1
 72
     2
176
     1
 73
     0
176
     1
 90
        0
176
     1
 40
-0.6
176
     1
 41
-30.0
176
     1
 62
     5
 63
     7
421
 16777215
176
     1
 74
     1
176
     1
 91
        4
176
     1
 64
     7
176
     1
 65
   257
176
     1
 75
     1
176
     1
175
     1
176
     1
 42
1.0
176
     1
 92
        8
176
     1
 66
     7
176
     1
 43
1.0
176
     1
 76
     1
176
     1
 77
     6
176
     1
 78
     2
176
     1
 67
     7
176
     1
 79
     5
176
     1
170
     0
176
     1
171
     0
176
     1
290
     0
176
     1
 93
        1
176
     1
 44
-50.0
176
     1
173
     0
176
     1
  0
VISUALSTYLE
  5
39
102
{ACAD_REACTORS
330
2A
102
}
330
2A
100
AcDbVisualStyle
  2
Facepattern
 70
    15
177
     2
291
     1
 71
     2
176
     1
 72
     2
176
     1
 73
     0
176
     1
 90
        0
176
     1
 40
-0.6
176
     1
 41
-30.0
176
     1
 62
     5
 63
     7
421
 16777215
176
     1
 74
     1
176
     1
 91
        4
176
     1
 64
     7
176
     1
 65
   257
176
     1
 75
     1
176
     1
175
     1
176
     1
 42
1.0
176
     1
 92
        8
176
     1
 66
     7
176
     1
 43
1.0
176
     1
 76
     1
176
     1
 77
     6
176
     1
 78
     2
176
     1
 67
     7
176
     1
 79
     5
176
     1
170
     0
176
     1
171
     0
176
     1
290
     0
176
     1
 93
        1
176
     1
 44
0.0
176
     1
173
     0
176
     1
  0
VISUALSTYLE
  5
2B
102
{ACAD_REACTORS
330
2A
102
}
330
2A
100
AcDbVisualStyle
  2
Flat
 70
     0
177
     2
291
     1
 71
     2
176
     1
 72
     1
176
     1
 73
     1
176
     1
 90
        2
176
     1
 40
-0.6
176
     1
 41
30.0
176
     1
 62
     5
 63
     7
421
 16777215
176
     1
 74
     0
176
     1
 91
        4
176
     1
 64
     7
176
     1
 65
   257
176
     1
 75
     1
176
     1
175
     1
176
     1
 42
1.0
176
     1
 92
        8
176
     1
 66
     7
176
     1
 43
1.0
176
     1
 76
     1
176
     1
 77
     6
176
     1
 78
     2
176
     1
 67
     7
176
     1
 79
     5
176
     1
170
     0
176
     1
171
     0
176
     1
290
     0
176
     1
 93
       13
176
     1
 44
0.0
176
     1
173
     0
176
     1
  0
VISUALSTYLE
  5
2C
102
{ACAD_REACTORS
330
2A
102
}
330
2A
100
AcDbVisualStyle
  2
FlatWithEdges
 70
     1
177
     2
291
     1
 71
     2
176
     1
 72
     1
176
     1
 73
     1
176
     1
 90
        2
176
     1
 40
-0.6
176
     1
 41
30.0
176
     1
 62
     5
 63
     7
421
 16777215
176
     1
 74
     1
176
     1
 91
        4
176
     1
 64
     7
176
     1
 65
   257
176
     1
 75
     1
176
     1
175
     1
176
     1
 42
1.0
176
     1
 92
        0
176
     1
 66
   257
176
     1
 43
1.0
176
     1
 76
     1
176
     1
 77
     6
176
     1
 78
     2
176
     1
 67
     7
176
     1
 79
     5
176
     1
170
     0
176
     1
171
     0
176
     1
290
     0
176
     1
 93
       13
176
     1
 44
0.0
176
     1
173
     0
176
     1
  0
VISUALSTYLE
  5
2D
102
{ACAD_REACTORS
330
2A
102
}
330
2A
100
AcDbVisualStyle
  2
Gouraud
 70
     2
177
     2
291
     1
 71
     2
176
     1
 72
     2
176
     1
 73
     1
176
     1
 90
        2
176
     1
 40
-0.6
176
     1
 41
30.0
176
     1
 62
     5
 63
     7
421
 16777215
176
     1
 74
     0
176
     1
 91
        4
176
     1
 64
     7
176
     1
 65
   257
176
     1
 75
     1
176
     1
175
     1
176
     1
 42
1.0
176
     1
 92
        0
176
     1
 66
     7
176
     1
 43
1.0
176
     1
 76
     1
176
     1
 77
     6
176
     1
 78
     2
176
     1
 67
     7
176
     1
 79
     5
176
     1
170
     0
176
     1
171
     0
176
     1
290
     0
176
     1
 93
       13
176
     1
 44
0.0
176
     1
173
     0
176
     1
  0
VISUALSTYLE
  5
2E
102
{ACAD_REACTORS
330
2A
102
}
330
2A
100
AcDbVisualStyle
  2
GouraudWithEdges
 70
     3
177
     2
291
     1
 71
     2
176
     1
 72
     2
176
     1
 73
     1
176
     1
 90
        2
176
     1
 40
-0.6
176
     1
 41
30.0
176
     1
 62
     5
 63
     7
421
 16777215
176
     1
 74
     1
176
     1
 91
        4
176
     1
 64
     7
176
     1
 65
   257
176
     1
 75
     1
176
     1
175
     1
176
     1
 42
1.0
176
     1
 92
        0
176
     1
 66
   257
176
     1
 43
1.0
176
     1
 76
     1
176
     1
 77
     6
176
     1
 78
     2
176
     1
 67
     7
176
     1
 79
     5
176
     1
170
     0
176
     1
171
     0
176
     1
290
     0
176
     1
 93
       13
176
     1
 44
0.0
176
     1
173
     0
176
     1
  0
VISUALSTYLE
  5
38
102
{ACAD_REACTORS
330
2A
102
}
330
2A
100
AcDbVisualStyle
  2
Linepattern
 70
    14
177
     2
291
     1
 71
     2
176
     1
 72
     2
176
     1
 73
     0
176
     1
 90
        0
176
     1
 40
-0.6
176
     1
 41
-30.0
176
     1
 62
     5
 63
     7
421
 16777215
176
     1
 74
     1
176
     1
 91
        4
176
     1
 64
     7
176
     1
 65
   257
176
     1
 75
     7
176
     1
175
     7
176
     1
 42
1.0
176
     1
 92
        8
176
     1
 66
     7
176
     1
 43
1.0
176
     1
 76
     1
176
     1
 77
     6
176
     1
 78
     2
176
     1
 67
     7
176
     1
 79
     5
176
     1
170
     0
176
     1
171
     0
176
     1
290
     0
176
     1
 93
        1
176
     1
 44
0.0
176
     1
173
     0
176
     1
  0
VISUALSTYLE
  5
33
102
{ACAD_REACTORS
330
2A
102
}
330
2A
100
AcDbVisualStyle
  2
Realistic
 70
     8
177
     2
291
     0
 71
     2
176
     1
 72
     2
176
     1
 73
     0
176
     1
 90
        0
176
     1
 40
-0.6
176
     1
 41
-30.0
176
     1
 62
     5
 63
     7
421
 16777215
176
     1
 74
     1
176
     1
 91
        0
176
     1
 64
     7
176
     1
 65
   257
176
     1
 75
     1
176
     1
175
     1
176
     1
 42
1.0
176
     1
 92
        8
176
     1
 66
     8
424
  7895160
176
     1
 43
1.0
176
     1
 76
     1
176
     1
 77
     6
176
     1
 78
     2
176
     1
 67
     7
176
     1
 79
     5
176
     1
170
     0
176
     1
171
     0
176
     1
290
     0
176
     1
 93
       13
176
     1
 44
0.0
176
     1
173
     0
176
     1
  0
VISUALSTYLE
  5
37
102
{ACAD_REACTORS
330
2A
102
}
330
2A
100
AcDbVisualStyle
  2
Thicken
 70
    13
177
     2
291
     1
 71
     2
176
     1
 72
     2
176
     1
 73
     0
176
     1
 90
        0
176
     1
 40
-0.6
176
     1
 41
-30.0
176
     1
 62
     5
 63
     7
421
 16777215
176
     1
 74
     1
176
     1
 91
        4
176
     1
 64
     7
176
     1
 65
   257
176
     1
 75
     1
176
     1
175
     1
176
     1
 42
1.0
176
     1
 92
       12
176
     1
 66
     7
176
     1
 43
1.0
176
     1
 76
     1
176
     1
 77
     6
176
     1
 78
     2
176
     1
 67
     7
176
     1
 79
     5
176
     1
170
     0
176
     1
171
     0
176
     1
290
     0
176
     1
 93
        1
176
     1
 44
0.0
176
     1
173
     0
176
     1
  0
ENDSEC
  0
EOF
