  0
SECTION
  2
HEADER
  9
$ACADVER
  1
AC1024
  9
$ACADMAINTVER
 70
     6
  9
$DWGCODEPAGE
  3
UNDEFINED
  9
$INSBASE
 10
0.0
 20
0.0
 30
0.0
  9
$EXTMIN
 10
1.000000000000000E+20
 20
1.000000000000000E+20
 30
1.000000000000000E+20
  9
$EXTMAX
 10
-1.000000000000000E+20
 20
-1.000000000000000E+20
 30
-1.000000000000000E+20
  9
$LIMMIN
 10
0.0
 20
0.0
  9
$LIMMAX
 10
12.0
 20
9.0
  9
$ORTHOMODE
 70
     0
  9
$REGENMODE
 70
     1
  9
$FILLMODE
 70
     1
  9
$QTEXTMODE
 70
     0
  9
$MIRRTEXT
 70
     1
  9
$LTSCALE
 40
1.0
  9
$ATTMODE
 70
     1
  9
$TEXTSIZE
 40
0.2
  9
$TRACEWID
 40
0.05
  9
$TEXTSTYLE
  7
Standard
  9
$CLAYER
  8
0
  9
$CELTYPE
  6
ByLayer
  9
$CECOLOR
 62
   256
  9
$CELTSCALE
 40
1.0
  9
$DISPSILH
 70
     0
  9
$DIMSCALE
 40
1.0
  9
$DIMASZ
 40
0.18
  9
$DIMEXO
 40
0.0625
  9
$DIMDLI
 40
0.38
  9
$DIMRND
 40
0.0
  9
$DIMDLE
 40
0.0
  9
$DIMEXE
 40
0.18
  9
$DIMTP
 40
0.0
  9
$DIMTM
 40
0.0
  9
$DIMTXT
 40
0.18
  9
$DIMCEN
 40
0.09
  9
$DIMTSZ
 40
0.0
  9
$DIMTOL
 70
     0
  9
$DIMLIM
 70
     0
  9
$DIMTIH
 70
     1
  9
$DIMTOH
 70
     1
  9
$DIMSE1
 70
     0
  9
$DIMSE2
 70
     0
  9
$DIMTAD
 70
     0
  9
$DIMZIN
 70
     0
  9
$DIMBLK
  1

  9
$DIMASO
 70
     1
  9
$DIMSHO
 70
     1
  9
$DIMPOST
  1

  9
$DIMAPOST
  1

  9
$DIMALT
 70
     0
  9
$DIMALTD
 70
     2
  9
$DIMALTF
 40
25.4
  9
$DIMLFAC
 40
1.0
  9
$DIMTOFL
 70
     0
  9
$DIMTVP
 40
0.0
  9
$DIMTIX
 70
     0
  9
$DIMSOXD
 70
     0
  9
$DIMSAH
 70
     0
  9
$DIMBLK1
  1

  9
$DIMBLK2
  1

  9
$DIMSTYLE
  2
Standard
  9
$DIMCLRD
 70
     0
  9
$DIMCLRE
 70
     0
  9
$DIMCLRT
 70
     0
  9
$DIMTFAC
 40
1.0
  9
$DIMGAP
 40
0.09
  9
$DIMJUST
 70
     0
  9
$DIMSD1
 70
     0
  9
$DIMSD2
 70
     0
  9
$DIMTOLJ
 70
     1
  9
$DIMTZIN
 70
     0
  9
$DIMALTZ
 70
     0
  9
$DIMALTTZ
 70
     0
  9
$DIMUPT
 70
     0
  9
$DIMDEC
 70
     4
  9
$DIMTDEC
 70
     4
  9
$DIMALTU
 70
     2
  9
$DIMALTTD
 70
     2
  9
$DIMTXSTY
  7
Standard
  9
$DIMAUNIT
 70
     0
  9
$DIMADEC
 70
     0
  9
$DIMALTRND
 40
0.0
  9
$DIMAZIN
 70
     0
  9
$DIMDSEP
 70
    46
  9
$DIMATFIT
 70
     3
  9
$DIMFRAC
 70
     0
  9
$DIMLDRBLK
  1

  9
$DIMLUNIT
 70
     2
  9
$DIMLWD
 70
    -2
  9
$DIMLWE
 70
    -2
  9
$DIMTMOVE
 70
     0
  9
$DIMFXL
 40
1.0
  9
$DIMFXLON
 70
     0
  9
$DIMJOGANG
 40
0.7853981633974483
  9
$DIMTFILL
 70
     0
  9
$DIMTFILLCLR
 70
     0
  9
$DIMARCSYM
 70
     0
  9
$DIMLTYPE
  6

  9
$DIMLTEX1
  6

  9
$DIMLTEX2
  6

  9
$DIMTXTDIRECTION
 70
     0
  9
$LUNITS
 70
     2
  9
$LUPREC
 70
     4
  9
$SKETCHINC
 40
0.1
  9
$FILLETRAD
 40
0.5
  9
$AUNITS
 70
     0
  9
$AUPREC
 70
     0
  9
$MENU
  1
.
  9
$ELEVATION
 40
0.0
  9
$PELEVATION
 40
0.0
  9
$THICKNESS
 40
0.0
  9
$LIMCHECK
 70
     0
  9
$CHAMFERA
 40
0.5
  9
$CHAMFERB
 40
0.5
  9
$CHAMFERC
 40
1.0
  9
$CHAMFERD
 40
0.0
  9
$SKPOLY
 70
     0
  9
$TDCREATE
 40
2457917.627210648
  9
$TDUCREATE
 40
2457917.252210648
  9
$TDUPDATE
 40
2457917.627210648
  9
$TDUUPDATE
 40
2457917.252210648
  9
$TDINDWG
 40
0.0000000116
  9
$TDUSRTIMER
 40
0.0000000116
  9
$USRTIMER
 70
     1
  9
$ANGBASE
 50
0.0
  9
$ANGDIR
 70
     0
  9
$PDMODE
 70
     0
  9
$PDSIZE
 40
0.0
  9
$PLINEWID
 40
0.0
  9
$SPLFRAME
 70
     0
  9
$SPLINETYPE
 70
     6
  9
$SPLINESEGS
 70
     8
  9
$HANDSEED
  5
168
  9
$SURFTAB1
 70
     6
  9
$SURFTAB2
 70
     6
  9
$SURFTYPE
 70
     6
  9
$SURFU
 70
     6
  9
$SURFV
 70
     6
  9
$UCSBASE
  2

  9
$UCSNAME
  2

  9
$UCSORG
 10
0.0
 20
0.0
 30
0.0
  9
$UCSXDIR
 10
1.0
 20
0.0
 30
0.0
  9
$UCSYDIR
 10
0.0
 20
1.0
 30
0.0
  9
$UCSORTHOREF
  2

  9
$UCSORTHOVIEW
 70
     0
  9
$UCSORGTOP
 10
0.0
 20
0.0
 30
0.0
  9
$UCSORGBOTTOM
 10
0.0
 20
0.0
 30
0.0
  9
$UCSORGLEFT
 10
0.0
 20
0.0
 30
0.0
  9
$UCSORGRIGHT
 10
0.0
 20
0.0
 30
0.0
  9
$UCSORGFRONT
 10
0.0
 20
0.0
 30
0.0
  9
$UCSORGBACK
 10
0.0
 20
0.0
 30
0.0
  9
$PUCSBASE
  2

  9
$PUCSNAME
  2

  9
$PUCSORG
 10
0.0
 20
0.0
 30
0.0
  9
$PUCSXDIR
 10
1.0
 20
0.0
 30
0.0
  9
$PUCSYDIR
 10
0.0
 20
1.0
 30
0.0
  9
$PUCSORTHOREF
  2

  9
$PUCSORTHOVIEW
 70
     0
  9
$PUCSORGTOP
 10
0.0
 20
0.0
 30
0.0
  9
$PUCSORGBOTTOM
 10
0.0
 20
0.0
 30
0.0
  9
$PUCSORGLEFT
 10
0.0
 20
0.0
 30
0.0
  9
$PUCSORGRIGHT
 10
0.0
 20
0.0
 30
0.0
  9
$PUCSORGFRONT
 10
0.0
 20
0.0
 30
0.0
  9
$PUCSORGBACK
 10
0.0
 20
0.0
 30
0.0
  9
$USERI1
 70
     0
  9
$USERI2
 70
     0
  9
$USERI3
 70
     0
  9
$USERI4
 70
     0
  9
$USERI5
 70
     0
  9
$USERR1
 40
0.0
  9
$USERR2
 40
0.0
  9
$USERR3
 40
0.0
  9
$USERR4
 40
0.0
  9
$USERR5
 40
0.0
  9
$WORLDVIEW
 70
     1
  9
$SHADEDGE
 70
     3
  9
$SHADEDIF
 70
    70
  9
$TILEMODE
 70
     1
  9
$MAXACTVP
 70
    64
  9
$PINSBASE
 10
0.0
 20
0.0
 30
0.0
  9
$PLIMCHECK
 70
     0
  9
$PEXTMIN
 10
1.000000000000000E+20
 20
1.000000000000000E+20
 30
1.000000000000000E+20
  9
$PEXTMAX
 10
-1.000000000000000E+20
 20
-1.000000000000000E+20
 30
-1.000000000000000E+20
  9
$PLIMMIN
 10
0.0
 20
0.0
  9
$PLIMMAX
 10
12.0
 20
9.0
  9
$UNITMODE
 70
     0
  9
$VISRETAIN
 70
     1
  9
$PLINEGEN
 70
     0
  9
$PSLTSCALE
 70
     1
  9
$TREEDEPTH
 70
  3020
  9
$CMLSTYLE
  2
Standard
  9
$CMLJUST
 70
     0
  9
$CMLSCALE
 40
1.0
  9
$PROXYGRAPHICS
 70
     1
  9
$MEASUREMENT
 70
     0
  9
$CELWEIGHT
370
    -1
  9
$ENDCAPS
280
     0
  9
$JOINSTYLE
280
     0
  9
$LWDISPLAY
290
     1
  9
$INSUNITS
 70
     1
  9
$HYPERLINKBASE
  1

  9
$STYLESHEET
  1

  9
$XEDIT
290
     1
  9
$CEPSNTYPE
380
     0
  9
$PSTYLEMODE
290
     1
  9
$FINGERPRINTGUID
  2
{4AAA34F2-FA7C-FEAF-B15E-EB467AFE58C6}
  9
$VERSIONGUID
  2
{FAEB1C32-E019-11D5-929B-00C0DF256EC4}
  9
$EXTNAMES
290
     1
  9
$PSVPSCALE
 40
0.0
  9
$OLESTARTUP
290
     0
  9
$SORTENTS
280
   127
  9
$INDEXCTL
280
     0
  9
$HIDETEXT
280
     1
  9
$XCLIPFRAME
280
     2
  9
$HALOGAP
280
     0
  9
$OBSCOLOR
 70
   257
  9
$OBSLTYPE
280
     0
  9
$INTERSECTIONDISPLAY
280
     0
  9
$INTERSECTIONCOLOR
 70
   257
  9
$DIMASSOC
280
     2
  9
$PROJECTNAME
  1

  9
$CAMERADISPLAY
290
     0
  9
$LENSLENGTH
 40
50.0
  9
$CAMERAHEIGHT
 40
0.0
  9
$STEPSPERSEC
 40
2.0
  9
$STEPSIZE
 40
6.0
  9
$3DDWFPREC
 40
2.0
  9
$PSOLWIDTH
 40
0.25
  9
$PSOLHEIGHT
 40
4.0
  9
$LOFTANG1
 40
1.570796326794897
  9
$LOFTANG2
 40
1.570796326794897
  9
$LOFTMAG1
 40
0.0
  9
$LOFTMAG2
 40
0.0
  9
$LOFTPARAM
 70
     7
  9
$LOFTNORMALS
280
     1
  9
$LATITUDE
 40
37.795
  9
$LONGITUDE
 40
-122.394
  9
$NORTHDIRECTION
 40
0.0
  9
$TIMEZONE
 70
 -8000
  9
$LIGHTGLYPHDISPLAY
280
     1
  9
$TILEMODELIGHTSYNCH
280
     1
  9
$CMATERIAL
347
3C
  9
$SOLIDHIST
280
     1
  9
$SHOWHIST
280
     1
  9
$DWFFRAME
280
     2
  9
$DGNFRAME
280
     2
  9
$REALWORLDSCALE
290
     1
  9
$INTERFERECOLOR
 62
   256
  9
$CSHADOW
280
     0
  9
$SHADOWPLANELOCATION
 40
0.0
  0
ENDSEC
  0
SECTION
  2
CLASSES
  0
CLASS
  1
ACDBDICTIONARYWDFLT
  2
AcDbDictionaryWithDefault
  3
ObjectDBX Classes
 90
        0
 91
        4
280
     0
281
     0
  0
CLASS
  1
VISUALSTYLE
  2
AcDbVisualStyle
  3
ObjectDBX Classes
 90
     4095
 91
        4
280
     0
281
     0
  0
CLASS
  1
MATERIAL
  2
AcDbMaterial
  3
ObjectDBX Classes
 90
     1153
 91
        4
280
     0
281
     0
  0
CLASS
  1
SUN
  2
AcDbSun
  3
SCENEOE
 90
     1024
 91
        4
280
     0
281
     0
  0
ENDSEC
  0
SECTION
  2
TABLES
  0
TABLE
  2
VPORT
  5
8
330
0
100
AcDbSymbolTable
 70
     1
  0
VPORT
  5
29
330
8
100
AcDbSymbolTableRecord
100
AcDbViewportTableRecord
  2
*Active
 70
     0
 10
0.0
 20
0.0
 11
1.0
 21
1.0
 12
0.0
 22
0.0
 13
0.0
 23
0.0
 14
0.5
 24
0.5
 15
0.5
 25
0.5
 16
0.0
 26
0.0
 36
1.0
 17
91.00082462281999
 27
-128.4993055234307
 37
0.0
 40
256.9986110468615
 41
0.7081814508812795
 42
50.0
 43
0.0
 44
0.0
 50
0.0
 51
0.0
 71
     0
 72
   100
 73
     1
 74
     3
 75
     0
 76
     0
 77
     0
 78
     0
281
     0
 65
     1
110
0.0
120
0.0
130
0.0
111
1.0
121
0.0
131
0.0
112
0.0
122
1.0
132
0.0
 79
     0
146
0.0
 60
     3
 61
     5
292
     1
282
     1
141
0.0
142
0.0
 63
   250
361
3F
  0
ENDTAB
  0
TABLE
  2
LTYPE
  5
5
330
0
100
AcDbSymbolTable
 70
     2
  0
LTYPE
  5
14
330
5
100
AcDbSymbolTableRecord
100
AcDbLinetypeTableRecord
  2
ByBlock
 70
     0
  3

 72
    65
 73
     0
 40
0.0
  0
LTYPE
  5
15
330
5
100
AcDbSymbolTableRecord
100
AcDbLinetypeTableRecord
  2
ByLayer
 70
     0
  3

 72
    65
 73
     0
 40
0.0
  0
LTYPE
  5
16
330
5
100
AcDbSymbolTableRecord
100
AcDbLinetypeTableRecord
  2
Continuous
 70
     0
  3
Solid line
 72
    65
 73
     0
 40
0.0
  0
LTYPE
  5
B3
330
5
100
AcDbSymbolTableRecord
100
AcDbLinetypeTableRecord
  2
AI-Linetype-1
 70
     0
  3
Adobe Illustrator Linetype No. 1
 72
    65
 73
     2
 40
0.7055555553791667
 49
0.3527777776895833
 74
     0
 49
-0.3527777776895833
 74
     0
  0
ENDTAB
  0
TABLE
  2
LAYER
  5
2
330
0
100
AcDbSymbolTable
 70
     2
  0
LAYER
  5
10
330
2
100
AcDbSymbolTableRecord
100
AcDbLayerTableRecord
  2
0
 70
     0
 62
     7
  6
Continuous
370
    -3
390
F
347
3E
  0
LAYER
  5
40
330
2
100
AcDbSymbolTableRecord
100
AcDbLayerTableRecord
  2
_U+30EC_U+30A4_U+30E4_U+30FC 1
 70
     0
 62
     7
  6
Continuous
370
    -3
390
F
347
3E
  0
ENDTAB
  0
TABLE
  2
STYLE
  5
3
330
0
100
AcDbSymbolTable
 70
     1
  0
STYLE
  5
11
330
3
100
AcDbSymbolTableRecord
100
AcDbTextStyleTableRecord
  2
Standard
 70
     0
 40
0.0
 41
1.0
 50
0.0
 71
     0
 42
0.2
  3
txt
  4

  0
ENDTAB
  0
TABLE
  2
VIEW
  5
6
330
0
100
AcDbSymbolTable
 70
     0
  0
ENDTAB
  0
TABLE
  2
UCS
  5
7
330
0
100
AcDbSymbolTable
 70
     0
  0
ENDTAB
  0
TABLE
  2
APPID
  5
9
330
0
100
AcDbSymbolTable
 70
     1
  0
APPID
  5
12
330
9
100
AcDbSymbolTableRecord
100
AcDbRegAppTableRecord
  2
ACAD
 70
     0
  0
ENDTAB
  0
TABLE
  2
DIMSTYLE
  5
A
330
0
100
AcDbSymbolTable
 70
     1
100
AcDbDimStyleTable
  0
DIMSTYLE
105
27
330
A
100
AcDbSymbolTableRecord
100
AcDbDimStyleTableRecord
  2
Standard
 70
     0
178
     0
340
11
  0
ENDTAB
  0
TABLE
  2
BLOCK_RECORD
  5
1
330
0
100
AcDbSymbolTable
 70
    12
  0
BLOCK_RECORD
  5
1F
330
1
100
AcDbSymbolTableRecord
100
AcDbBlockTableRecord
  2
*Model_Space
340
22
 70
     0
280
     1
281
     0
  0
BLOCK_RECORD
  5
1B
330
1
100
AcDbSymbolTableRecord
100
AcDbBlockTableRecord
  2
*Paper_Space
340
1E
 70
     0
280
     1
281
     0
  0
BLOCK_RECORD
  5
23
330
1
100
AcDbSymbolTableRecord
100
AcDbBlockTableRecord
  2
*Paper_Space0
340
26
 70
     0
280
     1
281
     0
  0
BLOCK_RECORD
  5
DA
330
1
100
AcDbSymbolTableRecord
100
AcDbBlockTableRecord
  2
block 2
340
0
102
{BLKREFS
331
DB
102
}
 70
     0
280
     1
281
     0
  0
BLOCK_RECORD
  5
E4
330
1
100
AcDbSymbolTableRecord
100
AcDbBlockTableRecord
  2
block 3
340
0
102
{BLKREFS
331
E5
102
}
 70
     0
280
     1
281
     0
  0
BLOCK_RECORD
  5
ED
330
1
100
AcDbSymbolTableRecord
100
AcDbBlockTableRecord
  2
block 4
340
0
102
{BLKREFS
331
EE
102
}
 70
     0
280
     1
281
     0
  0
BLOCK_RECORD
  5
F3
330
1
100
AcDbSymbolTableRecord
100
AcDbBlockTableRecord
  2
block 5
340
0
102
{BLKREFS
331
F4
102
}
 70
     0
280
     1
281
     0
  0
BLOCK_RECORD
  5
FB
330
1
100
AcDbSymbolTableRecord
100
AcDbBlockTableRecord
  2
block 6
340
0
102
{BLKREFS
331
FC
102
}
 70
     0
280
     1
281
     0
  0
BLOCK_RECORD
  5
114
330
1
100
AcDbSymbolTableRecord
100
AcDbBlockTableRecord
  2
block 7
340
0
102
{BLKREFS
331
115
102
}
 70
     0
280
     1
281
     0
  0
BLOCK_RECORD
  5
11C
330
1
100
AcDbSymbolTableRecord
100
AcDbBlockTableRecord
  2
block 8
340
0
102
{BLKREFS
331
11D
102
}
 70
     0
280
     1
281
     0
  0
BLOCK_RECORD
  5
12F
330
1
100
AcDbSymbolTableRecord
100
AcDbBlockTableRecord
  2
block 9
340
0
102
{BLKREFS
331
130
102
}
 70
     0
280
     1
281
     0
  0
BLOCK_RECORD
  5
147
330
1
100
AcDbSymbolTableRecord
100
AcDbBlockTableRecord
  2
block 10
340
0
102
{BLKREFS
331
148
102
}
 70
     0
280
     1
281
     0
  0
BLOCK_RECORD
  5
157
330
1
100
AcDbSymbolTableRecord
100
AcDbBlockTableRecord
  2
block 11
340
0
102
{BLKREFS
331
158
102
}
 70
     0
280
     1
281
     0
  0
BLOCK_RECORD
  5
15D
330
1
100
AcDbSymbolTableRecord
100
AcDbBlockTableRecord
  2
block 12
340
0
102
{BLKREFS
331
15E
102
}
 70
     0
280
     1
281
     0
  0
ENDTAB
  0
ENDSEC
  0
SECTION
  2
BLOCKS
  0
BLOCK
  5
20
330
1F
100
AcDbEntity
  8
0
100
AcDbBlockBegin
  2
*Model_Space
 70
     0
 10
0.0
 20
0.0
 30
0.0
  3
*Model_Space
  1

  0
ENDBLK
  5
21
330
1F
100
AcDbEntity
  8
0
100
AcDbBlockEnd
  0
BLOCK
  5
1C
330
1B
100
AcDbEntity
 67
     1
  8
0
100
AcDbBlockBegin
  2
*Paper_Space
 70
     0
 10
0.0
 20
0.0
 30
0.0
  3
*Paper_Space
  1

  0
ENDBLK
  5
1D
330
1B
100
AcDbEntity
 67
     1
  8
0
100
AcDbBlockEnd
  0
BLOCK
  5
24
330
23
100
AcDbEntity
  8
0
100
AcDbBlockBegin
  2
*Paper_Space0
 70
     0
 10
0.0
 20
0.0
 30
0.0
  3
*Paper_Space0
  1

  0
ENDBLK
  5
25
330
23
100
AcDbEntity
  8
0
100
AcDbBlockEnd
  0
BLOCK
  5
DC
330
DA
100
AcDbEntity
  8
0
100
AcDbBlockBegin
  2
block 2
 70
     0
 10
0.0
 20
0.0
 30
0.0
  3
block 2
  1

  0
SPLINE
  5
DE
330
DA
100
AcDbEntity
  8
_U+30EC_U+30A4_U+30E4_U+30FC 1
370
     0
100
AcDbSpline
210
0.0
220
0.0
230
1.0
 70
    11
 71
     3
 72
    32
 73
    28
 74
     0
 42
0.0000000001
 43
0.0000000001
 12
1.0
 22
0.0
 32
0.0
 13
1.0
 23
0.0
 33
0.0
 40
0.0
 40
0.0
 40
0.0
 40
0.0
 40
1.0
 40
1.0
 40
1.0
 40
2.0
 40
2.0
 40
2.0
 40
3.0
 40
3.0
 40
3.0
 40
4.0
 40
4.0
 40
4.0
 40
5.0
 40
5.0
 40
5.0
 40
6.0
 40
6.0
 40
6.0
 40
7.0
 40
7.0
 40
7.0
 40
8.0
 40
8.0
 40
8.0
 40
9.0
 40
9.0
 40
9.0
 40
9.0
 10
76.18329126784654
 20
-125.3770154851488
 30
0.0
 10
75.66704370938186
 20
-125.3770154851488
 30
0.0
 10
75.65860322544299
 20
-124.8230441311206
 30
0.0
 10
75.65860322544299
 20
-124.6091037014866
 30
0.0
 10
75.65860322544299
 20
-124.3786268135234
 30
0.0
 10
75.67772350538613
 20
-123.731293371845
 30
0.0
 10
76.22135957295855
 20
-123.731293371845
 30
0.0
 10
76.39482013064088
 20
-123.731293371845
 30
0.0
 10
76.64028318396494
 20
-123.8012288101955
 30
0.0
 10
76.67835148907695
 20
-124.1333360149736
 30
0.0
 10
76.67835148907695
 20
-124.1333360149736
 30
0.0
 10
76.4645833142172
 20
-124.1333360149736
 30
0.0
 10
76.4645833142172
 20
-124.1333360149736
 30
0.0
 10
76.45407577298718
 20
-124.0761474299185
 30
0.0
 10
76.42238089452287
 20
-123.9280083240527
 30
0.0
 10
76.2192925156674
 20
-123.9280083240527
 30
0.0
 10
75.92732067329248
 20
-123.9280083240527
 30
0.0
 10
75.88701305611505
 20
-124.2559814142485
 30
0.0
 10
75.8744384575939
 20
-124.4609645956209
 30
0.0
 10
75.96745603569563
 20
-124.3827609281057
 30
0.0
 10
76.0351521619808
 20
-124.3235052857594
 30
0.0
 10
76.21705320360199
 20
-124.3235052857594
 30
0.0
 10
76.39688718793204
 20
-124.3235052857594
 30
0.0
 10
76.69936657153697
 20
-124.4316812839963
 30
0.0
 10
76.69936657153697
 20
-124.8378580417072
 30
0.0
 10
76.69936657153697
 20
-125.1572183931899
 30
0.0
 10
76.50058456203806
 20
-125.3770154851488
 30
0.0
 10
76.18329126784654
 20
-125.3770154851488
 30
0.0
  0
SPLINE
  5
DF
330
DA
100
AcDbEntity
  8
_U+30EC_U+30A4_U+30E4_U+30FC 1
370
     0
100
AcDbSpline
210
0.0
220
0.0
230
1.0
 70
    11
 71
     3
 72
    17
 73
    13
 74
     0
 42
0.0000000001
 43
0.0000000001
 12
1.0
 22
0.0
 32
0.0
 13
1.0
 23
0.0
 33
0.0
 40
0.0
 40
0.0
 40
0.0
 40
0.0
 40
1.0
 40
1.0
 40
1.0
 40
2.0
 40
2.0
 40
2.0
 40
3.0
 40
3.0
 40
3.0
 40
4.0
 40
4.0
 40
4.0
 40
4.0
 10
76.20017223572427
 20
-124.518153180676
 30
0.0
 10
75.9378282145225
 20
-124.518153180676
 30
0.0
 10
75.89975990941048
 20
-124.7296820434704
 30
0.0
 10
75.89975990941048
 20
-124.8461262708718
 30
0.0
 10
75.89975990941048
 20
-125.0218261406196
 30
0.0
 10
75.99501679957764
 20
-125.1847791570719
 30
0.0
 10
76.17898489848999
 20
-125.1847791570719
 30
0.0
 10
76.29956324047373
 20
-125.1847791570719
 30
0.0
 10
76.47526311022146
 20
-125.1255235147256
 30
0.0
 10
76.47526311022146
 20
-124.8399250989984
 30
0.0
 10
76.47526311022146
 20
-124.6156493829086
 30
0.0
 10
76.33556448829458
 20
-124.518153180676
 30
0.0
 10
76.20017223572427
 20
-124.518153180676
 30
0.0
  0
HATCH
  5
E0
330
DA
100
AcDbEntity
  8
_U+30EC_U+30A4_U+30E4_U+30FC 1
 62
   179
420
  2234388
100
AcDbHatch
 10
0.0
 20
0.0
 30
0.0
210
0.0
220
0.0
230
1.0
  2
SOLID
 70
     1
 71
     0
 91
        2
 92
        1
 93
        1
 72
     4
 94
        3
 73
     0
 74
     1
 95
       32
 96
       28
 40
0.0
 40
0.0
 40
0.0
 40
0.0
 40
1.0
 40
1.0
 40
1.0
 40
2.0
 40
2.0
 40
2.0
 40
3.0
 40
3.0
 40
3.0
 40
4.0
 40
4.0
 40
4.0
 40
5.0
 40
5.0
 40
5.0
 40
6.0
 40
6.0
 40
6.0
 40
7.0
 40
7.0
 40
7.0
 40
8.0
 40
8.0
 40
8.0
 40
9.0
 40
9.0
 40
9.0
 40
9.0
 10
76.18329126784654
 20
-125.3770154851488
 10
75.66704370938186
 20
-125.3770154851488
 10
75.65860322544299
 20
-124.8230441311206
 10
75.65860322544299
 20
-124.6091037014866
 10
75.65860322544299
 20
-124.3786268135234
 10
75.67772350538613
 20
-123.731293371845
 10
76.22135957295855
 20
-123.731293371845
 10
76.39482013064088
 20
-123.731293371845
 10
76.64028318396494
 20
-123.8012288101955
 10
76.67835148907695
 20
-124.1333360149736
 10
76.67835148907695
 20
-124.1333360149736
 10
76.4645833142172
 20
-124.1333360149736
 10
76.4645833142172
 20
-124.1333360149736
 10
76.45407577298718
 20
-124.0761474299185
 10
76.42238089452287
 20
-123.9280083240527
 10
76.2192925156674
 20
-123.9280083240527
 10
75.92732067329248
 20
-123.9280083240527
 10
75.88701305611505
 20
-124.2559814142485
 10
75.8744384575939
 20
-124.4609645956209
 10
75.96745603569563
 20
-124.3827609281057
 10
76.0351521619808
 20
-124.3235052857594
 10
76.21705320360199
 20
-124.3235052857594
 10
76.39688718793204
 20
-124.3235052857594
 10
76.69936657153697
 20
-124.4316812839963
 10
76.69936657153697
 20
-124.8378580417072
 10
76.69936657153697
 20
-125.1572183931899
 10
76.50058456203806
 20
-125.3770154851488
 10
76.18329126784654
 20
-125.3770154851488
 97
        0
 97
        0
 92
        1
 93
        1
 72
     4
 94
        3
 73
     0
 74
     1
 95
       17
 96
       13
 40
0.0
 40
0.0
 40
0.0
 40
0.0
 40
1.0
 40
1.0
 40
1.0
 40
2.0
 40
2.0
 40
2.0
 40
3.0
 40
3.0
 40
3.0
 40
4.0
 40
4.0
 40
4.0
 40
4.0
 10
76.20017223572427
 20
-124.518153180676
 10
75.9378282145225
 20
-124.518153180676
 10
75.89975990941048
 20
-124.7296820434704
 10
75.89975990941048
 20
-124.8461262708718
 10
75.89975990941048
 20
-125.0218261406196
 10
75.99501679957764
 20
-125.1847791570719
 10
76.17898489848999
 20
-125.1847791570719
 10
76.29956324047373
 20
-125.1847791570719
 10
76.47526311022146
 20
-125.1255235147256
 10
76.47526311022146
 20
-124.8399250989984
 10
76.47526311022146
 20
-124.6156493829086
 10
76.33556448829458
 20
-124.518153180676
 10
76.20017223572427
 20
-124.518153180676
 97
        0
 97
        0
 75
     2
 76
     1
 98
        0
  0
SPLINE
  5
E1
330
DA
100
AcDbEntity
  8
_U+30EC_U+30A4_U+30E4_U+30FC 1
370
     0
100
AcDbSpline
210
0.0
220
0.0
230
1.0
 70
    11
 71
     3
 72
    29
 73
    25
 74
     0
 42
0.0000000001
 43
0.0000000001
 12
1.0
 22
0.0
 32
0.0
 13
1.0
 23
0.0
 33
0.0
 40
0.0
 40
0.0
 40
0.0
 40
0.0
 40
1.0
 40
1.0
 40
1.0
 40
2.0
 40
2.0
 40
2.0
 40
3.0
 40
3.0
 40
3.0
 40
4.0
 40
4.0
 40
4.0
 40
5.0
 40
5.0
 40
5.0
 40
6.0
 40
6.0
 40
6.0
 40
7.0
 40
7.0
 40
7.0
 40
8.0
 40
8.0
 40
8.0
 40
8.0
 10
77.75356579002342
 20
-125.1486056544767
 30
0.0
 10
77.6457343013351
 20
-125.3580674599799
 30
0.0
 10
77.47227374365276
 20
-125.3770154851488
 30
0.0
 10
77.35582951625132
 20
-125.3770154851488
 30
0.0
 10
77.19511581186443
 20
-125.3770154851488
 30
0.0
 10
77.05335013264639
 20
-125.3305066960979
 30
0.0
 10
76.95809324247924
 20
-125.1486056544767
 30
0.0
 10
76.85456812314747
 20
-124.9539577595601
 30
0.0
 10
76.83544784320434
 20
-124.7172796997235
 30
0.0
 10
76.83544784320434
 20
-124.5543266832711
 30
0.0
 10
76.83544784320434
 20
-124.4103216919877
 30
0.0
 10
76.85232881108206
 20
-124.1584852120159
 30
0.0
 10
76.95809324247924
 20
-123.959703202517
 30
0.0
 10
77.06609698594181
 20
-123.7567870784358
 30
0.0
 10
77.22681069032872
 20
-123.7333604291361
 30
0.0
 10
77.35582951625132
 20
-123.7333604291361
 30
0.0
 10
77.51447616334708
 20
-123.7333604291361
 30
0.0
 10
77.65830889985627
 20
-123.7778021608958
 30
0.0
 10
77.75356579002342
 20
-123.959703202517
 30
0.0
 10
77.85295679477288
 20
-124.1522840401425
 30
0.0
 10
77.87621118929832
 20
-124.3806938708146
 30
0.0
 10
77.87621118929832
 20
-124.5543266832711
 30
0.0
 10
77.87621118929832
 20
-124.7255479288881
 30
0.0
 10
77.85519610683829
 20
-124.9560248168513
 30
0.0
 10
77.75356579002342
 20
-125.1486056544767
 30
0.0
  0
SPLINE
  5
E2
330
DA
100
AcDbEntity
  8
_U+30EC_U+30A4_U+30E4_U+30FC 1
370
     0
100
AcDbSpline
210
0.0
220
0.0
230
1.0
 70
    11
 71
     3
 72
    17
 73
    13
 74
     0
 42
0.0000000001
 43
0.0000000001
 12
1.0
 22
0.0
 32
0.0
 13
1.0
 23
0.0
 33
0.0
 40
0.0
 40
0.0
 40
0.0
 40
0.0
 40
1.0
 40
1.0
 40
1.0
 40
2.0
 40
2.0
 40
2.0
 40
3.0
 40
3.0
 40
3.0
 40
4.0
 40
4.0
 40
4.0
 40
4.0
 10
77.35582951625132
 20
-123.9259412667616
 30
0.0
 10
77.10623234834497
 20
-123.9259412667616
 30
0.0
 10
77.0597235592941
 20
-124.2094726251976
 30
0.0
 10
77.0597235592941
 20
-124.5543266832711
 30
0.0
 10
77.0597235592941
 20
-124.8736870347538
 30
0.0
 10
77.09572480711496
 20
-125.1823675902322
 30
0.0
 10
77.35582951625132
 20
-125.1823675902322
 30
0.0
 10
77.60335962686652
 20
-125.1823675902322
 30
0.0
 10
77.65210772798281
 20
-124.9012477986358
 30
0.0
 10
77.65210772798281
 20
-124.5543266832711
 30
0.0
 10
77.65210772798281
 20
-124.23462182224
 30
0.0
 10
77.61386716809653
 20
-123.9259412667616
 30
0.0
 10
77.35582951625132
 20
-123.9259412667616
 30
0.0
  0
HATCH
  5
E3
330
DA
100
AcDbEntity
  8
_U+30EC_U+30A4_U+30E4_U+30FC 1
 62
   179
420
  2234388
100
AcDbHatch
 10
0.0
 20
0.0
 30
0.0
210
0.0
220
0.0
230
1.0
  2
SOLID
 70
     1
 71
     0
 91
        2
 92
        1
 93
        1
 72
     4
 94
        3
 73
     0
 74
     1
 95
       29
 96
       25
 40
0.0
 40
0.0
 40
0.0
 40
0.0
 40
1.0
 40
1.0
 40
1.0
 40
2.0
 40
2.0
 40
2.0
 40
3.0
 40
3.0
 40
3.0
 40
4.0
 40
4.0
 40
4.0
 40
5.0
 40
5.0
 40
5.0
 40
6.0
 40
6.0
 40
6.0
 40
7.0
 40
7.0
 40
7.0
 40
8.0
 40
8.0
 40
8.0
 40
8.0
 10
77.75356579002342
 20
-125.1486056544767
 10
77.6457343013351
 20
-125.3580674599799
 10
77.47227374365276
 20
-125.3770154851488
 10
77.35582951625132
 20
-125.3770154851488
 10
77.19511581186443
 20
-125.3770154851488
 10
77.05335013264639
 20
-125.3305066960979
 10
76.95809324247924
 20
-125.1486056544767
 10
76.85456812314747
 20
-124.9539577595601
 10
76.83544784320434
 20
-124.7172796997235
 10
76.83544784320434
 20
-124.5543266832711
 10
76.83544784320434
 20
-124.4103216919877
 10
76.85232881108206
 20
-124.1584852120159
 10
76.95809324247924
 20
-123.959703202517
 10
77.06609698594181
 20
-123.7567870784358
 10
77.22681069032872
 20
-123.7333604291361
 10
77.35582951625132
 20
-123.7333604291361
 10
77.51447616334708
 20
-123.7333604291361
 10
77.65830889985627
 20
-123.7778021608958
 10
77.75356579002342
 20
-123.959703202517
 10
77.85295679477288
 20
-124.1522840401425
 10
77.87621118929832
 20
-124.3806938708146
 10
77.87621118929832
 20
-124.5543266832711
 10
77.87621118929832
 20
-124.7255479288881
 10
77.85519610683829
 20
-124.9560248168513
 10
77.75356579002342
 20
-125.1486056544767
 97
        0
 97
        0
 92
        1
 93
        1
 72
     4
 94
        3
 73
     0
 74
     1
 95
       17
 96
       13
 40
0.0
 40
0.0
 40
0.0
 40
0.0
 40
1.0
 40
1.0
 40
1.0
 40
2.0
 40
2.0
 40
2.0
 40
3.0
 40
3.0
 40
3.0
 40
4.0
 40
4.0
 40
4.0
 40
4.0
 10
77.35582951625132
 20
-123.9259412667616
 10
77.10623234834497
 20
-123.9259412667616
 10
77.0597235592941
 20
-124.2094726251976
 10
77.0597235592941
 20
-124.5543266832711
 10
77.0597235592941
 20
-124.8736870347538
 10
77.09572480711496
 20
-125.1823675902322
 10
77.35582951625132
 20
-125.1823675902322
 10
77.60335962686652
 20
-125.1823675902322
 10
77.65210772798281
 20
-124.9012477986358
 10
77.65210772798281
 20
-124.5543266832711
 10
77.65210772798281
 20
-124.23462182224
 10
77.61386716809653
 20
-123.9259412667616
 10
77.35582951625132
 20
-123.9259412667616
 97
        0
 97
        0
 75
     2
 76
     1
 98
        0
  0
ENDBLK
  5
DD
330
DA
100
AcDbEntity
  8
0
100
AcDbBlockEnd
  0
BLOCK
  5
E6
330
E4
100
AcDbEntity
  8
0
100
AcDbBlockBegin
  2
block 3
 70
     0
 10
0.0
 20
0.0
 30
0.0
  3
block 3
  1

  0
SPLINE
  5
E8
330
E4
100
AcDbEntity
  8
_U+30EC_U+30A4_U+30E4_U+30FC 1
370
     0
100
AcDbSpline
210
0.0
220
0.0
230
1.0
 70
    11
 71
     3
 72
    62
 73
    58
 74
     0
 42
0.0000000001
 43
0.0000000001
 12
1.0
 22
0.0
 32
0.0
 13
1.0
 23
0.0
 33
0.0
 40
0.0
 40
0.0
 40
0.0
 40
0.0
 40
1.0
 40
1.0
 40
1.0
 40
2.0
 40
2.0
 40
2.0
 40
3.0
 40
3.0
 40
3.0
 40
4.0
 40
4.0
 40
4.0
 40
5.0
 40
5.0
 40
5.0
 40
6.0
 40
6.0
 40
6.0
 40
7.0
 40
7.0
 40
7.0
 40
8.0
 40
8.0
 40
8.0
 40
9.0
 40
9.0
 40
9.0
 40
10.0
 40
10.0
 40
10.0
 40
11.0
 40
11.0
 40
11.0
 40
12.0
 40
12.0
 40
12.0
 40
13.0
 40
13.0
 40
13.0
 40
14.0
 40
14.0
 40
14.0
 40
15.0
 40
15.0
 40
15.0
 40
16.0
 40
16.0
 40
16.0
 40
17.0
 40
17.0
 40
17.0
 40
18.0
 40
18.0
 40
18.0
 40
19.0
 40
19.0
 40
19.0
 40
19.0
 10
82.32641328236978
 20
-117.8629177222704
 30
0.0
 10
82.23115639220264
 20
-117.8629177222704
 30
0.0
 10
82.01325410276058
 20
-117.8419026398104
 30
0.0
 10
81.88854164619454
 20
-117.6558674836069
 30
0.0
 10
81.81447209326166
 20
-117.5435573707877
 30
0.0
 10
81.8101657239051
 20
-117.4443386208125
 30
0.0
 10
81.8060316093228
 20
-117.3595892718754
 30
0.0
 10
81.8060316093228
 20
-117.3595892718754
 30
0.0
 10
82.02600095605601
 20
-117.3595892718754
 30
0.0
 10
82.02600095605601
 20
-117.3595892718754
 30
0.0
 10
82.02806801334715
 20
-117.4336588248083
 30
0.0
 10
82.03874780935143
 20
-117.6682698273538
 30
0.0
 10
82.32227916778749
 20
-117.6682698273538
 30
0.0
 10
82.45973847764895
 20
-117.6682698273538
 30
0.0
 10
82.612011698097
 20
-117.5986788985517
 30
0.0
 10
82.612011698097
 20
-117.3702690678797
 30
0.0
 10
82.612011698097
 20
-117.2538248404782
 30
0.0
 10
82.57394339298499
 20
-117.2052489941362
 30
0.0
 10
82.5422485145207
 20
-117.1735541156719
 30
0.0
 10
82.46817896158782
 20
-117.099484562739
 30
0.0
 10
82.35173473418638
 20
-117.0867377094436
 30
0.0
 10
82.29678546119663
 20
-117.0867377094436
 30
0.0
 10
82.27783743602777
 20
-117.0867377094436
 30
0.0
 10
82.2418361882069
 20
-117.0888047667348
 30
0.0
 10
82.21427542432491
 20
-117.0929388813171
 30
0.0
 10
82.21427542432491
 20
-117.0929388813171
 30
0.0
 10
82.21427542432491
 20
-116.8982909864004
 30
0.0
 10
82.21427542432491
 20
-116.8982909864004
 30
0.0
 10
82.25234372943692
 20
-116.9048366678224
 30
0.0
 10
82.29471840390549
 20
-116.9069037251136
 30
0.0
 10
82.3010918305532
 20
-116.9069037251136
 30
0.0
 10
82.36654864477295
 20
-116.9069037251136
 30
0.0
 10
82.56550290904613
 20
-116.885544133105
 30
0.0
 10
82.56550290904613
 20
-116.6488660732684
 30
0.0
 10
82.56550290904613
 20
-116.4710991462294
 30
0.0
 10
82.4342447710581
 20
-116.4159776184655
 30
0.0
 10
82.32434622507864
 20
-116.4159776184655
 30
0.0
 10
82.05993514658572
 20
-116.4159776184655
 30
0.0
 10
82.05149466264685
 20
-116.6488660732684
 30
0.0
 10
82.04718829329029
 20
-116.7205240593615
 30
0.0
 10
82.04718829329029
 20
-116.7205240593615
 30
0.0
 10
81.8440999144348
 20
-116.7205240593615
 30
0.0
 10
81.8440999144348
 20
-116.7205240593615
 30
0.0
 10
81.85254039837368
 20
-116.5958116027955
 30
0.0
 10
81.88010116225567
 20
-116.2192626662577
 30
0.0
 10
82.3369208235998
 20
-116.2192626662577
 30
0.0
 10
82.56119653968956
 20
-116.2192626662577
 30
0.0
 10
82.80235322365705
 20
-116.3463866896634
 30
0.0
 10
82.80235322365705
 20
-116.6423203918464
 30
0.0
 10
82.80235322365705
 20
-116.8287000575984
 30
0.0
 10
82.70726858826416
 20
-116.9110378396959
 30
0.0
 10
82.60770532874044
 20
-116.9723605393333
 30
0.0
 10
82.66920028315215
 20
-116.9999213032153
 30
0.0
 10
82.85110132477334
 20
-117.0801920280216
 30
0.0
 10
82.85110132477334
 20
-117.3575222145842
 30
0.0
 10
82.85110132477334
 20
-117.6958305912358
 30
0.0
 10
82.60357121415814
 20
-117.8629177222704
 30
0.0
 10
82.32641328236978
 20
-117.8629177222704
 30
0.0
  0
HATCH
  5
E9
330
E4
100
AcDbEntity
  8
_U+30EC_U+30A4_U+30E4_U+30FC 1
 62
   179
420
  2234388
100
AcDbHatch
 10
0.0
 20
0.0
 30
0.0
210
0.0
220
0.0
230
1.0
  2
SOLID
 70
     1
 71
     0
 91
        1
 92
        1
 93
        1
 72
     4
 94
        3
 73
     0
 74
     1
 95
       62
 96
       58
 40
0.0
 40
0.0
 40
0.0
 40
0.0
 40
1.0
 40
1.0
 40
1.0
 40
2.0
 40
2.0
 40
2.0
 40
3.0
 40
3.0
 40
3.0
 40
4.0
 40
4.0
 40
4.0
 40
5.0
 40
5.0
 40
5.0
 40
6.0
 40
6.0
 40
6.0
 40
7.0
 40
7.0
 40
7.0
 40
8.0
 40
8.0
 40
8.0
 40
9.0
 40
9.0
 40
9.0
 40
10.0
 40
10.0
 40
10.0
 40
11.0
 40
11.0
 40
11.0
 40
12.0
 40
12.0
 40
12.0
 40
13.0
 40
13.0
 40
13.0
 40
14.0
 40
14.0
 40
14.0
 40
15.0
 40
15.0
 40
15.0
 40
16.0
 40
16.0
 40
16.0
 40
17.0
 40
17.0
 40
17.0
 40
18.0
 40
18.0
 40
18.0
 40
19.0
 40
19.0
 40
19.0
 40
19.0
 10
82.32641328236978
 20
-117.8629177222704
 10
82.23115639220264
 20
-117.8629177222704
 10
82.01325410276058
 20
-117.8419026398104
 10
81.88854164619454
 20
-117.6558674836069
 10
81.81447209326166
 20
-117.5435573707877
 10
81.8101657239051
 20
-117.4443386208125
 10
81.8060316093228
 20
-117.3595892718754
 10
81.8060316093228
 20
-117.3595892718754
 10
82.02600095605601
 20
-117.3595892718754
 10
82.02600095605601
 20
-117.3595892718754
 10
82.02806801334715
 20
-117.4336588248083
 10
82.03874780935143
 20
-117.6682698273538
 10
82.32227916778749
 20
-117.6682698273538
 10
82.45973847764895
 20
-117.6682698273538
 10
82.612011698097
 20
-117.5986788985517
 10
82.612011698097
 20
-117.3702690678797
 10
82.612011698097
 20
-117.2538248404782
 10
82.57394339298499
 20
-117.2052489941362
 10
82.5422485145207
 20
-117.1735541156719
 10
82.46817896158782
 20
-117.099484562739
 10
82.35173473418638
 20
-117.0867377094436
 10
82.29678546119663
 20
-117.0867377094436
 10
82.27783743602777
 20
-117.0867377094436
 10
82.2418361882069
 20
-117.0888047667348
 10
82.21427542432491
 20
-117.0929388813171
 10
82.21427542432491
 20
-117.0929388813171
 10
82.21427542432491
 20
-116.8982909864004
 10
82.21427542432491
 20
-116.8982909864004
 10
82.25234372943692
 20
-116.9048366678224
 10
82.29471840390549
 20
-116.9069037251136
 10
82.3010918305532
 20
-116.9069037251136
 10
82.36654864477295
 20
-116.9069037251136
 10
82.56550290904613
 20
-116.885544133105
 10
82.56550290904613
 20
-116.6488660732684
 10
82.56550290904613
 20
-116.4710991462294
 10
82.4342447710581
 20
-116.4159776184655
 10
82.32434622507864
 20
-116.4159776184655
 10
82.05993514658572
 20
-116.4159776184655
 10
82.05149466264685
 20
-116.6488660732684
 10
82.04718829329029
 20
-116.7205240593615
 10
82.04718829329029
 20
-116.7205240593615
 10
81.8440999144348
 20
-116.7205240593615
 10
81.8440999144348
 20
-116.7205240593615
 10
81.85254039837368
 20
-116.5958116027955
 10
81.88010116225567
 20
-116.2192626662577
 10
82.3369208235998
 20
-116.2192626662577
 10
82.56119653968956
 20
-116.2192626662577
 10
82.80235322365705
 20
-116.3463866896634
 10
82.80235322365705
 20
-116.6423203918464
 10
82.80235322365705
 20
-116.8287000575984
 10
82.70726858826416
 20
-116.9110378396959
 10
82.60770532874044
 20
-116.9723605393333
 10
82.66920028315215
 20
-116.9999213032153
 10
82.85110132477334
 20
-117.0801920280216
 10
82.85110132477334
 20
-117.3575222145842
 10
82.85110132477334
 20
-117.6958305912358
 10
82.60357121415814
 20
-117.8629177222704
 10
82.32641328236978
 20
-117.8629177222704
 97
        0
 97
        0
 75
     2
 76
     1
 98
        0
  0
SPLINE
  5
EA
330
E4
100
AcDbEntity
  8
_U+30EC_U+30A4_U+30E4_U+30FC 1
370
     0
100
AcDbSpline
210
0.0
220
0.0
230
1.0
 70
    11
 71
     3
 72
    29
 73
    25
 74
     0
 42
0.0000000001
 43
0.0000000001
 12
1.0
 22
0.0
 32
0.0
 13
1.0
 23
0.0
 33
0.0
 40
0.0
 40
0.0
 40
0.0
 40
0.0
 40
1.0
 40
1.0
 40
1.0
 40
2.0
 40
2.0
 40
2.0
 40
3.0
 40
3.0
 40
3.0
 40
4.0
 40
4.0
 40
4.0
 40
5.0
 40
5.0
 40
5.0
 40
6.0
 40
6.0
 40
6.0
 40
7.0
 40
7.0
 40
7.0
 40
8.0
 40
8.0
 40
8.0
 40
8.0
 10
83.90943465784208
 20
-117.6345078915983
 30
0.0
 10
83.80160316915376
 20
-117.8439696971015
 30
0.0
 10
83.62814261147145
 20
-117.8629177222704
 30
0.0
 10
83.51169838407
 20
-117.8629177222704
 30
0.0
 10
83.3509846796831
 20
-117.8629177222704
 30
0.0
 10
83.20921900046505
 20
-117.8164089332195
 30
0.0
 10
83.1139621102979
 20
-117.6345078915983
 30
0.0
 10
83.01043699096614
 20
-117.4398599966817
 30
0.0
 10
82.991316711023
 20
-117.2028374272965
 30
0.0
 10
82.991316711023
 20
-117.0402289203927
 30
0.0
 10
82.991316711023
 20
-116.8962239291093
 30
0.0
 10
83.00819767890073
 20
-116.6443874491375
 30
0.0
 10
83.1139621102979
 20
-116.4456054396386
 30
0.0
 10
83.22196585376048
 20
-116.2426893155574
 30
0.0
 10
83.38267955814739
 20
-116.2192626662577
 30
0.0
 10
83.51169838407
 20
-116.2192626662577
 30
0.0
 10
83.67034503116575
 20
-116.2192626662577
 30
0.0
 10
83.81417776767493
 20
-116.2637043980174
 30
0.0
 10
83.90943465784208
 20
-116.4456054396386
 30
0.0
 10
84.00882566259155
 20
-116.6381862772641
 30
0.0
 10
84.03208005711699
 20
-116.8665961079361
 30
0.0
 10
84.03208005711699
 20
-117.0402289203927
 30
0.0
 10
84.03208005711699
 20
-117.2114501660096
 30
0.0
 10
84.01106497465696
 20
-117.4419270539729
 30
0.0
 10
83.90943465784208
 20
-117.6345078915983
 30
0.0
  0
SPLINE
  5
EB
330
E4
100
AcDbEntity
  8
_U+30EC_U+30A4_U+30E4_U+30FC 1
370
     0
100
AcDbSpline
210
0.0
220
0.0
230
1.0
 70
    11
 71
     3
 72
    17
 73
    13
 74
     0
 42
0.0000000001
 43
0.0000000001
 12
1.0
 22
0.0
 32
0.0
 13
1.0
 23
0.0
 33
0.0
 40
0.0
 40
0.0
 40
0.0
 40
0.0
 40
1.0
 40
1.0
 40
1.0
 40
2.0
 40
2.0
 40
2.0
 40
3.0
 40
3.0
 40
3.0
 40
4.0
 40
4.0
 40
4.0
 40
4.0
 10
83.51169838407
 20
-116.4118435038832
 30
0.0
 10
83.26210121616364
 20
-116.4118435038832
 30
0.0
 10
83.21559242711277
 20
-116.6953748623192
 30
0.0
 10
83.21559242711277
 20
-117.0402289203927
 30
0.0
 10
83.21559242711277
 20
-117.3595892718754
 30
0.0
 10
83.25159367493363
 20
-117.6682698273538
 30
0.0
 10
83.51169838407
 20
-117.6682698273538
 30
0.0
 10
83.7592284946852
 20
-117.6682698273538
 30
0.0
 10
83.80797659580148
 20
-117.3871500357574
 30
0.0
 10
83.80797659580148
 20
-117.0402289203927
 30
0.0
 10
83.80797659580148
 20
-116.7205240593615
 30
0.0
 10
83.76990829068947
 20
-116.4118435038832
 30
0.0
 10
83.51169838407
 20
-116.4118435038832
 30
0.0
  0
HATCH
  5
EC
330
E4
100
AcDbEntity
  8
_U+30EC_U+30A4_U+30E4_U+30FC 1
 62
   179
420
  2234388
100
AcDbHatch
 10
0.0
 20
0.0
 30
0.0
210
0.0
220
0.0
230
1.0
  2
SOLID
 70
     1
 71
     0
 91
        2
 92
        1
 93
        1
 72
     4
 94
        3
 73
     0
 74
     1
 95
       29
 96
       25
 40
0.0
 40
0.0
 40
0.0
 40
0.0
 40
1.0
 40
1.0
 40
1.0
 40
2.0
 40
2.0
 40
2.0
 40
3.0
 40
3.0
 40
3.0
 40
4.0
 40
4.0
 40
4.0
 40
5.0
 40
5.0
 40
5.0
 40
6.0
 40
6.0
 40
6.0
 40
7.0
 40
7.0
 40
7.0
 40
8.0
 40
8.0
 40
8.0
 40
8.0
 10
83.90943465784208
 20
-117.6345078915983
 10
83.80160316915376
 20
-117.8439696971015
 10
83.62814261147145
 20
-117.8629177222704
 10
83.51169838407
 20
-117.8629177222704
 10
83.3509846796831
 20
-117.8629177222704
 10
83.20921900046505
 20
-117.8164089332195
 10
83.1139621102979
 20
-117.6345078915983
 10
83.01043699096614
 20
-117.4398599966817
 10
82.991316711023
 20
-117.2028374272965
 10
82.991316711023
 20
-117.0402289203927
 10
82.991316711023
 20
-116.8962239291093
 10
83.00819767890073
 20
-116.6443874491375
 10
83.1139621102979
 20
-116.4456054396386
 10
83.22196585376048
 20
-116.2426893155574
 10
83.38267955814739
 20
-116.2192626662577
 10
83.51169838407
 20
-116.2192626662577
 10
83.67034503116575
 20
-116.2192626662577
 10
83.81417776767493
 20
-116.2637043980174
 10
83.90943465784208
 20
-116.4456054396386
 10
84.00882566259155
 20
-116.6381862772641
 10
84.03208005711699
 20
-116.8665961079361
 10
84.03208005711699
 20
-117.0402289203927
 10
84.03208005711699
 20
-117.2114501660096
 10
84.01106497465696
 20
-117.4419270539729
 10
83.90943465784208
 20
-117.6345078915983
 97
        0
 97
        0
 92
        1
 93
        1
 72
     4
 94
        3
 73
     0
 74
     1
 95
       17
 96
       13
 40
0.0
 40
0.0
 40
0.0
 40
0.0
 40
1.0
 40
1.0
 40
1.0
 40
2.0
 40
2.0
 40
2.0
 40
3.0
 40
3.0
 40
3.0
 40
4.0
 40
4.0
 40
4.0
 40
4.0
 10
83.51169838407
 20
-116.4118435038832
 10
83.26210121616364
 20
-116.4118435038832
 10
83.21559242711277
 20
-116.6953748623192
 10
83.21559242711277
 20
-117.0402289203927
 10
83.21559242711277
 20
-117.3595892718754
 10
83.25159367493363
 20
-117.6682698273538
 10
83.51169838407
 20
-117.6682698273538
 10
83.7592284946852
 20
-117.6682698273538
 10
83.80797659580148
 20
-117.3871500357574
 10
83.80797659580148
 20
-117.0402289203927
 10
83.80797659580148
 20
-116.7205240593615
 10
83.76990829068947
 20
-116.4118435038832
 10
83.51169838407
 20
-116.4118435038832
 97
        0
 97
        0
 75
     2
 76
     1
 98
        0
  0
ENDBLK
  5
E7
330
E4
100
AcDbEntity
  8
0
100
AcDbBlockEnd
  0
BLOCK
  5
EF
330
ED
100
AcDbEntity
  8
0
100
AcDbBlockBegin
  2
block 4
 70
     0
 10
0.0
 20
0.0
 30
0.0
  3
block 4
  1

  0
SPLINE
  5
F1
330
ED
100
AcDbEntity
  8
_U+30EC_U+30A4_U+30E4_U+30FC 1
370
     0
100
AcDbSpline
210
0.0
220
0.0
230
1.0
 70
    11
 71
     3
 72
    44
 73
    40
 74
     0
 42
0.0000000001
 43
0.0000000001
 12
1.0
 22
0.0
 32
0.0
 13
1.0
 23
0.0
 33
0.0
 40
0.0
 40
0.0
 40
0.0
 40
0.0
 40
1.0
 40
1.0
 40
1.0
 40
2.0
 40
2.0
 40
2.0
 40
3.0
 40
3.0
 40
3.0
 40
4.0
 40
4.0
 40
4.0
 40
5.0
 40
5.0
 40
5.0
 40
6.0
 40
6.0
 40
6.0
 40
7.0
 40
7.0
 40
7.0
 40
8.0
 40
8.0
 40
8.0
 40
9.0
 40
9.0
 40
9.0
 40
10.0
 40
10.0
 40
10.0
 40
11.0
 40
11.0
 40
11.0
 40
12.0
 40
12.0
 40
12.0
 40
13.0
 40
13.0
 40
13.0
 40
13.0
 10
81.03467473017537
 20
-125.379771561537
 30
0.0
 10
80.81677244073332
 20
-125.538590463407
 30
0.0
 10
80.7235826078573
 20
-125.6126600163399
 30
0.0
 10
80.67500676151528
 20
-125.7563204980748
 30
0.0
 10
80.67500676151528
 20
-125.7563204980748
 30
0.0
 10
81.45342608640748
 20
-125.7563204980748
 30
0.0
 10
81.45342608640748
 20
-125.7563204980748
 30
0.0
 10
81.45342608640748
 20
-125.7563204980748
 30
0.0
 10
81.45342608640748
 20
-125.9616481889957
 30
0.0
 10
81.45342608640748
 20
-125.9616481889957
 30
0.0
 10
81.45342608640748
 20
-125.9616481889957
 30
0.0
 10
80.42540959360893
 20
-125.9616481889957
 30
0.0
 10
80.42540959360893
 20
-125.9616481889957
 30
0.0
 10
80.45710447207323
 20
-125.6040472776268
 30
0.0
 10
80.52256128629297
 20
-125.5258436101116
 30
0.0
 10
80.90772296154391
 20
-125.227498341089
 30
0.0
 10
81.16369355609797
 20
-125.02871633159
 30
0.0
 10
81.22915037031771
 20
-124.9608479505306
 30
0.0
 10
81.22915037031771
 20
-124.8233886406692
 30
0.0
 10
81.22915037031771
 20
-124.7048773559766
 30
0.0
 10
81.15732012945026
 20
-124.5739637275371
 30
0.0
 10
80.96060517724248
 20
-124.5739637275371
 30
0.0
 10
80.70032821333187
 20
-124.5739637275371
 30
0.0
 10
80.691887729393
 20
-124.8044406155003
 30
0.0
 10
80.68758136003645
 20
-124.9208848429017
 30
0.0
 10
80.68758136003645
 20
-124.9208848429017
 30
0.0
 10
80.46347789872094
 20
-124.9208848429017
 30
0.0
 10
80.46347789872094
 20
-124.9208848429017
 30
0.0
 10
80.47191838265981
 20
-124.793760819496
 30
0.0
 10
80.48242592388982
 20
-124.6817952162254
 30
0.0
 10
80.5628689034704
 20
-124.5632839315328
 30
0.0
 10
80.67276744944986
 20
-124.4023979723716
 30
0.0
 10
80.85897486042762
 20
-124.3686360366162
 30
0.0
 10
80.97541908782907
 20
-124.3686360366162
 30
0.0
 10
81.25257701961742
 20
-124.3686360366162
 30
0.0
 10
81.45979951305519
 20
-124.5526041355285
 30
0.0
 10
81.45979951305519
 20
-124.8254556979603
 30
0.0
 10
81.45979951305519
 20
-125.0542100381809
 30
0.0
 10
81.34352754042801
 20
-125.1534287881561
 30
0.0
 10
81.03467473017537
 20
-125.379771561537
 30
0.0
  0
HATCH
  5
F2
330
ED
100
AcDbEntity
  8
_U+30EC_U+30A4_U+30E4_U+30FC 1
 62
   179
420
  2234388
100
AcDbHatch
 10
0.0
 20
0.0
 30
0.0
210
0.0
220
0.0
230
1.0
  2
SOLID
 70
     1
 71
     0
 91
        1
 92
        1
 93
        1
 72
     4
 94
        3
 73
     0
 74
     1
 95
       44
 96
       40
 40
0.0
 40
0.0
 40
0.0
 40
0.0
 40
1.0
 40
1.0
 40
1.0
 40
2.0
 40
2.0
 40
2.0
 40
3.0
 40
3.0
 40
3.0
 40
4.0
 40
4.0
 40
4.0
 40
5.0
 40
5.0
 40
5.0
 40
6.0
 40
6.0
 40
6.0
 40
7.0
 40
7.0
 40
7.0
 40
8.0
 40
8.0
 40
8.0
 40
9.0
 40
9.0
 40
9.0
 40
10.0
 40
10.0
 40
10.0
 40
11.0
 40
11.0
 40
11.0
 40
12.0
 40
12.0
 40
12.0
 40
13.0
 40
13.0
 40
13.0
 40
13.0
 10
81.03467473017537
 20
-125.379771561537
 10
80.81677244073332
 20
-125.538590463407
 10
80.7235826078573
 20
-125.6126600163399
 10
80.67500676151528
 20
-125.7563204980748
 10
80.67500676151528
 20
-125.7563204980748
 10
81.45342608640748
 20
-125.7563204980748
 10
81.45342608640748
 20
-125.7563204980748
 10
81.45342608640748
 20
-125.7563204980748
 10
81.45342608640748
 20
-125.9616481889957
 10
81.45342608640748
 20
-125.9616481889957
 10
81.45342608640748
 20
-125.9616481889957
 10
80.42540959360893
 20
-125.9616481889957
 10
80.42540959360893
 20
-125.9616481889957
 10
80.45710447207323
 20
-125.6040472776268
 10
80.52256128629297
 20
-125.5258436101116
 10
80.90772296154391
 20
-125.227498341089
 10
81.16369355609797
 20
-125.02871633159
 10
81.22915037031771
 20
-124.9608479505306
 10
81.22915037031771
 20
-124.8233886406692
 10
81.22915037031771
 20
-124.7048773559766
 10
81.15732012945026
 20
-124.5739637275371
 10
80.96060517724248
 20
-124.5739637275371
 10
80.70032821333187
 20
-124.5739637275371
 10
80.691887729393
 20
-124.8044406155003
 10
80.68758136003645
 20
-124.9208848429017
 10
80.68758136003645
 20
-124.9208848429017
 10
80.46347789872094
 20
-124.9208848429017
 10
80.46347789872094
 20
-124.9208848429017
 10
80.47191838265981
 20
-124.793760819496
 10
80.48242592388982
 20
-124.6817952162254
 10
80.5628689034704
 20
-124.5632839315328
 10
80.67276744944986
 20
-124.4023979723716
 10
80.85897486042762
 20
-124.3686360366162
 10
80.97541908782907
 20
-124.3686360366162
 10
81.25257701961742
 20
-124.3686360366162
 10
81.45979951305519
 20
-124.5526041355285
 10
81.45979951305519
 20
-124.8254556979603
 10
81.45979951305519
 20
-125.0542100381809
 10
81.34352754042801
 20
-125.1534287881561
 10
81.03467473017537
 20
-125.379771561537
 97
        0
 97
        0
 75
     2
 76
     1
 98
        0
  0
ENDBLK
  5
F0
330
ED
100
AcDbEntity
  8
0
100
AcDbBlockEnd
  0
BLOCK
  5
F5
330
F3
100
AcDbEntity
  8
0
100
AcDbBlockBegin
  2
block 5
 70
     0
 10
0.0
 20
0.0
 30
0.0
  3
block 5
  1

  0
SPLINE
  5
F7
330
F3
100
AcDbEntity
  8
_U+30EC_U+30A4_U+30E4_U+30FC 1
370
     0
100
AcDbSpline
210
0.0
220
0.0
230
1.0
 70
    11
 71
     3
 72
    26
 73
    22
 74
     0
 42
0.0000000001
 43
0.0000000001
 12
1.0
 22
0.0
 32
0.0
 13
1.0
 23
0.0
 33
0.0
 40
0.0
 40
0.0
 40
0.0
 40
0.0
 40
1.0
 40
1.0
 40
1.0
 40
2.0
 40
2.0
 40
2.0
 40
3.0
 40
3.0
 40
3.0
 40
4.0
 40
4.0
 40
4.0
 40
5.0
 40
5.0
 40
5.0
 40
6.0
 40
6.0
 40
6.0
 40
7.0
 40
7.0
 40
7.0
 40
7.0
 10
82.13314342564728
 20
-131.2571044593732
 30
0.0
 10
82.13314342564728
 20
-131.2571044593732
 30
0.0
 10
82.13314342564728
 20
-130.1529513563507
 30
0.0
 10
82.13314342564728
 20
-130.1529513563507
 30
0.0
 10
82.13314342564728
 20
-130.1529513563507
 30
0.0
 10
81.80310327816034
 20
-130.1529513563507
 30
0.0
 10
81.80310327816034
 20
-130.1529513563507
 30
0.0
 10
81.80310327816034
 20
-130.1529513563507
 30
0.0
 10
81.80310327816034
 20
-130.0048122504849
 30
0.0
 10
81.80310327816034
 20
-130.0048122504849
 30
0.0
 10
82.13521048293842
 20
-129.9899983398983
 30
0.0
 10
82.1817192719893
 20
-129.827045323446
 30
0.0
 10
82.21134709316244
 20
-129.7126681533357
 30
0.0
 10
82.21134709316244
 20
-129.7126681533357
 30
0.0
 10
82.35741914173704
 20
-129.7126681533357
 30
0.0
 10
82.35741914173704
 20
-129.7126681533357
 30
0.0
 10
82.35741914173704
 20
-129.7126681533357
 30
0.0
 10
82.35741914173704
 20
-131.2571044593732
 30
0.0
 10
82.35741914173704
 20
-131.2571044593732
 30
0.0
 10
82.35741914173704
 20
-131.2571044593732
 30
0.0
 10
82.13314342564728
 20
-131.2571044593732
 30
0.0
 10
82.13314342564728
 20
-131.2571044593732
 30
0.0
  0
HATCH
  5
F8
330
F3
100
AcDbEntity
  8
_U+30EC_U+30A4_U+30E4_U+30FC 1
 62
   179
420
  2234388
100
AcDbHatch
 10
0.0
 20
0.0
 30
0.0
210
0.0
220
0.0
230
1.0
  2
SOLID
 70
     1
 71
     0
 91
        1
 92
        1
 93
        1
 72
     4
 94
        3
 73
     0
 74
     1
 95
       26
 96
       22
 40
0.0
 40
0.0
 40
0.0
 40
0.0
 40
1.0
 40
1.0
 40
1.0
 40
2.0
 40
2.0
 40
2.0
 40
3.0
 40
3.0
 40
3.0
 40
4.0
 40
4.0
 40
4.0
 40
5.0
 40
5.0
 40
5.0
 40
6.0
 40
6.0
 40
6.0
 40
7.0
 40
7.0
 40
7.0
 40
7.0
 10
82.13314342564728
 20
-131.2571044593732
 10
82.13314342564728
 20
-131.2571044593732
 10
82.13314342564728
 20
-130.1529513563507
 10
82.13314342564728
 20
-130.1529513563507
 10
82.13314342564728
 20
-130.1529513563507
 10
81.80310327816034
 20
-130.1529513563507
 10
81.80310327816034
 20
-130.1529513563507
 10
81.80310327816034
 20
-130.1529513563507
 10
81.80310327816034
 20
-130.0048122504849
 10
81.80310327816034
 20
-130.0048122504849
 10
82.13521048293842
 20
-129.9899983398983
 10
82.1817192719893
 20
-129.827045323446
 10
82.21134709316244
 20
-129.7126681533357
 10
82.21134709316244
 20
-129.7126681533357
 10
82.35741914173704
 20
-129.7126681533357
 10
82.35741914173704
 20
-129.7126681533357
 10
82.35741914173704
 20
-129.7126681533357
 10
82.35741914173704
 20
-131.2571044593732
 10
82.35741914173704
 20
-131.2571044593732
 10
82.35741914173704
 20
-131.2571044593732
 10
82.13314342564728
 20
-131.2571044593732
 10
82.13314342564728
 20
-131.2571044593732
 97
        0
 97
        0
 75
     2
 76
     1
 98
        0
  0
SPLINE
  5
F9
330
F3
100
AcDbEntity
  8
_U+30EC_U+30A4_U+30E4_U+30FC 1
370
     0
100
AcDbSpline
210
0.0
220
0.0
230
1.0
 70
    11
 71
     3
 72
    53
 73
    49
 74
     0
 42
0.0000000001
 43
0.0000000001
 12
1.0
 22
0.0
 32
0.0
 13
1.0
 23
0.0
 33
0.0
 40
0.0
 40
0.0
 40
0.0
 40
0.0
 40
1.0
 40
1.0
 40
1.0
 40
2.0
 40
2.0
 40
2.0
 40
3.0
 40
3.0
 40
3.0
 40
4.0
 40
4.0
 40
4.0
 40
5.0
 40
5.0
 40
5.0
 40
6.0
 40
6.0
 40
6.0
 40
7.0
 40
7.0
 40
7.0
 40
8.0
 40
8.0
 40
8.0
 40
9.0
 40
9.0
 40
9.0
 40
10.0
 40
10.0
 40
10.0
 40
11.0
 40
11.0
 40
11.0
 40
12.0
 40
12.0
 40
12.0
 40
13.0
 40
13.0
 40
13.0
 40
14.0
 40
14.0
 40
14.0
 40
15.0
 40
15.0
 40
15.0
 40
16.0
 40
16.0
 40
16.0
 40
16.0
 10
83.33961586458177
 20
-131.3077473630064
 30
0.0
 10
83.26123994229233
 20
-131.3077473630064
 30
0.0
 10
83.15978188025173
 20
-131.2908663951287
 30
0.0
 10
83.05815156343685
 20
-131.2274766382001
 30
0.0
 10
82.88469100575452
 20
-131.1175780922206
 30
0.0
 10
82.86350366852024
 20
-130.9863199542326
 30
0.0
 10
82.84455564335137
 20
-130.8784884655443
 30
0.0
 10
82.84455564335137
 20
-130.8784884655443
 30
0.0
 10
83.06659204737572
 20
-130.8784884655443
 30
0.0
 10
83.06659204737572
 20
-130.8784884655443
 30
0.0
 10
83.12171357513971
 20
-131.0772704750432
 30
0.0
 10
83.24866534377117
 20
-131.1068982962163
 30
0.0
 10
83.34168292187292
 20
-131.1068982962163
 30
0.0
 10
83.48120928902553
 20
-131.1068982962163
 30
0.0
 10
83.63365476424784
 20
-131.0073350366926
 30
0.0
 10
83.63365476424784
 20
-130.7747910914383
 30
0.0
 10
83.63365476424784
 20
-130.5188204968842
 30
0.0
 10
83.4538207799178
 20
-130.4488850585336
 30
0.0
 10
83.33324243793406
 20
-130.4488850585336
 30
0.0
 10
83.30154755946975
 20
-130.4488850585336
 30
0.0
 10
83.15978188025173
 20
-130.4488850585336
 30
0.0
 10
83.07089841673228
 20
-130.5780761392305
 30
0.0
 10
83.07089841673228
 20
-130.5780761392305
 30
0.0
 10
82.8953708017588
 20
-130.5591281140616
 30
0.0
 10
82.8953708017588
 20
-130.5591281140616
 30
0.0
 10
82.8953708017588
 20
-130.5591281140616
 30
0.0
 10
83.01594914374255
 20
-129.7126681533357
 30
0.0
 10
83.01594914374255
 20
-129.7126681533357
 30
0.0
 10
83.01594914374255
 20
-129.7126681533357
 30
0.0
 10
83.79436846863474
 20
-129.7126681533357
 30
0.0
 10
83.79436846863474
 20
-129.7126681533357
 30
0.0
 10
83.79436846863474
 20
-129.7126681533357
 30
0.0
 10
83.79436846863474
 20
-129.9073160482523
 30
0.0
 10
83.79436846863474
 20
-129.9073160482523
 30
0.0
 10
83.79436846863474
 20
-129.9073160482523
 30
0.0
 10
83.1787299054206
 20
-129.9073160482523
 30
0.0
 10
83.1787299054206
 20
-129.9073160482523
 30
0.0
 10
83.1787299054206
 20
-129.9073160482523
 30
0.0
 10
83.11327309120085
 20
-130.330373773841
 30
0.0
 10
83.11327309120085
 20
-130.330373773841
 30
0.0
 10
83.1745957908383
 20
-130.2966118380856
 30
0.0
 10
83.25710582771003
 20
-130.2563042209082
 30
0.0
 10
83.37544485762837
 20
-130.2563042209082
 30
0.0
 10
83.62934839489128
 20
-130.2563042209082
 30
0.0
 10
83.86637096427647
 20
-130.4426838866602
 30
0.0
 10
83.86637096427647
 20
-130.7558430662694
 30
0.0
 10
83.86637096427647
 20
-131.0731363604609
 30
0.0
 10
83.6420952481867
 20
-131.3077473630064
 30
0.0
 10
83.33961586458177
 20
-131.3077473630064
 30
0.0
  0
HATCH
  5
FA
330
F3
100
AcDbEntity
  8
_U+30EC_U+30A4_U+30E4_U+30FC 1
 62
   179
420
  2234388
100
AcDbHatch
 10
0.0
 20
0.0
 30
0.0
210
0.0
220
0.0
230
1.0
  2
SOLID
 70
     1
 71
     0
 91
        1
 92
        1
 93
        1
 72
     4
 94
        3
 73
     0
 74
     1
 95
       53
 96
       49
 40
0.0
 40
0.0
 40
0.0
 40
0.0
 40
1.0
 40
1.0
 40
1.0
 40
2.0
 40
2.0
 40
2.0
 40
3.0
 40
3.0
 40
3.0
 40
4.0
 40
4.0
 40
4.0
 40
5.0
 40
5.0
 40
5.0
 40
6.0
 40
6.0
 40
6.0
 40
7.0
 40
7.0
 40
7.0
 40
8.0
 40
8.0
 40
8.0
 40
9.0
 40
9.0
 40
9.0
 40
10.0
 40
10.0
 40
10.0
 40
11.0
 40
11.0
 40
11.0
 40
12.0
 40
12.0
 40
12.0
 40
13.0
 40
13.0
 40
13.0
 40
14.0
 40
14.0
 40
14.0
 40
15.0
 40
15.0
 40
15.0
 40
16.0
 40
16.0
 40
16.0
 40
16.0
 10
83.33961586458177
 20
-131.3077473630064
 10
83.26123994229233
 20
-131.3077473630064
 10
83.15978188025173
 20
-131.2908663951287
 10
83.05815156343685
 20
-131.2274766382001
 10
82.88469100575452
 20
-131.1175780922206
 10
82.86350366852024
 20
-130.9863199542326
 10
82.84455564335137
 20
-130.8784884655443
 10
82.84455564335137
 20
-130.8784884655443
 10
83.06659204737572
 20
-130.8784884655443
 10
83.06659204737572
 20
-130.8784884655443
 10
83.12171357513971
 20
-131.0772704750432
 10
83.24866534377117
 20
-131.1068982962163
 10
83.34168292187292
 20
-131.1068982962163
 10
83.48120928902553
 20
-131.1068982962163
 10
83.63365476424784
 20
-131.0073350366926
 10
83.63365476424784
 20
-130.7747910914383
 10
83.63365476424784
 20
-130.5188204968842
 10
83.4538207799178
 20
-130.4488850585336
 10
83.33324243793406
 20
-130.4488850585336
 10
83.30154755946975
 20
-130.4488850585336
 10
83.15978188025173
 20
-130.4488850585336
 10
83.07089841673228
 20
-130.5780761392305
 10
83.07089841673228
 20
-130.5780761392305
 10
82.8953708017588
 20
-130.5591281140616
 10
82.8953708017588
 20
-130.5591281140616
 10
82.8953708017588
 20
-130.5591281140616
 10
83.01594914374255
 20
-129.7126681533357
 10
83.01594914374255
 20
-129.7126681533357
 10
83.01594914374255
 20
-129.7126681533357
 10
83.79436846863474
 20
-129.7126681533357
 10
83.79436846863474
 20
-129.7126681533357
 10
83.79436846863474
 20
-129.7126681533357
 10
83.79436846863474
 20
-129.9073160482523
 10
83.79436846863474
 20
-129.9073160482523
 10
83.79436846863474
 20
-129.9073160482523
 10
83.1787299054206
 20
-129.9073160482523
 10
83.1787299054206
 20
-129.9073160482523
 10
83.1787299054206
 20
-129.9073160482523
 10
83.11327309120085
 20
-130.330373773841
 10
83.11327309120085
 20
-130.330373773841
 10
83.1745957908383
 20
-130.2966118380856
 10
83.25710582771003
 20
-130.2563042209082
 10
83.37544485762837
 20
-130.2563042209082
 10
83.62934839489128
 20
-130.2563042209082
 10
83.86637096427647
 20
-130.4426838866602
 10
83.86637096427647
 20
-130.7558430662694
 10
83.86637096427647
 20
-131.0731363604609
 10
83.6420952481867
 20
-131.3077473630064
 10
83.33961586458177
 20
-131.3077473630064
 97
        0
 97
        0
 75
     2
 76
     1
 98
        0
  0
ENDBLK
  5
F6
330
F3
100
AcDbEntity
  8
0
100
AcDbBlockEnd
  0
BLOCK
  5
FD
330
FB
100
AcDbEntity
  8
0
100
AcDbBlockBegin
  2
block 6
 70
     0
 10
0.0
 20
0.0
 30
0.0
  3
block 6
  1

  0
POLYLINE
  5
FF
330
FB
100
AcDbEntity
  8
_U+30EC_U+30A4_U+30E4_U+30FC 1
370
     0
100
AcDb2dPolyline
 66
     1
 10
0.0
 20
0.0
 30
0.0
  0
VERTEX
  5
100
330
FF
100
AcDbEntity
  8
_U+30EC_U+30A4_U+30E4_U+30FC 1
370
     0
100
AcDbVertex
100
AcDb2dVertex
 10
88.11158987597558
 20
-137.0917181731924
 30
0.0
  0
VERTEX
  5
101
330
FF
100
AcDbEntity
  8
_U+30EC_U+30A4_U+30E4_U+30FC 1
370
     0
100
AcDbVertex
100
AcDb2dVertex
 10
88.11158987597558
 20
-137.438639288557
 30
0.0
  0
VERTEX
  5
102
330
FF
100
AcDbEntity
  8
_U+30EC_U+30A4_U+30E4_U+30FC 1
370
     0
100
AcDbVertex
100
AcDb2dVertex
 10
87.89368758653353
 20
-137.438639288557
 30
0.0
  0
VERTEX
  5
103
330
FF
100
AcDbEntity
  8
_U+30EC_U+30A4_U+30E4_U+30FC 1
370
     0
100
AcDbVertex
100
AcDb2dVertex
 10
87.89368758653353
 20
-137.0917181731924
 30
0.0
  0
VERTEX
  5
104
330
FF
100
AcDbEntity
  8
_U+30EC_U+30A4_U+30E4_U+30FC 1
370
     0
100
AcDbVertex
100
AcDb2dVertex
 10
87.23791366091622
 20
-137.0917181731924
 30
0.0
  0
VERTEX
  5
105
330
FF
100
AcDbEntity
  8
_U+30EC_U+30A4_U+30E4_U+30FC 1
370
     0
100
AcDbVertex
100
AcDb2dVertex
 10
87.23791366091622
 20
-136.8674424571026
 30
0.0
  0
VERTEX
  5
106
330
FF
100
AcDbEntity
  8
_U+30EC_U+30A4_U+30E4_U+30FC 1
370
     0
100
AcDbVertex
100
AcDb2dVertex
 10
87.91694198105897
 20
-135.8942029825195
 30
0.0
  0
VERTEX
  5
107
330
FF
100
AcDbEntity
  8
_U+30EC_U+30A4_U+30E4_U+30FC 1
370
     0
100
AcDbVertex
100
AcDb2dVertex
 10
88.11158987597558
 20
-135.8942029825195
 30
0.0
  0
VERTEX
  5
108
330
FF
100
AcDbEntity
  8
_U+30EC_U+30A4_U+30E4_U+30FC 1
370
     0
100
AcDbVertex
100
AcDb2dVertex
 10
88.11158987597558
 20
-136.8929361636934
 30
0.0
  0
VERTEX
  5
109
330
FF
100
AcDbEntity
  8
_U+30EC_U+30A4_U+30E4_U+30FC 1
370
     0
100
AcDbVertex
100
AcDb2dVertex
 10
88.31898462418762
 20
-136.8929361636934
 30
0.0
  0
VERTEX
  5
10A
330
FF
100
AcDbEntity
  8
_U+30EC_U+30A4_U+30E4_U+30FC 1
370
     0
100
AcDbVertex
100
AcDb2dVertex
 10
88.31898462418762
 20
-137.0917181731924
 30
0.0
  0
VERTEX
  5
10B
330
FF
100
AcDbEntity
  8
_U+30EC_U+30A4_U+30E4_U+30FC 1
370
     0
100
AcDbVertex
100
AcDb2dVertex
 10
88.11158987597558
 20
-137.0917181731924
 30
0.0
  0
SEQEND
  5
10C
330
FF
100
AcDbEntity
  8
_U+30EC_U+30A4_U+30E4_U+30FC 1
370
     0
  0
POLYLINE
  5
10D
330
FB
100
AcDbEntity
  8
_U+30EC_U+30A4_U+30E4_U+30FC 1
370
     0
100
AcDb2dPolyline
 66
     1
 10
0.0
 20
0.0
 30
0.0
  0
VERTEX
  5
10E
330
10D
100
AcDbEntity
  8
_U+30EC_U+30A4_U+30E4_U+30FC 1
370
     0
100
AcDbVertex
100
AcDb2dVertex
 10
87.89368758653353
 20
-136.2369899833019
 30
0.0
  0
VERTEX
  5
10F
330
10D
100
AcDbEntity
  8
_U+30EC_U+30A4_U+30E4_U+30FC 1
370
     0
100
AcDbVertex
100
AcDb2dVertex
 10
87.4368679251894
 20
-136.8929361636934
 30
0.0
  0
VERTEX
  5
110
330
10D
100
AcDbEntity
  8
_U+30EC_U+30A4_U+30E4_U+30FC 1
370
     0
100
AcDbVertex
100
AcDb2dVertex
 10
87.89368758653353
 20
-136.8929361636934
 30
0.0
  0
VERTEX
  5
111
330
10D
100
AcDbEntity
  8
_U+30EC_U+30A4_U+30E4_U+30FC 1
370
     0
100
AcDbVertex
100
AcDb2dVertex
 10
87.89368758653353
 20
-136.2369899833019
 30
0.0
  0
SEQEND
  5
112
330
10D
100
AcDbEntity
  8
_U+30EC_U+30A4_U+30E4_U+30FC 1
370
     0
  0
HATCH
  5
113
330
FB
100
AcDbEntity
  8
_U+30EC_U+30A4_U+30E4_U+30FC 1
 62
   179
420
  2234388
100
AcDbHatch
 10
0.0
 20
0.0
 30
0.0
210
0.0
220
0.0
230
1.0
  2
SOLID
 70
     1
 71
     0
 91
        2
 92
        1
 93
       11
 72
     1
 10
88.11158987597558
 20
-137.0917181731924
 11
88.11158987597558
 21
-137.438639288557
 72
     1
 10
88.11158987597558
 20
-137.438639288557
 11
87.89368758653353
 21
-137.438639288557
 72
     1
 10
87.89368758653353
 20
-137.438639288557
 11
87.89368758653353
 21
-137.0917181731924
 72
     1
 10
87.89368758653353
 20
-137.0917181731924
 11
87.23791366091622
 21
-137.0917181731924
 72
     1
 10
87.23791366091622
 20
-137.0917181731924
 11
87.23791366091622
 21
-136.8674424571026
 72
     1
 10
87.23791366091622
 20
-136.8674424571026
 11
87.91694198105897
 21
-135.8942029825195
 72
     1
 10
87.91694198105897
 20
-135.8942029825195
 11
88.11158987597558
 21
-135.8942029825195
 72
     1
 10
88.11158987597558
 20
-135.8942029825195
 11
88.11158987597558
 21
-136.8929361636934
 72
     1
 10
88.11158987597558
 20
-136.8929361636934
 11
88.31898462418762
 21
-136.8929361636934
 72
     1
 10
88.31898462418762
 20
-136.8929361636934
 11
88.31898462418762
 21
-137.0917181731924
 72
     1
 10
88.31898462418762
 20
-137.0917181731924
 11
88.11158987597558
 21
-137.0917181731924
 97
        0
 92
        1
 93
        3
 72
     1
 10
87.89368758653353
 20
-136.2369899833019
 11
87.4368679251894
 21
-136.8929361636934
 72
     1
 10
87.4368679251894
 20
-136.8929361636934
 11
87.89368758653353
 21
-136.8929361636934
 72
     1
 10
87.89368758653353
 20
-136.8929361636934
 11
87.89368758653353
 21
-136.2369899833019
 97
        0
 75
     2
 76
     1
 98
        0
  0
ENDBLK
  5
FE
330
FB
100
AcDbEntity
  8
0
100
AcDbBlockEnd
  0
BLOCK
  5
116
330
114
100
AcDbEntity
  8
0
100
AcDbBlockBegin
  2
block 7
 70
     0
 10
0.0
 20
0.0
 30
0.0
  3
block 7
  1

  0
SPLINE
  5
118
330
114
100
AcDbEntity
  8
_U+30EC_U+30A4_U+30E4_U+30FC 1
370
     0
100
AcDbSpline
210
0.0
220
0.0
230
1.0
 70
    11
 71
     3
 72
    26
 73
    22
 74
     0
 42
0.0000000001
 43
0.0000000001
 12
1.0
 22
0.0
 32
0.0
 13
1.0
 23
0.0
 33
0.0
 40
0.0
 40
0.0
 40
0.0
 40
0.0
 40
1.0
 40
1.0
 40
1.0
 40
2.0
 40
2.0
 40
2.0
 40
3.0
 40
3.0
 40
3.0
 40
4.0
 40
4.0
 40
4.0
 40
5.0
 40
5.0
 40
5.0
 40
6.0
 40
6.0
 40
6.0
 40
7.0
 40
7.0
 40
7.0
 40
7.0
 10
94.51585012828076
 20
-144.270608145356
 30
0.0
 10
94.51585012828076
 20
-144.270608145356
 30
0.0
 10
94.51585012828076
 20
-143.1664550423334
 30
0.0
 10
94.51585012828076
 20
-143.1664550423334
 30
0.0
 10
94.51585012828076
 20
-143.1664550423334
 30
0.0
 10
94.18580998079383
 20
-143.1664550423334
 30
0.0
 10
94.18580998079383
 20
-143.1664550423334
 30
0.0
 10
94.18580998079383
 20
-143.1664550423334
 30
0.0
 10
94.18580998079383
 20
-143.0183159364676
 30
0.0
 10
94.18580998079383
 20
-143.0183159364676
 30
0.0
 10
94.51791718557192
 20
-143.0035020258811
 30
0.0
 10
94.5644259746228
 20
-142.8405490094288
 30
0.0
 10
94.59405379579593
 20
-142.7261718393185
 30
0.0
 10
94.59405379579593
 20
-142.7261718393185
 30
0.0
 10
94.74012584437052
 20
-142.7261718393185
 30
0.0
 10
94.74012584437052
 20
-142.7261718393185
 30
0.0
 10
94.74012584437052
 20
-142.7261718393185
 30
0.0
 10
94.74012584437052
 20
-144.270608145356
 30
0.0
 10
94.74012584437052
 20
-144.270608145356
 30
0.0
 10
94.74012584437052
 20
-144.270608145356
 30
0.0
 10
94.51585012828076
 20
-144.270608145356
 30
0.0
 10
94.51585012828076
 20
-144.270608145356
 30
0.0
  0
HATCH
  5
119
330
114
100
AcDbEntity
  8
_U+30EC_U+30A4_U+30E4_U+30FC 1
 62
   179
420
  2234388
100
AcDbHatch
 10
0.0
 20
0.0
 30
0.0
210
0.0
220
0.0
230
1.0
  2
SOLID
 70
     1
 71
     0
 91
        1
 92
        1
 93
        1
 72
     4
 94
        3
 73
     0
 74
     1
 95
       26
 96
       22
 40
0.0
 40
0.0
 40
0.0
 40
0.0
 40
1.0
 40
1.0
 40
1.0
 40
2.0
 40
2.0
 40
2.0
 40
3.0
 40
3.0
 40
3.0
 40
4.0
 40
4.0
 40
4.0
 40
5.0
 40
5.0
 40
5.0
 40
6.0
 40
6.0
 40
6.0
 40
7.0
 40
7.0
 40
7.0
 40
7.0
 10
94.51585012828076
 20
-144.270608145356
 10
94.51585012828076
 20
-144.270608145356
 10
94.51585012828076
 20
-143.1664550423334
 10
94.51585012828076
 20
-143.1664550423334
 10
94.51585012828076
 20
-143.1664550423334
 10
94.18580998079383
 20
-143.1664550423334
 10
94.18580998079383
 20
-143.1664550423334
 10
94.18580998079383
 20
-143.1664550423334
 10
94.18580998079383
 20
-143.0183159364676
 10
94.18580998079383
 20
-143.0183159364676
 10
94.51791718557192
 20
-143.0035020258811
 10
94.5644259746228
 20
-142.8405490094288
 10
94.59405379579593
 20
-142.7261718393185
 10
94.59405379579593
 20
-142.7261718393185
 10
94.74012584437052
 20
-142.7261718393185
 10
94.74012584437052
 20
-142.7261718393185
 10
94.74012584437052
 20
-142.7261718393185
 10
94.74012584437052
 20
-144.270608145356
 10
94.74012584437052
 20
-144.270608145356
 10
94.74012584437052
 20
-144.270608145356
 10
94.51585012828076
 20
-144.270608145356
 10
94.51585012828076
 20
-144.270608145356
 97
        0
 97
        0
 75
     2
 76
     1
 98
        0
  0
SPLINE
  5
11A
330
114
100
AcDbEntity
  8
_U+30EC_U+30A4_U+30E4_U+30FC 1
370
     0
100
AcDbSpline
210
0.0
220
0.0
230
1.0
 70
    11
 71
     3
 72
    53
 73
    49
 74
     0
 42
0.0000000001
 43
0.0000000001
 12
1.0
 22
0.0
 32
0.0
 13
1.0
 23
0.0
 33
0.0
 40
0.0
 40
0.0
 40
0.0
 40
0.0
 40
1.0
 40
1.0
 40
1.0
 40
2.0
 40
2.0
 40
2.0
 40
3.0
 40
3.0
 40
3.0
 40
4.0
 40
4.0
 40
4.0
 40
5.0
 40
5.0
 40
5.0
 40
6.0
 40
6.0
 40
6.0
 40
7.0
 40
7.0
 40
7.0
 40
8.0
 40
8.0
 40
8.0
 40
9.0
 40
9.0
 40
9.0
 40
10.0
 40
10.0
 40
10.0
 40
11.0
 40
11.0
 40
11.0
 40
12.0
 40
12.0
 40
12.0
 40
13.0
 40
13.0
 40
13.0
 40
14.0
 40
14.0
 40
14.0
 40
15.0
 40
15.0
 40
15.0
 40
16.0
 40
16.0
 40
16.0
 40
16.0
 10
95.72232256721526
 20
-144.3212510489891
 30
0.0
 10
95.64411889970009
 20
-144.3212510489891
 30
0.0
 10
95.54248858288521
 20
-144.3043700811114
 30
0.0
 10
95.44085826607035
 20
-144.2409803241828
 30
0.0
 10
95.26722545361375
 20
-144.1310817782033
 30
0.0
 10
95.24621037115372
 20
-143.9998236402153
 30
0.0
 10
95.22726234598485
 20
-143.891992151527
 30
0.0
 10
95.22726234598485
 20
-143.891992151527
 30
0.0
 10
95.44912649523495
 20
-143.891992151527
 30
0.0
 10
95.44912649523495
 20
-143.891992151527
 30
0.0
 10
95.50424802299894
 20
-144.0907741610259
 30
0.0
 10
95.63137204640466
 20
-144.1204019821991
 30
0.0
 10
95.7243896245064
 20
-144.1204019821991
 30
0.0
 10
95.86391599165903
 20
-144.1204019821991
 30
0.0
 10
96.01618921210707
 20
-144.0208387226754
 30
0.0
 10
96.01618921210707
 20
-143.788294777421
 30
0.0
 10
96.01618921210707
 20
-143.5323241828669
 30
0.0
 10
95.83635522777702
 20
-143.4623887445163
 30
0.0
 10
95.71577688579329
 20
-143.4623887445163
 30
0.0
 10
95.68408200732898
 20
-143.4623887445163
 30
0.0
 10
95.54248858288521
 20
-143.4623887445163
 30
0.0
 10
95.45360511936578
 20
-143.5915798252132
 30
0.0
 10
95.45360511936578
 20
-143.5915798252132
 30
0.0
 10
95.27824975916656
 20
-143.5726318000443
 30
0.0
 10
95.27824975916656
 20
-143.5726318000443
 30
0.0
 10
95.27824975916656
 20
-143.5726318000443
 30
0.0
 10
95.3988281011503
 20
-142.7261718393185
 30
0.0
 10
95.3988281011503
 20
-142.7261718393185
 30
0.0
 10
95.3988281011503
 20
-142.7261718393185
 30
0.0
 10
96.17707517126824
 20
-142.7261718393185
 30
0.0
 10
96.17707517126824
 20
-142.7261718393185
 30
0.0
 10
96.17707517126824
 20
-142.7261718393185
 30
0.0
 10
96.17707517126824
 20
-142.9208197342351
 30
0.0
 10
96.17707517126824
 20
-142.9208197342351
 30
0.0
 10
96.17707517126824
 20
-142.9208197342351
 30
0.0
 10
95.5614366080541
 20
-142.9208197342351
 30
0.0
 10
95.5614366080541
 20
-142.9208197342351
 30
0.0
 10
95.5614366080541
 20
-142.9208197342351
 30
0.0
 10
95.49597979383434
 20
-143.3438774598238
 30
0.0
 10
95.49597979383434
 20
-143.3438774598238
 30
0.0
 10
95.5573024934718
 20
-143.3101155240683
 30
0.0
 10
95.63998478511779
 20
-143.2698079068909
 30
0.0
 10
95.75815156026185
 20
-143.2698079068909
 30
0.0
 10
96.01205509752477
 20
-143.2698079068909
 30
0.0
 10
96.24907766690995
 20
-143.4561875726429
 30
0.0
 10
96.24907766690995
 20
-143.7693467522521
 30
0.0
 10
96.24907766690995
 20
-144.0866400464436
 30
0.0
 10
96.02480195082019
 20
-144.3212510489891
 30
0.0
 10
95.72232256721526
 20
-144.3212510489891
 30
0.0
  0
HATCH
  5
11B
330
114
100
AcDbEntity
  8
_U+30EC_U+30A4_U+30E4_U+30FC 1
 62
   179
420
  2234388
100
AcDbHatch
 10
0.0
 20
0.0
 30
0.0
210
0.0
220
0.0
230
1.0
  2
SOLID
 70
     1
 71
     0
 91
        1
 92
        1
 93
        1
 72
     4
 94
        3
 73
     0
 74
     1
 95
       53
 96
       49
 40
0.0
 40
0.0
 40
0.0
 40
0.0
 40
1.0
 40
1.0
 40
1.0
 40
2.0
 40
2.0
 40
2.0
 40
3.0
 40
3.0
 40
3.0
 40
4.0
 40
4.0
 40
4.0
 40
5.0
 40
5.0
 40
5.0
 40
6.0
 40
6.0
 40
6.0
 40
7.0
 40
7.0
 40
7.0
 40
8.0
 40
8.0
 40
8.0
 40
9.0
 40
9.0
 40
9.0
 40
10.0
 40
10.0
 40
10.0
 40
11.0
 40
11.0
 40
11.0
 40
12.0
 40
12.0
 40
12.0
 40
13.0
 40
13.0
 40
13.0
 40
14.0
 40
14.0
 40
14.0
 40
15.0
 40
15.0
 40
15.0
 40
16.0
 40
16.0
 40
16.0
 40
16.0
 10
95.72232256721526
 20
-144.3212510489891
 10
95.64411889970009
 20
-144.3212510489891
 10
95.54248858288521
 20
-144.3043700811114
 10
95.44085826607035
 20
-144.2409803241828
 10
95.26722545361375
 20
-144.1310817782033
 10
95.24621037115372
 20
-143.9998236402153
 10
95.22726234598485
 20
-143.891992151527
 10
95.22726234598485
 20
-143.891992151527
 10
95.44912649523495
 20
-143.891992151527
 10
95.44912649523495
 20
-143.891992151527
 10
95.50424802299894
 20
-144.0907741610259
 10
95.63137204640466
 20
-144.1204019821991
 10
95.7243896245064
 20
-144.1204019821991
 10
95.86391599165903
 20
-144.1204019821991
 10
96.01618921210707
 20
-144.0208387226754
 10
96.01618921210707
 20
-143.788294777421
 10
96.01618921210707
 20
-143.5323241828669
 10
95.83635522777702
 20
-143.4623887445163
 10
95.71577688579329
 20
-143.4623887445163
 10
95.68408200732898
 20
-143.4623887445163
 10
95.54248858288521
 20
-143.4623887445163
 10
95.45360511936578
 20
-143.5915798252132
 10
95.45360511936578
 20
-143.5915798252132
 10
95.27824975916656
 20
-143.5726318000443
 10
95.27824975916656
 20
-143.5726318000443
 10
95.27824975916656
 20
-143.5726318000443
 10
95.3988281011503
 20
-142.7261718393185
 10
95.3988281011503
 20
-142.7261718393185
 10
95.3988281011503
 20
-142.7261718393185
 10
96.17707517126824
 20
-142.7261718393185
 10
96.17707517126824
 20
-142.7261718393185
 10
96.17707517126824
 20
-142.7261718393185
 10
96.17707517126824
 20
-142.9208197342351
 10
96.17707517126824
 20
-142.9208197342351
 10
96.17707517126824
 20
-142.9208197342351
 10
95.5614366080541
 20
-142.9208197342351
 10
95.5614366080541
 20
-142.9208197342351
 10
95.5614366080541
 20
-142.9208197342351
 10
95.49597979383434
 20
-143.3438774598238
 10
95.49597979383434
 20
-143.3438774598238
 10
95.5573024934718
 20
-143.3101155240683
 10
95.63998478511779
 20
-143.2698079068909
 10
95.75815156026185
 20
-143.2698079068909
 10
96.01205509752477
 20
-143.2698079068909
 10
96.24907766690995
 20
-143.4561875726429
 10
96.24907766690995
 20
-143.7693467522521
 10
96.24907766690995
 20
-144.0866400464436
 10
96.02480195082019
 20
-144.3212510489891
 10
95.72232256721526
 20
-144.3212510489891
 97
        0
 97
        0
 75
     2
 76
     1
 98
        0
  0
ENDBLK
  5
117
330
114
100
AcDbEntity
  8
0
100
AcDbBlockEnd
  0
BLOCK
  5
11E
330
11C
100
AcDbEntity
  8
0
100
AcDbBlockBegin
  2
block 8
 70
     0
 10
0.0
 20
0.0
 30
0.0
  3
block 8
  1

  0
SPLINE
  5
120
330
11C
100
AcDbEntity
  8
_U+30EC_U+30A4_U+30E4_U+30FC 1
370
     0
100
AcDbSpline
210
0.0
220
0.0
230
1.0
 70
    11
 71
     3
 72
    44
 73
    40
 74
     0
 42
0.0000000001
 43
0.0000000001
 12
1.0
 22
0.0
 32
0.0
 13
1.0
 23
0.0
 33
0.0
 40
0.0
 40
0.0
 40
0.0
 40
0.0
 40
1.0
 40
1.0
 40
1.0
 40
2.0
 40
2.0
 40
2.0
 40
3.0
 40
3.0
 40
3.0
 40
4.0
 40
4.0
 40
4.0
 40
5.0
 40
5.0
 40
5.0
 40
6.0
 40
6.0
 40
6.0
 40
7.0
 40
7.0
 40
7.0
 40
8.0
 40
8.0
 40
8.0
 40
9.0
 40
9.0
 40
9.0
 40
10.0
 40
10.0
 40
10.0
 40
11.0
 40
11.0
 40
11.0
 40
12.0
 40
12.0
 40
12.0
 40
13.0
 40
13.0
 40
13.0
 40
13.0
 10
93.50540362245698
 20
-146.5343803887136
 30
0.0
 10
93.28732907824067
 20
-146.6931992905837
 30
0.0
 10
93.1939669905904
 20
-146.7672688435165
 30
0.0
 10
93.1457356537969
 20
-146.9109293252514
 30
0.0
 10
93.1457356537969
 20
-146.9109293252514
 30
0.0
 10
93.92398272391485
 20
-146.9109293252514
 30
0.0
 10
93.92398272391485
 20
-146.9109293252514
 30
0.0
 10
93.92398272391485
 20
-146.9109293252514
 30
0.0
 10
93.92398272391485
 20
-147.1162570161723
 30
0.0
 10
93.92398272391485
 20
-147.1162570161723
 30
0.0
 10
93.92398272391485
 20
-147.1162570161723
 30
0.0
 10
92.89596623111629
 20
-147.1162570161723
 30
0.0
 10
92.89596623111629
 20
-147.1162570161723
 30
0.0
 10
92.92766110958058
 20
-146.7586561048034
 30
0.0
 10
92.99311792380034
 20
-146.6804524372882
 30
0.0
 10
93.37827959905127
 20
-146.3821071682656
 30
0.0
 10
93.63425019360533
 20
-146.1833251587667
 30
0.0
 10
93.69970700782508
 20
-146.1154567777073
 30
0.0
 10
93.69970700782508
 20
-145.9779974678458
 30
0.0
 10
93.69970700782508
 20
-145.8594861831532
 30
0.0
 10
93.62804902173188
 20
-145.7285725547137
 30
0.0
 10
93.43098955997559
 20
-145.7285725547137
 30
0.0
 10
93.17088485083923
 20
-145.7285725547137
 30
0.0
 10
93.1622721121261
 20
-145.9590494426769
 30
0.0
 10
93.1581379975438
 20
-146.0754936700783
 30
0.0
 10
93.1581379975438
 20
-146.0754936700783
 30
0.0
 10
92.93420679100257
 20
-146.0754936700783
 30
0.0
 10
92.93420679100257
 20
-146.0754936700783
 30
0.0
 10
92.94247502016717
 20
-145.9483696466726
 30
0.0
 10
92.95281030662291
 20
-145.836404043402
 30
0.0
 10
93.03342554097776
 20
-145.7178927587094
 30
0.0
 10
93.14332408695724
 20
-145.5570067995482
 30
0.0
 10
93.32970375270925
 20
-145.5232448637928
 30
0.0
 10
93.4461479801107
 20
-145.5232448637928
 30
0.0
 10
93.72313365712478
 20
-145.5232448637928
 30
0.0
 10
93.93052840533682
 20
-145.7072129627051
 30
0.0
 10
93.93052840533682
 20
-145.9800645251369
 30
0.0
 10
93.93052840533682
 20
-146.2088188653575
 30
0.0
 10
93.81408417793537
 20
-146.3080376153327
 30
0.0
 10
93.50540362245698
 20
-146.5343803887136
 30
0.0
  0
HATCH
  5
121
330
11C
100
AcDbEntity
  8
_U+30EC_U+30A4_U+30E4_U+30FC 1
 62
   179
420
  2234388
100
AcDbHatch
 10
0.0
 20
0.0
 30
0.0
210
0.0
220
0.0
230
1.0
  2
SOLID
 70
     1
 71
     0
 91
        1
 92
        1
 93
        1
 72
     4
 94
        3
 73
     0
 74
     1
 95
       44
 96
       40
 40
0.0
 40
0.0
 40
0.0
 40
0.0
 40
1.0
 40
1.0
 40
1.0
 40
2.0
 40
2.0
 40
2.0
 40
3.0
 40
3.0
 40
3.0
 40
4.0
 40
4.0
 40
4.0
 40
5.0
 40
5.0
 40
5.0
 40
6.0
 40
6.0
 40
6.0
 40
7.0
 40
7.0
 40
7.0
 40
8.0
 40
8.0
 40
8.0
 40
9.0
 40
9.0
 40
9.0
 40
10.0
 40
10.0
 40
10.0
 40
11.0
 40
11.0
 40
11.0
 40
12.0
 40
12.0
 40
12.0
 40
13.0
 40
13.0
 40
13.0
 40
13.0
 10
93.50540362245698
 20
-146.5343803887136
 10
93.28732907824067
 20
-146.6931992905837
 10
93.1939669905904
 20
-146.7672688435165
 10
93.1457356537969
 20
-146.9109293252514
 10
93.1457356537969
 20
-146.9109293252514
 10
93.92398272391485
 20
-146.9109293252514
 10
93.92398272391485
 20
-146.9109293252514
 10
93.92398272391485
 20
-146.9109293252514
 10
93.92398272391485
 20
-147.1162570161723
 10
93.92398272391485
 20
-147.1162570161723
 10
93.92398272391485
 20
-147.1162570161723
 10
92.89596623111629
 20
-147.1162570161723
 10
92.89596623111629
 20
-147.1162570161723
 10
92.92766110958058
 20
-146.7586561048034
 10
92.99311792380034
 20
-146.6804524372882
 10
93.37827959905127
 20
-146.3821071682656
 10
93.63425019360533
 20
-146.1833251587667
 10
93.69970700782508
 20
-146.1154567777073
 10
93.69970700782508
 20
-145.9779974678458
 10
93.69970700782508
 20
-145.8594861831532
 10
93.62804902173188
 20
-145.7285725547137
 10
93.43098955997559
 20
-145.7285725547137
 10
93.17088485083923
 20
-145.7285725547137
 10
93.1622721121261
 20
-145.9590494426769
 10
93.1581379975438
 20
-146.0754936700783
 10
93.1581379975438
 20
-146.0754936700783
 10
92.93420679100257
 20
-146.0754936700783
 10
92.93420679100257
 20
-146.0754936700783
 10
92.94247502016717
 20
-145.9483696466726
 10
92.95281030662291
 20
-145.836404043402
 10
93.03342554097776
 20
-145.7178927587094
 10
93.14332408695724
 20
-145.5570067995482
 10
93.32970375270925
 20
-145.5232448637928
 10
93.4461479801107
 20
-145.5232448637928
 10
93.72313365712478
 20
-145.5232448637928
 10
93.93052840533682
 20
-145.7072129627051
 10
93.93052840533682
 20
-145.9800645251369
 10
93.93052840533682
 20
-146.2088188653575
 10
93.81408417793537
 20
-146.3080376153327
 10
93.50540362245698
 20
-146.5343803887136
 97
        0
 97
        0
 75
     2
 76
     1
 98
        0
  0
SPLINE
  5
122
330
11C
100
AcDbEntity
  8
_U+30EC_U+30A4_U+30E4_U+30FC 1
370
     0
100
AcDbSpline
210
0.0
220
0.0
230
1.0
 70
    11
 71
     3
 72
    29
 73
    25
 74
     0
 42
0.0000000001
 43
0.0000000001
 12
1.0
 22
0.0
 32
0.0
 13
1.0
 23
0.0
 33
0.0
 40
0.0
 40
0.0
 40
0.0
 40
0.0
 40
1.0
 40
1.0
 40
1.0
 40
2.0
 40
2.0
 40
2.0
 40
3.0
 40
3.0
 40
3.0
 40
4.0
 40
4.0
 40
4.0
 40
5.0
 40
5.0
 40
5.0
 40
6.0
 40
6.0
 40
6.0
 40
7.0
 40
7.0
 40
7.0
 40
8.0
 40
8.0
 40
8.0
 40
8.0
 10
94.98679468111442
 20
-146.9384900891334
 30
0.0
 10
94.87861868287757
 20
-147.1479518946366
 30
0.0
 10
94.70533037996951
 20
-147.1668999198055
 30
0.0
 10
94.58888615256807
 20
-147.1668999198055
 30
0.0
 10
94.42800019340689
 20
-147.1668999198055
 30
0.0
 10
94.28640676896312
 20
-147.1203911307546
 30
0.0
 10
94.1909776240217
 20
-146.9384900891334
 30
0.0
 10
94.0876247594642
 20
-146.7438421942168
 30
0.0
 10
94.06833222474681
 20
-146.5071641343802
 30
0.0
 10
94.06833222474681
 20
-146.3442111179278
 30
0.0
 10
94.06833222474681
 20
-146.2002061266444
 30
0.0
 10
94.08555770217306
 20
-145.9483696466726
 30
0.0
 10
94.1909776240217
 20
-145.7495876371737
 30
0.0
 10
94.29915362225854
 20
-145.5466715130925
 30
0.0
 10
94.4596950718712
 20
-145.5232448637928
 30
0.0
 10
94.58888615256807
 20
-145.5232448637928
 30
0.0
 10
94.74770505443807
 20
-145.5232448637928
 30
0.0
 10
94.891365536173
 20
-145.5676865955525
 30
0.0
 10
94.98679468111442
 20
-145.7495876371737
 30
0.0
 10
95.08601343108961
 20
-145.9421684747992
 30
0.0
 10
95.1094400803893
 20
-146.1705783054713
 30
0.0
 10
95.1094400803893
 20
-146.3442111179278
 30
0.0
 10
95.1094400803893
 20
-146.5154323635448
 30
0.0
 10
95.08808048838077
 20
-146.745909251508
 30
0.0
 10
94.98679468111442
 20
-146.9384900891334
 30
0.0
  0
SPLINE
  5
123
330
11C
100
AcDbEntity
  8
_U+30EC_U+30A4_U+30E4_U+30FC 1
370
     0
100
AcDbSpline
210
0.0
220
0.0
230
1.0
 70
    11
 71
     3
 72
    17
 73
    13
 74
     0
 42
0.0000000001
 43
0.0000000001
 12
1.0
 22
0.0
 32
0.0
 13
1.0
 23
0.0
 33
0.0
 40
0.0
 40
0.0
 40
0.0
 40
0.0
 40
1.0
 40
1.0
 40
1.0
 40
2.0
 40
2.0
 40
2.0
 40
3.0
 40
3.0
 40
3.0
 40
4.0
 40
4.0
 40
4.0
 40
4.0
 10
94.58888615256807
 20
-145.7158257014183
 30
0.0
 10
94.33911672988745
 20
-145.7158257014183
 30
0.0
 10
94.2929524503851
 20
-145.9993570598543
 30
0.0
 10
94.2929524503851
 20
-146.3442111179278
 30
0.0
 10
94.2929524503851
 20
-146.6635714694105
 30
0.0
 10
94.3287814434317
 20
-146.9722520248889
 30
0.0
 10
94.58888615256807
 20
-146.9722520248889
 30
0.0
 10
94.83658851795752
 20
-146.9722520248889
 30
0.0
 10
94.88516436429954
 20
-146.6911322332925
 30
0.0
 10
94.88516436429954
 20
-146.3442111179278
 30
0.0
 10
94.88516436429954
 20
-146.0245062568967
 30
0.0
 10
94.84692380441328
 20
-145.7158257014183
 30
0.0
 10
94.58888615256807
 20
-145.7158257014183
 30
0.0
  0
HATCH
  5
124
330
11C
100
AcDbEntity
  8
_U+30EC_U+30A4_U+30E4_U+30FC 1
 62
   179
420
  2234388
100
AcDbHatch
 10
0.0
 20
0.0
 30
0.0
210
0.0
220
0.0
230
1.0
  2
SOLID
 70
     1
 71
     0
 91
        2
 92
        1
 93
        1
 72
     4
 94
        3
 73
     0
 74
     1
 95
       29
 96
       25
 40
0.0
 40
0.0
 40
0.0
 40
0.0
 40
1.0
 40
1.0
 40
1.0
 40
2.0
 40
2.0
 40
2.0
 40
3.0
 40
3.0
 40
3.0
 40
4.0
 40
4.0
 40
4.0
 40
5.0
 40
5.0
 40
5.0
 40
6.0
 40
6.0
 40
6.0
 40
7.0
 40
7.0
 40
7.0
 40
8.0
 40
8.0
 40
8.0
 40
8.0
 10
94.98679468111442
 20
-146.9384900891334
 10
94.87861868287757
 20
-147.1479518946366
 10
94.70533037996951
 20
-147.1668999198055
 10
94.58888615256807
 20
-147.1668999198055
 10
94.42800019340689
 20
-147.1668999198055
 10
94.28640676896312
 20
-147.1203911307546
 10
94.1909776240217
 20
-146.9384900891334
 10
94.0876247594642
 20
-146.7438421942168
 10
94.06833222474681
 20
-146.5071641343802
 10
94.06833222474681
 20
-146.3442111179278
 10
94.06833222474681
 20
-146.2002061266444
 10
94.08555770217306
 20
-145.9483696466726
 10
94.1909776240217
 20
-145.7495876371737
 10
94.29915362225854
 20
-145.5466715130925
 10
94.4596950718712
 20
-145.5232448637928
 10
94.58888615256807
 20
-145.5232448637928
 10
94.74770505443807
 20
-145.5232448637928
 10
94.891365536173
 20
-145.5676865955525
 10
94.98679468111442
 20
-145.7495876371737
 10
95.08601343108961
 20
-145.9421684747992
 10
95.1094400803893
 20
-146.1705783054713
 10
95.1094400803893
 20
-146.3442111179278
 10
95.1094400803893
 20
-146.5154323635448
 10
95.08808048838077
 20
-146.745909251508
 10
94.98679468111442
 20
-146.9384900891334
 97
        0
 97
        0
 92
        1
 93
        1
 72
     4
 94
        3
 73
     0
 74
     1
 95
       17
 96
       13
 40
0.0
 40
0.0
 40
0.0
 40
0.0
 40
1.0
 40
1.0
 40
1.0
 40
2.0
 40
2.0
 40
2.0
 40
3.0
 40
3.0
 40
3.0
 40
4.0
 40
4.0
 40
4.0
 40
4.0
 10
94.58888615256807
 20
-145.7158257014183
 10
94.33911672988745
 20
-145.7158257014183
 10
94.2929524503851
 20
-145.9993570598543
 10
94.2929524503851
 20
-146.3442111179278
 10
94.2929524503851
 20
-146.6635714694105
 10
94.3287814434317
 20
-146.9722520248889
 10
94.58888615256807
 20
-146.9722520248889
 10
94.83658851795752
 20
-146.9722520248889
 10
94.88516436429954
 20
-146.6911322332925
 10
94.88516436429954
 20
-146.3442111179278
 10
94.88516436429954
 20
-146.0245062568967
 10
94.84692380441328
 20
-145.7158257014183
 10
94.58888615256807
 20
-145.7158257014183
 97
        0
 97
        0
 75
     2
 76
     1
 98
        0
  0
POLYLINE
  5
125
330
11C
100
AcDbEntity
  8
_U+30EC_U+30A4_U+30E4_U+30FC 1
370
     0
100
AcDb2dPolyline
 66
     1
 10
0.0
 20
0.0
 30
0.0
  0
VERTEX
  5
126
330
125
100
AcDbEntity
  8
_U+30EC_U+30A4_U+30E4_U+30FC 1
370
     0
100
AcDbVertex
100
AcDb2dVertex
 10
95.325792076863
 20
-147.1162570161723
 30
0.0
  0
VERTEX
  5
127
330
125
100
AcDbEntity
  8
_U+30EC_U+30A4_U+30E4_U+30FC 1
370
     0
100
AcDbVertex
100
AcDb2dVertex
 10
95.325792076863
 20
-146.8644205362006
 30
0.0
  0
VERTEX
  5
128
330
125
100
AcDbEntity
  8
_U+30EC_U+30A4_U+30E4_U+30FC 1
370
     0
100
AcDbVertex
100
AcDb2dVertex
 10
95.57728404728624
 20
-146.8644205362006
 30
0.0
  0
VERTEX
  5
129
330
125
100
AcDbEntity
  8
_U+30EC_U+30A4_U+30E4_U+30FC 1
370
     0
100
AcDbVertex
100
AcDb2dVertex
 10
95.57728404728624
 20
-147.1162570161723
 30
0.0
  0
VERTEX
  5
12A
330
125
100
AcDbEntity
  8
_U+30EC_U+30A4_U+30E4_U+30FC 1
370
     0
100
AcDbVertex
100
AcDb2dVertex
 10
95.325792076863
 20
-147.1162570161723
 30
0.0
  0
SEQEND
  5
12B
330
125
100
AcDbEntity
  8
_U+30EC_U+30A4_U+30E4_U+30FC 1
370
     0
  0
HATCH
  5
12C
330
11C
100
AcDbEntity
  8
_U+30EC_U+30A4_U+30E4_U+30FC 1
 62
   179
420
  2234388
100
AcDbHatch
 10
0.0
 20
0.0
 30
0.0
210
0.0
220
0.0
230
1.0
  2
SOLID
 70
     1
 71
     0
 91
        1
 92
        1
 93
        4
 72
     1
 10
95.325792076863
 20
-147.1162570161723
 11
95.325792076863
 21
-146.8644205362006
 72
     1
 10
95.325792076863
 20
-146.8644205362006
 11
95.57728404728624
 21
-146.8644205362006
 72
     1
 10
95.57728404728624
 20
-146.8644205362006
 11
95.57728404728624
 21
-147.1162570161723
 72
     1
 10
95.57728404728624
 20
-147.1162570161723
 11
95.325792076863
 21
-147.1162570161723
 97
        0
 75
     2
 76
     1
 98
        0
  0
SPLINE
  5
12D
330
11C
100
AcDbEntity
  8
_U+30EC_U+30A4_U+30E4_U+30FC 1
370
     0
100
AcDbSpline
210
0.0
220
0.0
230
1.0
 70
    11
 71
     3
 72
    44
 73
    40
 74
     0
 42
0.0000000001
 43
0.0000000001
 12
1.0
 22
0.0
 32
0.0
 13
1.0
 23
0.0
 33
0.0
 40
0.0
 40
0.0
 40
0.0
 40
0.0
 40
1.0
 40
1.0
 40
1.0
 40
2.0
 40
2.0
 40
2.0
 40
3.0
 40
3.0
 40
3.0
 40
4.0
 40
4.0
 40
4.0
 40
5.0
 40
5.0
 40
5.0
 40
6.0
 40
6.0
 40
6.0
 40
7.0
 40
7.0
 40
7.0
 40
8.0
 40
8.0
 40
8.0
 40
9.0
 40
9.0
 40
9.0
 40
10.0
 40
10.0
 40
10.0
 40
11.0
 40
11.0
 40
11.0
 40
12.0
 40
12.0
 40
12.0
 40
13.0
 40
13.0
 40
13.0
 40
13.0
 10
96.40720754968292
 20
-146.5343803887136
 30
0.0
 10
96.18913300546662
 20
-146.6931992905837
 30
0.0
 10
96.09611542736486
 20
-146.7672688435165
 30
0.0
 10
96.04753958102285
 20
-146.9109293252514
 30
0.0
 10
96.04753958102285
 20
-146.9109293252514
 30
0.0
 10
96.82578665114077
 20
-146.9109293252514
 30
0.0
 10
96.82578665114077
 20
-146.9109293252514
 30
0.0
 10
96.82578665114077
 20
-146.9109293252514
 30
0.0
 10
96.82578665114077
 20
-147.1162570161723
 30
0.0
 10
96.82578665114077
 20
-147.1162570161723
 30
0.0
 10
96.82578665114077
 20
-147.1162570161723
 30
0.0
 10
95.79777015834223
 20
-147.1162570161723
 30
0.0
 10
95.79777015834223
 20
-147.1162570161723
 30
0.0
 10
95.82946503680652
 20
-146.7586561048034
 30
0.0
 10
95.8952663605748
 20
-146.6804524372882
 30
0.0
 10
96.28008352627721
 20
-146.3821071682656
 30
0.0
 10
96.5363986303798
 20
-146.1833251587667
 30
0.0
 10
96.60185544459954
 20
-146.1154567777073
 30
0.0
 10
96.60185544459954
 20
-145.9779974678458
 30
0.0
 10
96.60185544459954
 20
-145.8594861831532
 30
0.0
 10
96.52985294895782
 20
-145.7285725547137
 30
0.0
 10
96.33313799675005
 20
-145.7285725547137
 30
0.0
 10
96.07268877806517
 20
-145.7285725547137
 30
0.0
 10
96.06442054890057
 20
-145.9590494426769
 30
0.0
 10
96.06028643431827
 20
-146.0754936700783
 30
0.0
 10
96.06028643431827
 20
-146.0754936700783
 30
0.0
 10
95.83601071822851
 20
-146.0754936700783
 30
0.0
 10
95.83601071822851
 20
-146.0754936700783
 30
0.0
 10
95.84462345694163
 20
-145.9483696466726
 30
0.0
 10
95.85495874339738
 20
-145.836404043402
 30
0.0
 10
95.93557397775223
 20
-145.7178927587094
 30
0.0
 10
96.04512801418316
 20
-145.5570067995482
 30
0.0
 10
96.23150767993518
 20
-145.5232448637928
 30
0.0
 10
96.34795190733662
 20
-145.5232448637928
 30
0.0
 10
96.62528209389924
 20
-145.5232448637928
 30
0.0
 10
96.83233233256276
 20
-145.7072129627051
 30
0.0
 10
96.83233233256276
 20
-145.9800645251369
 30
0.0
 10
96.83233233256276
 20
-146.2088188653575
 30
0.0
 10
96.71623261470984
 20
-146.3080376153327
 30
0.0
 10
96.40720754968292
 20
-146.5343803887136
 30
0.0
  0
HATCH
  5
12E
330
11C
100
AcDbEntity
  8
_U+30EC_U+30A4_U+30E4_U+30FC 1
 62
   179
420
  2234388
100
AcDbHatch
 10
0.0
 20
0.0
 30
0.0
210
0.0
220
0.0
230
1.0
  2
SOLID
 70
     1
 71
     0
 91
        1
 92
        1
 93
        1
 72
     4
 94
        3
 73
     0
 74
     1
 95
       44
 96
       40
 40
0.0
 40
0.0
 40
0.0
 40
0.0
 40
1.0
 40
1.0
 40
1.0
 40
2.0
 40
2.0
 40
2.0
 40
3.0
 40
3.0
 40
3.0
 40
4.0
 40
4.0
 40
4.0
 40
5.0
 40
5.0
 40
5.0
 40
6.0
 40
6.0
 40
6.0
 40
7.0
 40
7.0
 40
7.0
 40
8.0
 40
8.0
 40
8.0
 40
9.0
 40
9.0
 40
9.0
 40
10.0
 40
10.0
 40
10.0
 40
11.0
 40
11.0
 40
11.0
 40
12.0
 40
12.0
 40
12.0
 40
13.0
 40
13.0
 40
13.0
 40
13.0
 10
96.40720754968292
 20
-146.5343803887136
 10
96.18913300546662
 20
-146.6931992905837
 10
96.09611542736486
 20
-146.7672688435165
 10
96.04753958102285
 20
-146.9109293252514
 10
96.04753958102285
 20
-146.9109293252514
 10
96.82578665114077
 20
-146.9109293252514
 10
96.82578665114077
 20
-146.9109293252514
 10
96.82578665114077
 20
-146.9109293252514
 10
96.82578665114077
 20
-147.1162570161723
 10
96.82578665114077
 20
-147.1162570161723
 10
96.82578665114077
 20
-147.1162570161723
 10
95.79777015834223
 20
-147.1162570161723
 10
95.79777015834223
 20
-147.1162570161723
 10
95.82946503680652
 20
-146.7586561048034
 10
95.8952663605748
 20
-146.6804524372882
 10
96.28008352627721
 20
-146.3821071682656
 10
96.5363986303798
 20
-146.1833251587667
 10
96.60185544459954
 20
-146.1154567777073
 10
96.60185544459954
 20
-145.9779974678458
 10
96.60185544459954
 20
-145.8594861831532
 10
96.52985294895782
 20
-145.7285725547137
 10
96.33313799675005
 20
-145.7285725547137
 10
96.07268877806517
 20
-145.7285725547137
 10
96.06442054890057
 20
-145.9590494426769
 10
96.06028643431827
 20
-146.0754936700783
 10
96.06028643431827
 20
-146.0754936700783
 10
95.83601071822851
 20
-146.0754936700783
 10
95.83601071822851
 20
-146.0754936700783
 10
95.84462345694163
 20
-145.9483696466726
 10
95.85495874339738
 20
-145.836404043402
 10
95.93557397775223
 20
-145.7178927587094
 10
96.04512801418316
 20
-145.5570067995482
 10
96.23150767993518
 20
-145.5232448637928
 10
96.34795190733662
 20
-145.5232448637928
 10
96.62528209389924
 20
-145.5232448637928
 10
96.83233233256276
 20
-145.7072129627051
 10
96.83233233256276
 20
-145.9800645251369
 10
96.83233233256276
 20
-146.2088188653575
 10
96.71623261470984
 20
-146.3080376153327
 10
96.40720754968292
 20
-146.5343803887136
 97
        0
 97
        0
 75
     2
 76
     1
 98
        0
  0
ENDBLK
  5
11F
330
11C
100
AcDbEntity
  8
0
100
AcDbBlockEnd
  0
BLOCK
  5
131
330
12F
100
AcDbEntity
  8
0
100
AcDbBlockBegin
  2
block 9
 70
     0
 10
0.0
 20
0.0
 30
0.0
  3
block 9
  1

  0
SPLINE
  5
133
330
12F
100
AcDbEntity
  8
_U+30EC_U+30A4_U+30E4_U+30FC 1
370
     0
100
AcDbSpline
210
0.0
220
0.0
230
1.0
 70
    11
 71
     3
 72
    53
 73
    49
 74
     0
 42
0.0000000001
 43
0.0000000001
 12
1.0
 22
0.0
 32
0.0
 13
1.0
 23
0.0
 33
0.0
 40
0.0
 40
0.0
 40
0.0
 40
0.0
 40
1.0
 40
1.0
 40
1.0
 40
2.0
 40
2.0
 40
2.0
 40
3.0
 40
3.0
 40
3.0
 40
4.0
 40
4.0
 40
4.0
 40
5.0
 40
5.0
 40
5.0
 40
6.0
 40
6.0
 40
6.0
 40
7.0
 40
7.0
 40
7.0
 40
8.0
 40
8.0
 40
8.0
 40
9.0
 40
9.0
 40
9.0
 40
10.0
 40
10.0
 40
10.0
 40
11.0
 40
11.0
 40
11.0
 40
12.0
 40
12.0
 40
12.0
 40
13.0
 40
13.0
 40
13.0
 40
14.0
 40
14.0
 40
14.0
 40
15.0
 40
15.0
 40
15.0
 40
16.0
 40
16.0
 40
16.0
 40
16.0
 10
96.95049910770682
 20
-133.1143554354714
 30
0.0
 10
96.87195093064312
 20
-133.1143554354714
 30
0.0
 10
96.77066512337679
 20
-133.0974744675937
 30
0.0
 10
96.66869029701338
 20
-133.0340847106651
 30
0.0
 10
96.49540199410532
 20
-132.9241861646856
 30
0.0
 10
96.4743869116453
 20
-132.7929280266976
 30
0.0
 10
96.4550943769279
 20
-132.6850965380093
 30
0.0
 10
96.4550943769279
 20
-132.6850965380093
 30
0.0
 10
96.67730303572651
 20
-132.6850965380093
 30
0.0
 10
96.67730303572651
 20
-132.6850965380093
 30
0.0
 10
96.73242456349051
 20
-132.8838785475082
 30
0.0
 10
96.85954858689622
 20
-132.9135063686813
 30
0.0
 10
96.95256616499798
 20
-132.9135063686813
 30
0.0
 10
97.09174802260206
 20
-132.9135063686813
 30
0.0
 10
97.24436575259864
 20
-132.8139431091576
 30
0.0
 10
97.24436575259864
 20
-132.5813991639033
 30
0.0
 10
97.24436575259864
 20
-132.3254285693492
 30
0.0
 10
97.0645317682686
 20
-132.2554931309986
 30
0.0
 10
96.94395342628485
 20
-132.2554931309986
 30
0.0
 10
96.91225854782056
 20
-132.2554931309986
 30
0.0
 10
96.77066512337679
 20
-132.2554931309986
 30
0.0
 10
96.68178165985734
 20
-132.3846842116955
 30
0.0
 10
96.68178165985734
 20
-132.3846842116955
 30
0.0
 10
96.50608179010959
 20
-132.3657361865266
 30
0.0
 10
96.50608179010959
 20
-132.3657361865266
 30
0.0
 10
96.50608179010959
 20
-132.3657361865266
 30
0.0
 10
96.62666013209333
 20
-131.5192762258008
 30
0.0
 10
96.62666013209333
 20
-131.5192762258008
 30
0.0
 10
96.62666013209333
 20
-131.5192762258008
 30
0.0
 10
97.4052517117598
 20
-131.5192762258008
 30
0.0
 10
97.4052517117598
 20
-131.5192762258008
 30
0.0
 10
97.4052517117598
 20
-131.5192762258008
 30
0.0
 10
97.4052517117598
 20
-131.7139241207174
 30
0.0
 10
97.4052517117598
 20
-131.7139241207174
 30
0.0
 10
97.4052517117598
 20
-131.7139241207174
 30
0.0
 10
96.78926863899713
 20
-131.7139241207174
 30
0.0
 10
96.78926863899713
 20
-131.7139241207174
 30
0.0
 10
96.78926863899713
 20
-131.7139241207174
 30
0.0
 10
96.72381182477739
 20
-132.136981846306
 30
0.0
 10
96.72381182477739
 20
-132.136981846306
 30
0.0
 10
96.78513452441483
 20
-132.1032199105506
 30
0.0
 10
96.86781681606082
 20
-132.0629122933732
 30
0.0
 10
96.98632810075343
 20
-132.0629122933732
 30
0.0
 10
97.23988712846781
 20
-132.0629122933732
 30
0.0
 10
97.476909697853
 20
-132.2492919591252
 30
0.0
 10
97.476909697853
 20
-132.5624511387344
 30
0.0
 10
97.476909697853
 20
-132.8797444329259
 30
0.0
 10
97.25297849131177
 20
-133.1143554354714
 30
0.0
 10
96.95049910770682
 20
-133.1143554354714
 30
0.0
  0
HATCH
  5
134
330
12F
100
AcDbEntity
  8
_U+30EC_U+30A4_U+30E4_U+30FC 1
 62
   179
420
  2234388
100
AcDbHatch
 10
0.0
 20
0.0
 30
0.0
210
0.0
220
0.0
230
1.0
  2
SOLID
 70
     1
 71
     0
 91
        1
 92
        1
 93
        1
 72
     4
 94
        3
 73
     0
 74
     1
 95
       53
 96
       49
 40
0.0
 40
0.0
 40
0.0
 40
0.0
 40
1.0
 40
1.0
 40
1.0
 40
2.0
 40
2.0
 40
2.0
 40
3.0
 40
3.0
 40
3.0
 40
4.0
 40
4.0
 40
4.0
 40
5.0
 40
5.0
 40
5.0
 40
6.0
 40
6.0
 40
6.0
 40
7.0
 40
7.0
 40
7.0
 40
8.0
 40
8.0
 40
8.0
 40
9.0
 40
9.0
 40
9.0
 40
10.0
 40
10.0
 40
10.0
 40
11.0
 40
11.0
 40
11.0
 40
12.0
 40
12.0
 40
12.0
 40
13.0
 40
13.0
 40
13.0
 40
14.0
 40
14.0
 40
14.0
 40
15.0
 40
15.0
 40
15.0
 40
16.0
 40
16.0
 40
16.0
 40
16.0
 10
96.95049910770682
 20
-133.1143554354714
 10
96.87195093064312
 20
-133.1143554354714
 10
96.77066512337679
 20
-133.0974744675937
 10
96.66869029701338
 20
-133.0340847106651
 10
96.49540199410532
 20
-132.9241861646856
 10
96.4743869116453
 20
-132.7929280266976
 10
96.4550943769279
 20
-132.6850965380093
 10
96.4550943769279
 20
-132.6850965380093
 10
96.67730303572651
 20
-132.6850965380093
 10
96.67730303572651
 20
-132.6850965380093
 10
96.73242456349051
 20
-132.8838785475082
 10
96.85954858689622
 20
-132.9135063686813
 10
96.95256616499798
 20
-132.9135063686813
 10
97.09174802260206
 20
-132.9135063686813
 10
97.24436575259864
 20
-132.8139431091576
 10
97.24436575259864
 20
-132.5813991639033
 10
97.24436575259864
 20
-132.3254285693492
 10
97.0645317682686
 20
-132.2554931309986
 10
96.94395342628485
 20
-132.2554931309986
 10
96.91225854782056
 20
-132.2554931309986
 10
96.77066512337679
 20
-132.2554931309986
 10
96.68178165985734
 20
-132.3846842116955
 10
96.68178165985734
 20
-132.3846842116955
 10
96.50608179010959
 20
-132.3657361865266
 10
96.50608179010959
 20
-132.3657361865266
 10
96.50608179010959
 20
-132.3657361865266
 10
96.62666013209333
 20
-131.5192762258008
 10
96.62666013209333
 20
-131.5192762258008
 10
96.62666013209333
 20
-131.5192762258008
 10
97.4052517117598
 20
-131.5192762258008
 10
97.4052517117598
 20
-131.5192762258008
 10
97.4052517117598
 20
-131.5192762258008
 10
97.4052517117598
 20
-131.7139241207174
 10
97.4052517117598
 20
-131.7139241207174
 10
97.4052517117598
 20
-131.7139241207174
 10
96.78926863899713
 20
-131.7139241207174
 10
96.78926863899713
 20
-131.7139241207174
 10
96.78926863899713
 20
-131.7139241207174
 10
96.72381182477739
 20
-132.136981846306
 10
96.72381182477739
 20
-132.136981846306
 10
96.78513452441483
 20
-132.1032199105506
 10
96.86781681606082
 20
-132.0629122933732
 10
96.98632810075343
 20
-132.0629122933732
 10
97.23988712846781
 20
-132.0629122933732
 10
97.476909697853
 20
-132.2492919591252
 10
97.476909697853
 20
-132.5624511387344
 10
97.476909697853
 20
-132.8797444329259
 10
97.25297849131177
 20
-133.1143554354714
 10
96.95049910770682
 20
-133.1143554354714
 97
        0
 97
        0
 75
     2
 76
     1
 98
        0
  0
POLYLINE
  5
135
330
12F
100
AcDbEntity
  8
_U+30EC_U+30A4_U+30E4_U+30FC 1
370
     0
100
AcDb2dPolyline
 66
     1
 10
0.0
 20
0.0
 30
0.0
  0
VERTEX
  5
136
330
135
100
AcDbEntity
  8
_U+30EC_U+30A4_U+30E4_U+30FC 1
370
     0
100
AcDbVertex
100
AcDb2dVertex
 10
97.70635305717065
 20
-133.0637125318382
 30
0.0
  0
VERTEX
  5
137
330
135
100
AcDbEntity
  8
_U+30EC_U+30A4_U+30E4_U+30FC 1
370
     0
100
AcDbVertex
100
AcDb2dVertex
 10
97.70635305717065
 20
-132.8118760518665
 30
0.0
  0
VERTEX
  5
138
330
135
100
AcDbEntity
  8
_U+30EC_U+30A4_U+30E4_U+30FC 1
370
     0
100
AcDbVertex
100
AcDb2dVertex
 10
97.95784502759388
 20
-132.8118760518665
 30
0.0
  0
VERTEX
  5
139
330
135
100
AcDbEntity
  8
_U+30EC_U+30A4_U+30E4_U+30FC 1
370
     0
100
AcDbVertex
100
AcDb2dVertex
 10
97.95784502759388
 20
-133.0637125318382
 30
0.0
  0
VERTEX
  5
13A
330
135
100
AcDbEntity
  8
_U+30EC_U+30A4_U+30E4_U+30FC 1
370
     0
100
AcDbVertex
100
AcDb2dVertex
 10
97.70635305717065
 20
-133.0637125318382
 30
0.0
  0
SEQEND
  5
13B
330
135
100
AcDbEntity
  8
_U+30EC_U+30A4_U+30E4_U+30FC 1
370
     0
  0
HATCH
  5
13C
330
12F
100
AcDbEntity
  8
_U+30EC_U+30A4_U+30E4_U+30FC 1
 62
   179
420
  2234388
100
AcDbHatch
 10
0.0
 20
0.0
 30
0.0
210
0.0
220
0.0
230
1.0
  2
SOLID
 70
     1
 71
     0
 91
        1
 92
        1
 93
        4
 72
     1
 10
97.70635305717065
 20
-133.0637125318382
 11
97.70635305717065
 21
-132.8118760518665
 72
     1
 10
97.70635305717065
 20
-132.8118760518665
 11
97.95784502759388
 21
-132.8118760518665
 72
     1
 10
97.95784502759388
 20
-132.8118760518665
 11
97.95784502759388
 21
-133.0637125318382
 72
     1
 10
97.95784502759388
 20
-133.0637125318382
 11
97.70635305717065
 21
-133.0637125318382
 97
        0
 75
     2
 76
     1
 98
        0
  0
SPLINE
  5
13D
330
12F
100
AcDbEntity
  8
_U+30EC_U+30A4_U+30E4_U+30FC 1
370
     0
100
AcDbSpline
210
0.0
220
0.0
230
1.0
 70
    11
 71
     3
 72
    44
 73
    40
 74
     0
 42
0.0000000001
 43
0.0000000001
 12
1.0
 22
0.0
 32
0.0
 13
1.0
 23
0.0
 33
0.0
 40
0.0
 40
0.0
 40
0.0
 40
0.0
 40
1.0
 40
1.0
 40
1.0
 40
2.0
 40
2.0
 40
2.0
 40
3.0
 40
3.0
 40
3.0
 40
4.0
 40
4.0
 40
4.0
 40
5.0
 40
5.0
 40
5.0
 40
6.0
 40
6.0
 40
6.0
 40
7.0
 40
7.0
 40
7.0
 40
8.0
 40
8.0
 40
8.0
 40
9.0
 40
9.0
 40
9.0
 40
10.0
 40
10.0
 40
10.0
 40
11.0
 40
11.0
 40
11.0
 40
12.0
 40
12.0
 40
12.0
 40
13.0
 40
13.0
 40
13.0
 40
13.0
 10
98.78742402044203
 20
-132.4818359043796
 30
0.0
 10
98.56969398577425
 20
-132.6406548062496
 30
0.0
 10
98.4766764076725
 20
-132.7147243591824
 30
0.0
 10
98.42775605178196
 20
-132.8583848409174
 30
0.0
 10
98.42775605178196
 20
-132.8583848409174
 30
0.0
 10
99.20634763144842
 20
-132.8583848409174
 30
0.0
 10
99.20634763144842
 20
-132.8583848409174
 30
0.0
 10
99.20634763144842
 20
-132.8583848409174
 30
0.0
 10
99.20634763144842
 20
-133.0637125318382
 30
0.0
 10
99.20634763144842
 20
-133.0637125318382
 30
0.0
 10
99.20634763144842
 20
-133.0637125318382
 30
0.0
 10
98.17833113864987
 20
-133.0637125318382
 30
0.0
 10
98.17833113864987
 20
-133.0637125318382
 30
0.0
 10
98.21002601711416
 20
-132.7061116204693
 30
0.0
 10
98.27548283133392
 20
-132.6279079529541
 30
0.0
 10
98.66064450658484
 20
-132.3295626839315
 30
0.0
 10
98.9166151011389
 20
-132.1307806744326
 30
0.0
 10
98.98207191535866
 20
-132.0629122933732
 30
0.0
 10
98.98207191535866
 20
-131.9254529835117
 30
0.0
 10
98.98207191535866
 20
-131.8069416988191
 30
0.0
 10
98.91006941971693
 20
-131.6760280703796
 30
0.0
 10
98.71369897705769
 20
-131.6760280703796
 30
0.0
 10
98.4532497583728
 20
-131.6760280703796
 30
0.0
 10
98.4449815292082
 20
-131.9065049583428
 30
0.0
 10
98.44050290507738
 20
-132.0229491857443
 30
0.0
 10
98.44050290507738
 20
-132.0229491857443
 30
0.0
 10
98.21622718898762
 20
-132.0229491857443
 30
0.0
 10
98.21622718898762
 20
-132.0229491857443
 30
0.0
 10
98.22483992770074
 20
-131.8958251623386
 30
0.0
 10
98.23551972370501
 20
-131.7838595590679
 30
0.0
 10
98.31579044851134
 20
-131.6653482743753
 30
0.0
 10
98.4256889944908
 20
-131.5044623152142
 30
0.0
 10
98.6117241506943
 20
-131.4707003794587
 30
0.0
 10
98.72816837809575
 20
-131.4707003794587
 30
0.0
 10
99.00549856465835
 20
-131.4707003794587
 30
0.0
 10
99.21254880332187
 20
-131.6546684783711
 30
0.0
 10
99.21254880332187
 20
-131.9275200408028
 30
0.0
 10
99.21254880332187
 20
-132.1562743810235
 30
0.0
 10
99.09644908546895
 20
-132.2554931309986
 30
0.0
 10
98.78742402044203
 20
-132.4818359043796
 30
0.0
  0
HATCH
  5
13E
330
12F
100
AcDbEntity
  8
_U+30EC_U+30A4_U+30E4_U+30FC 1
 62
   179
420
  2234388
100
AcDbHatch
 10
0.0
 20
0.0
 30
0.0
210
0.0
220
0.0
230
1.0
  2
SOLID
 70
     1
 71
     0
 91
        1
 92
        1
 93
        1
 72
     4
 94
        3
 73
     0
 74
     1
 95
       44
 96
       40
 40
0.0
 40
0.0
 40
0.0
 40
0.0
 40
1.0
 40
1.0
 40
1.0
 40
2.0
 40
2.0
 40
2.0
 40
3.0
 40
3.0
 40
3.0
 40
4.0
 40
4.0
 40
4.0
 40
5.0
 40
5.0
 40
5.0
 40
6.0
 40
6.0
 40
6.0
 40
7.0
 40
7.0
 40
7.0
 40
8.0
 40
8.0
 40
8.0
 40
9.0
 40
9.0
 40
9.0
 40
10.0
 40
10.0
 40
10.0
 40
11.0
 40
11.0
 40
11.0
 40
12.0
 40
12.0
 40
12.0
 40
13.0
 40
13.0
 40
13.0
 40
13.0
 10
98.78742402044203
 20
-132.4818359043796
 10
98.56969398577425
 20
-132.6406548062496
 10
98.4766764076725
 20
-132.7147243591824
 10
98.42775605178196
 20
-132.8583848409174
 10
98.42775605178196
 20
-132.8583848409174
 10
99.20634763144842
 20
-132.8583848409174
 10
99.20634763144842
 20
-132.8583848409174
 10
99.20634763144842
 20
-132.8583848409174
 10
99.20634763144842
 20
-133.0637125318382
 10
99.20634763144842
 20
-133.0637125318382
 10
99.20634763144842
 20
-133.0637125318382
 10
98.17833113864987
 20
-133.0637125318382
 10
98.17833113864987
 20
-133.0637125318382
 10
98.21002601711416
 20
-132.7061116204693
 10
98.27548283133392
 20
-132.6279079529541
 10
98.66064450658484
 20
-132.3295626839315
 10
98.9166151011389
 20
-132.1307806744326
 10
98.98207191535866
 20
-132.0629122933732
 10
98.98207191535866
 20
-131.9254529835117
 10
98.98207191535866
 20
-131.8069416988191
 10
98.91006941971693
 20
-131.6760280703796
 10
98.71369897705769
 20
-131.6760280703796
 10
98.4532497583728
 20
-131.6760280703796
 10
98.4449815292082
 20
-131.9065049583428
 10
98.44050290507738
 20
-132.0229491857443
 10
98.44050290507738
 20
-132.0229491857443
 10
98.21622718898762
 20
-132.0229491857443
 10
98.21622718898762
 20
-132.0229491857443
 10
98.22483992770074
 20
-131.8958251623386
 10
98.23551972370501
 20
-131.7838595590679
 10
98.31579044851134
 20
-131.6653482743753
 10
98.4256889944908
 20
-131.5044623152142
 10
98.6117241506943
 20
-131.4707003794587
 10
98.72816837809575
 20
-131.4707003794587
 10
99.00549856465835
 20
-131.4707003794587
 10
99.21254880332187
 20
-131.6546684783711
 10
99.21254880332187
 20
-131.9275200408028
 10
99.21254880332187
 20
-132.1562743810235
 10
99.09644908546895
 20
-132.2554931309986
 10
98.78742402044203
 20
-132.4818359043796
 97
        0
 97
        0
 75
     2
 76
     1
 98
        0
  0
ENDBLK
  5
132
330
12F
100
AcDbEntity
  8
0
100
AcDbBlockEnd
  0
BLOCK
  5
149
330
147
100
AcDbEntity
  8
0
100
AcDbBlockBegin
  2
block 10
 70
     0
 10
0.0
 20
0.0
 30
0.0
  3
block 10
  1

  0
SPLINE
  5
14B
330
147
100
AcDbEntity
  8
_U+30EC_U+30A4_U+30E4_U+30FC 1
370
     0
100
AcDbSpline
210
0.0
220
0.0
230
1.0
 70
    11
 71
     3
 72
    26
 73
    22
 74
     0
 42
0.0000000001
 43
0.0000000001
 12
1.0
 22
0.0
 32
0.0
 13
1.0
 23
0.0
 33
0.0
 40
0.0
 40
0.0
 40
0.0
 40
0.0
 40
1.0
 40
1.0
 40
1.0
 40
2.0
 40
2.0
 40
2.0
 40
3.0
 40
3.0
 40
3.0
 40
4.0
 40
4.0
 40
4.0
 40
5.0
 40
5.0
 40
5.0
 40
6.0
 40
6.0
 40
6.0
 40
7.0
 40
7.0
 40
7.0
 40
7.0
 10
96.92087128653368
 20
-119.8479817408713
 30
0.0
 10
96.92087128653368
 20
-119.8479817408713
 30
0.0
 10
96.92087128653368
 20
-118.7438286378488
 30
0.0
 10
96.92087128653368
 20
-118.7438286378488
 30
0.0
 10
96.92087128653368
 20
-118.7438286378488
 30
0.0
 10
96.59083113904674
 20
-118.7438286378488
 30
0.0
 10
96.59083113904674
 20
-118.7438286378488
 30
0.0
 10
96.59083113904674
 20
-118.7438286378488
 30
0.0
 10
96.59083113904674
 20
-118.595689531983
 30
0.0
 10
96.59083113904674
 20
-118.595689531983
 30
0.0
 10
96.92293834382482
 20
-118.5808756213965
 30
0.0
 10
96.96910262332717
 20
-118.4179226049441
 30
0.0
 10
96.99873044450032
 20
-118.3035454348338
 30
0.0
 10
96.99873044450032
 20
-118.3035454348338
 30
0.0
 10
97.14480249307492
 20
-118.3035454348338
 30
0.0
 10
97.14480249307492
 20
-118.3035454348338
 30
0.0
 10
97.14480249307492
 20
-118.3035454348338
 30
0.0
 10
97.14480249307492
 20
-119.8479817408713
 30
0.0
 10
97.14480249307492
 20
-119.8479817408713
 30
0.0
 10
97.14480249307492
 20
-119.8479817408713
 30
0.0
 10
96.92087128653368
 20
-119.8479817408713
 30
0.0
 10
96.92087128653368
 20
-119.8479817408713
 30
0.0
  0
HATCH
  5
14C
330
147
100
AcDbEntity
  8
_U+30EC_U+30A4_U+30E4_U+30FC 1
 62
   179
420
  2234388
100
AcDbHatch
 10
0.0
 20
0.0
 30
0.0
210
0.0
220
0.0
230
1.0
  2
SOLID
 70
     1
 71
     0
 91
        1
 92
        1
 93
        1
 72
     4
 94
        3
 73
     0
 74
     1
 95
       26
 96
       22
 40
0.0
 40
0.0
 40
0.0
 40
0.0
 40
1.0
 40
1.0
 40
1.0
 40
2.0
 40
2.0
 40
2.0
 40
3.0
 40
3.0
 40
3.0
 40
4.0
 40
4.0
 40
4.0
 40
5.0
 40
5.0
 40
5.0
 40
6.0
 40
6.0
 40
6.0
 40
7.0
 40
7.0
 40
7.0
 40
7.0
 10
96.92087128653368
 20
-119.8479817408713
 10
96.92087128653368
 20
-119.8479817408713
 10
96.92087128653368
 20
-118.7438286378488
 10
96.92087128653368
 20
-118.7438286378488
 10
96.92087128653368
 20
-118.7438286378488
 10
96.59083113904674
 20
-118.7438286378488
 10
96.59083113904674
 20
-118.7438286378488
 10
96.59083113904674
 20
-118.7438286378488
 10
96.59083113904674
 20
-118.595689531983
 10
96.59083113904674
 20
-118.595689531983
 10
96.92293834382482
 20
-118.5808756213965
 10
96.96910262332717
 20
-118.4179226049441
 10
96.99873044450032
 20
-118.3035454348338
 10
96.99873044450032
 20
-118.3035454348338
 10
97.14480249307492
 20
-118.3035454348338
 10
97.14480249307492
 20
-118.3035454348338
 10
97.14480249307492
 20
-118.3035454348338
 10
97.14480249307492
 20
-119.8479817408713
 10
97.14480249307492
 20
-119.8479817408713
 10
97.14480249307492
 20
-119.8479817408713
 10
96.92087128653368
 20
-119.8479817408713
 10
96.92087128653368
 20
-119.8479817408713
 97
        0
 97
        0
 75
     2
 76
     1
 98
        0
  0
POLYLINE
  5
14D
330
147
100
AcDbEntity
  8
_U+30EC_U+30A4_U+30E4_U+30FC 1
370
     0
100
AcDb2dPolyline
 66
     1
 10
0.0
 20
0.0
 30
0.0
  0
VERTEX
  5
14E
330
14D
100
AcDbEntity
  8
_U+30EC_U+30A4_U+30E4_U+30FC 1
370
     0
100
AcDbVertex
100
AcDb2dVertex
 10
97.70635305717065
 20
-119.8479817408713
 30
0.0
  0
VERTEX
  5
14F
330
14D
100
AcDbEntity
  8
_U+30EC_U+30A4_U+30E4_U+30FC 1
370
     0
100
AcDbVertex
100
AcDb2dVertex
 10
97.70635305717065
 20
-119.5961452608996
 30
0.0
  0
VERTEX
  5
150
330
14D
100
AcDbEntity
  8
_U+30EC_U+30A4_U+30E4_U+30FC 1
370
     0
100
AcDbVertex
100
AcDb2dVertex
 10
97.95784502759388
 20
-119.5961452608996
 30
0.0
  0
VERTEX
  5
151
330
14D
100
AcDbEntity
  8
_U+30EC_U+30A4_U+30E4_U+30FC 1
370
     0
100
AcDbVertex
100
AcDb2dVertex
 10
97.95784502759388
 20
-119.8479817408713
 30
0.0
  0
VERTEX
  5
152
330
14D
100
AcDbEntity
  8
_U+30EC_U+30A4_U+30E4_U+30FC 1
370
     0
100
AcDbVertex
100
AcDb2dVertex
 10
97.70635305717065
 20
-119.8479817408713
 30
0.0
  0
SEQEND
  5
153
330
14D
100
AcDbEntity
  8
_U+30EC_U+30A4_U+30E4_U+30FC 1
370
     0
  0
HATCH
  5
154
330
147
100
AcDbEntity
  8
_U+30EC_U+30A4_U+30E4_U+30FC 1
 62
   179
420
  2234388
100
AcDbHatch
 10
0.0
 20
0.0
 30
0.0
210
0.0
220
0.0
230
1.0
  2
SOLID
 70
     1
 71
     0
 91
        1
 92
        1
 93
        4
 72
     1
 10
97.70635305717065
 20
-119.8479817408713
 11
97.70635305717065
 21
-119.5961452608996
 72
     1
 10
97.70635305717065
 20
-119.5961452608996
 11
97.95784502759388
 21
-119.5961452608996
 72
     1
 10
97.95784502759388
 20
-119.5961452608996
 11
97.95784502759388
 21
-119.8479817408713
 72
     1
 10
97.95784502759388
 20
-119.8479817408713
 11
97.70635305717065
 21
-119.8479817408713
 97
        0
 75
     2
 76
     1
 98
        0
  0
SPLINE
  5
155
330
147
100
AcDbEntity
  8
_U+30EC_U+30A4_U+30E4_U+30FC 1
370
     0
100
AcDbSpline
210
0.0
220
0.0
230
1.0
 70
    11
 71
     3
 72
    44
 73
    40
 74
     0
 42
0.0000000001
 43
0.0000000001
 12
1.0
 22
0.0
 32
0.0
 13
1.0
 23
0.0
 33
0.0
 40
0.0
 40
0.0
 40
0.0
 40
0.0
 40
1.0
 40
1.0
 40
1.0
 40
2.0
 40
2.0
 40
2.0
 40
3.0
 40
3.0
 40
3.0
 40
4.0
 40
4.0
 40
4.0
 40
5.0
 40
5.0
 40
5.0
 40
6.0
 40
6.0
 40
6.0
 40
7.0
 40
7.0
 40
7.0
 40
8.0
 40
8.0
 40
8.0
 40
9.0
 40
9.0
 40
9.0
 40
10.0
 40
10.0
 40
10.0
 40
11.0
 40
11.0
 40
11.0
 40
12.0
 40
12.0
 40
12.0
 40
13.0
 40
13.0
 40
13.0
 40
13.0
 10
98.78742402044203
 20
-119.2661051134126
 30
0.0
 10
98.56969398577425
 20
-119.4249240152827
 30
0.0
 10
98.4766764076725
 20
-119.4989935682155
 30
0.0
 10
98.42775605178196
 20
-119.6426540499505
 30
0.0
 10
98.42775605178196
 20
-119.6426540499505
 30
0.0
 10
99.20634763144842
 20
-119.6426540499505
 30
0.0
 10
99.20634763144842
 20
-119.6426540499505
 30
0.0
 10
99.20634763144842
 20
-119.6426540499505
 30
0.0
 10
99.20634763144842
 20
-119.8479817408713
 30
0.0
 10
99.20634763144842
 20
-119.8479817408713
 30
0.0
 10
99.20634763144842
 20
-119.8479817408713
 30
0.0
 10
98.17833113864987
 20
-119.8479817408713
 30
0.0
 10
98.17833113864987
 20
-119.8479817408713
 30
0.0
 10
98.21002601711416
 20
-119.4903808295024
 30
0.0
 10
98.27548283133392
 20
-119.4121771619872
 30
0.0
 10
98.66064450658484
 20
-119.1138318929646
 30
0.0
 10
98.9166151011389
 20
-118.9150498834657
 30
0.0
 10
98.98207191535866
 20
-118.8471815024063
 30
0.0
 10
98.98207191535866
 20
-118.7097221925448
 30
0.0
 10
98.98207191535866
 20
-118.5912109078522
 30
0.0
 10
98.91006941971693
 20
-118.4602972794127
 30
0.0
 10
98.71369897705769
 20
-118.4602972794127
 30
0.0
 10
98.4532497583728
 20
-118.4602972794127
 30
0.0
 10
98.4449815292082
 20
-118.6907741673759
 30
0.0
 10
98.44050290507738
 20
-118.8072183947774
 30
0.0
 10
98.44050290507738
 20
-118.8072183947774
 30
0.0
 10
98.21622718898762
 20
-118.8072183947774
 30
0.0
 10
98.21622718898762
 20
-118.8072183947774
 30
0.0
 10
98.22483992770074
 20
-118.6800943713717
 30
0.0
 10
98.23551972370501
 20
-118.568128768101
 30
0.0
 10
98.31579044851134
 20
-118.4496174834084
 30
0.0
 10
98.4256889944908
 20
-118.2887315242473
 30
0.0
 10
98.6117241506943
 20
-118.2549695884918
 30
0.0
 10
98.72816837809575
 20
-118.2549695884918
 30
0.0
 10
99.00549856465835
 20
-118.2549695884918
 30
0.0
 10
99.21254880332187
 20
-118.4389376874042
 30
0.0
 10
99.21254880332187
 20
-118.7117892498359
 30
0.0
 10
99.21254880332187
 20
-118.9405435900565
 30
0.0
 10
99.09644908546895
 20
-119.0397623400317
 30
0.0
 10
98.78742402044203
 20
-119.2661051134126
 30
0.0
  0
HATCH
  5
156
330
147
100
AcDbEntity
  8
_U+30EC_U+30A4_U+30E4_U+30FC 1
 62
   179
420
  2234388
100
AcDbHatch
 10
0.0
 20
0.0
 30
0.0
210
0.0
220
0.0
230
1.0
  2
SOLID
 70
     1
 71
     0
 91
        1
 92
        1
 93
        1
 72
     4
 94
        3
 73
     0
 74
     1
 95
       44
 96
       40
 40
0.0
 40
0.0
 40
0.0
 40
0.0
 40
1.0
 40
1.0
 40
1.0
 40
2.0
 40
2.0
 40
2.0
 40
3.0
 40
3.0
 40
3.0
 40
4.0
 40
4.0
 40
4.0
 40
5.0
 40
5.0
 40
5.0
 40
6.0
 40
6.0
 40
6.0
 40
7.0
 40
7.0
 40
7.0
 40
8.0
 40
8.0
 40
8.0
 40
9.0
 40
9.0
 40
9.0
 40
10.0
 40
10.0
 40
10.0
 40
11.0
 40
11.0
 40
11.0
 40
12.0
 40
12.0
 40
12.0
 40
13.0
 40
13.0
 40
13.0
 40
13.0
 10
98.78742402044203
 20
-119.2661051134126
 10
98.56969398577425
 20
-119.4249240152827
 10
98.4766764076725
 20
-119.4989935682155
 10
98.42775605178196
 20
-119.6426540499505
 10
98.42775605178196
 20
-119.6426540499505
 10
99.20634763144842
 20
-119.6426540499505
 10
99.20634763144842
 20
-119.6426540499505
 10
99.20634763144842
 20
-119.6426540499505
 10
99.20634763144842
 20
-119.8479817408713
 10
99.20634763144842
 20
-119.8479817408713
 10
99.20634763144842
 20
-119.8479817408713
 10
98.17833113864987
 20
-119.8479817408713
 10
98.17833113864987
 20
-119.8479817408713
 10
98.21002601711416
 20
-119.4903808295024
 10
98.27548283133392
 20
-119.4121771619872
 10
98.66064450658484
 20
-119.1138318929646
 10
98.9166151011389
 20
-118.9150498834657
 10
98.98207191535866
 20
-118.8471815024063
 10
98.98207191535866
 20
-118.7097221925448
 10
98.98207191535866
 20
-118.5912109078522
 10
98.91006941971693
 20
-118.4602972794127
 10
98.71369897705769
 20
-118.4602972794127
 10
98.4532497583728
 20
-118.4602972794127
 10
98.4449815292082
 20
-118.6907741673759
 10
98.44050290507738
 20
-118.8072183947774
 10
98.44050290507738
 20
-118.8072183947774
 10
98.21622718898762
 20
-118.8072183947774
 10
98.21622718898762
 20
-118.8072183947774
 10
98.22483992770074
 20
-118.6800943713717
 10
98.23551972370501
 20
-118.568128768101
 10
98.31579044851134
 20
-118.4496174834084
 10
98.4256889944908
 20
-118.2887315242473
 10
98.6117241506943
 20
-118.2549695884918
 10
98.72816837809575
 20
-118.2549695884918
 10
99.00549856465835
 20
-118.2549695884918
 10
99.21254880332187
 20
-118.4389376874042
 10
99.21254880332187
 20
-118.7117892498359
 10
99.21254880332187
 20
-118.9405435900565
 10
99.09644908546895
 20
-119.0397623400317
 10
98.78742402044203
 20
-119.2661051134126
 97
        0
 97
        0
 75
     2
 76
     1
 98
        0
  0
ENDBLK
  5
14A
330
147
100
AcDbEntity
  8
0
100
AcDbBlockEnd
  0
BLOCK
  5
159
330
157
100
AcDbEntity
  8
0
100
AcDbBlockBegin
  2
block 11
 70
     0
 10
0.0
 20
0.0
 30
0.0
  3
block 11
  1

  0
SPLINE
  5
15B
330
157
100
AcDbEntity
  8
_U+30EC_U+30A4_U+30E4_U+30FC 1
370
     0
100
AcDbSpline
210
0.0
220
0.0
230
1.0
 70
    11
 71
     3
 72
    62
 73
    58
 74
     0
 42
0.0000000001
 43
0.0000000001
 12
1.0
 22
0.0
 32
0.0
 13
1.0
 23
0.0
 33
0.0
 40
0.0
 40
0.0
 40
0.0
 40
0.0
 40
1.0
 40
1.0
 40
1.0
 40
2.0
 40
2.0
 40
2.0
 40
3.0
 40
3.0
 40
3.0
 40
4.0
 40
4.0
 40
4.0
 40
5.0
 40
5.0
 40
5.0
 40
6.0
 40
6.0
 40
6.0
 40
7.0
 40
7.0
 40
7.0
 40
8.0
 40
8.0
 40
8.0
 40
9.0
 40
9.0
 40
9.0
 40
10.0
 40
10.0
 40
10.0
 40
11.0
 40
11.0
 40
11.0
 40
12.0
 40
12.0
 40
12.0
 40
13.0
 40
13.0
 40
13.0
 40
14.0
 40
14.0
 40
14.0
 40
15.0
 40
15.0
 40
15.0
 40
16.0
 40
16.0
 40
16.0
 40
17.0
 40
17.0
 40
17.0
 40
18.0
 40
18.0
 40
18.0
 40
19.0
 40
19.0
 40
19.0
 40
19.0
 10
104.6392632116874
 20
-127.0937065654488
 30
0.0
 10
104.5441785762945
 20
-127.0937065654488
 30
0.0
 10
104.3264485416267
 20
-127.0726914829888
 30
0.0
 10
104.2017360850607
 20
-126.8866563267853
 30
0.0
 10
104.1273220225793
 20
-126.7743462139661
 30
0.0
 10
104.123187907997
 20
-126.6751274639909
 30
0.0
 10
104.1190537934147
 20
-126.5903781150538
 30
0.0
 10
104.1190537934147
 20
-126.5903781150538
 30
0.0
 10
104.3388508853736
 20
-126.5903781150538
 30
0.0
 10
104.3388508853736
 20
-126.5903781150538
 30
0.0
 10
104.3409179426648
 20
-126.6644476679867
 30
0.0
 10
104.3519422482176
 20
-126.8990586705322
 30
0.0
 10
104.6351290971051
 20
-126.8990586705322
 30
0.0
 10
104.7729329165151
 20
-126.8990586705322
 30
0.0
 10
104.9252061369632
 20
-126.8294677417301
 30
0.0
 10
104.9252061369632
 20
-126.6010579110581
 30
0.0
 10
104.9252061369632
 20
-126.4846136836566
 30
0.0
 10
104.8869655770769
 20
-126.4360378373146
 30
0.0
 10
104.8552706986126
 20
-126.4043429588503
 30
0.0
 10
104.7812011456797
 20
-126.3302734059174
 30
0.0
 10
104.6647569182783
 20
-126.317526552622
 30
0.0
 10
104.6096353905143
 20
-126.317526552622
 30
0.0
 10
104.5910318748939
 20
-126.317526552622
 30
0.0
 10
104.5548583722988
 20
-126.3195936099132
 30
0.0
 10
104.5272976084168
 20
-126.3237277244955
 30
0.0
 10
104.5272976084168
 20
-126.3237277244955
 30
0.0
 10
104.5272976084168
 20
-126.1290798295788
 30
0.0
 10
104.5272976084168
 20
-126.1290798295788
 30
0.0
 10
104.5655381683031
 20
-126.1356255110008
 30
0.0
 10
104.6075683332231
 20
-126.137692568292
 30
0.0
 10
104.6141140146451
 20
-126.137692568292
 30
0.0
 10
104.6795708288648
 20
-126.137692568292
 30
0.0
 10
104.8783528383638
 20
-126.1163329762834
 30
0.0
 10
104.8783528383638
 20
-125.8796549164468
 30
0.0
 10
104.8783528383638
 20
-125.7018879894079
 30
0.0
 10
104.7474392099243
 20
-125.6467664616439
 30
0.0
 10
104.6371961543963
 20
-125.6467664616439
 30
0.0
 10
104.3729573306776
 20
-125.6467664616439
 30
0.0
 10
104.3643445919645
 20
-125.8796549164468
 30
0.0
 10
104.3602104773822
 20
-125.95131290254
 30
0.0
 10
104.3602104773822
 20
-125.95131290254
 30
0.0
 10
104.1569498437524
 20
-125.95131290254
 30
0.0
 10
104.1569498437524
 20
-125.95131290254
 30
0.0
 10
104.1655625824656
 20
-125.8266004459739
 30
0.0
 10
104.1931233463476
 20
-125.4500515094361
 30
0.0
 10
104.6499430076917
 20
-125.4500515094361
 30
0.0
 10
104.8742187237815
 20
-125.4500515094361
 30
0.0
 10
105.1153754077489
 20
-125.5771755328418
 30
0.0
 10
105.1153754077489
 20
-125.8731092350248
 30
0.0
 10
105.1153754077489
 20
-126.0594889007768
 30
0.0
 10
105.020290772356
 20
-126.1418266828743
 30
0.0
 10
104.9207275128323
 20
-126.2031493825117
 30
0.0
 10
104.9823947220183
 20
-126.2307101463937
 30
0.0
 10
105.1642957636395
 20
-126.3109808712
 30
0.0
 10
105.1642957636395
 20
-126.5883110577627
 30
0.0
 10
105.1642957636395
 20
-126.9266194344142
 30
0.0
 10
104.91659339825
 20
-127.0937065654488
 30
0.0
 10
104.6392632116874
 20
-127.0937065654488
 30
0.0
  0
HATCH
  5
15C
330
157
100
AcDbEntity
  8
_U+30EC_U+30A4_U+30E4_U+30FC 1
 62
   179
420
  2234388
100
AcDbHatch
 10
0.0
 20
0.0
 30
0.0
210
0.0
220
0.0
230
1.0
  2
SOLID
 70
     1
 71
     0
 91
        1
 92
        1
 93
        1
 72
     4
 94
        3
 73
     0
 74
     1
 95
       62
 96
       58
 40
0.0
 40
0.0
 40
0.0
 40
0.0
 40
1.0
 40
1.0
 40
1.0
 40
2.0
 40
2.0
 40
2.0
 40
3.0
 40
3.0
 40
3.0
 40
4.0
 40
4.0
 40
4.0
 40
5.0
 40
5.0
 40
5.0
 40
6.0
 40
6.0
 40
6.0
 40
7.0
 40
7.0
 40
7.0
 40
8.0
 40
8.0
 40
8.0
 40
9.0
 40
9.0
 40
9.0
 40
10.0
 40
10.0
 40
10.0
 40
11.0
 40
11.0
 40
11.0
 40
12.0
 40
12.0
 40
12.0
 40
13.0
 40
13.0
 40
13.0
 40
14.0
 40
14.0
 40
14.0
 40
15.0
 40
15.0
 40
15.0
 40
16.0
 40
16.0
 40
16.0
 40
17.0
 40
17.0
 40
17.0
 40
18.0
 40
18.0
 40
18.0
 40
19.0
 40
19.0
 40
19.0
 40
19.0
 10
104.6392632116874
 20
-127.0937065654488
 10
104.5441785762945
 20
-127.0937065654488
 10
104.3264485416267
 20
-127.0726914829888
 10
104.2017360850607
 20
-126.8866563267853
 10
104.1273220225793
 20
-126.7743462139661
 10
104.123187907997
 20
-126.6751274639909
 10
104.1190537934147
 20
-126.5903781150538
 10
104.1190537934147
 20
-126.5903781150538
 10
104.3388508853736
 20
-126.5903781150538
 10
104.3388508853736
 20
-126.5903781150538
 10
104.3409179426648
 20
-126.6644476679867
 10
104.3519422482176
 20
-126.8990586705322
 10
104.6351290971051
 20
-126.8990586705322
 10
104.7729329165151
 20
-126.8990586705322
 10
104.9252061369632
 20
-126.8294677417301
 10
104.9252061369632
 20
-126.6010579110581
 10
104.9252061369632
 20
-126.4846136836566
 10
104.8869655770769
 20
-126.4360378373146
 10
104.8552706986126
 20
-126.4043429588503
 10
104.7812011456797
 20
-126.3302734059174
 10
104.6647569182783
 20
-126.317526552622
 10
104.6096353905143
 20
-126.317526552622
 10
104.5910318748939
 20
-126.317526552622
 10
104.5548583722988
 20
-126.3195936099132
 10
104.5272976084168
 20
-126.3237277244955
 10
104.5272976084168
 20
-126.3237277244955
 10
104.5272976084168
 20
-126.1290798295788
 10
104.5272976084168
 20
-126.1290798295788
 10
104.5655381683031
 20
-126.1356255110008
 10
104.6075683332231
 20
-126.137692568292
 10
104.6141140146451
 20
-126.137692568292
 10
104.6795708288648
 20
-126.137692568292
 10
104.8783528383638
 20
-126.1163329762834
 10
104.8783528383638
 20
-125.8796549164468
 10
104.8783528383638
 20
-125.7018879894079
 10
104.7474392099243
 20
-125.6467664616439
 10
104.6371961543963
 20
-125.6467664616439
 10
104.3729573306776
 20
-125.6467664616439
 10
104.3643445919645
 20
-125.8796549164468
 10
104.3602104773822
 20
-125.95131290254
 10
104.3602104773822
 20
-125.95131290254
 10
104.1569498437524
 20
-125.95131290254
 10
104.1569498437524
 20
-125.95131290254
 10
104.1655625824656
 20
-125.8266004459739
 10
104.1931233463476
 20
-125.4500515094361
 10
104.6499430076917
 20
-125.4500515094361
 10
104.8742187237815
 20
-125.4500515094361
 10
105.1153754077489
 20
-125.5771755328418
 10
105.1153754077489
 20
-125.8731092350248
 10
105.1153754077489
 20
-126.0594889007768
 10
105.020290772356
 20
-126.1418266828743
 10
104.9207275128323
 20
-126.2031493825117
 10
104.9823947220183
 20
-126.2307101463937
 10
105.1642957636395
 20
-126.3109808712
 10
105.1642957636395
 20
-126.5883110577627
 10
105.1642957636395
 20
-126.9266194344142
 10
104.91659339825
 20
-127.0937065654488
 10
104.6392632116874
 20
-127.0937065654488
 97
        0
 97
        0
 75
     2
 76
     1
 98
        0
  0
ENDBLK
  5
15A
330
157
100
AcDbEntity
  8
0
100
AcDbBlockEnd
  0
BLOCK
  5
15F
330
15D
100
AcDbEntity
  8
0
100
AcDbBlockBegin
  2
block 12
 70
     0
 10
0.0
 20
0.0
 30
0.0
  3
block 12
  1

  0
SPLINE
  5
161
330
15D
100
AcDbEntity
  8
_U+30EC_U+30A4_U+30E4_U+30FC 1
370
     0
100
AcDbSpline
210
0.0
220
0.0
230
1.0
 70
    11
 71
     3
 72
    26
 73
    22
 74
     0
 42
0.0000000001
 43
0.0000000001
 12
1.0
 22
0.0
 32
0.0
 13
1.0
 23
0.0
 33
0.0
 40
0.0
 40
0.0
 40
0.0
 40
0.0
 40
1.0
 40
1.0
 40
1.0
 40
2.0
 40
2.0
 40
2.0
 40
3.0
 40
3.0
 40
3.0
 40
4.0
 40
4.0
 40
4.0
 40
5.0
 40
5.0
 40
5.0
 40
6.0
 40
6.0
 40
6.0
 40
7.0
 40
7.0
 40
7.0
 40
7.0
 10
94.50999346595584
 20
-127.5694742519618
 30
0.0
 10
94.50999346595584
 20
-127.5694742519618
 30
0.0
 10
95.29099661246198
 20
-126.7888156150042
 30
0.0
 10
95.29099661246198
 20
-126.7888156150042
 30
0.0
 10
95.29099661246198
 20
-126.7888156150042
 30
0.0
 10
95.05776364811057
 20
-126.5552381411043
 30
0.0
 10
95.05776364811057
 20
-126.5552381411043
 30
0.0
 10
95.05776364811057
 20
-126.5552381411043
 30
0.0
 10
95.16249455086216
 20
-126.4505072383527
 30
0.0
 10
95.16249455086216
 20
-126.4505072383527
 30
0.0
 10
95.40778534941195
 20
-126.6751274639909
 30
0.0
 10
95.55592445527769
 20
-126.5927896818935
 30
0.0
 10
95.65721026254404
 20
-126.5328450204501
 30
0.0
 10
95.65721026254404
 20
-126.5328450204501
 30
0.0
 10
95.76056312710153
 20
-126.6361978850076
 30
0.0
 10
95.76056312710153
 20
-126.6361978850076
 30
0.0
 10
95.76056312710153
 20
-126.6361978850076
 30
0.0
 10
94.66881236782585
 20
-127.7282931538318
 30
0.0
 10
94.66881236782585
 20
-127.7282931538318
 30
0.0
 10
94.66881236782585
 20
-127.7282931538318
 30
0.0
 10
94.50999346595584
 20
-127.5694742519618
 30
0.0
 10
94.50999346595584
 20
-127.5694742519618
 30
0.0
  0
HATCH
  5
162
330
15D
100
AcDbEntity
  8
_U+30EC_U+30A4_U+30E4_U+30FC 1
 62
   179
420
  2234388
100
AcDbHatch
 10
0.0
 20
0.0
 30
0.0
210
0.0
220
0.0
230
1.0
  2
SOLID
 70
     1
 71
     0
 91
        1
 92
        1
 93
        1
 72
     4
 94
        3
 73
     0
 74
     1
 95
       26
 96
       22
 40
0.0
 40
0.0
 40
0.0
 40
0.0
 40
1.0
 40
1.0
 40
1.0
 40
2.0
 40
2.0
 40
2.0
 40
3.0
 40
3.0
 40
3.0
 40
4.0
 40
4.0
 40
4.0
 40
5.0
 40
5.0
 40
5.0
 40
6.0
 40
6.0
 40
6.0
 40
7.0
 40
7.0
 40
7.0
 40
7.0
 10
94.50999346595584
 20
-127.5694742519618
 10
94.50999346595584
 20
-127.5694742519618
 10
95.29099661246198
 20
-126.7888156150042
 10
95.29099661246198
 20
-126.7888156150042
 10
95.29099661246198
 20
-126.7888156150042
 10
95.05776364811057
 20
-126.5552381411043
 10
95.05776364811057
 20
-126.5552381411043
 10
95.05776364811057
 20
-126.5552381411043
 10
95.16249455086216
 20
-126.4505072383527
 10
95.16249455086216
 20
-126.4505072383527
 10
95.40778534941195
 20
-126.6751274639909
 10
95.55592445527769
 20
-126.5927896818935
 10
95.65721026254404
 20
-126.5328450204501
 10
95.65721026254404
 20
-126.5328450204501
 10
95.76056312710153
 20
-126.6361978850076
 10
95.76056312710153
 20
-126.6361978850076
 10
95.76056312710153
 20
-126.6361978850076
 10
94.66881236782585
 20
-127.7282931538318
 10
94.66881236782585
 20
-127.7282931538318
 10
94.66881236782585
 20
-127.7282931538318
 10
94.50999346595584
 20
-127.5694742519618
 10
94.50999346595584
 20
-127.5694742519618
 97
        0
 97
        0
 75
     2
 76
     1
 98
        0
  0
SPLINE
  5
163
330
15D
100
AcDbEntity
  8
_U+30EC_U+30A4_U+30E4_U+30FC 1
370
     0
100
AcDbSpline
210
0.0
220
0.0
230
1.0
 70
    11
 71
     3
 72
    44
 73
    40
 74
     0
 42
0.0000000001
 43
0.0000000001
 12
1.0
 22
0.0
 32
0.0
 13
1.0
 23
0.0
 33
0.0
 40
0.0
 40
0.0
 40
0.0
 40
0.0
 40
1.0
 40
1.0
 40
1.0
 40
2.0
 40
2.0
 40
2.0
 40
3.0
 40
3.0
 40
3.0
 40
4.0
 40
4.0
 40
4.0
 40
5.0
 40
5.0
 40
5.0
 40
6.0
 40
6.0
 40
6.0
 40
7.0
 40
7.0
 40
7.0
 40
8.0
 40
8.0
 40
8.0
 40
9.0
 40
9.0
 40
9.0
 40
10.0
 40
10.0
 40
10.0
 40
11.0
 40
11.0
 40
11.0
 40
12.0
 40
12.0
 40
12.0
 40
13.0
 40
13.0
 40
13.0
 40
13.0
 10
95.74023706373856
 20
-128.7997178497445
 30
0.0
 10
95.75505097432513
 20
-128.7518310224995
 30
0.0
 10
95.77744409497926
 20
-128.6991210615752
 30
0.0
 10
95.93901907323747
 20
-128.5347900069288
 30
0.0
 10
96.10817326156324
 20
-128.3597791562781
 30
0.0
 10
96.11575247163078
 20
-128.2688286354675
 30
0.0
 10
95.99000648641918
 20
-128.1427381407074
 30
0.0
 10
95.99000648641918
 20
-128.1427381407074
 30
0.0
 10
95.70130748475523
 20
-127.8540391390434
 30
0.0
 10
95.70130748475523
 20
-127.8540391390434
 30
0.0
 10
95.70130748475523
 20
-127.8540391390434
 30
0.0
 10
95.24793291889635
 20
-128.3074137049023
 30
0.0
 10
95.24793291889635
 20
-128.3074137049023
 30
0.0
 10
95.24793291889635
 20
-128.3074137049023
 30
0.0
 10
95.08187931650731
 20
-128.1413601025133
 30
0.0
 10
95.08187931650731
 20
-128.1413601025133
 30
0.0
 10
95.08187931650731
 20
-128.1413601025133
 30
0.0
 10
96.17397458533151
 20
-127.0492648336891
 30
0.0
 10
96.17397458533151
 20
-127.0492648336891
 30
0.0
 10
96.17397458533151
 20
-127.0492648336891
 30
0.0
 10
96.6511203100386
 20
-127.5264105583962
 30
0.0
 10
96.6511203100386
 20
-127.5264105583962
 30
0.0
 10
96.86816132560935
 20
-127.7434515739669
 30
0.0
 10
96.86506073967263
 20
-127.9828857101918
 30
0.0
 10
96.684193226697
 20
-128.1640977327159
 30
0.0
 10
96.64836423365041
 20
-128.1999267257625
 30
0.0
 10
96.58394094807625
 20
-128.2522921771383
 30
0.0
 10
96.49574650365385
 20
-128.2774413741807
 30
0.0
 10
96.38033580489798
 20
-128.3087917430964
 30
0.0
 10
96.32073565300315
 20
-128.2760633359865
 30
0.0
 10
96.26526961569063
 20
-128.2447129670708
 30
0.0
 10
96.332448977653
 20
-128.3718369904765
 30
0.0
 10
96.346229359594
 20
-128.454174772574
 30
0.0
 10
96.12608775808654
 20
-128.6798285268578
 30
0.0
 10
95.93764103504337
 20
-128.8744764217744
 30
0.0
 10
95.94039711143157
 20
-128.9220187394709
 30
0.0
 10
95.94969886924174
 20
-129.0091796552477
 30
0.0
 10
95.94969886924174
 20
-129.0091796552477
 30
0.0
 10
95.74023706373856
 20
-128.7997178497445
 30
0.0
 10
95.74023706373856
 20
-128.7997178497445
 30
0.0
  0
SPLINE
  5
164
330
15D
100
AcDbEntity
  8
_U+30EC_U+30A4_U+30E4_U+30FC 1
370
     0
100
AcDbSpline
210
0.0
220
0.0
230
1.0
 70
    11
 71
     3
 72
    20
 73
    16
 74
     0
 42
0.0000000001
 43
0.0000000001
 12
1.0
 22
0.0
 32
0.0
 13
1.0
 23
0.0
 33
0.0
 40
0.0
 40
0.0
 40
0.0
 40
0.0
 40
1.0
 40
1.0
 40
1.0
 40
2.0
 40
2.0
 40
2.0
 40
3.0
 40
3.0
 40
3.0
 40
4.0
 40
4.0
 40
4.0
 40
5.0
 40
5.0
 40
5.0
 40
5.0
 10
96.5047037519155
 20
-127.6793727979413
 30
0.0
 10
96.5047037519155
 20
-127.6793727979413
 30
0.0
 10
96.1905110436607
 20
-127.3651800896865
 30
0.0
 10
96.1905110436607
 20
-127.3651800896865
 30
0.0
 10
96.1905110436607
 20
-127.3651800896865
 30
0.0
 10
95.85082462881508
 20
-127.7045219949836
 30
0.0
 10
95.85082462881508
 20
-127.7045219949836
 30
0.0
 10
95.85082462881508
 20
-127.7045219949836
 30
0.0
 10
96.16329478932724
 20
-128.0169921554958
 30
0.0
 10
96.16329478932724
 20
-128.0169921554958
 30
0.0
 10
96.23391924677486
 20
-128.0876166129434
 30
0.0
 10
96.3834363908347
 20
-128.1293022683149
 30
0.0
 10
96.5047037519155
 20
-128.0083794167826
 30
0.0
 10
96.55982527967949
 20
-127.9529133794701
 30
0.0
 10
96.64526364771369
 20
-127.8199326937395
 30
0.0
 10
96.5047037519155
 20
-127.6793727979413
 30
0.0
  0
HATCH
  5
165
330
15D
100
AcDbEntity
  8
_U+30EC_U+30A4_U+30E4_U+30FC 1
 62
   179
420
  2234388
100
AcDbHatch
 10
0.0
 20
0.0
 30
0.0
210
0.0
220
0.0
230
1.0
  2
SOLID
 70
     1
 71
     0
 91
        2
 92
        1
 93
        1
 72
     4
 94
        3
 73
     0
 74
     1
 95
       44
 96
       40
 40
0.0
 40
0.0
 40
0.0
 40
0.0
 40
1.0
 40
1.0
 40
1.0
 40
2.0
 40
2.0
 40
2.0
 40
3.0
 40
3.0
 40
3.0
 40
4.0
 40
4.0
 40
4.0
 40
5.0
 40
5.0
 40
5.0
 40
6.0
 40
6.0
 40
6.0
 40
7.0
 40
7.0
 40
7.0
 40
8.0
 40
8.0
 40
8.0
 40
9.0
 40
9.0
 40
9.0
 40
10.0
 40
10.0
 40
10.0
 40
11.0
 40
11.0
 40
11.0
 40
12.0
 40
12.0
 40
12.0
 40
13.0
 40
13.0
 40
13.0
 40
13.0
 10
95.74023706373856
 20
-128.7997178497445
 10
95.75505097432513
 20
-128.7518310224995
 10
95.77744409497926
 20
-128.6991210615752
 10
95.93901907323747
 20
-128.5347900069288
 10
96.10817326156324
 20
-128.3597791562781
 10
96.11575247163078
 20
-128.2688286354675
 10
95.99000648641918
 20
-128.1427381407074
 10
95.99000648641918
 20
-128.1427381407074
 10
95.70130748475523
 20
-127.8540391390434
 10
95.70130748475523
 20
-127.8540391390434
 10
95.70130748475523
 20
-127.8540391390434
 10
95.24793291889635
 20
-128.3074137049023
 10
95.24793291889635
 20
-128.3074137049023
 10
95.24793291889635
 20
-128.3074137049023
 10
95.08187931650731
 20
-128.1413601025133
 10
95.08187931650731
 20
-128.1413601025133
 10
95.08187931650731
 20
-128.1413601025133
 10
96.17397458533151
 20
-127.0492648336891
 10
96.17397458533151
 20
-127.0492648336891
 10
96.17397458533151
 20
-127.0492648336891
 10
96.6511203100386
 20
-127.5264105583962
 10
96.6511203100386
 20
-127.5264105583962
 10
96.86816132560935
 20
-127.7434515739669
 10
96.86506073967263
 20
-127.9828857101918
 10
96.684193226697
 20
-128.1640977327159
 10
96.64836423365041
 20
-128.1999267257625
 10
96.58394094807625
 20
-128.2522921771383
 10
96.49574650365385
 20
-128.2774413741807
 10
96.38033580489798
 20
-128.3087917430964
 10
96.32073565300315
 20
-128.2760633359865
 10
96.26526961569063
 20
-128.2447129670708
 10
96.332448977653
 20
-128.3718369904765
 10
96.346229359594
 20
-128.454174772574
 10
96.12608775808654
 20
-128.6798285268578
 10
95.93764103504337
 20
-128.8744764217744
 10
95.94039711143157
 20
-128.9220187394709
 10
95.94969886924174
 20
-129.0091796552477
 10
95.94969886924174
 20
-129.0091796552477
 10
95.74023706373856
 20
-128.7997178497445
 10
95.74023706373856
 20
-128.7997178497445
 97
        0
 97
        0
 92
        1
 93
        1
 72
     4
 94
        3
 73
     0
 74
     1
 95
       20
 96
       16
 40
0.0
 40
0.0
 40
0.0
 40
0.0
 40
1.0
 40
1.0
 40
1.0
 40
2.0
 40
2.0
 40
2.0
 40
3.0
 40
3.0
 40
3.0
 40
4.0
 40
4.0
 40
4.0
 40
5.0
 40
5.0
 40
5.0
 40
5.0
 10
96.5047037519155
 20
-127.6793727979413
 10
96.5047037519155
 20
-127.6793727979413
 10
96.1905110436607
 20
-127.3651800896865
 10
96.1905110436607
 20
-127.3651800896865
 10
96.1905110436607
 20
-127.3651800896865
 10
95.85082462881508
 20
-127.7045219949836
 10
95.85082462881508
 20
-127.7045219949836
 10
95.85082462881508
 20
-127.7045219949836
 10
96.16329478932724
 20
-128.0169921554958
 10
96.16329478932724
 20
-128.0169921554958
 10
96.23391924677486
 20
-128.0876166129434
 10
96.3834363908347
 20
-128.1293022683149
 10
96.5047037519155
 20
-128.0083794167826
 10
96.55982527967949
 20
-127.9529133794701
 10
96.64526364771369
 20
-127.8199326937395
 10
96.5047037519155
 20
-127.6793727979413
 97
        0
 97
        0
 75
     2
 76
     1
 98
        0
  0
ENDBLK
  5
160
330
15D
100
AcDbEntity
  8
0
100
AcDbBlockEnd
  0
ENDSEC
  0
SECTION
  2
ENTITIES
  0
POLYLINE
  5
41
330
1F
100
AcDbEntity
  8
_U+30EC_U+30A4_U+30E4_U+30FC 1
 62
   179
420
  2234388
370
    25
100
AcDb2dPolyline
 66
     1
 10
0.0
 20
0.0
 30
0.0
  0
VERTEX
  5
42
330
41
100
AcDbEntity
  8
_U+30EC_U+30A4_U+30E4_U+30FC 1
 62
   179
420
  2234388
370
    25
100
AcDbVertex
100
AcDb2dVertex
 10
99.35033608627339
 20
-109.2104044171418
 30
0.0
  0
VERTEX
  5
43
330
41
100
AcDbEntity
  8
_U+30EC_U+30A4_U+30E4_U+30FC 1
 62
   179
420
  2234388
370
    25
100
AcDbVertex
100
AcDb2dVertex
 10
99.98529828249586
 20
-109.2104044171418
 30
0.0
  0
VERTEX
  5
44
330
41
100
AcDbEntity
  8
_U+30EC_U+30A4_U+30E4_U+30FC 1
 62
   179
420
  2234388
370
    25
100
AcDbVertex
100
AcDb2dVertex
 10
100.1440860860749
 20
-140.8547827425641
 30
0.0
  0
VERTEX
  5
45
330
41
100
AcDbEntity
  8
_U+30EC_U+30A4_U+30E4_U+30FC 1
 62
   179
420
  2234388
370
    25
100
AcDbVertex
100
AcDb2dVertex
 10
99.66797467948035
 20
-140.8547827425641
 30
0.0
  0
VERTEX
  5
46
330
41
100
AcDbEntity
  8
_U+30EC_U+30A4_U+30E4_U+30FC 1
 62
   179
420
  2234388
370
    25
100
AcDbVertex
100
AcDb2dVertex
 10
99.56221190440081
 20
-127.2552699681863
 30
0.0
  0
VERTEX
  5
47
330
41
100
AcDbEntity
  8
_U+30EC_U+30A4_U+30E4_U+30FC 1
 62
   179
420
  2234388
370
    25
100
AcDbVertex
100
AcDb2dVertex
 10
97.81589139339759
 20
-127.1491896904348
 30
0.0
  0
VERTEX
  5
48
330
41
100
AcDbEntity
  8
_U+30EC_U+30A4_U+30E4_U+30FC 1
 62
   179
420
  2234388
370
    25
100
AcDbVertex
100
AcDb2dVertex
 10
97.81589139339759
 20
-126.6730455238872
 30
0.0
  0
VERTEX
  5
49
330
41
100
AcDbEntity
  8
_U+30EC_U+30A4_U+30E4_U+30FC 1
 62
   179
420
  2234388
370
    25
100
AcDbVertex
100
AcDb2dVertex
 10
99.66797467948035
 20
-126.6730455238872
 30
0.0
  0
VERTEX
  5
4A
330
41
100
AcDbEntity
  8
_U+30EC_U+30A4_U+30E4_U+30FC 1
 62
   179
420
  2234388
370
    25
100
AcDbVertex
100
AcDb2dVertex
 10
99.66797467948035
 20
-125.1386033020488
 30
0.0
  0
VERTEX
  5
4B
330
41
100
AcDbEntity
  8
_U+30EC_U+30A4_U+30E4_U+30FC 1
 62
   179
420
  2234388
370
    25
100
AcDbVertex
100
AcDb2dVertex
 10
89.34922494273358
 20
-126.1438788573529
 30
0.0
  0
VERTEX
  5
4C
330
41
100
AcDbEntity
  8
_U+30EC_U+30A4_U+30E4_U+30FC 1
 62
   179
420
  2234388
370
    25
100
AcDbVertex
100
AcDb2dVertex
 10
89.5080454942373
 20
-132.9172827445485
 30
0.0
  0
VERTEX
  5
4D
330
41
100
AcDbEntity
  8
_U+30EC_U+30A4_U+30E4_U+30FC 1
 62
   179
420
  2234388
370
    25
100
AcDbVertex
100
AcDb2dVertex
 10
90.7248818520821
 20
-132.8642249667838
 30
0.0
  0
VERTEX
  5
4E
330
41
100
AcDbEntity
  8
_U+30EC_U+30A4_U+30E4_U+30FC 1
 62
   179
420
  2234388
370
    25
100
AcDbVertex
100
AcDb2dVertex
 10
90.7248818520821
 20
-133.4464494110829
 30
0.0
  0
VERTEX
  5
4F
330
41
100
AcDbEntity
  8
_U+30EC_U+30A4_U+30E4_U+30FC 1
 62
   179
420
  2234388
370
    25
100
AcDbVertex
100
AcDb2dVertex
 10
88.87279856599935
 20
-133.4464494110829
 30
0.0
  0
VERTEX
  5
50
330
41
100
AcDbEntity
  8
_U+30EC_U+30A4_U+30E4_U+30FC 1
 62
   179
420
  2234388
370
    25
100
AcDbVertex
100
AcDb2dVertex
 10
88.76700275558589
 20
-125.6677699685832
 30
0.0
  0
VERTEX
  5
51
330
41
100
AcDbEntity
  8
_U+30EC_U+30A4_U+30E4_U+30FC 1
 62
   179
420
  2234388
370
    25
100
AcDbVertex
100
AcDb2dVertex
 10
99.50915412797664
 20
-124.5563788577497
 30
0.0
  0
VERTEX
  5
52
330
41
100
AcDbEntity
  8
_U+30EC_U+30A4_U+30E4_U+30FC 1
 62
   179
420
  2234388
370
    25
100
AcDbVertex
100
AcDb2dVertex
 10
99.35033608627339
 20
-109.2104044171418
 30
0.0
  0
SEQEND
  5
54
330
41
100
AcDbEntity
  8
_U+30EC_U+30A4_U+30E4_U+30FC 1
 62
   179
420
  2234388
370
    25
  0
HATCH
  5
53
330
1F
100
AcDbEntity
  8
_U+30EC_U+30A4_U+30E4_U+30FC 1
 62
   253
420
 10066329
100
AcDbHatch
 10
0.0
 20
0.0
 30
0.0
210
0.0
220
0.0
230
1.0
  2
SOLID
 70
     1
 71
     0
 91
        1
 92
        1
 93
       16
 72
     1
 10
99.35033608627339
 20
-109.2104044171418
 11
99.98529828249586
 21
-109.2104044171418
 72
     1
 10
99.98529828249586
 20
-109.2104044171418
 11
100.1440860860749
 21
-140.8547827425641
 72
     1
 10
100.1440860860749
 20
-140.8547827425641
 11
99.66797467948035
 21
-140.8547827425641
 72
     1
 10
99.66797467948035
 20
-140.8547827425641
 11
99.56221190440081
 21
-127.2552699681863
 72
     1
 10
99.56221190440081
 20
-127.2552699681863
 11
97.81589139339759
 21
-127.1491896904348
 72
     1
 10
97.81589139339759
 20
-127.1491896904348
 11
97.81589139339759
 21
-126.6730455238872
 72
     1
 10
97.81589139339759
 20
-126.6730455238872
 11
99.66797467948035
 21
-126.6730455238872
 72
     1
 10
99.66797467948035
 20
-126.6730455238872
 11
99.66797467948035
 21
-125.1386033020488
 72
     1
 10
99.66797467948035
 20
-125.1386033020488
 11
89.34922494273358
 21
-126.1438788573529
 72
     1
 10
89.34922494273358
 20
-126.1438788573529
 11
89.5080454942373
 21
-132.9172827445485
 72
     1
 10
89.5080454942373
 20
-132.9172827445485
 11
90.7248818520821
 21
-132.8642249667838
 72
     1
 10
90.7248818520821
 20
-132.8642249667838
 11
90.7248818520821
 21
-133.4464494110829
 72
     1
 10
90.7248818520821
 20
-133.4464494110829
 11
88.87279856599935
 21
-133.4464494110829
 72
     1
 10
88.87279856599935
 20
-133.4464494110829
 11
88.76700275558589
 21
-125.6677699685832
 72
     1
 10
88.76700275558589
 20
-125.6677699685832
 11
99.50915412797664
 21
-124.5563788577497
 72
     1
 10
99.50915412797664
 20
-124.5563788577497
 11
99.35033608627339
 21
-109.2104044171418
 97
        0
 75
     2
 76
     1
 98
        0
  0
POLYLINE
  5
55
330
1F
100
AcDbEntity
  8
_U+30EC_U+30A4_U+30E4_U+30FC 1
 62
   179
420
  2234388
370
     9
100
AcDb2dPolyline
 66
     1
 10
0.0
 20
0.0
 30
0.0
  0
VERTEX
  5
56
330
55
100
AcDbEntity
  8
_U+30EC_U+30A4_U+30E4_U+30FC 1
 62
   179
420
  2234388
370
     9
100
AcDbVertex
100
AcDb2dVertex
 10
76.06700275876089
 20
-109.1573466393775
 30
0.0
  0
VERTEX
  5
57
330
55
100
AcDbEntity
  8
_U+30EC_U+30A4_U+30E4_U+30FC 1
 62
   179
420
  2234388
370
     9
100
AcDbVertex
100
AcDb2dVertex
 10
98.97998747481014
 20
-109.1573466393775
 30
0.0
  0
SEQEND
  5
58
330
55
100
AcDbEntity
  8
_U+30EC_U+30A4_U+30E4_U+30FC 1
 62
   179
420
  2234388
370
     9
  0
POLYLINE
  5
59
330
1F
100
AcDbEntity
  8
_U+30EC_U+30A4_U+30E4_U+30FC 1
 62
   179
420
  2234388
370
     9
100
AcDb2dPolyline
 66
     1
 10
0.0
 20
0.0
 30
0.0
  0
VERTEX
  5
5A
330
59
100
AcDbEntity
  8
_U+30EC_U+30A4_U+30E4_U+30FC 1
 62
   179
420
  2234388
370
     9
100
AcDbVertex
100
AcDb2dVertex
 10
82.68158609044058
 20
-109.1046063616127
 30
0.0
  0
VERTEX
  5
5B
330
59
100
AcDbEntity
  8
_U+30EC_U+30A4_U+30E4_U+30FC 1
 62
   179
420
  2234388
370
     9
100
AcDbVertex
100
AcDb2dVertex
 10
82.68158609044058
 20
-115.8780102488083
 30
0.0
  0
SEQEND
  5
5C
330
59
100
AcDbEntity
  8
_U+30EC_U+30A4_U+30E4_U+30FC 1
 62
   179
420
  2234388
370
     9
  0
POLYLINE
  5
5D
330
1F
100
AcDbEntity
  8
_U+30EC_U+30A4_U+30E4_U+30FC 1
 62
   179
420
  2234388
370
     9
100
AcDb2dPolyline
 66
     1
 10
0.0
 20
0.0
 30
0.0
  0
VERTEX
  5
5E
330
5D
100
AcDbEntity
  8
_U+30EC_U+30A4_U+30E4_U+30FC 1
 62
   179
420
  2234388
370
     9
100
AcDbVertex
100
AcDb2dVertex
 10
82.73464177815232
 20
-118.259260248213
 30
0.0
  0
VERTEX
  5
5F
330
5D
100
AcDbEntity
  8
_U+30EC_U+30A4_U+30E4_U+30FC 1
 62
   179
420
  2234388
370
     9
100
AcDbVertex
100
AcDb2dVertex
 10
82.73464177815232
 20
-129.0542955232922
 30
0.0
  0
SEQEND
  5
60
330
5D
100
AcDbEntity
  8
_U+30EC_U+30A4_U+30E4_U+30FC 1
 62
   179
420
  2234388
370
     9
  0
POLYLINE
  5
61
330
1F
100
AcDbEntity
  8
_U+30EC_U+30A4_U+30E4_U+30FC 1
 62
   179
420
  2234388
370
     9
100
AcDb2dPolyline
 66
     1
 10
0.0
 20
0.0
 30
0.0
  0
VERTEX
  5
62
330
61
100
AcDbEntity
  8
_U+30EC_U+30A4_U+30E4_U+30FC 1
 62
   179
420
  2234388
370
     9
100
AcDbVertex
100
AcDb2dVertex
 10
82.1524194239062
 20
-124.6094366355144
 30
0.0
  0
VERTEX
  5
63
330
61
100
AcDbEntity
  8
_U+30EC_U+30A4_U+30E4_U+30FC 1
 62
   179
420
  2234388
370
     9
100
AcDbVertex
100
AcDb2dVertex
 10
97.6040483432466
 20
-124.6094366355144
 30
0.0
  0
SEQEND
  5
64
330
61
100
AcDbEntity
  8
_U+30EC_U+30A4_U+30E4_U+30FC 1
 62
   179
420
  2234388
370
     9
  0
POLYLINE
  5
65
330
1F
100
AcDbEntity
  8
_U+30EC_U+30A4_U+30E4_U+30FC 1
 62
   179
420
  2234388
370
     9
100
AcDb2dPolyline
 66
     1
 10
0.0
 20
0.0
 30
0.0
  0
VERTEX
  5
66
330
65
100
AcDbEntity
  8
_U+30EC_U+30A4_U+30E4_U+30FC 1
 62
   179
420
  2234388
370
     9
100
AcDbVertex
100
AcDb2dVertex
 10
82.1524194239062
 20
-125.6677699685832
 30
0.0
  0
VERTEX
  5
67
330
65
100
AcDbEntity
  8
_U+30EC_U+30A4_U+30E4_U+30FC 1
 62
   179
420
  2234388
370
     9
100
AcDbVertex
100
AcDb2dVertex
 10
88.39665441148013
 20
-125.6677699685832
 30
0.0
  0
SEQEND
  5
68
330
65
100
AcDbEntity
  8
_U+30EC_U+30A4_U+30E4_U+30FC 1
 62
   179
420
  2234388
370
     9
  0
POLYLINE
  5
69
330
1F
100
AcDbEntity
  8
_U+30EC_U+30A4_U+30E4_U+30FC 1
 62
   179
420
  2234388
370
     9
100
AcDb2dPolyline
 66
     1
 10
0.0
 20
0.0
 30
0.0
  0
VERTEX
  5
6A
330
69
100
AcDbEntity
  8
_U+30EC_U+30A4_U+30E4_U+30FC 1
 62
   179
420
  2234388
370
     9
100
AcDbVertex
100
AcDb2dVertex
 10
82.41700275717339
 20
-133.6579749665854
 30
0.0
  0
VERTEX
  5
6B
330
69
100
AcDbEntity
  8
_U+30EC_U+30A4_U+30E4_U+30FC 1
 62
   179
420
  2234388
370
     9
100
AcDbVertex
100
AcDb2dVertex
 10
88.6082152394161
 20
-133.6579749665854
 30
0.0
  0
SEQEND
  5
6C
330
69
100
AcDbEntity
  8
_U+30EC_U+30A4_U+30E4_U+30FC 1
 62
   179
420
  2234388
370
     9
  0
POLYLINE
  5
6D
330
1F
100
AcDbEntity
  8
_U+30EC_U+30A4_U+30E4_U+30FC 1
 62
   179
420
  2234388
370
     9
100
AcDb2dPolyline
 66
     1
 10
0.0
 20
0.0
 30
0.0
  0
VERTEX
  5
6E
330
6D
100
AcDbEntity
  8
_U+30EC_U+30A4_U+30E4_U+30FC 1
 62
   179
420
  2234388
370
     9
100
AcDbVertex
100
AcDb2dVertex
 10
82.89346232965603
 20
-133.6052699665985
 30
0.0
  0
VERTEX
  5
6F
330
6D
100
AcDbEntity
  8
_U+30EC_U+30A4_U+30E4_U+30FC 1
 62
   179
420
  2234388
370
     9
100
AcDbVertex
100
AcDb2dVertex
 10
82.89346232965603
 20
-131.4355455226969
 30
0.0
  0
SEQEND
  5
70
330
6D
100
AcDbEntity
  8
_U+30EC_U+30A4_U+30E4_U+30FC 1
 62
   179
420
  2234388
370
     9
  0
POLYLINE
  5
71
330
1F
100
AcDbEntity
  8
_U+30EC_U+30A4_U+30E4_U+30FC 1
 62
   179
420
  2234388
370
     9
100
AcDb2dPolyline
 66
     1
 10
0.0
 20
0.0
 30
0.0
  0
VERTEX
  5
72
330
71
100
AcDbEntity
  8
_U+30EC_U+30A4_U+30E4_U+30FC 1
 62
   179
420
  2234388
370
     9
100
AcDbVertex
100
AcDb2dVertex
 10
76.80804581824128
 20
-109.1046063616127
 30
0.0
  0
VERTEX
  5
73
330
71
100
AcDbEntity
  8
_U+30EC_U+30A4_U+30E4_U+30FC 1
 62
   179
420
  2234388
370
     9
100
AcDbVertex
100
AcDb2dVertex
 10
76.80804581824128
 20
-123.3392249691651
 30
0.0
  0
SEQEND
  5
74
330
71
100
AcDbEntity
  8
_U+30EC_U+30A4_U+30E4_U+30FC 1
 62
   179
420
  2234388
370
     9
  0
POLYLINE
  5
75
330
1F
100
AcDbEntity
  8
_U+30EC_U+30A4_U+30E4_U+30FC 1
 62
   179
420
  2234388
370
     9
100
AcDb2dPolyline
 66
     1
 10
0.0
 20
0.0
 30
0.0
  0
VERTEX
  5
76
330
75
100
AcDbEntity
  8
_U+30EC_U+30A4_U+30E4_U+30FC 1
 62
   179
420
  2234388
370
     9
100
AcDbVertex
100
AcDb2dVertex
 10
76.96654886975308
 20
-125.7735327463344
 30
0.0
  0
VERTEX
  5
77
330
75
100
AcDbEntity
  8
_U+30EC_U+30A4_U+30E4_U+30FC 1
 62
   179
420
  2234388
370
     9
100
AcDbVertex
100
AcDb2dVertex
 10
76.96654886975308
 20
-141.3839494090985
 30
0.0
  0
SEQEND
  5
78
330
75
100
AcDbEntity
  8
_U+30EC_U+30A4_U+30E4_U+30FC 1
 62
   179
420
  2234388
370
     9
  0
POLYLINE
  5
79
330
1F
100
AcDbEntity
  8
_U+30EC_U+30A4_U+30E4_U+30FC 1
 62
   179
420
  2234388
370
     9
100
AcDb2dPolyline
 66
     1
 10
0.0
 20
0.0
 30
0.0
  0
VERTEX
  5
7A
330
79
100
AcDbEntity
  8
_U+30EC_U+30A4_U+30E4_U+30FC 1
 62
   179
420
  2234388
370
     9
100
AcDbVertex
100
AcDb2dVertex
 10
76.17279889000334
 20
-141.3839494090985
 30
0.0
  0
VERTEX
  5
7B
330
79
100
AcDbEntity
  8
_U+30EC_U+30A4_U+30E4_U+30FC 1
 62
   179
420
  2234388
370
     9
100
AcDbVertex
100
AcDb2dVertex
 10
99.19154830274611
 20
-141.3839494090985
 30
0.0
  0
SEQEND
  5
7C
330
79
100
AcDbEntity
  8
_U+30EC_U+30A4_U+30E4_U+30FC 1
 62
   179
420
  2234388
370
     9
  0
POLYLINE
  5
7D
330
1F
100
AcDbEntity
  8
_U+30EC_U+30A4_U+30E4_U+30FC 1
 62
   179
420
  2234388
370
     9
100
AcDb2dPolyline
 66
     1
 10
0.0
 20
0.0
 30
0.0
  0
VERTEX
  5
7E
330
7D
100
AcDbEntity
  8
_U+30EC_U+30A4_U+30E4_U+30FC 1
 62
   179
420
  2234388
370
     9
100
AcDbVertex
100
AcDb2dVertex
 10
96.65179531198505
 20
-143.1829749642041
 30
0.0
  0
VERTEX
  5
7F
330
7D
100
AcDbEntity
  8
_U+30EC_U+30A4_U+30E4_U+30FC 1
 62
   179
420
  2234388
370
     9
100
AcDbVertex
100
AcDb2dVertex
 10
99.61491941954057
 20
-143.1829749642041
 30
0.0
  0
SEQEND
  5
80
330
7D
100
AcDbEntity
  8
_U+30EC_U+30A4_U+30E4_U+30FC 1
 62
   179
420
  2234388
370
     9
  0
POLYLINE
  5
81
330
1F
100
AcDbEntity
  8
_U+30EC_U+30A4_U+30E4_U+30FC 1
 62
   179
420
  2234388
370
     9
100
AcDb2dPolyline
 66
     1
 10
0.0
 20
0.0
 30
0.0
  0
VERTEX
  5
82
330
81
100
AcDbEntity
  8
_U+30EC_U+30A4_U+30E4_U+30FC 1
 62
   179
420
  2234388
370
     9
100
AcDbVertex
100
AcDb2dVertex
 10
99.61491941954057
 20
-141.6485327423657
 30
0.0
  0
VERTEX
  5
83
330
81
100
AcDbEntity
  8
_U+30EC_U+30A4_U+30E4_U+30FC 1
 62
   179
420
  2234388
370
     9
100
AcDbVertex
100
AcDb2dVertex
 10
99.61491941954057
 20
-143.7651994085032
 30
0.0
  0
SEQEND
  5
84
330
81
100
AcDbEntity
  8
_U+30EC_U+30A4_U+30E4_U+30FC 1
 62
   179
420
  2234388
370
     9
  0
POLYLINE
  5
85
330
1F
100
AcDbEntity
  8
_U+30EC_U+30A4_U+30E4_U+30FC 1
 62
   179
420
  2234388
370
     9
100
AcDb2dPolyline
 66
     1
 10
0.0
 20
0.0
 30
0.0
  0
VERTEX
  5
86
330
85
100
AcDbEntity
  8
_U+30EC_U+30A4_U+30E4_U+30FC 1
 62
   179
420
  2234388
370
     9
100
AcDbVertex
100
AcDb2dVertex
 10
89.08464161615034
 20
-134.1344366331328
 30
0.0
  0
VERTEX
  5
87
330
85
100
AcDbEntity
  8
_U+30EC_U+30A4_U+30E4_U+30FC 1
 62
   179
420
  2234388
370
     9
100
AcDbVertex
100
AcDb2dVertex
 10
89.08464161615034
 20
-146.9401994077094
 30
0.0
  0
SEQEND
  5
88
330
85
100
AcDbEntity
  8
_U+30EC_U+30A4_U+30E4_U+30FC 1
 62
   179
420
  2234388
370
     9
  0
POLYLINE
  5
89
330
1F
100
AcDbEntity
  8
_U+30EC_U+30A4_U+30E4_U+30FC 1
 62
   179
420
  2234388
370
     9
100
AcDb2dPolyline
 66
     1
 10
0.0
 20
0.0
 30
0.0
  0
VERTEX
  5
8A
330
89
100
AcDbEntity
  8
_U+30EC_U+30A4_U+30E4_U+30FC 1
 62
   179
420
  2234388
370
     9
100
AcDbVertex
100
AcDb2dVertex
 10
89.08464161615034
 20
-136.4626288547735
 30
0.0
  0
VERTEX
  5
8B
330
89
100
AcDbEntity
  8
_U+30EC_U+30A4_U+30E4_U+30FC 1
 62
   179
420
  2234388
370
     9
100
AcDbVertex
100
AcDb2dVertex
 10
90.77790435072939
 20
-136.4626288547735
 30
0.0
  0
SEQEND
  5
8C
330
89
100
AcDbEntity
  8
_U+30EC_U+30A4_U+30E4_U+30FC 1
 62
   179
420
  2234388
370
     9
  0
POLYLINE
  5
8D
330
1F
100
AcDbEntity
  8
_U+30EC_U+30A4_U+30E4_U+30FC 1
 62
   179
420
  2234388
370
     9
100
AcDb2dPolyline
 66
     1
 10
0.0
 20
0.0
 30
0.0
  0
VERTEX
  5
8E
330
8D
100
AcDbEntity
  8
_U+30EC_U+30A4_U+30E4_U+30FC 1
 62
   179
420
  2234388
370
     9
100
AcDbVertex
100
AcDb2dVertex
 10
90.77790435072939
 20
-134.1344366331328
 30
0.0
  0
VERTEX
  5
8F
330
8D
100
AcDbEntity
  8
_U+30EC_U+30A4_U+30E4_U+30FC 1
 62
   179
420
  2234388
370
     9
100
AcDbVertex
100
AcDb2dVertex
 10
90.77790435072939
 20
-143.5533563530004
 30
0.0
  0
SEQEND
  5
90
330
8D
100
AcDbEntity
  8
_U+30EC_U+30A4_U+30E4_U+30FC 1
 62
   179
420
  2234388
370
     9
  0
POLYLINE
  5
91
330
1F
100
AcDbEntity
  8
_U+30EC_U+30A4_U+30E4_U+30FC 1
 62
   179
420
  2234388
370
     9
100
AcDb2dPolyline
 66
     1
 10
0.0
 20
0.0
 30
0.0
  0
VERTEX
  5
92
330
91
100
AcDbEntity
  8
_U+30EC_U+30A4_U+30E4_U+30FC 1
 62
   179
420
  2234388
370
     9
100
AcDbVertex
100
AcDb2dVertex
 10
90.77790435072939
 20
-143.2360327419688
 30
0.0
  0
VERTEX
  5
93
330
91
100
AcDbEntity
  8
_U+30EC_U+30A4_U+30E4_U+30FC 1
 62
   179
420
  2234388
370
     9
100
AcDbVertex
100
AcDb2dVertex
 10
93.84714149464884
 20
-143.2360327419688
 30
0.0
  0
SEQEND
  5
94
330
91
100
AcDbEntity
  8
_U+30EC_U+30A4_U+30E4_U+30FC 1
 62
   179
420
  2234388
370
     9
  0
POLYLINE
  5
95
330
1F
100
AcDbEntity
  8
_U+30EC_U+30A4_U+30E4_U+30FC 1
 62
   179
420
  2234388
370
     9
100
AcDb2dPolyline
 66
     1
 10
0.0
 20
0.0
 30
0.0
  0
VERTEX
  5
96
330
95
100
AcDbEntity
  8
_U+30EC_U+30A4_U+30E4_U+30FC 1
 62
   179
420
  2234388
370
     9
100
AcDbVertex
100
AcDb2dVertex
 10
89.08464161615034
 20
-146.1991896856723
 30
0.0
  0
VERTEX
  5
97
330
95
100
AcDbEntity
  8
_U+30EC_U+30A4_U+30E4_U+30FC 1
 62
   179
420
  2234388
370
     9
100
AcDbVertex
100
AcDb2dVertex
 10
92.41846208665305
 20
-146.1991896856723
 30
0.0
  0
SEQEND
  5
98
330
95
100
AcDbEntity
  8
_U+30EC_U+30A4_U+30E4_U+30FC 1
 62
   179
420
  2234388
370
     9
  0
POLYLINE
  5
99
330
1F
100
AcDbEntity
  8
_U+30EC_U+30A4_U+30E4_U+30FC 1
 62
   179
420
  2234388
370
     9
100
AcDb2dPolyline
 66
     1
 10
0.0
 20
0.0
 30
0.0
  0
VERTEX
  5
9A
330
99
100
AcDbEntity
  8
_U+30EC_U+30A4_U+30E4_U+30FC 1
 62
   179
420
  2234388
370
     9
100
AcDbVertex
100
AcDb2dVertex
 10
97.2867247402311
 20
-146.1991896856723
 30
0.0
  0
VERTEX
  5
9B
330
99
100
AcDbEntity
  8
_U+30EC_U+30A4_U+30E4_U+30FC 1
 62
   179
420
  2234388
370
     9
100
AcDbVertex
100
AcDb2dVertex
 10
100.3029041077264
 20
-146.1991896856723
 30
0.0
  0
SEQEND
  5
9C
330
99
100
AcDbEntity
  8
_U+30EC_U+30A4_U+30E4_U+30FC 1
 62
   179
420
  2234388
370
     9
  0
POLYLINE
  5
9D
330
1F
100
AcDbEntity
  8
_U+30EC_U+30A4_U+30E4_U+30FC 1
 62
   179
420
  2234388
370
     9
100
AcDb2dPolyline
 66
     1
 10
0.0
 20
0.0
 30
0.0
  0
VERTEX
  5
9E
330
9D
100
AcDbEntity
  8
_U+30EC_U+30A4_U+30E4_U+30FC 1
 62
   179
420
  2234388
370
     9
100
AcDbVertex
100
AcDb2dVertex
 10
100.3029041077264
 20
-141.6485327423657
 30
0.0
  0
VERTEX
  5
9F
330
9D
100
AcDbEntity
  8
_U+30EC_U+30A4_U+30E4_U+30FC 1
 62
   179
420
  2234388
370
     9
100
AcDbVertex
100
AcDb2dVertex
 10
100.3029041077264
 20
-146.7283563522066
 30
0.0
  0
SEQEND
  5
A0
330
9D
100
AcDbEntity
  8
_U+30EC_U+30A4_U+30E4_U+30FC 1
 62
   179
420
  2234388
370
     9
  0
POLYLINE
  5
A1
330
1F
100
AcDbEntity
  8
_U+30EC_U+30A4_U+30E4_U+30FC 1
 62
   179
420
  2234388
370
     9
100
AcDb2dPolyline
 66
     1
 10
0.0
 20
0.0
 30
0.0
  0
VERTEX
  5
A2
330
A1
100
AcDbEntity
  8
_U+30EC_U+30A4_U+30E4_U+30FC 1
 62
   179
420
  2234388
370
     9
100
AcDbVertex
100
AcDb2dVertex
 10
97.55130806681434
 20
-127.5725583014401
 30
0.0
  0
VERTEX
  5
A3
330
A1
100
AcDbEntity
  8
_U+30EC_U+30A4_U+30E4_U+30FC 1
 62
   179
420
  2234388
370
     9
100
AcDbVertex
100
AcDb2dVertex
 10
97.55130806681434
 20
-130.5887730229082
 30
0.0
  0
VERTEX
  5
A4
330
A1
100
AcDbEntity
  8
_U+30EC_U+30A4_U+30E4_U+30FC 1
 62
   179
420
  2234388
370
     9
100
AcDbVertex
100
AcDb2dVertex
 10
100.2498816090791
 20
-130.5887730229082
 30
0.0
  0
SEQEND
  5
A5
330
A1
100
AcDbEntity
  8
_U+30EC_U+30A4_U+30E4_U+30FC 1
 62
   179
420
  2234388
370
     9
  0
POLYLINE
  5
A6
330
1F
100
AcDbEntity
  8
_U+30EC_U+30A4_U+30E4_U+30FC 1
 62
   179
420
  2234388
370
     9
100
AcDb2dPolyline
 66
     1
 10
0.0
 20
0.0
 30
0.0
  0
VERTEX
  5
A7
330
A6
100
AcDbEntity
  8
_U+30EC_U+30A4_U+30E4_U+30FC 1
 62
   179
420
  2234388
370
     9
100
AcDbVertex
100
AcDb2dVertex
 10
100.5144649356624
 20
-125.1386033020488
 30
0.0
  0
VERTEX
  5
A8
330
A6
100
AcDbEntity
  8
_U+30EC_U+30A4_U+30E4_U+30FC 1
 62
   179
420
  2234388
370
     9
100
AcDbVertex
100
AcDb2dVertex
 10
103.2133207001421
 20
-125.1386033020488
 30
0.0
  0
SEQEND
  5
A9
330
A6
100
AcDbEntity
  8
_U+30EC_U+30A4_U+30E4_U+30FC 1
 62
   179
420
  2234388
370
     9
  0
POLYLINE
  5
AA
330
1F
100
AcDbEntity
  8
_U+30EC_U+30A4_U+30E4_U+30FC 1
 62
   179
420
  2234388
370
     9
100
AcDb2dPolyline
 66
     1
 10
0.0
 20
0.0
 30
0.0
  0
VERTEX
  5
AB
330
AA
100
AcDbEntity
  8
_U+30EC_U+30A4_U+30E4_U+30FC 1
 62
   179
420
  2234388
370
     9
100
AcDbVertex
100
AcDb2dVertex
 10
100.5144649356624
 20
-126.8318660794032
 30
0.0
  0
VERTEX
  5
AC
330
AA
100
AcDbEntity
  8
_U+30EC_U+30A4_U+30E4_U+30FC 1
 62
   179
420
  2234388
370
     9
100
AcDbVertex
100
AcDb2dVertex
 10
103.1602982014949
 20
-126.8318660794032
 30
0.0
  0
SEQEND
  5
AD
330
AA
100
AcDbEntity
  8
_U+30EC_U+30A4_U+30E4_U+30FC 1
 62
   179
420
  2234388
370
     9
  0
POLYLINE
  5
AE
330
1F
100
AcDbEntity
  8
_U+30EC_U+30A4_U+30E4_U+30FC 1
 62
   179
420
  2234388
370
     9
100
AcDb2dPolyline
 66
     1
 10
0.0
 20
0.0
 30
0.0
  0
VERTEX
  5
AF
330
AE
100
AcDbEntity
  8
_U+30EC_U+30A4_U+30E4_U+30FC 1
 62
   179
420
  2234388
370
     9
100
AcDbVertex
100
AcDb2dVertex
 10
102.6311315483284
 20
-127.3610327459375
 30
0.0
  0
VERTEX
  5
B0
330
AE
100
AcDbEntity
  8
_U+30EC_U+30A4_U+30E4_U+30FC 1
 62
   179
420
  2234388
370
     9
100
AcDbVertex
100
AcDb2dVertex
 10
102.6311315483284
 20
-124.5033563577629
 30
0.0
  0
SEQEND
  5
B1
330
AE
100
AcDbEntity
  8
_U+30EC_U+30A4_U+30E4_U+30FC 1
 62
   179
420
  2234388
370
     9
  0
SPLINE
  5
B2
330
1F
100
AcDbEntity
  8
_U+30EC_U+30A4_U+30E4_U+30FC 1
  6
AI-Linetype-1
 62
   179
420
  2234388
370
    25
100
AcDbSpline
210
0.0
220
0.0
230
1.0
 70
     8
 71
     3
 72
     8
 73
     4
 74
     0
 42
0.0000000001
 43
0.0000000001
 12
1.0
 22
0.0
 32
0.0
 13
1.0
 23
0.0
 33
0.0
 40
0.0
 40
0.0
 40
0.0
 40
0.0
 40
1.0
 40
1.0
 40
1.0
 40
1.0
 10
96.59873753556089
 20
-125.7735327463344
 30
0.0
 10
96.59873753556089
 20
-125.7735327463344
 30
0.0
 10
96.81029836349686
 20
-126.4615199683847
 30
0.0
 10
97.49825275340308
 20
-126.5142249683713
 30
0.0
  0
SPLINE
  5
B4
330
1F
100
AcDbEntity
  8
_U+30EC_U+30A4_U+30E4_U+30FC 1
370
     0
100
AcDbSpline
210
0.0
220
0.0
230
1.0
 70
    11
 71
     3
 72
    17
 73
    13
 74
     0
 42
0.0000000001
 43
0.0000000001
 12
1.0
 22
0.0
 32
0.0
 13
1.0
 23
0.0
 33
0.0
 40
0.0
 40
0.0
 40
0.0
 40
0.0
 40
1.0
 40
1.0
 40
1.0
 40
2.0
 40
2.0
 40
2.0
 40
3.0
 40
3.0
 40
3.0
 40
4.0
 40
4.0
 40
4.0
 40
4.0
 10
77.01064609085029
 20
-109.2104044171418
 30
0.0
 10
77.01064609085029
 20
-109.2930602504545
 30
0.0
 10
76.94344192589814
 20
-109.3599116393268
 30
0.0
 10
76.86075275856246
 20
-109.3599116393268
 30
0.0
 10
76.77809498567206
 20
-109.3599116393268
 30
0.0
 10
76.71089082071991
 20
-109.2930602504545
 30
0.0
 10
76.71089082071991
 20
-109.2104044171418
 30
0.0
 10
76.71089082071991
 20
-109.1273605282738
 30
0.0
 10
76.77809498567206
 20
-109.0598388616238
 30
0.0
 10
76.86075275856246
 20
-109.0598388616238
 30
0.0
 10
76.94344192589814
 20
-109.0598388616238
 30
0.0
 10
77.01064609085029
 20
-109.1273605282738
 30
0.0
 10
77.01064609085029
 20
-109.2104044171418
 30
0.0
  0
HATCH
  5
B5
330
1F
100
AcDbEntity
  8
_U+30EC_U+30A4_U+30E4_U+30FC 1
 62
     7
420
 16777215
100
AcDbHatch
 10
0.0
 20
0.0
 30
0.0
210
0.0
220
0.0
230
1.0
  2
SOLID
 70
     1
 71
     0
 91
        1
 92
        1
 93
        1
 72
     4
 94
        3
 73
     0
 74
     1
 95
       17
 96
       13
 40
0.0
 40
0.0
 40
0.0
 40
0.0
 40
1.0
 40
1.0
 40
1.0
 40
2.0
 40
2.0
 40
2.0
 40
3.0
 40
3.0
 40
3.0
 40
4.0
 40
4.0
 40
4.0
 40
4.0
 10
77.01064609085029
 20
-109.2104044171418
 10
77.01064609085029
 20
-109.2930602504545
 10
76.94344192589814
 20
-109.3599116393268
 10
76.86075275856246
 20
-109.3599116393268
 10
76.77809498567206
 20
-109.3599116393268
 10
76.71089082071991
 20
-109.2930602504545
 10
76.71089082071991
 20
-109.2104044171418
 10
76.71089082071991
 20
-109.1273605282738
 10
76.77809498567206
 20
-109.0598388616238
 10
76.86075275856246
 20
-109.0598388616238
 10
76.94344192589814
 20
-109.0598388616238
 10
77.01064609085029
 20
-109.1273605282738
 10
77.01064609085029
 20
-109.2104044171418
 97
        0
 97
        0
 75
     2
 76
     1
 98
        0
  0
SPLINE
  5
B6
330
1F
100
AcDbEntity
  8
_U+30EC_U+30A4_U+30E4_U+30FC 1
370
     0
100
AcDbSpline
210
0.0
220
0.0
230
1.0
 70
    11
 71
     3
 72
    17
 73
    13
 74
     0
 42
0.0000000001
 43
0.0000000001
 12
1.0
 22
0.0
 32
0.0
 13
1.0
 23
0.0
 33
0.0
 40
0.0
 40
0.0
 40
0.0
 40
0.0
 40
1.0
 40
1.0
 40
1.0
 40
2.0
 40
2.0
 40
2.0
 40
3.0
 40
3.0
 40
3.0
 40
4.0
 40
4.0
 40
4.0
 40
4.0
 10
77.11640886592984
 20
-141.3391819091099
 30
0.0
 10
77.11640886592984
 20
-141.4218730202001
 30
0.0
 10
77.0492047009777
 20
-141.4897121868501
 30
0.0
 10
76.96654886975308
 20
-141.4897121868501
 30
0.0
 10
76.8838577607516
 20
-141.4897121868501
 30
0.0
 10
76.81665553635125
 20
-141.4218730202001
 30
0.0
 10
76.81665553635125
 20
-141.3391819091099
 30
0.0
 10
76.81665553635125
 20
-141.2564907980191
 30
0.0
 10
76.8838577607516
 20
-141.1896746869249
 30
0.0
 10
76.96654886975308
 20
-141.1896746869249
 30
0.0
 10
77.0492047009777
 20
-141.1896746869249
 30
0.0
 10
77.11640886592984
 20
-141.2564907980191
 30
0.0
 10
77.11640886592984
 20
-141.3391819091099
 30
0.0
  0
HATCH
  5
B7
330
1F
100
AcDbEntity
  8
_U+30EC_U+30A4_U+30E4_U+30FC 1
 62
     7
420
 16777215
100
AcDbHatch
 10
0.0
 20
0.0
 30
0.0
210
0.0
220
0.0
230
1.0
  2
SOLID
 70
     1
 71
     0
 91
        1
 92
        1
 93
        1
 72
     4
 94
        3
 73
     0
 74
     1
 95
       17
 96
       13
 40
0.0
 40
0.0
 40
0.0
 40
0.0
 40
1.0
 40
1.0
 40
1.0
 40
2.0
 40
2.0
 40
2.0
 40
3.0
 40
3.0
 40
3.0
 40
4.0
 40
4.0
 40
4.0
 40
4.0
 10
77.11640886592984
 20
-141.3391819091099
 10
77.11640886592984
 20
-141.4218730202001
 10
77.0492047009777
 20
-141.4897121868501
 10
76.96654886975308
 20
-141.4897121868501
 10
76.8838577607516
 20
-141.4897121868501
 10
76.81665553635125
 20
-141.4218730202001
 10
76.81665553635125
 20
-141.3391819091099
 10
76.81665553635125
 20
-141.2564907980191
 10
76.8838577607516
 20
-141.1896746869249
 10
76.96654886975308
 20
-141.1896746869249
 10
77.0492047009777
 20
-141.1896746869249
 10
77.11640886592984
 20
-141.2564907980191
 10
77.11640886592984
 20
-141.3391819091099
 97
        0
 97
        0
 75
     2
 76
     1
 98
        0
  0
SPLINE
  5
B8
330
1F
100
AcDbEntity
  8
_U+30EC_U+30A4_U+30E4_U+30FC 1
370
     0
100
AcDbSpline
210
0.0
220
0.0
230
1.0
 70
    11
 71
     3
 72
    17
 73
    13
 74
     0
 42
0.0000000001
 43
0.0000000001
 12
1.0
 22
0.0
 32
0.0
 13
1.0
 23
0.0
 33
0.0
 40
0.0
 40
0.0
 40
0.0
 40
0.0
 40
1.0
 40
1.0
 40
1.0
 40
2.0
 40
2.0
 40
2.0
 40
3.0
 40
3.0
 40
3.0
 40
4.0
 40
4.0
 40
4.0
 40
4.0
 10
102.7809915445051
 20
-126.840156357179
 30
0.0
 10
102.7809915445051
 20
-126.9228474682692
 30
0.0
 10
102.713787379553
 20
-126.9906866349191
 30
0.0
 10
102.6311315483284
 20
-126.9906866349191
 30
0.0
 10
102.5484404393269
 20
-126.9906866349191
 30
0.0
 10
102.4812388632684
 20
-126.9228474682692
 30
0.0
 10
102.4812388632684
 20
-126.840156357179
 30
0.0
 10
102.4812388632684
 20
-126.7574652460884
 30
0.0
 10
102.5484404393269
 20
-126.6902963572162
 30
0.0
 10
102.6311315483284
 20
-126.6902963572162
 30
0.0
 10
102.713787379553
 20
-126.6902963572162
 30
0.0
 10
102.7809915445051
 20
-126.7574652460884
 30
0.0
 10
102.7809915445051
 20
-126.840156357179
 30
0.0
  0
HATCH
  5
B9
330
1F
100
AcDbEntity
  8
_U+30EC_U+30A4_U+30E4_U+30FC 1
 62
     7
420
 16777215
100
AcDbHatch
 10
0.0
 20
0.0
 30
0.0
210
0.0
220
0.0
230
1.0
  2
SOLID
 70
     1
 71
     0
 91
        1
 92
        1
 93
        1
 72
     4
 94
        3
 73
     0
 74
     1
 95
       17
 96
       13
 40
0.0
 40
0.0
 40
0.0
 40
0.0
 40
1.0
 40
1.0
 40
1.0
 40
2.0
 40
2.0
 40
2.0
 40
3.0
 40
3.0
 40
3.0
 40
4.0
 40
4.0
 40
4.0
 40
4.0
 10
102.7809915445051
 20
-126.840156357179
 10
102.7809915445051
 20
-126.9228474682692
 10
102.713787379553
 20
-126.9906866349191
 10
102.6311315483284
 20
-126.9906866349191
 10
102.5484404393269
 20
-126.9906866349191
 10
102.4812388632684
 20
-126.9228474682692
 10
102.4812388632684
 20
-126.840156357179
 10
102.4812388632684
 20
-126.7574652460884
 10
102.5484404393269
 20
-126.6902963572162
 10
102.6311315483284
 20
-126.6902963572162
 10
102.713787379553
 20
-126.6902963572162
 10
102.7809915445051
 20
-126.7574652460884
 10
102.7809915445051
 20
-126.840156357179
 97
        0
 97
        0
 75
     2
 76
     1
 98
        0
  0
SPLINE
  5
BA
330
1F
100
AcDbEntity
  8
_U+30EC_U+30A4_U+30E4_U+30FC 1
370
     0
100
AcDbSpline
210
0.0
220
0.0
230
1.0
 70
    11
 71
     3
 72
    17
 73
    13
 74
     0
 42
0.0000000001
 43
0.0000000001
 12
1.0
 22
0.0
 32
0.0
 13
1.0
 23
0.0
 33
0.0
 40
0.0
 40
0.0
 40
0.0
 40
0.0
 40
1.0
 40
1.0
 40
1.0
 40
2.0
 40
2.0
 40
2.0
 40
3.0
 40
3.0
 40
3.0
 40
4.0
 40
4.0
 40
4.0
 40
4.0
 10
102.7809915445051
 20
-125.0938358020599
 30
0.0
 10
102.7809915445051
 20
-125.1765269131504
 30
0.0
 10
102.713787379553
 20
-125.2443660798
 30
0.0
 10
102.6311315483284
 20
-125.2443660798
 30
0.0
 10
102.5484404393269
 20
-125.2443660798
 30
0.0
 10
102.4812388632684
 20
-125.1765269131504
 30
0.0
 10
102.4812388632684
 20
-125.0938358020599
 30
0.0
 10
102.4812388632684
 20
-125.0111446909694
 30
0.0
 10
102.5484404393269
 20
-124.9443285798749
 30
0.0
 10
102.6311315483284
 20
-124.9443285798749
 30
0.0
 10
102.713787379553
 20
-124.9443285798749
 30
0.0
 10
102.7809915445051
 20
-125.0111446909694
 30
0.0
 10
102.7809915445051
 20
-125.0938358020599
 30
0.0
  0
HATCH
  5
BB
330
1F
100
AcDbEntity
  8
_U+30EC_U+30A4_U+30E4_U+30FC 1
 62
     7
420
 16777215
100
AcDbHatch
 10
0.0
 20
0.0
 30
0.0
210
0.0
220
0.0
230
1.0
  2
SOLID
 70
     1
 71
     0
 91
        1
 92
        1
 93
        1
 72
     4
 94
        3
 73
     0
 74
     1
 95
       17
 96
       13
 40
0.0
 40
0.0
 40
0.0
 40
0.0
 40
1.0
 40
1.0
 40
1.0
 40
2.0
 40
2.0
 40
2.0
 40
3.0
 40
3.0
 40
3.0
 40
4.0
 40
4.0
 40
4.0
 40
4.0
 10
102.7809915445051
 20
-125.0938358020599
 10
102.7809915445051
 20
-125.1765269131504
 10
102.713787379553
 20
-125.2443660798
 10
102.6311315483284
 20
-125.2443660798
 10
102.5484404393269
 20
-125.2443660798
 10
102.4812388632684
 20
-125.1765269131504
 10
102.4812388632684
 20
-125.0938358020599
 10
102.4812388632684
 20
-125.0111446909694
 10
102.5484404393269
 20
-124.9443285798749
 10
102.6311315483284
 20
-124.9443285798749
 10
102.713787379553
 20
-124.9443285798749
 10
102.7809915445051
 20
-125.0111446909694
 10
102.7809915445051
 20
-125.0938358020599
 97
        0
 97
        0
 75
     2
 76
     1
 98
        0
  0
SPLINE
  5
BC
330
1F
100
AcDbEntity
  8
_U+30EC_U+30A4_U+30E4_U+30FC 1
370
     0
100
AcDbSpline
210
0.0
220
0.0
230
1.0
 70
    11
 71
     3
 72
    17
 73
    13
 74
     0
 42
0.0000000001
 43
0.0000000001
 12
1.0
 22
0.0
 32
0.0
 13
1.0
 23
0.0
 33
0.0
 40
0.0
 40
0.0
 40
0.0
 40
0.0
 40
1.0
 40
1.0
 40
1.0
 40
2.0
 40
2.0
 40
2.0
 40
3.0
 40
3.0
 40
3.0
 40
4.0
 40
4.0
 40
4.0
 40
4.0
 10
100.2850182748494
 20
-130.5887730229082
 30
0.0
 10
100.2850182748494
 20
-130.6714288562209
 30
0.0
 10
100.2181694193901
 20
-130.738633022871
 30
0.0
 10
100.1354757786645
 20
-130.738633022871
 30
0.0
 10
100.0528199474399
 20
-130.738633022871
 30
0.0
 10
99.98529828249586
 20
-130.6714288562209
 30
0.0
 10
99.98529828249586
 20
-130.5887730229082
 30
0.0
 10
99.98529828249586
 20
-130.5053763562625
 30
0.0
 10
100.0528199474399
 20
-130.4385602451683
 30
0.0
 10
100.1354757786645
 20
-130.4385602451683
 30
0.0
 10
100.2181694193901
 20
-130.4385602451683
 30
0.0
 10
100.2850182748494
 20
-130.5053763562625
 30
0.0
 10
100.2850182748494
 20
-130.5887730229082
 30
0.0
  0
HATCH
  5
BD
330
1F
100
AcDbEntity
  8
_U+30EC_U+30A4_U+30E4_U+30FC 1
 62
     7
420
 16777215
100
AcDbHatch
 10
0.0
 20
0.0
 30
0.0
210
0.0
220
0.0
230
1.0
  2
SOLID
 70
     1
 71
     0
 91
        1
 92
        1
 93
        1
 72
     4
 94
        3
 73
     0
 74
     1
 95
       17
 96
       13
 40
0.0
 40
0.0
 40
0.0
 40
0.0
 40
1.0
 40
1.0
 40
1.0
 40
2.0
 40
2.0
 40
2.0
 40
3.0
 40
3.0
 40
3.0
 40
4.0
 40
4.0
 40
4.0
 40
4.0
 10
100.2850182748494
 20
-130.5887730229082
 10
100.2850182748494
 20
-130.6714288562209
 10
100.2181694193901
 20
-130.738633022871
 10
100.1354757786645
 20
-130.738633022871
 10
100.0528199474399
 20
-130.738633022871
 10
99.98529828249586
 20
-130.6714288562209
 10
99.98529828249586
 20
-130.5887730229082
 10
99.98529828249586
 20
-130.5053763562625
 10
100.0528199474399
 20
-130.4385602451683
 10
100.1354757786645
 20
-130.4385602451683
 10
100.2181694193901
 20
-130.4385602451683
 10
100.2850182748494
 20
-130.5053763562625
 10
100.2850182748494
 20
-130.5887730229082
 97
        0
 97
        0
 75
     2
 76
     1
 98
        0
  0
SPLINE
  5
BE
330
1F
100
AcDbEntity
  8
_U+30EC_U+30A4_U+30E4_U+30FC 1
370
     0
100
AcDbSpline
210
0.0
220
0.0
230
1.0
 70
    11
 71
     3
 72
    17
 73
    13
 74
     0
 42
0.0000000001
 43
0.0000000001
 12
1.0
 22
0.0
 32
0.0
 13
1.0
 23
0.0
 33
0.0
 40
0.0
 40
0.0
 40
0.0
 40
0.0
 40
1.0
 40
1.0
 40
1.0
 40
2.0
 40
2.0
 40
2.0
 40
3.0
 40
3.0
 40
3.0
 40
4.0
 40
4.0
 40
4.0
 40
4.0
 10
99.75585162168287
 20
-130.5887730229082
 30
0.0
 10
99.75585162168287
 20
-130.6714288562209
 30
0.0
 10
99.68900275285573
 20
-130.738633022871
 30
0.0
 10
99.60630912549802
 20
-130.738633022871
 30
0.0
 10
99.5236532942734
 20
-130.738633022871
 30
0.0
 10
99.45613162932936
 20
-130.6714288562209
 30
0.0
 10
99.45613162932936
 20
-130.5887730229082
 30
0.0
 10
99.45613162932936
 20
-130.5053763562625
 30
0.0
 10
99.5236532942734
 20
-130.4385602451683
 30
0.0
 10
99.60630912549802
 20
-130.4385602451683
 30
0.0
 10
99.68900275285573
 20
-130.4385602451683
 30
0.0
 10
99.75585162168287
 20
-130.5053763562625
 30
0.0
 10
99.75585162168287
 20
-130.5887730229082
 30
0.0
  0
HATCH
  5
BF
330
1F
100
AcDbEntity
  8
_U+30EC_U+30A4_U+30E4_U+30FC 1
 62
     7
420
 16777215
100
AcDbHatch
 10
0.0
 20
0.0
 30
0.0
210
0.0
220
0.0
230
1.0
  2
SOLID
 70
     1
 71
     0
 91
        1
 92
        1
 93
        1
 72
     4
 94
        3
 73
     0
 74
     1
 95
       17
 96
       13
 40
0.0
 40
0.0
 40
0.0
 40
0.0
 40
1.0
 40
1.0
 40
1.0
 40
2.0
 40
2.0
 40
2.0
 40
3.0
 40
3.0
 40
3.0
 40
4.0
 40
4.0
 40
4.0
 40
4.0
 10
99.75585162168287
 20
-130.5887730229082
 10
99.75585162168287
 20
-130.6714288562209
 10
99.68900275285573
 20
-130.738633022871
 10
99.60630912549802
 20
-130.738633022871
 10
99.5236532942734
 20
-130.738633022871
 10
99.45613162932936
 20
-130.6714288562209
 10
99.45613162932936
 20
-130.5887730229082
 10
99.45613162932936
 20
-130.5053763562625
 10
99.5236532942734
 20
-130.4385602451683
 10
99.60630912549802
 20
-130.4385602451683
 10
99.68900275285573
 20
-130.4385602451683
 10
99.75585162168287
 20
-130.5053763562625
 10
99.75585162168287
 20
-130.5887730229082
 97
        0
 97
        0
 75
     2
 76
     1
 98
        0
  0
SPLINE
  5
C0
330
1F
100
AcDbEntity
  8
_U+30EC_U+30A4_U+30E4_U+30FC 1
370
     0
100
AcDbSpline
210
0.0
220
0.0
230
1.0
 70
    11
 71
     3
 72
    17
 73
    13
 74
     0
 42
0.0000000001
 43
0.0000000001
 12
1.0
 22
0.0
 32
0.0
 13
1.0
 23
0.0
 33
0.0
 40
0.0
 40
0.0
 40
0.0
 40
0.0
 40
1.0
 40
1.0
 40
1.0
 40
2.0
 40
2.0
 40
2.0
 40
3.0
 40
3.0
 40
3.0
 40
4.0
 40
4.0
 40
4.0
 40
4.0
 10
97.75422583941526
 20
-130.5887730229082
 30
0.0
 10
97.75422583941526
 20
-130.6714288562209
 30
0.0
 10
97.68740973000877
 20
-130.738633022871
 30
0.0
 10
97.6047186210073
 20
-130.738633022871
 30
0.0
 10
97.5220275120058
 20
-130.738633022871
 30
0.0
 10
97.45450830896964
 20
-130.6714288562209
 30
0.0
 10
97.45450830896964
 20
-130.5887730229082
 30
0.0
 10
97.45450830896964
 20
-130.5053763562625
 30
0.0
 10
97.5220275120058
 20
-130.4385602451683
 30
0.0
 10
97.6047186210073
 20
-130.4385602451683
 30
0.0
 10
97.68740973000877
 20
-130.4385602451683
 30
0.0
 10
97.75422583941526
 20
-130.5053763562625
 30
0.0
 10
97.75422583941526
 20
-130.5887730229082
 30
0.0
  0
HATCH
  5
C1
330
1F
100
AcDbEntity
  8
_U+30EC_U+30A4_U+30E4_U+30FC 1
 62
     7
420
 16777215
100
AcDbHatch
 10
0.0
 20
0.0
 30
0.0
210
0.0
220
0.0
230
1.0
  2
SOLID
 70
     1
 71
     0
 91
        1
 92
        1
 93
        1
 72
     4
 94
        3
 73
     0
 74
     1
 95
       17
 96
       13
 40
0.0
 40
0.0
 40
0.0
 40
0.0
 40
1.0
 40
1.0
 40
1.0
 40
2.0
 40
2.0
 40
2.0
 40
3.0
 40
3.0
 40
3.0
 40
4.0
 40
4.0
 40
4.0
 40
4.0
 10
97.75422583941526
 20
-130.5887730229082
 10
97.75422583941526
 20
-130.6714288562209
 10
97.68740973000877
 20
-130.738633022871
 10
97.6047186210073
 20
-130.738633022871
 10
97.5220275120058
 20
-130.738633022871
 10
97.45450830896964
 20
-130.6714288562209
 10
97.45450830896964
 20
-130.5887730229082
 10
97.45450830896964
 20
-130.5053763562625
 10
97.5220275120058
 20
-130.4385602451683
 10
97.6047186210073
 20
-130.4385602451683
 10
97.68740973000877
 20
-130.4385602451683
 10
97.75422583941526
 20
-130.5053763562625
 10
97.75422583941526
 20
-130.5887730229082
 97
        0
 97
        0
 75
     2
 76
     1
 98
        0
  0
SPLINE
  5
C2
330
1F
100
AcDbEntity
  8
_U+30EC_U+30A4_U+30E4_U+30FC 1
370
     0
100
AcDbSpline
210
0.0
220
0.0
230
1.0
 70
    11
 71
     3
 72
    17
 73
    13
 74
     0
 42
0.0000000001
 43
0.0000000001
 12
1.0
 22
0.0
 32
0.0
 13
1.0
 23
0.0
 33
0.0
 40
0.0
 40
0.0
 40
0.0
 40
0.0
 40
1.0
 40
1.0
 40
1.0
 40
2.0
 40
2.0
 40
2.0
 40
3.0
 40
3.0
 40
3.0
 40
4.0
 40
4.0
 40
4.0
 40
4.0
 10
90.88366942172338
 20
-136.5156866325375
 30
0.0
 10
90.88366942172338
 20
-136.5983777436284
 30
0.0
 10
90.81685101640244
 20
-136.6652291325001
 30
0.0
 10
90.73415990740095
 20
-136.6652291325001
 30
0.0
 10
90.65146879839946
 20
-136.6652291325001
 30
0.0
 10
90.58394713345542
 20
-136.5983777436284
 30
0.0
 10
90.58394713345542
 20
-136.5156866325375
 30
0.0
 10
90.58394713345542
 20
-136.4319724658922
 30
0.0
 10
90.65146879839946
 20
-136.3651563547974
 30
0.0
 10
90.73415990740095
 20
-136.3651563547974
 30
0.0
 10
90.81685101640244
 20
-136.3651563547974
 30
0.0
 10
90.88366942172338
 20
-136.4319724658922
 30
0.0
 10
90.88366942172338
 20
-136.5156866325375
 30
0.0
  0
HATCH
  5
C3
330
1F
100
AcDbEntity
  8
_U+30EC_U+30A4_U+30E4_U+30FC 1
 62
     7
420
 16777215
100
AcDbHatch
 10
0.0
 20
0.0
 30
0.0
210
0.0
220
0.0
230
1.0
  2
SOLID
 70
     1
 71
     0
 91
        1
 92
        1
 93
        1
 72
     4
 94
        3
 73
     0
 74
     1
 95
       17
 96
       13
 40
0.0
 40
0.0
 40
0.0
 40
0.0
 40
1.0
 40
1.0
 40
1.0
 40
2.0
 40
2.0
 40
2.0
 40
3.0
 40
3.0
 40
3.0
 40
4.0
 40
4.0
 40
4.0
 40
4.0
 10
90.88366942172338
 20
-136.5156866325375
 10
90.88366942172338
 20
-136.5983777436284
 10
90.81685101640244
 20
-136.6652291325001
 10
90.73415990740095
 20
-136.6652291325001
 10
90.65146879839946
 20
-136.6652291325001
 10
90.58394713345542
 20
-136.5983777436284
 10
90.58394713345542
 20
-136.5156866325375
 10
90.58394713345542
 20
-136.4319724658922
 10
90.65146879839946
 20
-136.3651563547974
 10
90.73415990740095
 20
-136.3651563547974
 10
90.81685101640244
 20
-136.3651563547974
 10
90.88366942172338
 20
-136.4319724658922
 10
90.88366942172338
 20
-136.5156866325375
 97
        0
 97
        0
 75
     2
 76
     1
 98
        0
  0
SPLINE
  5
C4
330
1F
100
AcDbEntity
  8
_U+30EC_U+30A4_U+30E4_U+30FC 1
370
     0
100
AcDbSpline
210
0.0
220
0.0
230
1.0
 70
    11
 71
     3
 72
    17
 73
    13
 74
     0
 42
0.0000000001
 43
0.0000000001
 12
1.0
 22
0.0
 32
0.0
 13
1.0
 23
0.0
 33
0.0
 40
0.0
 40
0.0
 40
0.0
 40
0.0
 40
1.0
 40
1.0
 40
1.0
 40
2.0
 40
2.0
 40
2.0
 40
3.0
 40
3.0
 40
3.0
 40
4.0
 40
4.0
 40
4.0
 40
4.0
 10
90.88366942172338
 20
-141.3839494090985
 30
0.0
 10
90.88366942172338
 20
-141.4666405201887
 30
0.0
 10
90.81685101640244
 20
-141.533491909061
 30
0.0
 10
90.73415990740095
 20
-141.533491909061
 30
0.0
 10
90.65146879839946
 20
-141.533491909061
 30
0.0
 10
90.58394713345542
 20
-141.4666405201887
 30
0.0
 10
90.58394713345542
 20
-141.3839494090985
 30
0.0
 10
90.58394713345542
 20
-141.3002352424525
 30
0.0
 10
90.65146879839946
 20
-141.2334191313583
 30
0.0
 10
90.73415990740095
 20
-141.2334191313583
 30
0.0
 10
90.81685101640244
 20
-141.2334191313583
 30
0.0
 10
90.88366942172338
 20
-141.3002352424525
 30
0.0
 10
90.88366942172338
 20
-141.3839494090985
 30
0.0
  0
HATCH
  5
C5
330
1F
100
AcDbEntity
  8
_U+30EC_U+30A4_U+30E4_U+30FC 1
 62
     7
420
 16777215
100
AcDbHatch
 10
0.0
 20
0.0
 30
0.0
210
0.0
220
0.0
230
1.0
  2
SOLID
 70
     1
 71
     0
 91
        1
 92
        1
 93
        1
 72
     4
 94
        3
 73
     0
 74
     1
 95
       17
 96
       13
 40
0.0
 40
0.0
 40
0.0
 40
0.0
 40
1.0
 40
1.0
 40
1.0
 40
2.0
 40
2.0
 40
2.0
 40
3.0
 40
3.0
 40
3.0
 40
4.0
 40
4.0
 40
4.0
 40
4.0
 10
90.88366942172338
 20
-141.3839494090985
 10
90.88366942172338
 20
-141.4666405201887
 10
90.81685101640244
 20
-141.533491909061
 10
90.73415990740095
 20
-141.533491909061
 10
90.65146879839946
 20
-141.533491909061
 10
90.58394713345542
 20
-141.4666405201887
 10
90.58394713345542
 20
-141.3839494090985
 10
90.58394713345542
 20
-141.3002352424525
 10
90.65146879839946
 20
-141.2334191313583
 10
90.73415990740095
 20
-141.2334191313583
 10
90.81685101640244
 20
-141.2334191313583
 10
90.88366942172338
 20
-141.3002352424525
 10
90.88366942172338
 20
-141.3839494090985
 97
        0
 97
        0
 75
     2
 76
     1
 98
        0
  0
SPLINE
  5
C6
330
1F
100
AcDbEntity
  8
_U+30EC_U+30A4_U+30E4_U+30FC 1
370
     0
100
AcDbSpline
210
0.0
220
0.0
230
1.0
 70
    11
 71
     3
 72
    17
 73
    13
 74
     0
 42
0.0000000001
 43
0.0000000001
 12
1.0
 22
0.0
 32
0.0
 13
1.0
 23
0.0
 33
0.0
 40
0.0
 40
0.0
 40
0.0
 40
0.0
 40
1.0
 40
1.0
 40
1.0
 40
2.0
 40
2.0
 40
2.0
 40
3.0
 40
3.0
 40
3.0
 40
4.0
 40
4.0
 40
4.0
 40
4.0
 10
99.76481217700982
 20
-143.1829749642041
 30
0.0
 10
99.76481217700982
 20
-143.265666075295
 30
0.0
 10
99.69760801205767
 20
-143.3328702419444
 30
0.0
 10
99.61491941954057
 20
-143.3328702419444
 30
0.0
 10
99.53226107183158
 20
-143.3328702419444
 30
0.0
 10
99.46505690687944
 20
-143.265666075295
 30
0.0
 10
99.46505690687944
 20
-143.1829749642041
 30
0.0
 10
99.46505690687944
 20
-143.0996135753359
 30
0.0
 10
99.53226107183158
 20
-143.032444686464
 30
0.0
 10
99.61491941954057
 20
-143.032444686464
 30
0.0
 10
99.69760801205767
 20
-143.032444686464
 30
0.0
 10
99.76481217700982
 20
-143.0996135753359
 30
0.0
 10
99.76481217700982
 20
-143.1829749642041
 30
0.0
  0
HATCH
  5
C7
330
1F
100
AcDbEntity
  8
_U+30EC_U+30A4_U+30E4_U+30FC 1
 62
     7
420
 16777215
100
AcDbHatch
 10
0.0
 20
0.0
 30
0.0
210
0.0
220
0.0
230
1.0
  2
SOLID
 70
     1
 71
     0
 91
        1
 92
        1
 93
        1
 72
     4
 94
        3
 73
     0
 74
     1
 95
       17
 96
       13
 40
0.0
 40
0.0
 40
0.0
 40
0.0
 40
1.0
 40
1.0
 40
1.0
 40
2.0
 40
2.0
 40
2.0
 40
3.0
 40
3.0
 40
3.0
 40
4.0
 40
4.0
 40
4.0
 40
4.0
 10
99.76481217700982
 20
-143.1829749642041
 10
99.76481217700982
 20
-143.265666075295
 10
99.69760801205767
 20
-143.3328702419444
 10
99.61491941954057
 20
-143.3328702419444
 10
99.53226107183158
 20
-143.3328702419444
 10
99.46505690687944
 20
-143.265666075295
 10
99.46505690687944
 20
-143.1829749642041
 10
99.46505690687944
 20
-143.0996135753359
 10
99.53226107183158
 20
-143.032444686464
 10
99.61491941954057
 20
-143.032444686464
 10
99.69760801205767
 20
-143.032444686464
 10
99.76481217700982
 20
-143.0996135753359
 10
99.76481217700982
 20
-143.1829749642041
 97
        0
 97
        0
 75
     2
 76
     1
 98
        0
  0
SPLINE
  5
C8
330
1F
100
AcDbEntity
  8
_U+30EC_U+30A4_U+30E4_U+30FC 1
370
     0
100
AcDbSpline
210
0.0
220
0.0
230
1.0
 70
    11
 71
     3
 72
    17
 73
    13
 74
     0
 42
0.0000000001
 43
0.0000000001
 12
1.0
 22
0.0
 32
0.0
 13
1.0
 23
0.0
 33
0.0
 40
0.0
 40
0.0
 40
0.0
 40
0.0
 40
1.0
 40
1.0
 40
1.0
 40
2.0
 40
2.0
 40
2.0
 40
3.0
 40
3.0
 40
3.0
 40
4.0
 40
4.0
 40
4.0
 40
4.0
 10
90.9805046233384
 20
-143.1829749642041
 30
0.0
 10
90.9805046233384
 20
-143.265666075295
 30
0.0
 10
90.91365553282702
 20
-143.3328702419444
 30
0.0
 10
90.83096212715354
 20
-143.3328702419444
 30
0.0
 10
90.74830629592894
 20
-143.3328702419444
 30
0.0
 10
90.68078463098489
 20
-143.265666075295
 30
0.0
 10
90.68078463098489
 20
-143.1829749642041
 30
0.0
 10
90.68078463098489
 20
-143.0996135753359
 30
0.0
 10
90.74830629592894
 20
-143.032444686464
 30
0.0
 10
90.83096212715354
 20
-143.032444686464
 30
0.0
 10
90.91365553282702
 20
-143.032444686464
 30
0.0
 10
90.9805046233384
 20
-143.0996135753359
 30
0.0
 10
90.9805046233384
 20
-143.1829749642041
 30
0.0
  0
HATCH
  5
C9
330
1F
100
AcDbEntity
  8
_U+30EC_U+30A4_U+30E4_U+30FC 1
 62
     7
420
 16777215
100
AcDbHatch
 10
0.0
 20
0.0
 30
0.0
210
0.0
220
0.0
230
1.0
  2
SOLID
 70
     1
 71
     0
 91
        1
 92
        1
 93
        1
 72
     4
 94
        3
 73
     0
 74
     1
 95
       17
 96
       13
 40
0.0
 40
0.0
 40
0.0
 40
0.0
 40
1.0
 40
1.0
 40
1.0
 40
2.0
 40
2.0
 40
2.0
 40
3.0
 40
3.0
 40
3.0
 40
4.0
 40
4.0
 40
4.0
 40
4.0
 10
90.9805046233384
 20
-143.1829749642041
 10
90.9805046233384
 20
-143.265666075295
 10
90.91365553282702
 20
-143.3328702419444
 10
90.83096212715354
 20
-143.3328702419444
 10
90.74830629592894
 20
-143.3328702419444
 10
90.68078463098489
 20
-143.265666075295
 10
90.68078463098489
 20
-143.1829749642041
 10
90.68078463098489
 20
-143.0996135753359
 10
90.74830629592894
 20
-143.032444686464
 10
90.83096212715354
 20
-143.032444686464
 10
90.91365553282702
 20
-143.032444686464
 10
90.9805046233384
 20
-143.0996135753359
 10
90.9805046233384
 20
-143.1829749642041
 97
        0
 97
        0
 75
     2
 76
     1
 98
        0
  0
SPLINE
  5
CA
330
1F
100
AcDbEntity
  8
_U+30EC_U+30A4_U+30E4_U+30FC 1
370
     0
100
AcDbSpline
210
0.0
220
0.0
230
1.0
 70
    11
 71
     3
 72
    17
 73
    13
 74
     0
 42
0.0000000001
 43
0.0000000001
 12
1.0
 22
0.0
 32
0.0
 13
1.0
 23
0.0
 33
0.0
 40
0.0
 40
0.0
 40
0.0
 40
0.0
 40
1.0
 40
1.0
 40
1.0
 40
2.0
 40
2.0
 40
2.0
 40
3.0
 40
3.0
 40
3.0
 40
4.0
 40
4.0
 40
4.0
 40
4.0
 10
89.28724188875935
 20
-136.5156866325375
 30
0.0
 10
89.28724188875935
 20
-136.5983777436284
 30
0.0
 10
89.22003772380721
 20
-136.6652291325001
 30
0.0
 10
89.1373818925826
 20
-136.6652291325001
 30
0.0
 10
89.05469078358111
 20
-136.6652291325001
 30
0.0
 10
88.98748886664188
 20
-136.5983777436284
 30
0.0
 10
88.98748886664188
 20
-136.5156866325375
 30
0.0
 10
88.98748886664188
 20
-136.4319724658922
 30
0.0
 10
89.05469078358111
 20
-136.3651563547974
 30
0.0
 10
89.1373818925826
 20
-136.3651563547974
 30
0.0
 10
89.22003772380721
 20
-136.3651563547974
 30
0.0
 10
89.28724188875935
 20
-136.4319724658922
 30
0.0
 10
89.28724188875935
 20
-136.5156866325375
 30
0.0
  0
HATCH
  5
CB
330
1F
100
AcDbEntity
  8
_U+30EC_U+30A4_U+30E4_U+30FC 1
 62
     7
420
 16777215
100
AcDbHatch
 10
0.0
 20
0.0
 30
0.0
210
0.0
220
0.0
230
1.0
  2
SOLID
 70
     1
 71
     0
 91
        1
 92
        1
 93
        1
 72
     4
 94
        3
 73
     0
 74
     1
 95
       17
 96
       13
 40
0.0
 40
0.0
 40
0.0
 40
0.0
 40
1.0
 40
1.0
 40
1.0
 40
2.0
 40
2.0
 40
2.0
 40
3.0
 40
3.0
 40
3.0
 40
4.0
 40
4.0
 40
4.0
 40
4.0
 10
89.28724188875935
 20
-136.5156866325375
 10
89.28724188875935
 20
-136.5983777436284
 10
89.22003772380721
 20
-136.6652291325001
 10
89.1373818925826
 20
-136.6652291325001
 10
89.05469078358111
 20
-136.6652291325001
 10
88.98748886664188
 20
-136.5983777436284
 10
88.98748886664188
 20
-136.5156866325375
 10
88.98748886664188
 20
-136.4319724658922
 10
89.05469078358111
 20
-136.3651563547974
 10
89.1373818925826
 20
-136.3651563547974
 10
89.22003772380721
 20
-136.3651563547974
 10
89.28724188875935
 20
-136.4319724658922
 10
89.28724188875935
 20
-136.5156866325375
 97
        0
 97
        0
 75
     2
 76
     1
 98
        0
  0
SPLINE
  5
CC
330
1F
100
AcDbEntity
  8
_U+30EC_U+30A4_U+30E4_U+30FC 1
370
     0
100
AcDbSpline
210
0.0
220
0.0
230
1.0
 70
    11
 71
     3
 72
    17
 73
    13
 74
     0
 42
0.0000000001
 43
0.0000000001
 12
1.0
 22
0.0
 32
0.0
 13
1.0
 23
0.0
 33
0.0
 40
0.0
 40
0.0
 40
0.0
 40
0.0
 40
1.0
 40
1.0
 40
1.0
 40
2.0
 40
2.0
 40
2.0
 40
3.0
 40
3.0
 40
3.0
 40
4.0
 40
4.0
 40
4.0
 40
4.0
 10
89.28724188875935
 20
-141.3391819091099
 30
0.0
 10
89.28724188875935
 20
-141.4218730202001
 30
0.0
 10
89.22003772380721
 20
-141.4897121868501
 30
0.0
 10
89.1373818925826
 20
-141.4897121868501
 30
0.0
 10
89.05469078358111
 20
-141.4897121868501
 30
0.0
 10
88.98748886664188
 20
-141.4218730202001
 30
0.0
 10
88.98748886664188
 20
-141.3391819091099
 30
0.0
 10
88.98748886664188
 20
-141.2564907980191
 30
0.0
 10
89.05469078358111
 20
-141.1896746869249
 30
0.0
 10
89.1373818925826
 20
-141.1896746869249
 30
0.0
 10
89.22003772380721
 20
-141.1896746869249
 30
0.0
 10
89.28724188875935
 20
-141.2564907980191
 30
0.0
 10
89.28724188875935
 20
-141.3391819091099
 30
0.0
  0
HATCH
  5
CD
330
1F
100
AcDbEntity
  8
_U+30EC_U+30A4_U+30E4_U+30FC 1
 62
     7
420
 16777215
100
AcDbHatch
 10
0.0
 20
0.0
 30
0.0
210
0.0
220
0.0
230
1.0
  2
SOLID
 70
     1
 71
     0
 91
        1
 92
        1
 93
        1
 72
     4
 94
        3
 73
     0
 74
     1
 95
       17
 96
       13
 40
0.0
 40
0.0
 40
0.0
 40
0.0
 40
1.0
 40
1.0
 40
1.0
 40
2.0
 40
2.0
 40
2.0
 40
3.0
 40
3.0
 40
3.0
 40
4.0
 40
4.0
 40
4.0
 40
4.0
 10
89.28724188875935
 20
-141.3391819091099
 10
89.28724188875935
 20
-141.4218730202001
 10
89.22003772380721
 20
-141.4897121868501
 10
89.1373818925826
 20
-141.4897121868501
 10
89.05469078358111
 20
-141.4897121868501
 10
88.98748886664188
 20
-141.4218730202001
 10
88.98748886664188
 20
-141.3391819091099
 10
88.98748886664188
 20
-141.2564907980191
 10
89.05469078358111
 20
-141.1896746869249
 10
89.1373818925826
 20
-141.1896746869249
 10
89.22003772380721
 20
-141.1896746869249
 10
89.28724188875935
 20
-141.2564907980191
 10
89.28724188875935
 20
-141.3391819091099
 97
        0
 97
        0
 75
     2
 76
     1
 98
        0
  0
SPLINE
  5
CE
330
1F
100
AcDbEntity
  8
_U+30EC_U+30A4_U+30E4_U+30FC 1
370
     0
100
AcDbSpline
210
0.0
220
0.0
230
1.0
 70
    11
 71
     3
 72
    17
 73
    13
 74
     0
 42
0.0000000001
 43
0.0000000001
 12
1.0
 22
0.0
 32
0.0
 13
1.0
 23
0.0
 33
0.0
 40
0.0
 40
0.0
 40
0.0
 40
0.0
 40
1.0
 40
1.0
 40
1.0
 40
2.0
 40
2.0
 40
2.0
 40
3.0
 40
3.0
 40
3.0
 40
4.0
 40
4.0
 40
4.0
 40
4.0
 10
89.28724188875935
 20
-146.2074446856702
 30
0.0
 10
89.28724188875935
 20
-146.2901357967611
 30
0.0
 10
89.22003772380721
 20
-146.3579749634104
 30
0.0
 10
89.1373818925826
 20
-146.3579749634104
 30
0.0
 10
89.05469078358111
 20
-146.3579749634104
 30
0.0
 10
88.98748886664188
 20
-146.2901357967611
 30
0.0
 10
88.98748886664188
 20
-146.2074446856702
 30
0.0
 10
88.98748886664188
 20
-146.12475357458
 30
0.0
 10
89.05469078358111
 20
-146.0579374634852
 30
0.0
 10
89.1373818925826
 20
-146.0579374634852
 30
0.0
 10
89.22003772380721
 20
-146.0579374634852
 30
0.0
 10
89.28724188875935
 20
-146.12475357458
 30
0.0
 10
89.28724188875935
 20
-146.2074446856702
 30
0.0
  0
HATCH
  5
CF
330
1F
100
AcDbEntity
  8
_U+30EC_U+30A4_U+30E4_U+30FC 1
 62
     7
420
 16777215
100
AcDbHatch
 10
0.0
 20
0.0
 30
0.0
210
0.0
220
0.0
230
1.0
  2
SOLID
 70
     1
 71
     0
 91
        1
 92
        1
 93
        1
 72
     4
 94
        3
 73
     0
 74
     1
 95
       17
 96
       13
 40
0.0
 40
0.0
 40
0.0
 40
0.0
 40
1.0
 40
1.0
 40
1.0
 40
2.0
 40
2.0
 40
2.0
 40
3.0
 40
3.0
 40
3.0
 40
4.0
 40
4.0
 40
4.0
 40
4.0
 10
89.28724188875935
 20
-146.2074446856702
 10
89.28724188875935
 20
-146.2901357967611
 10
89.22003772380721
 20
-146.3579749634104
 10
89.1373818925826
 20
-146.3579749634104
 10
89.05469078358111
 20
-146.3579749634104
 10
88.98748886664188
 20
-146.2901357967611
 10
88.98748886664188
 20
-146.2074446856702
 10
88.98748886664188
 20
-146.12475357458
 10
89.05469078358111
 20
-146.0579374634852
 10
89.1373818925826
 20
-146.0579374634852
 10
89.22003772380721
 20
-146.0579374634852
 10
89.28724188875935
 20
-146.12475357458
 10
89.28724188875935
 20
-146.2074446856702
 97
        0
 97
        0
 75
     2
 76
     1
 98
        0
  0
SPLINE
  5
D0
330
1F
100
AcDbEntity
  8
_U+30EC_U+30A4_U+30E4_U+30FC 1
370
     0
100
AcDbSpline
210
0.0
220
0.0
230
1.0
 70
    11
 71
     3
 72
    17
 73
    13
 74
     0
 42
0.0000000001
 43
0.0000000001
 12
1.0
 22
0.0
 32
0.0
 13
1.0
 23
0.0
 33
0.0
 40
0.0
 40
0.0
 40
0.0
 40
0.0
 40
1.0
 40
1.0
 40
1.0
 40
2.0
 40
2.0
 40
2.0
 40
3.0
 40
3.0
 40
3.0
 40
4.0
 40
4.0
 40
4.0
 40
4.0
 10
100.4438388263531
 20
-146.2074446856702
 30
0.0
 10
100.4438388263531
 20
-146.2901357967611
 30
0.0
 10
100.3769874391697
 20
-146.3579749634104
 30
0.0
 10
100.2942963301682
 20
-146.3579749634104
 30
0.0
 10
100.2116404989436
 20
-146.3579749634104
 30
0.0
 10
100.1440860860749
 20
-146.2901357967611
 30
0.0
 10
100.1440860860749
 20
-146.2074446856702
 30
0.0
 10
100.1440860860749
 20
-146.12475357458
 30
0.0
 10
100.2116404989436
 20
-146.0579374634852
 30
0.0
 10
100.2942963301682
 20
-146.0579374634852
 30
0.0
 10
100.3769874391697
 20
-146.0579374634852
 30
0.0
 10
100.4438388263531
 20
-146.12475357458
 30
0.0
 10
100.4438388263531
 20
-146.2074446856702
 30
0.0
  0
HATCH
  5
D1
330
1F
100
AcDbEntity
  8
_U+30EC_U+30A4_U+30E4_U+30FC 1
 62
     7
420
 16777215
100
AcDbHatch
 10
0.0
 20
0.0
 30
0.0
210
0.0
220
0.0
230
1.0
  2
SOLID
 70
     1
 71
     0
 91
        1
 92
        1
 93
        1
 72
     4
 94
        3
 73
     0
 74
     1
 95
       17
 96
       13
 40
0.0
 40
0.0
 40
0.0
 40
0.0
 40
1.0
 40
1.0
 40
1.0
 40
2.0
 40
2.0
 40
2.0
 40
3.0
 40
3.0
 40
3.0
 40
4.0
 40
4.0
 40
4.0
 40
4.0
 10
100.4438388263531
 20
-146.2074446856702
 10
100.4438388263531
 20
-146.2901357967611
 10
100.3769874391697
 20
-146.3579749634104
 10
100.2942963301682
 20
-146.3579749634104
 10
100.2116404989436
 20
-146.3579749634104
 10
100.1440860860749
 20
-146.2901357967611
 10
100.1440860860749
 20
-146.2074446856702
 10
100.1440860860749
 20
-146.12475357458
 10
100.2116404989436
 20
-146.0579374634852
 10
100.2942963301682
 20
-146.0579374634852
 10
100.3769874391697
 20
-146.0579374634852
 10
100.4438388263531
 20
-146.12475357458
 10
100.4438388263531
 20
-146.2074446856702
 97
        0
 97
        0
 75
     2
 76
     1
 98
        0
  0
SPLINE
  5
D2
330
1F
100
AcDbEntity
  8
_U+30EC_U+30A4_U+30E4_U+30FC 1
370
     0
100
AcDbSpline
210
0.0
220
0.0
230
1.0
 70
    11
 71
     3
 72
    17
 73
    13
 74
     0
 42
0.0000000001
 43
0.0000000001
 12
1.0
 22
0.0
 32
0.0
 13
1.0
 23
0.0
 33
0.0
 40
0.0
 40
0.0
 40
0.0
 40
0.0
 40
1.0
 40
1.0
 40
1.0
 40
2.0
 40
2.0
 40
2.0
 40
3.0
 40
3.0
 40
3.0
 40
4.0
 40
4.0
 40
4.0
 40
4.0
 10
82.88418427433719
 20
-109.2104044171418
 30
0.0
 10
82.88418427433719
 20
-109.2930602504545
 30
0.0
 10
82.81733288715381
 20
-109.3599116393268
 30
0.0
 10
82.73464177815232
 20
-109.3599116393268
 30
0.0
 10
82.65198594692772
 20
-109.3599116393268
 30
0.0
 10
82.58446428198367
 20
-109.2930602504545
 30
0.0
 10
82.58446428198367
 20
-109.2104044171418
 30
0.0
 10
82.58446428198367
 20
-109.1273605282738
 30
0.0
 10
82.65198594692772
 20
-109.0598388616238
 30
0.0
 10
82.73464177815232
 20
-109.0598388616238
 30
0.0
 10
82.81733288715381
 20
-109.0598388616238
 30
0.0
 10
82.88418427433719
 20
-109.1273605282738
 30
0.0
 10
82.88418427433719
 20
-109.2104044171418
 30
0.0
  0
HATCH
  5
D3
330
1F
100
AcDbEntity
  8
_U+30EC_U+30A4_U+30E4_U+30FC 1
 62
     7
420
 16777215
100
AcDbHatch
 10
0.0
 20
0.0
 30
0.0
210
0.0
220
0.0
230
1.0
  2
SOLID
 70
     1
 71
     0
 91
        1
 92
        1
 93
        1
 72
     4
 94
        3
 73
     0
 74
     1
 95
       17
 96
       13
 40
0.0
 40
0.0
 40
0.0
 40
0.0
 40
1.0
 40
1.0
 40
1.0
 40
2.0
 40
2.0
 40
2.0
 40
3.0
 40
3.0
 40
3.0
 40
4.0
 40
4.0
 40
4.0
 40
4.0
 10
82.88418427433719
 20
-109.2104044171418
 10
82.88418427433719
 20
-109.2930602504545
 10
82.81733288715381
 20
-109.3599116393268
 10
82.73464177815232
 20
-109.3599116393268
 10
82.65198594692772
 20
-109.3599116393268
 10
82.58446428198367
 20
-109.2930602504545
 10
82.58446428198367
 20
-109.2104044171418
 10
82.58446428198367
 20
-109.1273605282738
 10
82.65198594692772
 20
-109.0598388616238
 10
82.73464177815232
 20
-109.0598388616238
 10
82.81733288715381
 20
-109.0598388616238
 10
82.88418427433719
 20
-109.1273605282738
 10
82.88418427433719
 20
-109.2104044171418
 97
        0
 97
        0
 75
     2
 76
     1
 98
        0
  0
SPLINE
  5
D4
330
1F
100
AcDbEntity
  8
_U+30EC_U+30A4_U+30E4_U+30FC 1
370
     0
100
AcDbSpline
210
0.0
220
0.0
230
1.0
 70
    11
 71
     3
 72
    17
 73
    13
 74
     0
 42
0.0000000001
 43
0.0000000001
 12
1.0
 22
0.0
 32
0.0
 13
1.0
 23
0.0
 33
0.0
 40
0.0
 40
0.0
 40
0.0
 40
0.0
 40
1.0
 40
1.0
 40
1.0
 40
2.0
 40
2.0
 40
2.0
 40
3.0
 40
3.0
 40
3.0
 40
4.0
 40
4.0
 40
4.0
 40
4.0
 10
82.88418427433719
 20
-124.6177269132899
 30
0.0
 10
82.88418427433719
 20
-124.7003827466026
 30
0.0
 10
82.81733288715381
 20
-124.7679396910301
 30
0.0
 10
82.73464177815232
 20
-124.7679396910301
 30
0.0
 10
82.65198594692772
 20
-124.7679396910301
 30
0.0
 10
82.58446428198367
 20
-124.7003827466026
 30
0.0
 10
82.58446428198367
 20
-124.6177269132899
 30
0.0
 10
82.58446428198367
 20
-124.5350358021997
 30
0.0
 10
82.65198594692772
 20
-124.4678669133274
 30
0.0
 10
82.73464177815232
 20
-124.4678669133274
 30
0.0
 10
82.81733288715381
 20
-124.4678669133274
 30
0.0
 10
82.88418427433719
 20
-124.5350358021997
 30
0.0
 10
82.88418427433719
 20
-124.6177269132899
 30
0.0
  0
HATCH
  5
D5
330
1F
100
AcDbEntity
  8
_U+30EC_U+30A4_U+30E4_U+30FC 1
 62
     7
420
 16777215
100
AcDbHatch
 10
0.0
 20
0.0
 30
0.0
210
0.0
220
0.0
230
1.0
  2
SOLID
 70
     1
 71
     0
 91
        1
 92
        1
 93
        1
 72
     4
 94
        3
 73
     0
 74
     1
 95
       17
 96
       13
 40
0.0
 40
0.0
 40
0.0
 40
0.0
 40
1.0
 40
1.0
 40
1.0
 40
2.0
 40
2.0
 40
2.0
 40
3.0
 40
3.0
 40
3.0
 40
4.0
 40
4.0
 40
4.0
 40
4.0
 10
82.88418427433719
 20
-124.6177269132899
 10
82.88418427433719
 20
-124.7003827466026
 10
82.81733288715381
 20
-124.7679396910301
 10
82.73464177815232
 20
-124.7679396910301
 10
82.65198594692772
 20
-124.7679396910301
 10
82.58446428198367
 20
-124.7003827466026
 10
82.58446428198367
 20
-124.6177269132899
 10
82.58446428198367
 20
-124.5350358021997
 10
82.65198594692772
 20
-124.4678669133274
 10
82.73464177815232
 20
-124.4678669133274
 10
82.81733288715381
 20
-124.4678669133274
 10
82.88418427433719
 20
-124.5350358021997
 10
82.88418427433719
 20
-124.6177269132899
 97
        0
 97
        0
 75
     2
 76
     1
 98
        0
  0
SPLINE
  5
D6
330
1F
100
AcDbEntity
  8
_U+30EC_U+30A4_U+30E4_U+30FC 1
370
     0
100
AcDbSpline
210
0.0
220
0.0
230
1.0
 70
    11
 71
     3
 72
    17
 73
    13
 74
     0
 42
0.0000000001
 43
0.0000000001
 12
1.0
 22
0.0
 32
0.0
 13
1.0
 23
0.0
 33
0.0
 40
0.0
 40
0.0
 40
0.0
 40
0.0
 40
1.0
 40
1.0
 40
1.0
 40
2.0
 40
2.0
 40
2.0
 40
3.0
 40
3.0
 40
3.0
 40
4.0
 40
4.0
 40
4.0
 40
4.0
 10
82.88418427433719
 20
-125.7204749685697
 30
0.0
 10
82.88418427433719
 20
-125.8031660796603
 30
0.0
 10
82.81733288715381
 20
-125.87037024631
 30
0.0
 10
82.73464177815232
 20
-125.87037024631
 30
0.0
 10
82.65198594692772
 20
-125.87037024631
 30
0.0
 10
82.58446428198367
 20
-125.8031660796603
 30
0.0
 10
82.58446428198367
 20
-125.7204749685697
 30
0.0
 10
82.58446428198367
 20
-125.6371135797018
 30
0.0
 10
82.65198594692772
 20
-125.5699446908296
 30
0.0
 10
82.73464177815232
 20
-125.5699446908296
 30
0.0
 10
82.81733288715381
 20
-125.5699446908296
 30
0.0
 10
82.88418427433719
 20
-125.6371135797018
 30
0.0
 10
82.88418427433719
 20
-125.7204749685697
 30
0.0
  0
HATCH
  5
D7
330
1F
100
AcDbEntity
  8
_U+30EC_U+30A4_U+30E4_U+30FC 1
 62
     7
420
 16777215
100
AcDbHatch
 10
0.0
 20
0.0
 30
0.0
210
0.0
220
0.0
230
1.0
  2
SOLID
 70
     1
 71
     0
 91
        1
 92
        1
 93
        1
 72
     4
 94
        3
 73
     0
 74
     1
 95
       17
 96
       13
 40
0.0
 40
0.0
 40
0.0
 40
0.0
 40
1.0
 40
1.0
 40
1.0
 40
2.0
 40
2.0
 40
2.0
 40
3.0
 40
3.0
 40
3.0
 40
4.0
 40
4.0
 40
4.0
 40
4.0
 10
82.88418427433719
 20
-125.7204749685697
 10
82.88418427433719
 20
-125.8031660796603
 10
82.81733288715381
 20
-125.87037024631
 10
82.73464177815232
 20
-125.87037024631
 10
82.65198594692772
 20
-125.87037024631
 10
82.58446428198367
 20
-125.8031660796603
 10
82.58446428198367
 20
-125.7204749685697
 10
82.58446428198367
 20
-125.6371135797018
 10
82.65198594692772
 20
-125.5699446908296
 10
82.73464177815232
 20
-125.5699446908296
 10
82.81733288715381
 20
-125.5699446908296
 10
82.88418427433719
 20
-125.6371135797018
 10
82.88418427433719
 20
-125.7204749685697
 97
        0
 97
        0
 75
     2
 76
     1
 98
        0
  0
SPLINE
  5
D8
330
1F
100
AcDbEntity
  8
_U+30EC_U+30A4_U+30E4_U+30FC 1
370
     0
100
AcDbSpline
210
0.0
220
0.0
230
1.0
 70
    11
 71
     3
 72
    17
 73
    13
 74
     0
 42
0.0000000001
 43
0.0000000001
 12
1.0
 22
0.0
 32
0.0
 13
1.0
 23
0.0
 33
0.0
 40
0.0
 40
0.0
 40
0.0
 40
0.0
 40
1.0
 40
1.0
 40
1.0
 40
2.0
 40
2.0
 40
2.0
 40
3.0
 40
3.0
 40
3.0
 40
4.0
 40
4.0
 40
4.0
 40
4.0
 10
82.99922510473559
 20
-133.6579749665854
 30
0.0
 10
82.99922510473559
 20
-133.7406660776762
 30
0.0
 10
82.93205831260019
 20
-133.8078702443257
 30
0.0
 10
82.84936510855883
 20
-133.8078702443257
 30
0.0
 10
82.76670927733421
 20
-133.8078702443257
 30
0.0
 10
82.69950511238207
 20
-133.7406660776762
 30
0.0
 10
82.69950511238207
 20
-133.6579749665854
 30
0.0
 10
82.69950511238207
 20
-133.5746135777171
 30
0.0
 10
82.76670927733421
 20
-133.5074446888452
 30
0.0
 10
82.84936510855883
 20
-133.5074446888452
 30
0.0
 10
82.93205831260019
 20
-133.5074446888452
 30
0.0
 10
82.99922510473559
 20
-133.5746135777171
 30
0.0
 10
82.99922510473559
 20
-133.6579749665854
 30
0.0
  0
HATCH
  5
D9
330
1F
100
AcDbEntity
  8
_U+30EC_U+30A4_U+30E4_U+30FC 1
 62
     7
420
 16777215
100
AcDbHatch
 10
0.0
 20
0.0
 30
0.0
210
0.0
220
0.0
230
1.0
  2
SOLID
 70
     1
 71
     0
 91
        1
 92
        1
 93
        1
 72
     4
 94
        3
 73
     0
 74
     1
 95
       17
 96
       13
 40
0.0
 40
0.0
 40
0.0
 40
0.0
 40
1.0
 40
1.0
 40
1.0
 40
2.0
 40
2.0
 40
2.0
 40
3.0
 40
3.0
 40
3.0
 40
4.0
 40
4.0
 40
4.0
 40
4.0
 10
82.99922510473559
 20
-133.6579749665854
 10
82.99922510473559
 20
-133.7406660776762
 10
82.93205831260019
 20
-133.8078702443257
 10
82.84936510855883
 20
-133.8078702443257
 10
82.76670927733421
 20
-133.8078702443257
 10
82.69950511238207
 20
-133.7406660776762
 10
82.69950511238207
 20
-133.6579749665854
 10
82.69950511238207
 20
-133.5746135777171
 10
82.76670927733421
 20
-133.5074446888452
 10
82.84936510855883
 20
-133.5074446888452
 10
82.93205831260019
 20
-133.5074446888452
 10
82.99922510473559
 20
-133.5746135777171
 10
82.99922510473559
 20
-133.6579749665854
 97
        0
 97
        0
 75
     2
 76
     1
 98
        0
  0
INSERT
  5
DB
330
1F
100
AcDbEntity
  8
_U+30EC_U+30A4_U+30E4_U+30FC 1
100
AcDbBlockReference
  2
block 2
 10
0.0
 20
0.0
 30
0.0
  0
INSERT
  5
E5
330
1F
100
AcDbEntity
  8
_U+30EC_U+30A4_U+30E4_U+30FC 1
100
AcDbBlockReference
  2
block 3
 10
0.0
 20
0.0
 30
0.0
  0
INSERT
  5
EE
330
1F
100
AcDbEntity
  8
_U+30EC_U+30A4_U+30E4_U+30FC 1
100
AcDbBlockReference
  2
block 4
 10
0.0
 20
0.0
 30
0.0
  0
INSERT
  5
F4
330
1F
100
AcDbEntity
  8
_U+30EC_U+30A4_U+30E4_U+30FC 1
100
AcDbBlockReference
  2
block 5
 10
0.0
 20
0.0
 30
0.0
  0
INSERT
  5
FC
330
1F
100
AcDbEntity
  8
_U+30EC_U+30A4_U+30E4_U+30FC 1
100
AcDbBlockReference
  2
block 6
 10
0.0
 20
0.0
 30
0.0
  0
INSERT
  5
115
330
1F
100
AcDbEntity
  8
_U+30EC_U+30A4_U+30E4_U+30FC 1
100
AcDbBlockReference
  2
block 7
 10
0.0
 20
0.0
 30
0.0
  0
INSERT
  5
11D
330
1F
100
AcDbEntity
  8
_U+30EC_U+30A4_U+30E4_U+30FC 1
100
AcDbBlockReference
  2
block 8
 10
0.0
 20
0.0
 30
0.0
  0
INSERT
  5
130
330
1F
100
AcDbEntity
  8
_U+30EC_U+30A4_U+30E4_U+30FC 1
100
AcDbBlockReference
  2
block 9
 10
0.0
 20
0.0
 30
0.0
  0
POLYLINE
  5
13F
330
1F
100
AcDbEntity
  8
_U+30EC_U+30A4_U+30E4_U+30FC 1
 62
   179
420
  2234388
370
     9
100
AcDb2dPolyline
 66
     1
 10
0.0
 20
0.0
 30
0.0
  0
VERTEX
  5
140
330
13F
100
AcDbEntity
  8
_U+30EC_U+30A4_U+30E4_U+30FC 1
 62
   179
420
  2234388
370
     9
100
AcDbVertex
100
AcDb2dVertex
 10
95.77916664272188
 20
-120.6536335809477
 30
0.0
  0
VERTEX
  5
141
330
13F
100
AcDbEntity
  8
_U+30EC_U+30A4_U+30E4_U+30FC 1
 62
   179
420
  2234388
370
     9
100
AcDbVertex
100
AcDb2dVertex
 10
100.6057285444451
 20
-120.6536335809477
 30
0.0
  0
SEQEND
  5
142
330
13F
100
AcDbEntity
  8
_U+30EC_U+30A4_U+30E4_U+30FC 1
 62
   179
420
  2234388
370
     9
  0
SPLINE
  5
143
330
1F
100
AcDbEntity
  8
_U+30EC_U+30A4_U+30E4_U+30FC 1
370
     0
100
AcDbSpline
210
0.0
220
0.0
230
1.0
 70
    11
 71
     3
 72
    17
 73
    13
 74
     0
 42
0.0000000001
 43
0.0000000001
 12
1.0
 22
0.0
 32
0.0
 13
1.0
 23
0.0
 33
0.0
 40
0.0
 40
0.0
 40
0.0
 40
0.0
 40
1.0
 40
1.0
 40
1.0
 40
2.0
 40
2.0
 40
2.0
 40
3.0
 40
3.0
 40
3.0
 40
4.0
 40
4.0
 40
4.0
 40
4.0
 10
100.3304913292448
 20
-120.6536335809477
 30
0.0
 10
100.3304913292448
 20
-120.7362894142604
 30
0.0
 10
100.2636399420614
 20
-120.8034935809101
 30
0.0
 10
100.18094883306
 20
-120.8034935809101
 30
0.0
 10
100.0982930018353
 20
-120.8034935809101
 30
0.0
 10
100.0307713368913
 20
-120.7362894142604
 30
0.0
 10
100.0307713368913
 20
-120.6536335809477
 30
0.0
 10
100.0307713368913
 20
-120.5702369143019
 30
0.0
 10
100.0982930018353
 20
-120.5034208032075
 30
0.0
 10
100.18094883306
 20
-120.5034208032075
 30
0.0
 10
100.2636399420614
 20
-120.5034208032075
 30
0.0
 10
100.3304913292448
 20
-120.5702369143019
 30
0.0
 10
100.3304913292448
 20
-120.6536335809477
 30
0.0
  0
HATCH
  5
144
330
1F
100
AcDbEntity
  8
_U+30EC_U+30A4_U+30E4_U+30FC 1
 62
     7
420
 16777215
100
AcDbHatch
 10
0.0
 20
0.0
 30
0.0
210
0.0
220
0.0
230
1.0
  2
SOLID
 70
     1
 71
     0
 91
        1
 92
        1
 93
        1
 72
     4
 94
        3
 73
     0
 74
     1
 95
       17
 96
       13
 40
0.0
 40
0.0
 40
0.0
 40
0.0
 40
1.0
 40
1.0
 40
1.0
 40
2.0
 40
2.0
 40
2.0
 40
3.0
 40
3.0
 40
3.0
 40
4.0
 40
4.0
 40
4.0
 40
4.0
 10
100.3304913292448
 20
-120.6536335809477
 10
100.3304913292448
 20
-120.7362894142604
 10
100.2636399420614
 20
-120.8034935809101
 10
100.18094883306
 20
-120.8034935809101
 10
100.0982930018353
 20
-120.8034935809101
 10
100.0307713368913
 20
-120.7362894142604
 10
100.0307713368913
 20
-120.6536335809477
 10
100.0307713368913
 20
-120.5702369143019
 10
100.0982930018353
 20
-120.5034208032075
 10
100.18094883306
 20
-120.5034208032075
 10
100.2636399420614
 20
-120.5034208032075
 10
100.3304913292448
 20
-120.5702369143019
 10
100.3304913292448
 20
-120.6536335809477
 97
        0
 97
        0
 75
     2
 76
     1
 98
        0
  0
SPLINE
  5
145
330
1F
100
AcDbEntity
  8
_U+30EC_U+30A4_U+30E4_U+30FC 1
370
     0
100
AcDbSpline
210
0.0
220
0.0
230
1.0
 70
    11
 71
     3
 72
    17
 73
    13
 74
     0
 42
0.0000000001
 43
0.0000000001
 12
1.0
 22
0.0
 32
0.0
 13
1.0
 23
0.0
 33
0.0
 40
0.0
 40
0.0
 40
0.0
 40
0.0
 40
1.0
 40
1.0
 40
1.0
 40
2.0
 40
2.0
 40
2.0
 40
3.0
 40
3.0
 40
3.0
 40
4.0
 40
4.0
 40
4.0
 40
4.0
 10
99.43577635207089
 20
-120.6536335809477
 30
0.0
 10
99.43577635207089
 20
-120.7362894142604
 30
0.0
 10
99.3689602426644
 20
-120.8034935809101
 30
0.0
 10
99.28626913366291
 20
-120.8034935809101
 30
0.0
 10
99.20358053075478
 20
-120.8034935809101
 30
0.0
 10
99.13605635971739
 20
-120.7362894142604
 30
0.0
 10
99.13605635971739
 20
-120.6536335809477
 30
0.0
 10
99.13605635971739
 20
-120.5702369143019
 30
0.0
 10
99.20358053075478
 20
-120.5034208032075
 30
0.0
 10
99.28626913366291
 20
-120.5034208032075
 30
0.0
 10
99.3689602426644
 20
-120.5034208032075
 30
0.0
 10
99.43577635207089
 20
-120.5702369143019
 30
0.0
 10
99.43577635207089
 20
-120.6536335809477
 30
0.0
  0
HATCH
  5
146
330
1F
100
AcDbEntity
  8
_U+30EC_U+30A4_U+30E4_U+30FC 1
 62
     7
420
 16777215
100
AcDbHatch
 10
0.0
 20
0.0
 30
0.0
210
0.0
220
0.0
230
1.0
  2
SOLID
 70
     1
 71
     0
 91
        1
 92
        1
 93
        1
 72
     4
 94
        3
 73
     0
 74
     1
 95
       17
 96
       13
 40
0.0
 40
0.0
 40
0.0
 40
0.0
 40
1.0
 40
1.0
 40
1.0
 40
2.0
 40
2.0
 40
2.0
 40
3.0
 40
3.0
 40
3.0
 40
4.0
 40
4.0
 40
4.0
 40
4.0
 10
99.43577635207089
 20
-120.6536335809477
 10
99.43577635207089
 20
-120.7362894142604
 10
99.3689602426644
 20
-120.8034935809101
 10
99.28626913366291
 20
-120.8034935809101
 10
99.20358053075478
 20
-120.8034935809101
 10
99.13605635971739
 20
-120.7362894142604
 10
99.13605635971739
 20
-120.6536335809477
 10
99.13605635971739
 20
-120.5702369143019
 10
99.20358053075478
 20
-120.5034208032075
 10
99.28626913366291
 20
-120.5034208032075
 10
99.3689602426644
 20
-120.5034208032075
 10
99.43577635207089
 20
-120.5702369143019
 10
99.43577635207089
 20
-120.6536335809477
 97
        0
 97
        0
 75
     2
 76
     1
 98
        0
  0
INSERT
  5
148
330
1F
100
AcDbEntity
  8
_U+30EC_U+30A4_U+30E4_U+30FC 1
100
AcDbBlockReference
  2
block 10
 10
0.0
 20
0.0
 30
0.0
  0
INSERT
  5
158
330
1F
100
AcDbEntity
  8
_U+30EC_U+30A4_U+30E4_U+30FC 1
100
AcDbBlockReference
  2
block 11
 10
0.0
 20
0.0
 30
0.0
  0
INSERT
  5
15E
330
1F
100
AcDbEntity
  8
_U+30EC_U+30A4_U+30E4_U+30FC 1
100
AcDbBlockReference
  2
block 12
 10
0.0
 20
0.0
 30
0.0
  0
ENDSEC
  0
SECTION
  2
OBJECTS
  0
DICTIONARY
  5
C
330
0
100
AcDbDictionary
281
     1
  3
ACAD_GROUP
350
D
  3
ACAD_LAYOUT
350
1A
  3
ACAD_MATERIAL
350
3B
  3
ACAD_MLEADERSTYLE
350
167
  3
ACAD_MLINESTYLE
350
17
  3
ACAD_PLOTSETTINGS
350
19
  3
ACAD_PLOTSTYLENAME
350
E
  3
ACAD_TABLESTYLE
350
166
  3
ACAD_VISUALSTYLE
350
2A
  0
SUN
  5
3F
330
29
100
AcDbSun
 90
        1
290
     0
 63
     7
421
 16777215
 40
1.0
291
     1
 91
  2455826
 92
 54000000
292
     0
 70
     2
 71
   256
280
     1
  0
DICTIONARY
  5
D
102
{ACAD_REACTORS
330
C
102
}
330
C
100
AcDbDictionary
281
     1
  0
DICTIONARY
  5
1A
102
{ACAD_REACTORS
330
C
102
}
330
C
100
AcDbDictionary
281
     1
  3
Layout1
350
1E
  3
Layout2
350
26
  3
Model
350
22
  0
DICTIONARY
  5
3B
102
{ACAD_REACTORS
330
C
102
}
330
C
100
AcDbDictionary
281
     1
  3
ByBlock
350
3D
  3
ByLayer
350
3C
  3
Global
350
3E
  0
DICTIONARY
  5
167
102
{ACAD_REACTORS
330
C
102
}
330
C
100
AcDbDictionary
281
     1
  0
DICTIONARY
  5
17
102
{ACAD_REACTORS
330
C
102
}
330
C
100
AcDbDictionary
281
     1
  3
Standard
350
18
  0
DICTIONARY
  5
19
102
{ACAD_REACTORS
330
C
102
}
330
C
100
AcDbDictionary
281
     1
  0
ACDBDICTIONARYWDFLT
  5
E
102
{ACAD_REACTORS
330
C
102
}
330
C
100
AcDbDictionary
281
     1
  3
Normal
350
F
100
AcDbDictionaryWithDefault
340
F
  0
DICTIONARY
  5
166
102
{ACAD_REACTORS
330
C
102
}
330
C
100
AcDbDictionary
281
     1
  0
DICTIONARY
  5
2A
102
{ACAD_REACTORS
330
C
102
}
330
C
100
AcDbDictionary
281
     1
  3
2dWireframe
350
2F
  3
3D Hidden
350
31
  3
3dWireframe
350
30
  3
Basic
350
32
  3
Brighten
350
36
  3
ColorChange
350
3A
  3
Conceptual
350
34
  3
Dim
350
35
  3
Facepattern
350
39
  3
Flat
350
2B
  3
FlatWithEdges
350
2C
  3
Gouraud
350
2D
  3
GouraudWithEdges
350
2E
  3
Linepattern
350
38
  3
Realistic
350
33
  3
Thicken
350
37
  0
LAYOUT
  5
1E
102
{ACAD_REACTORS
330
1A
102
}
330
1A
100
AcDbPlotSettings
  1

  2
none_device
  4

  6

 40
0.0
 41
0.0
 42
0.0
 43
0.0
 44
0.0
 45
0.0
 46
0.0
 47
0.0
 48
0.0
 49
0.0
140
0.0
141
0.0
142
1.0
143
1.0
 70
   688
 72
     0
 73
     0
 74
     5
  7

 75
    16
 76
     0
 77
     2
 78
   300
147
1.0
148
0.0
149
0.0
100
AcDbLayout
  1
Layout1
 70
     1
 71
     1
 10
0.0
 20
0.0
 11
12.0
 21
9.0
 12
0.0
 22
0.0
 32
0.0
 14
1.000000000000000E+20
 24
1.000000000000000E+20
 34
1.000000000000000E+20
 15
-1.000000000000000E+20
 25
-1.000000000000000E+20
 35
-1.000000000000000E+20
146
0.0
 13
0.0
 23
0.0
 33
0.0
 16
1.0
 26
0.0
 36
0.0
 17
0.0
 27
1.0
 37
0.0
 76
     0
330
1B
  0
LAYOUT
  5
26
102
{ACAD_REACTORS
330
1A
102
}
330
1A
100
AcDbPlotSettings
  1

  2
none_device
  4

  6

 40
0.0
 41
0.0
 42
0.0
 43
0.0
 44
0.0
 45
0.0
 46
0.0
 47
0.0
 48
0.0
 49
0.0
140
0.0
141
0.0
142
1.0
143
1.0
 70
   688
 72
     0
 73
     0
 74
     5
  7

 75
    16
 76
     0
 77
     2
 78
   300
147
1.0
148
0.0
149
0.0
100
AcDbLayout
  1
Layout2
 70
     1
 71
     2
 10
0.0
 20
0.0
 11
0.0
 21
0.0
 12
0.0
 22
0.0
 32
0.0
 14
0.0
 24
0.0
 34
0.0
 15
0.0
 25
0.0
 35
0.0
146
0.0
 13
0.0
 23
0.0
 33
0.0
 16
1.0
 26
0.0
 36
0.0
 17
0.0
 27
1.0
 37
0.0
 76
     0
330
23
  0
LAYOUT
  5
22
102
{ACAD_REACTORS
330
1A
102
}
330
1A
100
AcDbPlotSettings
  1

  2
none_device
  4

  6

 40
0.0
 41
0.0
 42
0.0
 43
0.0
 44
0.0
 45
0.0
 46
0.0
 47
0.0
 48
0.0
 49
0.0
140
0.0
141
0.0
142
1.0
143
1.0
 70
  1712
 72
     0
 73
     0
 74
     0
  7

 75
     0
 76
     0
 77
     2
 78
   300
147
1.0
148
0.0
149
0.0
100
AcDbLayout
  1
Model
 70
     1
 71
     0
 10
0.0
 20
0.0
 11
12.0
 21
9.0
 12
0.0
 22
0.0
 32
0.0
 14
1.000000000000000E+20
 24
1.000000000000000E+20
 34
1.000000000000000E+20
 15
-1.000000000000000E+20
 25
-1.000000000000000E+20
 35
-1.000000000000000E+20
146
0.0
 13
0.0
 23
0.0
 33
0.0
 16
1.0
 26
0.0
 36
0.0
 17
0.0
 27
1.0
 37
0.0
 76
     0
330
1F
331
29
  0
MATERIAL
  5
3D
102
{ACAD_REACTORS
330
3B
102
}
330
3B
100
AcDbMaterial
  1
ByBlock
 72
     1
 94
      127
  0
MATERIAL
  5
3C
102
{ACAD_REACTORS
330
3B
102
}
330
3B
100
AcDbMaterial
  1
ByLayer
 72
     1
 94
      127
  0
MATERIAL
  5
3E
102
{ACAD_REACTORS
330
3B
102
}
330
3B
100
AcDbMaterial
  1
Global
 72
     1
 94
      127
  0
MLINESTYLE
  5
18
102
{ACAD_REACTORS
330
17
102
}
330
17
100
AcDbMlineStyle
  2
Standard
 70
     0
  3

 62
   256
 51
90.0
 52
90.0
 71
     2
 49
0.5
 62
   256
  6
BYLAYER
 49
-0.5
 62
   256
  6
BYLAYER
  0
ACDBPLACEHOLDER
  5
F
102
{ACAD_REACTORS
330
E
102
}
330
E
  0
VISUALSTYLE
  5
2F
102
{ACAD_REACTORS
330
2A
102
}
330
2A
100
AcDbVisualStyle
  2
2dWireframe
 70
     4
177
     2
291
     0
 71
     0
176
     1
 72
     2
176
     1
 73
     0
176
     1
 90
        0
176
     1
 40
-0.6
176
     1
 41
-30.0
176
     1
 62
     5
 63
     7
421
 16777215
176
     1
 74
     1
176
     1
 91
        4
176
     1
 64
     7
176
     1
 65
   257
176
     1
 75
     1
176
     1
175
     1
176
     1
 42
1.0
176
     1
 92
        0
176
     1
 66
   257
176
     1
 43
1.0
176
     1
 76
     1
176
     1
 77
     6
176
     1
 78
     2
176
     1
 67
     7
176
     1
 79
     5
176
     1
170
     0
176
     1
171
     0
176
     1
290
     0
176
     1
 93
        1
176
     1
 44
0.0
176
     1
173
     0
176
     1
  0
VISUALSTYLE
  5
31
102
{ACAD_REACTORS
330
2A
102
}
330
2A
100
AcDbVisualStyle
  2
3D Hidden
 70
     6
177
     2
291
     0
 71
     1
176
     1
 72
     2
176
     1
 73
     2
176
     1
 90
        0
176
     1
 40
-0.6
176
     1
 41
-30.0
176
     1
 62
     5
 63
     7
421
 16777215
176
     1
 74
     2
176
     1
 91
        2
176
     1
 64
     7
176
     1
 65
   257
176
     1
 75
     2
176
     1
175
     1
176
     1
 42
40.0
176
     1
 92
        0
176
     1
 66
   257
176
     1
 43
1.0
176
     1
 76
     1
176
     1
 77
     6
176
     1
 78
     2
176
     1
 67
     7
176
     1
 79
     3
176
     1
170
     0
176
     1
171
     0
176
     1
290
     0
176
     1
 93
        1
176
     1
 44
0.0
176
     1
173
     0
176
     1
  0
VISUALSTYLE
  5
30
102
{ACAD_REACTORS
330
2A
102
}
330
2A
100
AcDbVisualStyle
  2
3dWireframe
 70
     5
177
     2
291
     0
 71
     0
176
     1
 72
     2
176
     1
 73
     0
176
     1
 90
        0
176
     1
 40
-0.6
176
     1
 41
-30.0
176
     1
 62
     5
 63
     7
421
 16777215
176
     1
 74
     1
176
     1
 91
        4
176
     1
 64
     7
176
     1
 65
   257
176
     1
 75
     1
176
     1
175
     1
176
     1
 42
1.0
176
     1
 92
        0
176
     1
 66
   257
176
     1
 43
1.0
176
     1
 76
     1
176
     1
 77
     6
176
     1
 78
     2
176
     1
 67
     7
176
     1
 79
     5
176
     1
170
     0
176
     1
171
     0
176
     1
290
     0
176
     1
 93
        1
176
     1
 44
0.0
176
     1
173
     0
176
     1
  0
VISUALSTYLE
  5
32
102
{ACAD_REACTORS
330
2A
102
}
330
2A
100
AcDbVisualStyle
  2
Basic
 70
     7
177
     2
291
     1
 71
     1
176
     1
 72
     0
176
     1
 73
     1
176
     1
 90
        0
176
     1
 40
-0.6
176
     1
 41
-30.0
176
     1
 62
     5
 63
     7
421
 16777215
176
     1
 74
     0
176
     1
 91
        4
176
     1
 64
     7
176
     1
 65
   257
176
     1
 75
     1
176
     1
175
     1
176
     1
 42
1.0
176
     1
 92
        8
176
     1
 66
     7
176
     1
 43
1.0
176
     1
 76
     1
176
     1
 77
     6
176
     1
 78
     2
176
     1
 67
     7
176
     1
 79
     5
176
     1
170
     0
176
     1
171
     0
176
     1
290
     0
176
     1
 93
        1
176
     1
 44
0.0
176
     1
173
     0
176
     1
  0
VISUALSTYLE
  5
36
102
{ACAD_REACTORS
330
2A
102
}
330
2A
100
AcDbVisualStyle
  2
Brighten
 70
    12
177
     2
291
     1
 71
     2
176
     1
 72
     2
176
     1
 73
     0
176
     1
 90
        0
176
     1
 40
-0.6
176
     1
 41
-30.0
176
     1
 62
     5
 63
     7
421
 16777215
176
     1
 74
     1
176
     1
 91
        4
176
     1
 64
     7
176
     1
 65
   257
176
     1
 75
     1
176
     1
175
     1
176
     1
 42
1.0
176
     1
 92
        8
176
     1
 66
     7
176
     1
 43
1.0
176
     1
 76
     1
176
     1
 77
     6
176
     1
 78
     2
176
     1
 67
     7
176
     1
 79
     5
176
     1
170
     0
176
     1
171
     0
176
     1
290
     0
176
     1
 93
        1
176
     1
 44
50.0
176
     1
173
     0
176
     1
  0
VISUALSTYLE
  5
3A
102
{ACAD_REACTORS
330
2A
102
}
330
2A
100
AcDbVisualStyle
  2
ColorChange
 70
    16
177
     2
291
     1
 71
     2
176
     1
 72
     2
176
     1
 73
     3
176
     1
 90
        0
176
     1
 40
-0.6
176
     1
 41
-30.0
176
     1
 62
     5
 63
     8
421
  8421504
176
     1
 74
     1
176
     1
 91
        4
176
     1
 64
     7
176
     1
 65
   257
176
     1
 75
     1
176
     1
175
     1
176
     1
 42
1.0
176
     1
 92
        8
176
     1
 66
     8
424
  8421504
176
     1
 43
1.0
176
     1
 76
     1
176
     1
 77
     6
176
     1
 78
     2
176
     1
 67
     7
176
     1
 79
     5
176
     1
170
     0
176
     1
171
     0
176
     1
290
     0
176
     1
 93
        1
176
     1
 44
0.0
176
     1
173
     0
176
     1
  0
VISUALSTYLE
  5
34
102
{ACAD_REACTORS
330
2A
102
}
330
2A
100
AcDbVisualStyle
  2
Conceptual
 70
     9
177
     2
291
     0
 71
     3
176
     1
 72
     2
176
     1
 73
     0
176
     1
 90
        0
176
     1
 40
-0.6
176
     1
 41
-30.0
176
     1
 62
     5
 63
     7
421
 16777215
176
     1
 74
     2
176
     1
 91
        2
176
     1
 64
     7
176
     1
 65
   257
176
     1
 75
     1
176
     1
175
     1
176
     1
 42
40.0
176
     1
 92
        8
176
     1
 66
     7
176
     1
 43
1.0
176
     1
 76
     1
176
     1
 77
     6
176
     1
 78
     2
176
     1
 67
     7
176
     1
 79
     3
176
     1
170
     0
176
     1
171
     0
176
     1
290
     0
176
     1
 93
        1
176
     1
 44
0.0
176
     1
173
     0
176
     1
  0
VISUALSTYLE
  5
35
102
{ACAD_REACTORS
330
2A
102
}
330
2A
100
AcDbVisualStyle
  2
Dim
 70
    11
177
     2
291
     1
 71
     2
176
     1
 72
     2
176
     1
 73
     0
176
     1
 90
        0
176
     1
 40
-0.6
176
     1
 41
-30.0
176
     1
 62
     5
 63
     7
421
 16777215
176
     1
 74
     1
176
     1
 91
        4
176
     1
 64
     7
176
     1
 65
   257
176
     1
 75
     1
176
     1
175
     1
176
     1
 42
1.0
176
     1
 92
        8
176
     1
 66
     7
176
     1
 43
1.0
176
     1
 76
     1
176
     1
 77
     6
176
     1
 78
     2
176
     1
 67
     7
176
     1
 79
     5
176
     1
170
     0
176
     1
171
     0
176
     1
290
     0
176
     1
 93
        1
176
     1
 44
-50.0
176
     1
173
     0
176
     1
  0
VISUALSTYLE
  5
39
102
{ACAD_REACTORS
330
2A
102
}
330
2A
100
AcDbVisualStyle
  2
Facepattern
 70
    15
177
     2
291
     1
 71
     2
176
     1
 72
     2
176
     1
 73
     0
176
     1
 90
        0
176
     1
 40
-0.6
176
     1
 41
-30.0
176
     1
 62
     5
 63
     7
421
 16777215
176
     1
 74
     1
176
     1
 91
        4
176
     1
 64
     7
176
     1
 65
   257
176
     1
 75
     1
176
     1
175
     1
176
     1
 42
1.0
176
     1
 92
        8
176
     1
 66
     7
176
     1
 43
1.0
176
     1
 76
     1
176
     1
 77
     6
176
     1
 78
     2
176
     1
 67
     7
176
     1
 79
     5
176
     1
170
     0
176
     1
171
     0
176
     1
290
     0
176
     1
 93
        1
176
     1
 44
0.0
176
     1
173
     0
176
     1
  0
VISUALSTYLE
  5
2B
102
{ACAD_REACTORS
330
2A
102
}
330
2A
100
AcDbVisualStyle
  2
Flat
 70
     0
177
     2
291
     1
 71
     2
176
     1
 72
     1
176
     1
 73
     1
176
     1
 90
        2
176
     1
 40
-0.6
176
     1
 41
30.0
176
     1
 62
     5
 63
     7
421
 16777215
176
     1
 74
     0
176
     1
 91
        4
176
     1
 64
     7
176
     1
 65
   257
176
     1
 75
     1
176
     1
175
     1
176
     1
 42
1.0
176
     1
 92
        8
176
     1
 66
     7
176
     1
 43
1.0
176
     1
 76
     1
176
     1
 77
     6
176
     1
 78
     2
176
     1
 67
     7
176
     1
 79
     5
176
     1
170
     0
176
     1
171
     0
176
     1
290
     0
176
     1
 93
       13
176
     1
 44
0.0
176
     1
173
     0
176
     1
  0
VISUALSTYLE
  5
2C
102
{ACAD_REACTORS
330
2A
102
}
330
2A
100
AcDbVisualStyle
  2
FlatWithEdges
 70
     1
177
     2
291
     1
 71
     2
176
     1
 72
     1
176
     1
 73
     1
176
     1
 90
        2
176
     1
 40
-0.6
176
     1
 41
30.0
176
     1
 62
     5
 63
     7
421
 16777215
176
     1
 74
     1
176
     1
 91
        4
176
     1
 64
     7
176
     1
 65
   257
176
     1
 75
     1
176
     1
175
     1
176
     1
 42
1.0
176
     1
 92
        0
176
     1
 66
   257
176
     1
 43
1.0
176
     1
 76
     1
176
     1
 77
     6
176
     1
 78
     2
176
     1
 67
     7
176
     1
 79
     5
176
     1
170
     0
176
     1
171
     0
176
     1
290
     0
176
     1
 93
       13
176
     1
 44
0.0
176
     1
173
     0
176
     1
  0
VISUALSTYLE
  5
2D
102
{ACAD_REACTORS
330
2A
102
}
330
2A
100
AcDbVisualStyle
  2
Gouraud
 70
     2
177
     2
291
     1
 71
     2
176
     1
 72
     2
176
     1
 73
     1
176
     1
 90
        2
176
     1
 40
-0.6
176
     1
 41
30.0
176
     1
 62
     5
 63
     7
421
 16777215
176
     1
 74
     0
176
     1
 91
        4
176
     1
 64
     7
176
     1
 65
   257
176
     1
 75
     1
176
     1
175
     1
176
     1
 42
1.0
176
     1
 92
        0
176
     1
 66
     7
176
     1
 43
1.0
176
     1
 76
     1
176
     1
 77
     6
176
     1
 78
     2
176
     1
 67
     7
176
     1
 79
     5
176
     1
170
     0
176
     1
171
     0
176
     1
290
     0
176
     1
 93
       13
176
     1
 44
0.0
176
     1
173
     0
176
     1
  0
VISUALSTYLE
  5
2E
102
{ACAD_REACTORS
330
2A
102
}
330
2A
100
AcDbVisualStyle
  2
GouraudWithEdges
 70
     3
177
     2
291
     1
 71
     2
176
     1
 72
     2
176
     1
 73
     1
176
     1
 90
        2
176
     1
 40
-0.6
176
     1
 41
30.0
176
     1
 62
     5
 63
     7
421
 16777215
176
     1
 74
     1
176
     1
 91
        4
176
     1
 64
     7
176
     1
 65
   257
176
     1
 75
     1
176
     1
175
     1
176
     1
 42
1.0
176
     1
 92
        0
176
     1
 66
   257
176
     1
 43
1.0
176
     1
 76
     1
176
     1
 77
     6
176
     1
 78
     2
176
     1
 67
     7
176
     1
 79
     5
176
     1
170
     0
176
     1
171
     0
176
     1
290
     0
176
     1
 93
       13
176
     1
 44
0.0
176
     1
173
     0
176
     1
  0
VISUALSTYLE
  5
38
102
{ACAD_REACTORS
330
2A
102
}
330
2A
100
AcDbVisualStyle
  2
Linepattern
 70
    14
177
     2
291
     1
 71
     2
176
     1
 72
     2
176
     1
 73
     0
176
     1
 90
        0
176
     1
 40
-0.6
176
     1
 41
-30.0
176
     1
 62
     5
 63
     7
421
 16777215
176
     1
 74
     1
176
     1
 91
        4
176
     1
 64
     7
176
     1
 65
   257
176
     1
 75
     7
176
     1
175
     7
176
     1
 42
1.0
176
     1
 92
        8
176
     1
 66
     7
176
     1
 43
1.0
176
     1
 76
     1
176
     1
 77
     6
176
     1
 78
     2
176
     1
 67
     7
176
     1
 79
     5
176
     1
170
     0
176
     1
171
     0
176
     1
290
     0
176
     1
 93
        1
176
     1
 44
0.0
176
     1
173
     0
176
     1
  0
VISUALSTYLE
  5
33
102
{ACAD_REACTORS
330
2A
102
}
330
2A
100
AcDbVisualStyle
  2
Realistic
 70
     8
177
     2
291
     0
 71
     2
176
     1
 72
     2
176
     1
 73
     0
176
     1
 90
        0
176
     1
 40
-0.6
176
     1
 41
-30.0
176
     1
 62
     5
 63
     7
421
 16777215
176
     1
 74
     1
176
     1
 91
        0
176
     1
 64
     7
176
     1
 65
   257
176
     1
 75
     1
176
     1
175
     1
176
     1
 42
1.0
176
     1
 92
        8
176
     1
 66
     8
424
  7895160
176
     1
 43
1.0
176
     1
 76
     1
176
     1
 77
     6
176
     1
 78
     2
176
     1
 67
     7
176
     1
 79
     5
176
     1
170
     0
176
     1
171
     0
176
     1
290
     0
176
     1
 93
       13
176
     1
 44
0.0
176
     1
173
     0
176
     1
  0
VISUALSTYLE
  5
37
102
{ACAD_REACTORS
330
2A
102
}
330
2A
100
AcDbVisualStyle
  2
Thicken
 70
    13
177
     2
291
     1
 71
     2
176
     1
 72
     2
176
     1
 73
     0
176
     1
 90
        0
176
     1
 40
-0.6
176
     1
 41
-30.0
176
     1
 62
     5
 63
     7
421
 16777215
176
     1
 74
     1
176
     1
 91
        4
176
     1
 64
     7
176
     1
 65
   257
176
     1
 75
     1
176
     1
175
     1
176
     1
 42
1.0
176
     1
 92
       12
176
     1
 66
     7
176
     1
 43
1.0
176
     1
 76
     1
176
     1
 77
     6
176
     1
 78
     2
176
     1
 67
     7
176
     1
 79
     5
176
     1
170
     0
176
     1
171
     0
176
     1
290
     0
176
     1
 93
        1
176
     1
 44
0.0
176
     1
173
     0
176
     1
  0
ENDSEC
  0
EOF
