  0
SECTION
  2
HEADER
  9
$ACADVER
  1
AC1024
  9
$ACADMAINTVER
 70
     6
  9
$DWGCODEPAGE
  3
UNDEFINED
  9
$INSBASE
 10
0.0
 20
0.0
 30
0.0
  9
$EXTMIN
 10
1.000000000000000E+20
 20
1.000000000000000E+20
 30
1.000000000000000E+20
  9
$EXTMAX
 10
-1.000000000000000E+20
 20
-1.000000000000000E+20
 30
-1.000000000000000E+20
  9
$LIMMIN
 10
0.0
 20
0.0
  9
$LIMMAX
 10
12.0
 20
9.0
  9
$ORTHOMODE
 70
     0
  9
$REGENMODE
 70
     1
  9
$FILLMODE
 70
     1
  9
$QTEXTMODE
 70
     0
  9
$MIRRTEXT
 70
     1
  9
$LTSCALE
 40
1.0
  9
$ATTMODE
 70
     1
  9
$TEXTSIZE
 40
0.2
  9
$TRACEWID
 40
0.05
  9
$TEXTSTYLE
  7
Standard
  9
$CLAYER
  8
0
  9
$CELTYPE
  6
ByLayer
  9
$CECOLOR
 62
   256
  9
$CELTSCALE
 40
1.0
  9
$DISPSILH
 70
     0
  9
$DIMSCALE
 40
1.0
  9
$DIMASZ
 40
0.18
  9
$DIMEXO
 40
0.0625
  9
$DIMDLI
 40
0.38
  9
$DIMRND
 40
0.0
  9
$DIMDLE
 40
0.0
  9
$DIMEXE
 40
0.18
  9
$DIMTP
 40
0.0
  9
$DIMTM
 40
0.0
  9
$DIMTXT
 40
0.18
  9
$DIMCEN
 40
0.09
  9
$DIMTSZ
 40
0.0
  9
$DIMTOL
 70
     0
  9
$DIMLIM
 70
     0
  9
$DIMTIH
 70
     1
  9
$DIMTOH
 70
     1
  9
$DIMSE1
 70
     0
  9
$DIMSE2
 70
     0
  9
$DIMTAD
 70
     0
  9
$DIMZIN
 70
     0
  9
$DIMBLK
  1

  9
$DIMASO
 70
     1
  9
$DIMSHO
 70
     1
  9
$DIMPOST
  1

  9
$DIMAPOST
  1

  9
$DIMALT
 70
     0
  9
$DIMALTD
 70
     2
  9
$DIMALTF
 40
25.4
  9
$DIMLFAC
 40
1.0
  9
$DIMTOFL
 70
     0
  9
$DIMTVP
 40
0.0
  9
$DIMTIX
 70
     0
  9
$DIMSOXD
 70
     0
  9
$DIMSAH
 70
     0
  9
$DIMBLK1
  1

  9
$DIMBLK2
  1

  9
$DIMSTYLE
  2
Standard
  9
$DIMCLRD
 70
     0
  9
$DIMCLRE
 70
     0
  9
$DIMCLRT
 70
     0
  9
$DIMTFAC
 40
1.0
  9
$DIMGAP
 40
0.09
  9
$DIMJUST
 70
     0
  9
$DIMSD1
 70
     0
  9
$DIMSD2
 70
     0
  9
$DIMTOLJ
 70
     1
  9
$DIMTZIN
 70
     0
  9
$DIMALTZ
 70
     0
  9
$DIMALTTZ
 70
     0
  9
$DIMUPT
 70
     0
  9
$DIMDEC
 70
     4
  9
$DIMTDEC
 70
     4
  9
$DIMALTU
 70
     2
  9
$DIMALTTD
 70
     2
  9
$DIMTXSTY
  7
Standard
  9
$DIMAUNIT
 70
     0
  9
$DIMADEC
 70
     0
  9
$DIMALTRND
 40
0.0
  9
$DIMAZIN
 70
     0
  9
$DIMDSEP
 70
    46
  9
$DIMATFIT
 70
     3
  9
$DIMFRAC
 70
     0
  9
$DIMLDRBLK
  1

  9
$DIMLUNIT
 70
     2
  9
$DIMLWD
 70
    -2
  9
$DIMLWE
 70
    -2
  9
$DIMTMOVE
 70
     0
  9
$DIMFXL
 40
1.0
  9
$DIMFXLON
 70
     0
  9
$DIMJOGANG
 40
0.7853981633974483
  9
$DIMTFILL
 70
     0
  9
$DIMTFILLCLR
 70
     0
  9
$DIMARCSYM
 70
     0
  9
$DIMLTYPE
  6

  9
$DIMLTEX1
  6

  9
$DIMLTEX2
  6

  9
$DIMTXTDIRECTION
 70
     0
  9
$LUNITS
 70
     2
  9
$LUPREC
 70
     4
  9
$SKETCHINC
 40
0.1
  9
$FILLETRAD
 40
0.5
  9
$AUNITS
 70
     0
  9
$AUPREC
 70
     0
  9
$MENU
  1
.
  9
$ELEVATION
 40
0.0
  9
$PELEVATION
 40
0.0
  9
$THICKNESS
 40
0.0
  9
$LIMCHECK
 70
     0
  9
$CHAMFERA
 40
0.5
  9
$CHAMFERB
 40
0.5
  9
$CHAMFERC
 40
1.0
  9
$CHAMFERD
 40
0.0
  9
$SKPOLY
 70
     0
  9
$TDCREATE
 40
2457917.627187489
  9
$TDUCREATE
 40
2457917.2521875
  9
$TDUPDATE
 40
2457917.627187489
  9
$TDUUPDATE
 40
2457917.2521875
  9
$TDINDWG
 40
0.0000000116
  9
$TDUSRTIMER
 40
0.0000000116
  9
$USRTIMER
 70
     1
  9
$ANGBASE
 50
0.0
  9
$ANGDIR
 70
     0
  9
$PDMODE
 70
     0
  9
$PDSIZE
 40
0.0
  9
$PLINEWID
 40
0.0
  9
$SPLFRAME
 70
     0
  9
$SPLINETYPE
 70
     6
  9
$SPLINESEGS
 70
     8
  9
$HANDSEED
  5
140
  9
$SURFTAB1
 70
     6
  9
$SURFTAB2
 70
     6
  9
$SURFTYPE
 70
     6
  9
$SURFU
 70
     6
  9
$SURFV
 70
     6
  9
$UCSBASE
  2

  9
$UCSNAME
  2

  9
$UCSORG
 10
0.0
 20
0.0
 30
0.0
  9
$UCSXDIR
 10
1.0
 20
0.0
 30
0.0
  9
$UCSYDIR
 10
0.0
 20
1.0
 30
0.0
  9
$UCSORTHOREF
  2

  9
$UCSORTHOVIEW
 70
     0
  9
$UCSORGTOP
 10
0.0
 20
0.0
 30
0.0
  9
$UCSORGBOTTOM
 10
0.0
 20
0.0
 30
0.0
  9
$UCSORGLEFT
 10
0.0
 20
0.0
 30
0.0
  9
$UCSORGRIGHT
 10
0.0
 20
0.0
 30
0.0
  9
$UCSORGFRONT
 10
0.0
 20
0.0
 30
0.0
  9
$UCSORGBACK
 10
0.0
 20
0.0
 30
0.0
  9
$PUCSBASE
  2

  9
$PUCSNAME
  2

  9
$PUCSORG
 10
0.0
 20
0.0
 30
0.0
  9
$PUCSXDIR
 10
1.0
 20
0.0
 30
0.0
  9
$PUCSYDIR
 10
0.0
 20
1.0
 30
0.0
  9
$PUCSORTHOREF
  2

  9
$PUCSORTHOVIEW
 70
     0
  9
$PUCSORGTOP
 10
0.0
 20
0.0
 30
0.0
  9
$PUCSORGBOTTOM
 10
0.0
 20
0.0
 30
0.0
  9
$PUCSORGLEFT
 10
0.0
 20
0.0
 30
0.0
  9
$PUCSORGRIGHT
 10
0.0
 20
0.0
 30
0.0
  9
$PUCSORGFRONT
 10
0.0
 20
0.0
 30
0.0
  9
$PUCSORGBACK
 10
0.0
 20
0.0
 30
0.0
  9
$USERI1
 70
     0
  9
$USERI2
 70
     0
  9
$USERI3
 70
     0
  9
$USERI4
 70
     0
  9
$USERI5
 70
     0
  9
$USERR1
 40
0.0
  9
$USERR2
 40
0.0
  9
$USERR3
 40
0.0
  9
$USERR4
 40
0.0
  9
$USERR5
 40
0.0
  9
$WORLDVIEW
 70
     1
  9
$SHADEDGE
 70
     3
  9
$SHADEDIF
 70
    70
  9
$TILEMODE
 70
     1
  9
$MAXACTVP
 70
    64
  9
$PINSBASE
 10
0.0
 20
0.0
 30
0.0
  9
$PLIMCHECK
 70
     0
  9
$PEXTMIN
 10
1.000000000000000E+20
 20
1.000000000000000E+20
 30
1.000000000000000E+20
  9
$PEXTMAX
 10
-1.000000000000000E+20
 20
-1.000000000000000E+20
 30
-1.000000000000000E+20
  9
$PLIMMIN
 10
0.0
 20
0.0
  9
$PLIMMAX
 10
12.0
 20
9.0
  9
$UNITMODE
 70
     0
  9
$VISRETAIN
 70
     1
  9
$PLINEGEN
 70
     0
  9
$PSLTSCALE
 70
     1
  9
$TREEDEPTH
 70
  3020
  9
$CMLSTYLE
  2
Standard
  9
$CMLJUST
 70
     0
  9
$CMLSCALE
 40
1.0
  9
$PROXYGRAPHICS
 70
     1
  9
$MEASUREMENT
 70
     0
  9
$CELWEIGHT
370
    -1
  9
$ENDCAPS
280
     0
  9
$JOINSTYLE
280
     0
  9
$LWDISPLAY
290
     1
  9
$INSUNITS
 70
     1
  9
$HYPERLINKBASE
  1

  9
$STYLESHEET
  1

  9
$XEDIT
290
     1
  9
$CEPSNTYPE
380
     0
  9
$PSTYLEMODE
290
     1
  9
$FINGERPRINTGUID
  2
{1E9AC75D-8AE4-D0F0-A0DF-01D2EB7693D9}
  9
$VERSIONGUID
  2
{FAEB1C32-E019-11D5-929B-00C0DF256EC4}
  9
$EXTNAMES
290
     1
  9
$PSVPSCALE
 40
0.0
  9
$OLESTARTUP
290
     0
  9
$SORTENTS
280
   127
  9
$INDEXCTL
280
     0
  9
$HIDETEXT
280
     1
  9
$XCLIPFRAME
280
     2
  9
$HALOGAP
280
     0
  9
$OBSCOLOR
 70
   257
  9
$OBSLTYPE
280
     0
  9
$INTERSECTIONDISPLAY
280
     0
  9
$INTERSECTIONCOLOR
 70
   257
  9
$DIMASSOC
280
     2
  9
$PROJECTNAME
  1

  9
$CAMERADISPLAY
290
     0
  9
$LENSLENGTH
 40
50.0
  9
$CAMERAHEIGHT
 40
0.0
  9
$STEPSPERSEC
 40
2.0
  9
$STEPSIZE
 40
6.0
  9
$3DDWFPREC
 40
2.0
  9
$PSOLWIDTH
 40
0.25
  9
$PSOLHEIGHT
 40
4.0
  9
$LOFTANG1
 40
1.570796326794897
  9
$LOFTANG2
 40
1.570796326794897
  9
$LOFTMAG1
 40
0.0
  9
$LOFTMAG2
 40
0.0
  9
$LOFTPARAM
 70
     7
  9
$LOFTNORMALS
280
     1
  9
$LATITUDE
 40
37.795
  9
$LONGITUDE
 40
-122.394
  9
$NORTHDIRECTION
 40
0.0
  9
$TIMEZONE
 70
 -8000
  9
$LIGHTGLYPHDISPLAY
280
     1
  9
$TILEMODELIGHTSYNCH
280
     1
  9
$CMATERIAL
347
3C
  9
$SOLIDHIST
280
     1
  9
$SHOWHIST
280
     1
  9
$DWFFRAME
280
     2
  9
$DGNFRAME
280
     2
  9
$REALWORLDSCALE
290
     1
  9
$INTERFERECOLOR
 62
   256
  9
$CSHADOW
280
     0
  9
$SHADOWPLANELOCATION
 40
0.0
  0
ENDSEC
  0
SECTION
  2
CLASSES
  0
CLASS
  1
ACDBDICTIONARYWDFLT
  2
AcDbDictionaryWithDefault
  3
ObjectDBX Classes
 90
        0
 91
        4
280
     0
281
     0
  0
CLASS
  1
VISUALSTYLE
  2
AcDbVisualStyle
  3
ObjectDBX Classes
 90
     4095
 91
        4
280
     0
281
     0
  0
CLASS
  1
MATERIAL
  2
AcDbMaterial
  3
ObjectDBX Classes
 90
     1153
 91
        4
280
     0
281
     0
  0
CLASS
  1
SUN
  2
AcDbSun
  3
SCENEOE
 90
     1024
 91
        4
280
     0
281
     0
  0
ENDSEC
  0
SECTION
  2
TABLES
  0
TABLE
  2
VPORT
  5
8
330
0
100
AcDbSymbolTable
 70
     1
  0
VPORT
  5
29
330
8
100
AcDbSymbolTableRecord
100
AcDbViewportTableRecord
  2
*Active
 70
     0
 10
0.0
 20
0.0
 11
1.0
 21
1.0
 12
0.0
 22
0.0
 13
0.0
 23
0.0
 14
0.5
 24
0.5
 15
0.5
 25
0.5
 16
0.0
 26
0.0
 36
1.0
 17
91.00082462281999
 27
-128.4993055234307
 37
0.0
 40
256.9986110468615
 41
0.7081814508812795
 42
50.0
 43
0.0
 44
0.0
 50
0.0
 51
0.0
 71
     0
 72
   100
 73
     1
 74
     3
 75
     0
 76
     0
 77
     0
 78
     0
281
     0
 65
     1
110
0.0
120
0.0
130
0.0
111
1.0
121
0.0
131
0.0
112
0.0
122
1.0
132
0.0
 79
     0
146
0.0
 60
     3
 61
     5
292
     1
282
     1
141
0.0
142
0.0
 63
   250
361
3F
  0
ENDTAB
  0
TABLE
  2
LTYPE
  5
5
330
0
100
AcDbSymbolTable
 70
     1
  0
LTYPE
  5
14
330
5
100
AcDbSymbolTableRecord
100
AcDbLinetypeTableRecord
  2
ByBlock
 70
     0
  3

 72
    65
 73
     0
 40
0.0
  0
LTYPE
  5
15
330
5
100
AcDbSymbolTableRecord
100
AcDbLinetypeTableRecord
  2
ByLayer
 70
     0
  3

 72
    65
 73
     0
 40
0.0
  0
LTYPE
  5
16
330
5
100
AcDbSymbolTableRecord
100
AcDbLinetypeTableRecord
  2
Continuous
 70
     0
  3
Solid line
 72
    65
 73
     0
 40
0.0
  0
ENDTAB
  0
TABLE
  2
LAYER
  5
2
330
0
100
AcDbSymbolTable
 70
     2
  0
LAYER
  5
10
330
2
100
AcDbSymbolTableRecord
100
AcDbLayerTableRecord
  2
0
 70
     0
 62
     7
  6
Continuous
370
    -3
390
F
347
3E
  0
LAYER
  5
40
330
2
100
AcDbSymbolTableRecord
100
AcDbLayerTableRecord
  2
_U+30EC_U+30A4_U+30E4_U+30FC 1
 70
     0
 62
     7
  6
Continuous
370
    -3
390
F
347
3E
  0
ENDTAB
  0
TABLE
  2
STYLE
  5
3
330
0
100
AcDbSymbolTable
 70
     1
  0
STYLE
  5
11
330
3
100
AcDbSymbolTableRecord
100
AcDbTextStyleTableRecord
  2
Standard
 70
     0
 40
0.0
 41
1.0
 50
0.0
 71
     0
 42
0.2
  3
txt
  4

  0
ENDTAB
  0
TABLE
  2
VIEW
  5
6
330
0
100
AcDbSymbolTable
 70
     0
  0
ENDTAB
  0
TABLE
  2
UCS
  5
7
330
0
100
AcDbSymbolTable
 70
     0
  0
ENDTAB
  0
TABLE
  2
APPID
  5
9
330
0
100
AcDbSymbolTable
 70
     1
  0
APPID
  5
12
330
9
100
AcDbSymbolTableRecord
100
AcDbRegAppTableRecord
  2
ACAD
 70
     0
  0
ENDTAB
  0
TABLE
  2
DIMSTYLE
  5
A
330
0
100
AcDbSymbolTable
 70
     1
100
AcDbDimStyleTable
  0
DIMSTYLE
105
27
330
A
100
AcDbSymbolTableRecord
100
AcDbDimStyleTableRecord
  2
Standard
 70
     0
178
     0
340
11
  0
ENDTAB
  0
TABLE
  2
BLOCK_RECORD
  5
1
330
0
100
AcDbSymbolTable
 70
     7
  0
BLOCK_RECORD
  5
1F
330
1
100
AcDbSymbolTableRecord
100
AcDbBlockTableRecord
  2
*Model_Space
340
22
 70
     0
280
     1
281
     0
  0
BLOCK_RECORD
  5
1B
330
1
100
AcDbSymbolTableRecord
100
AcDbBlockTableRecord
  2
*Paper_Space
340
1E
 70
     0
280
     1
281
     0
  0
BLOCK_RECORD
  5
23
330
1
100
AcDbSymbolTableRecord
100
AcDbBlockTableRecord
  2
*Paper_Space0
340
26
 70
     0
280
     1
281
     0
  0
BLOCK_RECORD
  5
B5
330
1
100
AcDbSymbolTableRecord
100
AcDbBlockTableRecord
  2
block 2
340
0
102
{BLKREFS
331
B6
102
}
 70
     0
280
     1
281
     0
  0
BLOCK_RECORD
  5
C9
330
1
100
AcDbSymbolTableRecord
100
AcDbBlockTableRecord
  2
block 3
340
0
102
{BLKREFS
331
CA
102
}
 70
     0
280
     1
281
     0
  0
BLOCK_RECORD
  5
DE
330
1
100
AcDbSymbolTableRecord
100
AcDbBlockTableRecord
  2
block 4
340
0
102
{BLKREFS
331
DF
102
}
 70
     0
280
     1
281
     0
  0
BLOCK_RECORD
  5
F6
330
1
100
AcDbSymbolTableRecord
100
AcDbBlockTableRecord
  2
block 5
340
0
102
{BLKREFS
331
F7
102
}
 70
     0
280
     1
281
     0
  0
BLOCK_RECORD
  5
114
330
1
100
AcDbSymbolTableRecord
100
AcDbBlockTableRecord
  2
block 6
340
0
102
{BLKREFS
331
115
102
}
 70
     0
280
     1
281
     0
  0
BLOCK_RECORD
  5
12E
330
1
100
AcDbSymbolTableRecord
100
AcDbBlockTableRecord
  2
block 7
340
0
102
{BLKREFS
331
12F
102
}
 70
     0
280
     1
281
     0
  0
ENDTAB
  0
ENDSEC
  0
SECTION
  2
BLOCKS
  0
BLOCK
  5
20
330
1F
100
AcDbEntity
  8
0
100
AcDbBlockBegin
  2
*Model_Space
 70
     0
 10
0.0
 20
0.0
 30
0.0
  3
*Model_Space
  1

  0
ENDBLK
  5
21
330
1F
100
AcDbEntity
  8
0
100
AcDbBlockEnd
  0
BLOCK
  5
1C
330
1B
100
AcDbEntity
 67
     1
  8
0
100
AcDbBlockBegin
  2
*Paper_Space
 70
     0
 10
0.0
 20
0.0
 30
0.0
  3
*Paper_Space
  1

  0
ENDBLK
  5
1D
330
1B
100
AcDbEntity
 67
     1
  8
0
100
AcDbBlockEnd
  0
BLOCK
  5
24
330
23
100
AcDbEntity
  8
0
100
AcDbBlockBegin
  2
*Paper_Space0
 70
     0
 10
0.0
 20
0.0
 30
0.0
  3
*Paper_Space0
  1

  0
ENDBLK
  5
25
330
23
100
AcDbEntity
  8
0
100
AcDbBlockEnd
  0
BLOCK
  5
B7
330
B5
100
AcDbEntity
  8
0
100
AcDbBlockBegin
  2
block 2
 70
     0
 10
0.0
 20
0.0
 30
0.0
  3
block 2
  1

  0
SPLINE
  5
B9
330
B5
100
AcDbEntity
  8
_U+30EC_U+30A4_U+30E4_U+30FC 1
370
     0
100
AcDbSpline
210
0.0
220
0.0
230
1.0
 70
    11
 71
     3
 72
    53
 73
    49
 74
     0
 42
0.0000000001
 43
0.0000000001
 12
1.0
 22
0.0
 32
0.0
 13
1.0
 23
0.0
 33
0.0
 40
0.0
 40
0.0
 40
0.0
 40
0.0
 40
1.0
 40
1.0
 40
1.0
 40
2.0
 40
2.0
 40
2.0
 40
3.0
 40
3.0
 40
3.0
 40
4.0
 40
4.0
 40
4.0
 40
5.0
 40
5.0
 40
5.0
 40
6.0
 40
6.0
 40
6.0
 40
7.0
 40
7.0
 40
7.0
 40
8.0
 40
8.0
 40
8.0
 40
9.0
 40
9.0
 40
9.0
 40
10.0
 40
10.0
 40
10.0
 40
11.0
 40
11.0
 40
11.0
 40
12.0
 40
12.0
 40
12.0
 40
13.0
 40
13.0
 40
13.0
 40
14.0
 40
14.0
 40
14.0
 40
15.0
 40
15.0
 40
15.0
 40
16.0
 40
16.0
 40
16.0
 40
16.0
 10
75.32218965130835
 20
-131.2867322805464
 30
0.0
 10
75.32218965130835
 20
-131.3769937822599
 30
0.0
 10
75.30393064523652
 20
-131.494471538307
 30
0.0
 10
75.23537324508005
 20
-131.6116047848055
 30
0.0
 10
75.11651745083893
 20
-131.812109342047
 30
0.0
 10
74.97457951684663
 20
-131.8365695199923
 30
0.0
 10
74.85779077989666
 20
-131.8582736215493
 30
0.0
 10
74.85779077989666
 20
-131.8582736215493
 30
0.0
 10
74.85779077989666
 20
-131.6019585174467
 30
0.0
 10
74.85779077989666
 20
-131.6019585174467
 30
0.0
 10
75.07310924772479
 20
-131.5385687605181
 30
0.0
 10
75.1051486357376
 20
-131.3918076928465
 30
0.0
 10
75.1051486357376
 20
-131.2843207137067
 30
0.0
 10
75.1051486357376
 20
-131.123090244997
 30
0.0
 10
74.99731714704929
 20
-130.9470458657007
 30
0.0
 10
74.74582517662604
 20
-130.9470458657007
 30
0.0
 10
74.46883949961196
 20
-130.9470458657007
 30
0.0
 10
74.39339190848499
 20
-131.1547851234613
 30
0.0
 10
74.39339190848499
 20
-131.2939669810654
 30
0.0
 10
74.39339190848499
 20
-131.330484993209
 30
0.0
 10
74.39339190848499
 20
-131.494471538307
 30
0.0
 10
74.53291827563761
 20
-131.5971353837674
 30
0.0
 10
74.53291827563761
 20
-131.5971353837674
 30
0.0
 10
74.51259221227463
 20
-131.7997069983001
 30
0.0
 10
74.51259221227463
 20
-131.7997069983001
 30
0.0
 10
74.51259221227463
 20
-131.7997069983001
 30
0.0
 10
73.59723034184375
 20
-131.660525140696
 30
0.0
 10
73.59723034184375
 20
-131.660525140696
 30
0.0
 10
73.59723034184375
 20
-131.660525140696
 30
0.0
 10
73.59723034184375
 20
-130.7613552190458
 30
0.0
 10
73.59723034184375
 20
-130.7613552190458
 30
0.0
 10
73.59723034184375
 20
-130.7613552190458
 30
0.0
 10
73.80772567599251
 20
-130.7613552190458
 30
0.0
 10
73.80772567599251
 20
-130.7613552190458
 30
0.0
 10
73.80772567599251
 20
-130.7613552190458
 30
0.0
 10
73.80772567599251
 20
-131.4724229272013
 30
0.0
 10
73.80772567599251
 20
-131.4724229272013
 30
0.0
 10
73.80772567599251
 20
-131.4724229272013
 30
0.0
 10
74.2652343564337
 20
-131.5482150278768
 30
0.0
 10
74.2652343564337
 20
-131.5482150278768
 30
0.0
 10
74.22871634429005
 20
-131.4772460608807
 30
0.0
 10
74.1853081411759
 20
-131.3821614254878
 30
0.0
 10
74.1853081411759
 20
-131.2450466251749
 30
0.0
 10
74.1853081411759
 20
-130.9518689993801
 30
0.0
 10
74.38650171751449
 20
-130.6779839083027
 30
0.0
 10
74.72515460371454
 20
-130.6779839083027
 30
0.0
 10
75.06828611404543
 20
-130.6779839083027
 30
0.0
 10
75.32218965130835
 20
-130.9370550887935
 30
0.0
 10
75.32218965130835
 20
-131.2867322805464
 30
0.0
  0
HATCH
  5
BA
330
B5
100
AcDbEntity
  8
_U+30EC_U+30A4_U+30E4_U+30FC 1
 62
   179
420
  2234388
100
AcDbHatch
 10
0.0
 20
0.0
 30
0.0
210
0.0
220
0.0
230
1.0
  2
SOLID
 70
     1
 71
     0
 91
        1
 92
        1
 93
        1
 72
     4
 94
        3
 73
     0
 74
     1
 95
       53
 96
       49
 40
0.0
 40
0.0
 40
0.0
 40
0.0
 40
1.0
 40
1.0
 40
1.0
 40
2.0
 40
2.0
 40
2.0
 40
3.0
 40
3.0
 40
3.0
 40
4.0
 40
4.0
 40
4.0
 40
5.0
 40
5.0
 40
5.0
 40
6.0
 40
6.0
 40
6.0
 40
7.0
 40
7.0
 40
7.0
 40
8.0
 40
8.0
 40
8.0
 40
9.0
 40
9.0
 40
9.0
 40
10.0
 40
10.0
 40
10.0
 40
11.0
 40
11.0
 40
11.0
 40
12.0
 40
12.0
 40
12.0
 40
13.0
 40
13.0
 40
13.0
 40
14.0
 40
14.0
 40
14.0
 40
15.0
 40
15.0
 40
15.0
 40
16.0
 40
16.0
 40
16.0
 40
16.0
 10
75.32218965130835
 20
-131.2867322805464
 10
75.32218965130835
 20
-131.3769937822599
 10
75.30393064523652
 20
-131.494471538307
 10
75.23537324508005
 20
-131.6116047848055
 10
75.11651745083893
 20
-131.812109342047
 10
74.97457951684663
 20
-131.8365695199923
 10
74.85779077989666
 20
-131.8582736215493
 10
74.85779077989666
 20
-131.8582736215493
 10
74.85779077989666
 20
-131.6019585174467
 10
74.85779077989666
 20
-131.6019585174467
 10
75.07310924772479
 20
-131.5385687605181
 10
75.1051486357376
 20
-131.3918076928465
 10
75.1051486357376
 20
-131.2843207137067
 10
75.1051486357376
 20
-131.123090244997
 10
74.99731714704929
 20
-130.9470458657007
 10
74.74582517662604
 20
-130.9470458657007
 10
74.46883949961196
 20
-130.9470458657007
 10
74.39339190848499
 20
-131.1547851234613
 10
74.39339190848499
 20
-131.2939669810654
 10
74.39339190848499
 20
-131.330484993209
 10
74.39339190848499
 20
-131.494471538307
 10
74.53291827563761
 20
-131.5971353837674
 10
74.53291827563761
 20
-131.5971353837674
 10
74.51259221227463
 20
-131.7997069983001
 10
74.51259221227463
 20
-131.7997069983001
 10
74.51259221227463
 20
-131.7997069983001
 10
73.59723034184375
 20
-131.660525140696
 10
73.59723034184375
 20
-131.660525140696
 10
73.59723034184375
 20
-131.660525140696
 10
73.59723034184375
 20
-130.7613552190458
 10
73.59723034184375
 20
-130.7613552190458
 10
73.59723034184375
 20
-130.7613552190458
 10
73.80772567599251
 20
-130.7613552190458
 10
73.80772567599251
 20
-130.7613552190458
 10
73.80772567599251
 20
-130.7613552190458
 10
73.80772567599251
 20
-131.4724229272013
 10
73.80772567599251
 20
-131.4724229272013
 10
73.80772567599251
 20
-131.4724229272013
 10
74.2652343564337
 20
-131.5482150278768
 10
74.2652343564337
 20
-131.5482150278768
 10
74.22871634429005
 20
-131.4772460608807
 10
74.1853081411759
 20
-131.3821614254878
 10
74.1853081411759
 20
-131.2450466251749
 10
74.1853081411759
 20
-130.9518689993801
 10
74.38650171751449
 20
-130.6779839083027
 10
74.72515460371454
 20
-130.6779839083027
 10
75.06828611404543
 20
-130.6779839083027
 10
75.32218965130835
 20
-130.9370550887935
 10
75.32218965130835
 20
-131.2867322805464
 97
        0
 97
        0
 75
     2
 76
     1
 98
        0
  0
SPLINE
  5
BB
330
B5
100
AcDbEntity
  8
_U+30EC_U+30A4_U+30E4_U+30FC 1
370
     0
100
AcDbSpline
210
0.0
220
0.0
230
1.0
 70
    11
 71
     3
 72
    53
 73
    49
 74
     0
 42
0.0000000001
 43
0.0000000001
 12
1.0
 22
0.0
 32
0.0
 13
1.0
 23
0.0
 33
0.0
 40
0.0
 40
0.0
 40
0.0
 40
0.0
 40
1.0
 40
1.0
 40
1.0
 40
2.0
 40
2.0
 40
2.0
 40
3.0
 40
3.0
 40
3.0
 40
4.0
 40
4.0
 40
4.0
 40
5.0
 40
5.0
 40
5.0
 40
6.0
 40
6.0
 40
6.0
 40
7.0
 40
7.0
 40
7.0
 40
8.0
 40
8.0
 40
8.0
 40
9.0
 40
9.0
 40
9.0
 40
10.0
 40
10.0
 40
10.0
 40
11.0
 40
11.0
 40
11.0
 40
12.0
 40
12.0
 40
12.0
 40
13.0
 40
13.0
 40
13.0
 40
14.0
 40
14.0
 40
14.0
 40
15.0
 40
15.0
 40
15.0
 40
16.0
 40
16.0
 40
16.0
 40
16.0
 10
75.32218965130835
 20
-129.9283311307124
 30
0.0
 10
75.32218965130835
 20
-130.0185926324259
 30
0.0
 10
75.30393064523652
 20
-130.1360703884729
 30
0.0
 10
75.23537324508005
 20
-130.2532036349714
 30
0.0
 10
75.11651745083893
 20
-130.453708192213
 30
0.0
 10
74.97457951684663
 20
-130.4781683701582
 30
0.0
 10
74.85779077989666
 20
-130.5002169812638
 30
0.0
 10
74.85779077989666
 20
-130.5002169812638
 30
0.0
 10
74.85779077989666
 20
-130.2435573676127
 30
0.0
 10
74.85779077989666
 20
-130.2435573676127
 30
0.0
 10
75.07310924772479
 20
-130.1798231011356
 30
0.0
 10
75.1051486357376
 20
-130.0334065430125
 30
0.0
 10
75.1051486357376
 20
-129.9255750543242
 30
0.0
 10
75.1051486357376
 20
-129.7643445856145
 30
0.0
 10
74.99731714704929
 20
-129.5886447158667
 30
0.0
 10
74.74582517662604
 20
-129.5886447158667
 30
0.0
 10
74.46883949961196
 20
-129.5886447158667
 30
0.0
 10
74.39339190848499
 20
-129.7960394640788
 30
0.0
 10
74.39339190848499
 20
-129.9355658312314
 30
0.0
 10
74.39339190848499
 20
-129.9724283529236
 30
0.0
 10
74.39339190848499
 20
-130.1360703884729
 30
0.0
 10
74.53291827563761
 20
-130.2383897243849
 30
0.0
 10
74.53291827563761
 20
-130.2383897243849
 30
0.0
 10
74.51259221227463
 20
-130.4416503580146
 30
0.0
 10
74.51259221227463
 20
-130.4416503580146
 30
0.0
 10
74.51259221227463
 20
-130.4416503580146
 30
0.0
 10
73.59723034184375
 20
-130.302123990862
 30
0.0
 10
73.59723034184375
 20
-130.302123990862
 30
0.0
 10
73.59723034184375
 20
-130.302123990862
 30
0.0
 10
73.59723034184375
 20
-129.4026095596632
 30
0.0
 10
73.59723034184375
 20
-129.4026095596632
 30
0.0
 10
73.59723034184375
 20
-129.4026095596632
 30
0.0
 10
73.80772567599251
 20
-129.4026095596632
 30
0.0
 10
73.80772567599251
 20
-129.4026095596632
 30
0.0
 10
73.80772567599251
 20
-129.4026095596632
 30
0.0
 10
73.80772567599251
 20
-130.1140217773673
 30
0.0
 10
73.80772567599251
 20
-130.1140217773673
 30
0.0
 10
73.80772567599251
 20
-130.1140217773673
 30
0.0
 10
74.2652343564337
 20
-130.1898138780428
 30
0.0
 10
74.2652343564337
 20
-130.1898138780428
 30
0.0
 10
74.22871634429005
 20
-130.1188449110467
 30
0.0
 10
74.1853081411759
 20
-130.0234157661053
 30
0.0
 10
74.1853081411759
 20
-129.8866454753409
 30
0.0
 10
74.1853081411759
 20
-129.5934678495461
 30
0.0
 10
74.38650171751449
 20
-129.3199272680172
 30
0.0
 10
74.72515460371454
 20
-129.3199272680172
 30
0.0
 10
75.06828611404543
 20
-129.3199272680172
 30
0.0
 10
75.32218965130835
 20
-129.578998448508
 30
0.0
 10
75.32218965130835
 20
-129.9283311307124
 30
0.0
  0
HATCH
  5
BC
330
B5
100
AcDbEntity
  8
_U+30EC_U+30A4_U+30E4_U+30FC 1
 62
   179
420
  2234388
100
AcDbHatch
 10
0.0
 20
0.0
 30
0.0
210
0.0
220
0.0
230
1.0
  2
SOLID
 70
     1
 71
     0
 91
        1
 92
        1
 93
        1
 72
     4
 94
        3
 73
     0
 74
     1
 95
       53
 96
       49
 40
0.0
 40
0.0
 40
0.0
 40
0.0
 40
1.0
 40
1.0
 40
1.0
 40
2.0
 40
2.0
 40
2.0
 40
3.0
 40
3.0
 40
3.0
 40
4.0
 40
4.0
 40
4.0
 40
5.0
 40
5.0
 40
5.0
 40
6.0
 40
6.0
 40
6.0
 40
7.0
 40
7.0
 40
7.0
 40
8.0
 40
8.0
 40
8.0
 40
9.0
 40
9.0
 40
9.0
 40
10.0
 40
10.0
 40
10.0
 40
11.0
 40
11.0
 40
11.0
 40
12.0
 40
12.0
 40
12.0
 40
13.0
 40
13.0
 40
13.0
 40
14.0
 40
14.0
 40
14.0
 40
15.0
 40
15.0
 40
15.0
 40
16.0
 40
16.0
 40
16.0
 40
16.0
 10
75.32218965130835
 20
-129.9283311307124
 10
75.32218965130835
 20
-130.0185926324259
 10
75.30393064523652
 20
-130.1360703884729
 10
75.23537324508005
 20
-130.2532036349714
 10
75.11651745083893
 20
-130.453708192213
 10
74.97457951684663
 20
-130.4781683701582
 10
74.85779077989666
 20
-130.5002169812638
 10
74.85779077989666
 20
-130.5002169812638
 10
74.85779077989666
 20
-130.2435573676127
 10
74.85779077989666
 20
-130.2435573676127
 10
75.07310924772479
 20
-130.1798231011356
 10
75.1051486357376
 20
-130.0334065430125
 10
75.1051486357376
 20
-129.9255750543242
 10
75.1051486357376
 20
-129.7643445856145
 10
74.99731714704929
 20
-129.5886447158667
 10
74.74582517662604
 20
-129.5886447158667
 10
74.46883949961196
 20
-129.5886447158667
 10
74.39339190848499
 20
-129.7960394640788
 10
74.39339190848499
 20
-129.9355658312314
 10
74.39339190848499
 20
-129.9724283529236
 10
74.39339190848499
 20
-130.1360703884729
 10
74.53291827563761
 20
-130.2383897243849
 10
74.53291827563761
 20
-130.2383897243849
 10
74.51259221227463
 20
-130.4416503580146
 10
74.51259221227463
 20
-130.4416503580146
 10
74.51259221227463
 20
-130.4416503580146
 10
73.59723034184375
 20
-130.302123990862
 10
73.59723034184375
 20
-130.302123990862
 10
73.59723034184375
 20
-130.302123990862
 10
73.59723034184375
 20
-129.4026095596632
 10
73.59723034184375
 20
-129.4026095596632
 10
73.59723034184375
 20
-129.4026095596632
 10
73.80772567599251
 20
-129.4026095596632
 10
73.80772567599251
 20
-129.4026095596632
 10
73.80772567599251
 20
-129.4026095596632
 10
73.80772567599251
 20
-130.1140217773673
 10
73.80772567599251
 20
-130.1140217773673
 10
73.80772567599251
 20
-130.1140217773673
 10
74.2652343564337
 20
-130.1898138780428
 10
74.2652343564337
 20
-130.1898138780428
 10
74.22871634429005
 20
-130.1188449110467
 10
74.1853081411759
 20
-130.0234157661053
 10
74.1853081411759
 20
-129.8866454753409
 10
74.1853081411759
 20
-129.5934678495461
 10
74.38650171751449
 20
-129.3199272680172
 10
74.72515460371454
 20
-129.3199272680172
 10
75.06828611404543
 20
-129.3199272680172
 10
75.32218965130835
 20
-129.578998448508
 10
75.32218965130835
 20
-129.9283311307124
 97
        0
 97
        0
 75
     2
 76
     1
 98
        0
  0
ENDBLK
  5
B8
330
B5
100
AcDbEntity
  8
0
100
AcDbBlockEnd
  0
BLOCK
  5
CB
330
C9
100
AcDbEntity
  8
0
100
AcDbBlockBegin
  2
block 3
 70
     0
 10
0.0
 20
0.0
 30
0.0
  3
block 3
  1

  0
SPLINE
  5
CD
330
C9
100
AcDbEntity
  8
_U+30EC_U+30A4_U+30E4_U+30FC 1
370
     0
100
AcDbSpline
210
0.0
220
0.0
230
1.0
 70
    11
 71
     3
 72
    44
 73
    40
 74
     0
 42
0.0000000001
 43
0.0000000001
 12
1.0
 22
0.0
 32
0.0
 13
1.0
 23
0.0
 33
0.0
 40
0.0
 40
0.0
 40
0.0
 40
0.0
 40
1.0
 40
1.0
 40
1.0
 40
2.0
 40
2.0
 40
2.0
 40
3.0
 40
3.0
 40
3.0
 40
4.0
 40
4.0
 40
4.0
 40
5.0
 40
5.0
 40
5.0
 40
6.0
 40
6.0
 40
6.0
 40
7.0
 40
7.0
 40
7.0
 40
8.0
 40
8.0
 40
8.0
 40
9.0
 40
9.0
 40
9.0
 40
10.0
 40
10.0
 40
10.0
 40
11.0
 40
11.0
 40
11.0
 40
12.0
 40
12.0
 40
12.0
 40
13.0
 40
13.0
 40
13.0
 40
13.0
 10
98.63825138593072
 20
-132.3688367724633
 30
0.0
 10
98.80981714109616
 20
-132.6031032654603
 30
0.0
 10
98.88974335635396
 20
-132.7037000536296
 30
0.0
 10
99.04546167228725
 20
-132.7560655050054
 30
0.0
 10
99.04546167228725
 20
-132.7560655050054
 30
0.0
 10
99.04546167228725
 20
-131.9178737734441
 30
0.0
 10
99.04546167228725
 20
-131.9178737734441
 30
0.0
 10
99.04546167228725
 20
-131.9178737734441
 30
0.0
 10
99.26732582153734
 20
-131.9178737734441
 30
0.0
 10
99.26732582153734
 20
-131.9178737734441
 30
0.0
 10
99.26732582153734
 20
-131.9178737734441
 30
0.0
 10
99.26732582153734
 20
-133.0247829528549
 30
0.0
 10
99.26732582153734
 20
-133.0247829528549
 30
0.0
 10
98.88078610809231
 20
-132.9903319980024
 30
0.0
 10
98.79603675915516
 20
-132.9197075405548
 30
0.0
 10
98.47357582173578
 20
-132.5052625536792
 30
0.0
 10
98.25825735390767
 20
-132.2296549148593
 30
0.0
 10
98.18522132962036
 20
-132.1593749669602
 30
0.0
 10
98.03639320465757
 20
-132.1593749669602
 30
0.0
 10
97.90823565260628
 20
-132.1593749669602
 30
0.0
 10
97.76664222816251
 20
-132.2365451058297
 30
0.0
 10
97.76664222816251
 20
-132.4484184781726
 30
0.0
 10
97.76664222816251
 20
-132.7285047411234
 30
0.0
 10
98.0160671412946
 20
-132.7374619893851
 30
0.0
 10
98.14181312650622
 20
-132.7422851230644
 30
0.0
 10
98.14181312650622
 20
-132.7422851230644
 30
0.0
 10
98.14181312650622
 20
-132.9834418070319
 30
0.0
 10
98.14181312650622
 20
-132.9834418070319
 30
0.0
 10
98.00435381664475
 20
-132.9744845587703
 30
0.0
 10
97.88308645556396
 20
-132.9631157436689
 30
0.0
 10
97.75527341306119
 20
-132.8766438469892
 30
0.0
 10
97.58129609105607
 20
-132.7581325622966
 30
0.0
 10
97.54477807891242
 20
-132.5576280050551
 30
0.0
 10
97.54477807891242
 20
-132.4325710389405
 30
0.0
 10
97.54477807891242
 20
-132.1342257699178
 30
0.0
 10
97.74356008841134
 20
-131.9113280920222
 30
0.0
 10
98.03880477149725
 20
-131.9113280920222
 30
0.0
 10
98.28581811778966
 20
-131.9113280920222
 30
0.0
 10
98.39330509692945
 20
-132.0363850581367
 30
0.0
 10
98.63825138593072
 20
-132.3688367724633
 30
0.0
  0
HATCH
  5
CE
330
C9
100
AcDbEntity
  8
_U+30EC_U+30A4_U+30E4_U+30FC 1
 62
   179
420
  2234388
100
AcDbHatch
 10
0.0
 20
0.0
 30
0.0
210
0.0
220
0.0
230
1.0
  2
SOLID
 70
     1
 71
     0
 91
        1
 92
        1
 93
        1
 72
     4
 94
        3
 73
     0
 74
     1
 95
       44
 96
       40
 40
0.0
 40
0.0
 40
0.0
 40
0.0
 40
1.0
 40
1.0
 40
1.0
 40
2.0
 40
2.0
 40
2.0
 40
3.0
 40
3.0
 40
3.0
 40
4.0
 40
4.0
 40
4.0
 40
5.0
 40
5.0
 40
5.0
 40
6.0
 40
6.0
 40
6.0
 40
7.0
 40
7.0
 40
7.0
 40
8.0
 40
8.0
 40
8.0
 40
9.0
 40
9.0
 40
9.0
 40
10.0
 40
10.0
 40
10.0
 40
11.0
 40
11.0
 40
11.0
 40
12.0
 40
12.0
 40
12.0
 40
13.0
 40
13.0
 40
13.0
 40
13.0
 10
98.63825138593072
 20
-132.3688367724633
 10
98.80981714109616
 20
-132.6031032654603
 10
98.88974335635396
 20
-132.7037000536296
 10
99.04546167228725
 20
-132.7560655050054
 10
99.04546167228725
 20
-132.7560655050054
 10
99.04546167228725
 20
-131.9178737734441
 10
99.04546167228725
 20
-131.9178737734441
 10
99.04546167228725
 20
-131.9178737734441
 10
99.26732582153734
 20
-131.9178737734441
 10
99.26732582153734
 20
-131.9178737734441
 10
99.26732582153734
 20
-131.9178737734441
 10
99.26732582153734
 20
-133.0247829528549
 10
99.26732582153734
 20
-133.0247829528549
 10
98.88078610809231
 20
-132.9903319980024
 10
98.79603675915516
 20
-132.9197075405548
 10
98.47357582173578
 20
-132.5052625536792
 10
98.25825735390767
 20
-132.2296549148593
 10
98.18522132962036
 20
-132.1593749669602
 10
98.03639320465757
 20
-132.1593749669602
 10
97.90823565260628
 20
-132.1593749669602
 10
97.76664222816251
 20
-132.2365451058297
 10
97.76664222816251
 20
-132.4484184781726
 10
97.76664222816251
 20
-132.7285047411234
 10
98.0160671412946
 20
-132.7374619893851
 10
98.14181312650622
 20
-132.7422851230644
 10
98.14181312650622
 20
-132.7422851230644
 10
98.14181312650622
 20
-132.9834418070319
 10
98.14181312650622
 20
-132.9834418070319
 10
98.00435381664475
 20
-132.9744845587703
 10
97.88308645556396
 20
-132.9631157436689
 10
97.75527341306119
 20
-132.8766438469892
 10
97.58129609105607
 20
-132.7581325622966
 10
97.54477807891242
 20
-132.5576280050551
 10
97.54477807891242
 20
-132.4325710389405
 10
97.54477807891242
 20
-132.1342257699178
 10
97.74356008841134
 20
-131.9113280920222
 10
98.03880477149725
 20
-131.9113280920222
 10
98.28581811778966
 20
-131.9113280920222
 10
98.39330509692945
 20
-132.0363850581367
 10
98.63825138593072
 20
-132.3688367724633
 97
        0
 97
        0
 75
     2
 76
     1
 98
        0
  0
SPLINE
  5
CF
330
C9
100
AcDbEntity
  8
_U+30EC_U+30A4_U+30E4_U+30FC 1
370
     0
100
AcDbSpline
210
0.0
220
0.0
230
1.0
 70
    11
 71
     3
 72
    29
 73
    25
 74
     0
 42
0.0000000001
 43
0.0000000001
 12
1.0
 22
0.0
 32
0.0
 13
1.0
 23
0.0
 33
0.0
 40
0.0
 40
0.0
 40
0.0
 40
0.0
 40
1.0
 40
1.0
 40
1.0
 40
2.0
 40
2.0
 40
2.0
 40
3.0
 40
3.0
 40
3.0
 40
4.0
 40
4.0
 40
4.0
 40
5.0
 40
5.0
 40
5.0
 40
6.0
 40
6.0
 40
6.0
 40
7.0
 40
7.0
 40
7.0
 40
8.0
 40
8.0
 40
8.0
 40
8.0
 10
99.0750894934604
 20
-130.7747910914383
 30
0.0
 10
99.30177677638984
 20
-130.8908908092912
 30
0.0
 10
99.32210283975282
 20
-131.0776149845917
 30
0.0
 10
99.32210283975282
 20
-131.2030164602548
 30
0.0
 10
99.32210283975282
 20
-131.3759602536144
 30
0.0
 10
99.27180444566817
 20
-131.5282334740624
 30
0.0
 10
99.0750894934604
 20
-131.6308973195228
 30
0.0
 10
98.86459415931164
 20
-131.7425184132449
 30
0.0
 10
98.60827905520905
 20
-131.7631889861564
 30
0.0
 10
98.43223467591278
 20
-131.7631889861564
 30
0.0
 10
98.27686086952801
 20
-131.7631889861564
 30
0.0
 10
98.00435381664475
 20
-131.7445854705361
 30
0.0
 10
97.78937985836517
 20
-131.6308973195228
 30
0.0
 10
97.56992727595474
 20
-131.5147976016699
 30
0.0
 10
97.54477807891242
 20
-131.3418538083104
 30
0.0
 10
97.54477807891242
 20
-131.2030164602548
 30
0.0
 10
97.54477807891242
 20
-131.0321397241864
 30
0.0
 10
97.5926649061574
 20
-130.8771104273502
 30
0.0
 10
97.78937985836517
 20
-130.7747910914383
 30
0.0
 10
97.99746362567424
 20
-130.667648621847
 30
0.0
 10
98.24482148151519
 20
-130.6428439343532
 30
0.0
 10
98.43223467591278
 20
-130.6428439343532
 30
0.0
 10
98.61758081301922
 20
-130.6428439343532
 30
0.0
 10
98.8670057261513
 20
-130.6655815645558
 30
0.0
 10
99.0750894934604
 20
-130.7747910914383
 30
0.0
  0
SPLINE
  5
D0
330
C9
100
AcDbEntity
  8
_U+30EC_U+30A4_U+30E4_U+30FC 1
370
     0
100
AcDbSpline
210
0.0
220
0.0
230
1.0
 70
    11
 71
     3
 72
    17
 73
    13
 74
     0
 42
0.0000000001
 43
0.0000000001
 12
1.0
 22
0.0
 32
0.0
 13
1.0
 23
0.0
 33
0.0
 40
0.0
 40
0.0
 40
0.0
 40
0.0
 40
1.0
 40
1.0
 40
1.0
 40
2.0
 40
2.0
 40
2.0
 40
3.0
 40
3.0
 40
3.0
 40
4.0
 40
4.0
 40
4.0
 40
4.0
 10
97.7528618462215
 20
-131.2030164602548
 30
0.0
 10
97.7528618462215
 20
-131.4717339081043
 30
0.0
 10
98.05947534440875
 20
-131.5216877926404
 30
0.0
 10
98.43223467591278
 20
-131.5216877926404
 30
0.0
 10
98.77777775308334
 20
-131.5216877926404
 30
0.0
 10
99.11160750560404
 20
-131.4827582136571
 30
0.0
 10
99.11160750560404
 20
-131.2030164602548
 30
0.0
 10
99.11160750560404
 20
-130.9363660696965
 30
0.0
 10
98.80740557425649
 20
-130.8840006183207
 30
0.0
 10
98.43223467591278
 20
-130.8840006183207
 30
0.0
 10
98.08669159874222
 20
-130.8840006183207
 30
0.0
 10
97.7528618462215
 20
-130.9249972545952
 30
0.0
 10
97.7528618462215
 20
-131.2030164602548
 30
0.0
  0
HATCH
  5
D1
330
C9
100
AcDbEntity
  8
_U+30EC_U+30A4_U+30E4_U+30FC 1
 62
   179
420
  2234388
100
AcDbHatch
 10
0.0
 20
0.0
 30
0.0
210
0.0
220
0.0
230
1.0
  2
SOLID
 70
     1
 71
     0
 91
        2
 92
        1
 93
        1
 72
     4
 94
        3
 73
     0
 74
     1
 95
       29
 96
       25
 40
0.0
 40
0.0
 40
0.0
 40
0.0
 40
1.0
 40
1.0
 40
1.0
 40
2.0
 40
2.0
 40
2.0
 40
3.0
 40
3.0
 40
3.0
 40
4.0
 40
4.0
 40
4.0
 40
5.0
 40
5.0
 40
5.0
 40
6.0
 40
6.0
 40
6.0
 40
7.0
 40
7.0
 40
7.0
 40
8.0
 40
8.0
 40
8.0
 40
8.0
 10
99.0750894934604
 20
-130.7747910914383
 10
99.30177677638984
 20
-130.8908908092912
 10
99.32210283975282
 20
-131.0776149845917
 10
99.32210283975282
 20
-131.2030164602548
 10
99.32210283975282
 20
-131.3759602536144
 10
99.27180444566817
 20
-131.5282334740624
 10
99.0750894934604
 20
-131.6308973195228
 10
98.86459415931164
 20
-131.7425184132449
 10
98.60827905520905
 20
-131.7631889861564
 10
98.43223467591278
 20
-131.7631889861564
 10
98.27686086952801
 20
-131.7631889861564
 10
98.00435381664475
 20
-131.7445854705361
 10
97.78937985836517
 20
-131.6308973195228
 10
97.56992727595474
 20
-131.5147976016699
 10
97.54477807891242
 20
-131.3418538083104
 10
97.54477807891242
 20
-131.2030164602548
 10
97.54477807891242
 20
-131.0321397241864
 10
97.5926649061574
 20
-130.8771104273502
 10
97.78937985836517
 20
-130.7747910914383
 10
97.99746362567424
 20
-130.667648621847
 10
98.24482148151519
 20
-130.6428439343532
 10
98.43223467591278
 20
-130.6428439343532
 10
98.61758081301922
 20
-130.6428439343532
 10
98.8670057261513
 20
-130.6655815645558
 10
99.0750894934604
 20
-130.7747910914383
 97
        0
 97
        0
 92
        1
 93
        1
 72
     4
 94
        3
 73
     0
 74
     1
 95
       17
 96
       13
 40
0.0
 40
0.0
 40
0.0
 40
0.0
 40
1.0
 40
1.0
 40
1.0
 40
2.0
 40
2.0
 40
2.0
 40
3.0
 40
3.0
 40
3.0
 40
4.0
 40
4.0
 40
4.0
 40
4.0
 10
97.7528618462215
 20
-131.2030164602548
 10
97.7528618462215
 20
-131.4717339081043
 10
98.05947534440875
 20
-131.5216877926404
 10
98.43223467591278
 20
-131.5216877926404
 10
98.77777775308334
 20
-131.5216877926404
 10
99.11160750560404
 20
-131.4827582136571
 10
99.11160750560404
 20
-131.2030164602548
 10
99.11160750560404
 20
-130.9363660696965
 10
98.80740557425649
 20
-130.8840006183207
 10
98.43223467591278
 20
-130.8840006183207
 10
98.08669159874222
 20
-130.8840006183207
 10
97.7528618462215
 20
-130.9249972545952
 10
97.7528618462215
 20
-131.2030164602548
 97
        0
 97
        0
 75
     2
 76
     1
 98
        0
  0
ENDBLK
  5
CC
330
C9
100
AcDbEntity
  8
0
100
AcDbBlockEnd
  0
BLOCK
  5
E0
330
DE
100
AcDbEntity
  8
0
100
AcDbBlockBegin
  2
block 4
 70
     0
 10
0.0
 20
0.0
 30
0.0
  3
block 4
  1

  0
SPLINE
  5
E2
330
DE
100
AcDbEntity
  8
_U+30EC_U+30A4_U+30E4_U+30FC 1
370
     0
100
AcDbSpline
210
0.0
220
0.0
230
1.0
 70
    11
 71
     3
 72
    26
 73
    22
 74
     0
 42
0.0000000001
 43
0.0000000001
 12
1.0
 22
0.0
 32
0.0
 13
1.0
 23
0.0
 33
0.0
 40
0.0
 40
0.0
 40
0.0
 40
0.0
 40
1.0
 40
1.0
 40
1.0
 40
2.0
 40
2.0
 40
2.0
 40
3.0
 40
3.0
 40
3.0
 40
4.0
 40
4.0
 40
4.0
 40
5.0
 40
5.0
 40
5.0
 40
6.0
 40
6.0
 40
6.0
 40
7.0
 40
7.0
 40
7.0
 40
7.0
 10
81.67425670701199
 20
-145.7702582100852
 30
0.0
 10
81.67425670701199
 20
-145.7702582100852
 30
0.0
 10
81.67425670701199
 20
-144.5761881148976
 30
0.0
 10
81.67425670701199
 20
-144.5761881148976
 30
0.0
 10
81.67425670701199
 20
-144.5761881148976
 30
0.0
 10
81.31906736248274
 20
-144.5761881148976
 30
0.0
 10
81.31906736248274
 20
-144.5761881148976
 30
0.0
 10
81.31906736248274
 20
-144.5761881148976
 30
0.0
 10
81.31906736248274
 20
-144.4159911748335
 30
0.0
 10
81.31906736248274
 20
-144.4159911748335
 30
0.0
 10
81.67666827385167
 20
-144.4001437356013
 30
0.0
 10
81.7266221583878
 20
-144.2240993563051
 30
0.0
 10
81.75866154640062
 20
-144.1004204283846
 30
0.0
 10
81.75866154640062
 20
-144.1004204283846
 30
0.0
 10
81.915757900528
 20
-144.1004204283846
 30
0.0
 10
81.915757900528
 20
-144.1004204283846
 30
0.0
 10
81.915757900528
 20
-144.1004204283846
 30
0.0
 10
81.915757900528
 20
-145.7702582100852
 30
0.0
 10
81.915757900528
 20
-145.7702582100852
 30
0.0
 10
81.915757900528
 20
-145.7702582100852
 30
0.0
 10
81.67425670701199
 20
-145.7702582100852
 30
0.0
 10
81.67425670701199
 20
-145.7702582100852
 30
0.0
  0
HATCH
  5
E3
330
DE
100
AcDbEntity
  8
_U+30EC_U+30A4_U+30E4_U+30FC 1
 62
   179
420
  2234388
100
AcDbHatch
 10
0.0
 20
0.0
 30
0.0
210
0.0
220
0.0
230
1.0
  2
SOLID
 70
     1
 71
     0
 91
        1
 92
        1
 93
        1
 72
     4
 94
        3
 73
     0
 74
     1
 95
       26
 96
       22
 40
0.0
 40
0.0
 40
0.0
 40
0.0
 40
1.0
 40
1.0
 40
1.0
 40
2.0
 40
2.0
 40
2.0
 40
3.0
 40
3.0
 40
3.0
 40
4.0
 40
4.0
 40
4.0
 40
5.0
 40
5.0
 40
5.0
 40
6.0
 40
6.0
 40
6.0
 40
7.0
 40
7.0
 40
7.0
 40
7.0
 10
81.67425670701199
 20
-145.7702582100852
 10
81.67425670701199
 20
-145.7702582100852
 10
81.67425670701199
 20
-144.5761881148976
 10
81.67425670701199
 20
-144.5761881148976
 10
81.67425670701199
 20
-144.5761881148976
 10
81.31906736248274
 20
-144.5761881148976
 10
81.31906736248274
 20
-144.5761881148976
 10
81.31906736248274
 20
-144.5761881148976
 10
81.31906736248274
 20
-144.4159911748335
 10
81.31906736248274
 20
-144.4159911748335
 10
81.67666827385167
 20
-144.4001437356013
 10
81.7266221583878
 20
-144.2240993563051
 10
81.75866154640062
 20
-144.1004204283846
 10
81.75866154640062
 20
-144.1004204283846
 10
81.915757900528
 20
-144.1004204283846
 10
81.915757900528
 20
-144.1004204283846
 10
81.915757900528
 20
-144.1004204283846
 10
81.915757900528
 20
-145.7702582100852
 10
81.915757900528
 20
-145.7702582100852
 10
81.915757900528
 20
-145.7702582100852
 10
81.67425670701199
 20
-145.7702582100852
 10
81.67425670701199
 20
-145.7702582100852
 97
        0
 97
        0
 75
     2
 76
     1
 98
        0
  0
SPLINE
  5
E4
330
DE
100
AcDbEntity
  8
_U+30EC_U+30A4_U+30E4_U+30FC 1
370
     0
100
AcDbSpline
210
0.0
220
0.0
230
1.0
 70
    11
 71
     3
 72
    53
 73
    49
 74
     0
 42
0.0000000001
 43
0.0000000001
 12
1.0
 22
0.0
 32
0.0
 13
1.0
 23
0.0
 33
0.0
 40
0.0
 40
0.0
 40
0.0
 40
0.0
 40
1.0
 40
1.0
 40
1.0
 40
2.0
 40
2.0
 40
2.0
 40
3.0
 40
3.0
 40
3.0
 40
4.0
 40
4.0
 40
4.0
 40
5.0
 40
5.0
 40
5.0
 40
6.0
 40
6.0
 40
6.0
 40
7.0
 40
7.0
 40
7.0
 40
8.0
 40
8.0
 40
8.0
 40
9.0
 40
9.0
 40
9.0
 40
10.0
 40
10.0
 40
10.0
 40
11.0
 40
11.0
 40
11.0
 40
12.0
 40
12.0
 40
12.0
 40
13.0
 40
13.0
 40
13.0
 40
14.0
 40
14.0
 40
14.0
 40
15.0
 40
15.0
 40
15.0
 40
16.0
 40
16.0
 40
16.0
 40
16.0
 10
82.97236868585414
 20
-145.8253797378492
 30
0.0
 10
82.88796384646551
 20
-145.8253797378492
 30
0.0
 10
82.77875431958309
 20
-145.8071207317774
 30
0.0
 10
82.66954479270068
 20
-145.7385633316209
 30
0.0
 10
82.48282061740014
 20
-145.6193630278313
 30
0.0
 10
82.46008298719748
 20
-145.477425093839
 30
0.0
 10
82.43941241428598
 20
-145.3609808664375
 30
0.0
 10
82.43941241428598
 20
-145.3609808664375
 30
0.0
 10
82.67850204096233
 20
-145.3609808664375
 30
0.0
 10
82.67850204096233
 20
-145.3609808664375
 30
0.0
 10
82.73775768330862
 20
-145.5759548247171
 30
0.0
 10
82.87452797407303
 20
-145.6079942127299
 30
0.0
 10
82.9747802526938
 20
-145.6079942127299
 30
0.0
 10
83.1249864158507
 20
-145.6079942127299
 30
0.0
 10
83.2889729609486
 20
-145.5005072335902
 30
0.0
 10
83.2889729609486
 20
-145.2486707536184
 30
0.0
 10
83.2889729609486
 20
-144.9720295861528
 30
0.0
 10
83.09535859467755
 20
-144.8965819950259
 30
0.0
 10
82.96547849488364
 20
-144.8965819950259
 30
0.0
 10
82.93137204957966
 20
-144.8965819950259
 30
0.0
 10
82.77875431958309
 20
-144.8965819950259
 30
0.0
 10
82.68332517464167
 20
-145.0361083621785
 30
0.0
 10
82.68332517464167
 20
-145.0361083621785
 30
0.0
 10
82.49418943250146
 20
-145.015437789267
 30
0.0
 10
82.49418943250146
 20
-145.015437789267
 30
0.0
 10
82.49418943250146
 20
-145.015437789267
 30
0.0
 10
82.62406953229538
 20
-144.1004204283846
 30
0.0
 10
82.62406953229538
 20
-144.1004204283846
 30
0.0
 10
82.62406953229538
 20
-144.1004204283846
 30
0.0
 10
83.46191675430813
 20
-144.1004204283846
 30
0.0
 10
83.46191675430813
 20
-144.1004204283846
 30
0.0
 10
83.46191675430813
 20
-144.1004204283846
 30
0.0
 10
83.46191675430813
 20
-144.3109157625334
 30
0.0
 10
83.46191675430813
 20
-144.3109157625334
 30
0.0
 10
83.46191675430813
 20
-144.3109157625334
 30
0.0
 10
82.79942489249459
 20
-144.3109157625334
 30
0.0
 10
82.79942489249459
 20
-144.3109157625334
 30
0.0
 10
82.79942489249459
 20
-144.3109157625334
 30
0.0
 10
82.72880043504696
 20
-144.7684244429746
 30
0.0
 10
82.72880043504696
 20
-144.7684244429746
 30
0.0
 10
82.79460175881525
 20
-144.7319064308309
 30
0.0
 10
82.88348522233468
 20
-144.6884982277168
 30
0.0
 10
83.01095375528894
 20
-144.6884982277168
 30
0.0
 10
83.28414982726925
 20
-144.6884982277168
 30
0.0
 10
83.53943140272625
 20
-144.8896918040554
 30
0.0
 10
83.53943140272625
 20
-145.2280001807069
 30
0.0
 10
83.53943140272625
 20
-145.5714762005863
 30
0.0
 10
83.29793020921025
 20
-145.8253797378492
 30
0.0
 10
82.97236868585414
 20
-145.8253797378492
 30
0.0
  0
HATCH
  5
E5
330
DE
100
AcDbEntity
  8
_U+30EC_U+30A4_U+30E4_U+30FC 1
 62
   179
420
  2234388
100
AcDbHatch
 10
0.0
 20
0.0
 30
0.0
210
0.0
220
0.0
230
1.0
  2
SOLID
 70
     1
 71
     0
 91
        1
 92
        1
 93
        1
 72
     4
 94
        3
 73
     0
 74
     1
 95
       53
 96
       49
 40
0.0
 40
0.0
 40
0.0
 40
0.0
 40
1.0
 40
1.0
 40
1.0
 40
2.0
 40
2.0
 40
2.0
 40
3.0
 40
3.0
 40
3.0
 40
4.0
 40
4.0
 40
4.0
 40
5.0
 40
5.0
 40
5.0
 40
6.0
 40
6.0
 40
6.0
 40
7.0
 40
7.0
 40
7.0
 40
8.0
 40
8.0
 40
8.0
 40
9.0
 40
9.0
 40
9.0
 40
10.0
 40
10.0
 40
10.0
 40
11.0
 40
11.0
 40
11.0
 40
12.0
 40
12.0
 40
12.0
 40
13.0
 40
13.0
 40
13.0
 40
14.0
 40
14.0
 40
14.0
 40
15.0
 40
15.0
 40
15.0
 40
16.0
 40
16.0
 40
16.0
 40
16.0
 10
82.97236868585414
 20
-145.8253797378492
 10
82.88796384646551
 20
-145.8253797378492
 10
82.77875431958309
 20
-145.8071207317774
 10
82.66954479270068
 20
-145.7385633316209
 10
82.48282061740014
 20
-145.6193630278313
 10
82.46008298719748
 20
-145.477425093839
 10
82.43941241428598
 20
-145.3609808664375
 10
82.43941241428598
 20
-145.3609808664375
 10
82.67850204096233
 20
-145.3609808664375
 10
82.67850204096233
 20
-145.3609808664375
 10
82.73775768330862
 20
-145.5759548247171
 10
82.87452797407303
 20
-145.6079942127299
 10
82.9747802526938
 20
-145.6079942127299
 10
83.1249864158507
 20
-145.6079942127299
 10
83.2889729609486
 20
-145.5005072335902
 10
83.2889729609486
 20
-145.2486707536184
 10
83.2889729609486
 20
-144.9720295861528
 10
83.09535859467755
 20
-144.8965819950259
 10
82.96547849488364
 20
-144.8965819950259
 10
82.93137204957966
 20
-144.8965819950259
 10
82.77875431958309
 20
-144.8965819950259
 10
82.68332517464167
 20
-145.0361083621785
 10
82.68332517464167
 20
-145.0361083621785
 10
82.49418943250146
 20
-145.015437789267
 10
82.49418943250146
 20
-145.015437789267
 10
82.49418943250146
 20
-145.015437789267
 10
82.62406953229538
 20
-144.1004204283846
 10
82.62406953229538
 20
-144.1004204283846
 10
82.62406953229538
 20
-144.1004204283846
 10
83.46191675430813
 20
-144.1004204283846
 10
83.46191675430813
 20
-144.1004204283846
 10
83.46191675430813
 20
-144.1004204283846
 10
83.46191675430813
 20
-144.3109157625334
 10
83.46191675430813
 20
-144.3109157625334
 10
83.46191675430813
 20
-144.3109157625334
 10
82.79942489249459
 20
-144.3109157625334
 10
82.79942489249459
 20
-144.3109157625334
 10
82.79942489249459
 20
-144.3109157625334
 10
82.72880043504696
 20
-144.7684244429746
 10
82.72880043504696
 20
-144.7684244429746
 10
82.79460175881525
 20
-144.7319064308309
 10
82.88348522233468
 20
-144.6884982277168
 10
83.01095375528894
 20
-144.6884982277168
 10
83.28414982726925
 20
-144.6884982277168
 10
83.53943140272625
 20
-144.8896918040554
 10
83.53943140272625
 20
-145.2280001807069
 10
83.53943140272625
 20
-145.5714762005863
 10
83.29793020921025
 20
-145.8253797378492
 10
82.97236868585414
 20
-145.8253797378492
 97
        0
 97
        0
 75
     2
 76
     1
 98
        0
  0
ENDBLK
  5
E1
330
DE
100
AcDbEntity
  8
0
100
AcDbBlockEnd
  0
BLOCK
  5
F8
330
F6
100
AcDbEntity
  8
0
100
AcDbBlockBegin
  2
block 5
 70
     0
 10
0.0
 20
0.0
 30
0.0
  3
block 5
  1

  0
SPLINE
  5
FA
330
F6
100
AcDbEntity
  8
_U+30EC_U+30A4_U+30E4_U+30FC 1
370
     0
100
AcDbSpline
210
0.0
220
0.0
230
1.0
 70
    11
 71
     3
 72
    62
 73
    58
 74
     0
 42
0.0000000001
 43
0.0000000001
 12
1.0
 22
0.0
 32
0.0
 13
1.0
 23
0.0
 33
0.0
 40
0.0
 40
0.0
 40
0.0
 40
0.0
 40
1.0
 40
1.0
 40
1.0
 40
2.0
 40
2.0
 40
2.0
 40
3.0
 40
3.0
 40
3.0
 40
4.0
 40
4.0
 40
4.0
 40
5.0
 40
5.0
 40
5.0
 40
6.0
 40
6.0
 40
6.0
 40
7.0
 40
7.0
 40
7.0
 40
8.0
 40
8.0
 40
8.0
 40
9.0
 40
9.0
 40
9.0
 40
10.0
 40
10.0
 40
10.0
 40
11.0
 40
11.0
 40
11.0
 40
12.0
 40
12.0
 40
12.0
 40
13.0
 40
13.0
 40
13.0
 40
14.0
 40
14.0
 40
14.0
 40
15.0
 40
15.0
 40
15.0
 40
16.0
 40
16.0
 40
16.0
 40
17.0
 40
17.0
 40
17.0
 40
18.0
 40
18.0
 40
18.0
 40
19.0
 40
19.0
 40
19.0
 40
19.0
 10
88.92549368436585
 20
-138.7663790885723
 30
0.0
 10
88.82317434845393
 20
-138.7663790885723
 30
0.0
 10
88.58856334590841
 20
-138.7436414583696
 30
0.0
 10
88.45420462198368
 20
-138.5421033724825
 30
0.0
 10
88.37427840672588
 20
-138.4208360114017
 30
0.0
 10
88.36979978259505
 20
-138.313349032262
 30
0.0
 10
88.36532115846423
 20
-138.2220540019028
 30
0.0
 10
88.36532115846423
 20
-138.2220540019028
 30
0.0
 10
88.60199921830089
 20
-138.2220540019028
 30
0.0
 10
88.60199921830089
 20
-138.2220540019028
 30
0.0
 10
88.60441078514057
 20
-138.3019802171606
 30
0.0
 10
88.6157796002419
 20
-138.5558837544235
 30
0.0
 10
88.92101506023502
 20
-138.5558837544235
 30
0.0
 10
89.06880965655225
 20
-138.5558837544235
 30
0.0
 10
89.23279620165013
 20
-138.4804361632966
 30
0.0
 10
89.23279620165013
 20
-138.2330783074556
 30
0.0
 10
89.23279620165013
 20
-138.1076768317925
 30
0.0
 10
89.19179956537566
 20
-138.0546223613197
 30
0.0
 10
89.1576931200717
 20
-138.0205159160157
 30
0.0
 10
89.07811141436243
 20
-137.9402451912094
 30
0.0
 10
88.95270993869933
 20
-137.9268093188169
 30
0.0
 10
88.89345429635303
 20
-137.9268093188169
 30
0.0
 10
88.87312823299006
 20
-137.9268093188169
 30
0.0
 10
88.83454316355525
 20
-137.9292208856566
 30
0.0
 10
88.8049153423821
 20
-137.9333550002389
 30
0.0
 10
88.8049153423821
 20
-137.9333550002389
 30
0.0
 10
88.8049153423821
 20
-137.7232041756386
 30
0.0
 10
88.8049153423821
 20
-137.7232041756386
 30
0.0
 10
88.84591197865659
 20
-137.7300943666091
 30
0.0
 10
88.89138723906188
 20
-137.7321614239003
 30
0.0
 10
88.89827743003238
 20
-137.7321614239003
 30
0.0
 10
88.96890188748
 20
-137.7321614239003
 30
0.0
 10
89.18284231711401
 20
-137.7094237936977
 30
0.0
 10
89.18284231711401
 20
-137.4531086895951
 30
0.0
 10
89.18284231711401
 20
-137.2608723615181
 30
0.0
 10
89.04159340221877
 20
-137.2016167191718
 30
0.0
 10
88.92308211752618
 20
-137.2016167191718
 30
0.0
 10
88.63851723044453
 20
-137.2016167191718
 30
0.0
 10
88.6295599821829
 20
-137.4531086895951
 30
0.0
 10
88.62508135805207
 20
-137.5309678475617
 30
0.0
 10
88.62508135805207
 20
-137.5309678475617
 30
0.0
 10
88.4063177947387
 20
-137.5309678475617
 30
0.0
 10
88.4063177947387
 20
-137.5309678475617
 30
0.0
 10
88.41527504300035
 20
-137.3959201045399
 30
0.0
 10
88.4449028641735
 20
-136.9887098181834
 30
0.0
 10
88.93686249946718
 20
-136.9887098181834
 30
0.0
 10
89.1783636929832
 20
-136.9887098181834
 30
0.0
 10
89.4377793830225
 20
-137.1258246184963
 30
0.0
 10
89.4377793830225
 20
-137.4462184986246
 30
0.0
 10
89.4377793830225
 20
-137.6474120749631
 30
0.0
 10
89.33546004711059
 20
-137.7369845575797
 30
0.0
 10
89.22831757751932
 20
-137.8031303908965
 30
0.0
 10
89.29446341083612
 20
-137.8327582120696
 30
0.0
 10
89.49014483439831
 20
-137.9199191278464
 30
0.0
 10
89.49014483439831
 20
-138.2196424350632
 30
0.0
 10
89.49014483439831
 20
-138.5858560851452
 30
0.0
 10
89.2238389533885
 20
-138.7663790885723
 30
0.0
 10
88.92549368436585
 20
-138.7663790885723
 30
0.0
  0
HATCH
  5
FB
330
F6
100
AcDbEntity
  8
_U+30EC_U+30A4_U+30E4_U+30FC 1
 62
   179
420
  2234388
100
AcDbHatch
 10
0.0
 20
0.0
 30
0.0
210
0.0
220
0.0
230
1.0
  2
SOLID
 70
     1
 71
     0
 91
        1
 92
        1
 93
        1
 72
     4
 94
        3
 73
     0
 74
     1
 95
       62
 96
       58
 40
0.0
 40
0.0
 40
0.0
 40
0.0
 40
1.0
 40
1.0
 40
1.0
 40
2.0
 40
2.0
 40
2.0
 40
3.0
 40
3.0
 40
3.0
 40
4.0
 40
4.0
 40
4.0
 40
5.0
 40
5.0
 40
5.0
 40
6.0
 40
6.0
 40
6.0
 40
7.0
 40
7.0
 40
7.0
 40
8.0
 40
8.0
 40
8.0
 40
9.0
 40
9.0
 40
9.0
 40
10.0
 40
10.0
 40
10.0
 40
11.0
 40
11.0
 40
11.0
 40
12.0
 40
12.0
 40
12.0
 40
13.0
 40
13.0
 40
13.0
 40
14.0
 40
14.0
 40
14.0
 40
15.0
 40
15.0
 40
15.0
 40
16.0
 40
16.0
 40
16.0
 40
17.0
 40
17.0
 40
17.0
 40
18.0
 40
18.0
 40
18.0
 40
19.0
 40
19.0
 40
19.0
 40
19.0
 10
88.92549368436585
 20
-138.7663790885723
 10
88.82317434845393
 20
-138.7663790885723
 10
88.58856334590841
 20
-138.7436414583696
 10
88.45420462198368
 20
-138.5421033724825
 10
88.37427840672588
 20
-138.4208360114017
 10
88.36979978259505
 20
-138.313349032262
 10
88.36532115846423
 20
-138.2220540019028
 10
88.36532115846423
 20
-138.2220540019028
 10
88.60199921830089
 20
-138.2220540019028
 10
88.60199921830089
 20
-138.2220540019028
 10
88.60441078514057
 20
-138.3019802171606
 10
88.6157796002419
 20
-138.5558837544235
 10
88.92101506023502
 20
-138.5558837544235
 10
89.06880965655225
 20
-138.5558837544235
 10
89.23279620165013
 20
-138.4804361632966
 10
89.23279620165013
 20
-138.2330783074556
 10
89.23279620165013
 20
-138.1076768317925
 10
89.19179956537566
 20
-138.0546223613197
 10
89.1576931200717
 20
-138.0205159160157
 10
89.07811141436243
 20
-137.9402451912094
 10
88.95270993869933
 20
-137.9268093188169
 10
88.89345429635303
 20
-137.9268093188169
 10
88.87312823299006
 20
-137.9268093188169
 10
88.83454316355525
 20
-137.9292208856566
 10
88.8049153423821
 20
-137.9333550002389
 10
88.8049153423821
 20
-137.9333550002389
 10
88.8049153423821
 20
-137.7232041756386
 10
88.8049153423821
 20
-137.7232041756386
 10
88.84591197865659
 20
-137.7300943666091
 10
88.89138723906188
 20
-137.7321614239003
 10
88.89827743003238
 20
-137.7321614239003
 10
88.96890188748
 20
-137.7321614239003
 10
89.18284231711401
 20
-137.7094237936977
 10
89.18284231711401
 20
-137.4531086895951
 10
89.18284231711401
 20
-137.2608723615181
 10
89.04159340221877
 20
-137.2016167191718
 10
88.92308211752618
 20
-137.2016167191718
 10
88.63851723044453
 20
-137.2016167191718
 10
88.6295599821829
 20
-137.4531086895951
 10
88.62508135805207
 20
-137.5309678475617
 10
88.62508135805207
 20
-137.5309678475617
 10
88.4063177947387
 20
-137.5309678475617
 10
88.4063177947387
 20
-137.5309678475617
 10
88.41527504300035
 20
-137.3959201045399
 10
88.4449028641735
 20
-136.9887098181834
 10
88.93686249946718
 20
-136.9887098181834
 10
89.1783636929832
 20
-136.9887098181834
 10
89.4377793830225
 20
-137.1258246184963
 10
89.4377793830225
 20
-137.4462184986246
 10
89.4377793830225
 20
-137.6474120749631
 10
89.33546004711059
 20
-137.7369845575797
 10
89.22831757751932
 20
-137.8031303908965
 10
89.29446341083612
 20
-137.8327582120696
 10
89.49014483439831
 20
-137.9199191278464
 10
89.49014483439831
 20
-138.2196424350632
 10
89.49014483439831
 20
-138.5858560851452
 10
89.2238389533885
 20
-138.7663790885723
 10
88.92549368436585
 20
-138.7663790885723
 97
        0
 97
        0
 75
     2
 76
     1
 98
        0
  0
POLYLINE
  5
FC
330
F6
100
AcDbEntity
  8
_U+30EC_U+30A4_U+30E4_U+30FC 1
370
     0
100
AcDb2dPolyline
 66
     1
 10
0.0
 20
0.0
 30
0.0
  0
VERTEX
  5
FD
330
FC
100
AcDbEntity
  8
_U+30EC_U+30A4_U+30E4_U+30FC 1
370
     0
100
AcDbVertex
100
AcDb2dVertex
 10
89.7271674037835
 20
-138.7112575608083
 30
0.0
  0
VERTEX
  5
FE
330
FC
100
AcDbEntity
  8
_U+30EC_U+30A4_U+30E4_U+30FC 1
370
     0
100
AcDbVertex
100
AcDb2dVertex
 10
89.7271674037835
 20
-138.4390950174736
 30
0.0
  0
VERTEX
  5
FF
330
FC
100
AcDbEntity
  8
_U+30EC_U+30A4_U+30E4_U+30FC 1
370
     0
100
AcDbVertex
100
AcDb2dVertex
 10
89.99795190892412
 20
-138.4390950174736
 30
0.0
  0
VERTEX
  5
100
330
FC
100
AcDbEntity
  8
_U+30EC_U+30A4_U+30E4_U+30FC 1
370
     0
100
AcDbVertex
100
AcDb2dVertex
 10
89.99795190892412
 20
-138.7112575608083
 30
0.0
  0
VERTEX
  5
101
330
FC
100
AcDbEntity
  8
_U+30EC_U+30A4_U+30E4_U+30FC 1
370
     0
100
AcDbVertex
100
AcDb2dVertex
 10
89.7271674037835
 20
-138.7112575608083
 30
0.0
  0
SEQEND
  5
102
330
FC
100
AcDbEntity
  8
_U+30EC_U+30A4_U+30E4_U+30FC 1
370
     0
  0
HATCH
  5
103
330
F6
100
AcDbEntity
  8
_U+30EC_U+30A4_U+30E4_U+30FC 1
 62
   179
420
  2234388
100
AcDbHatch
 10
0.0
 20
0.0
 30
0.0
210
0.0
220
0.0
230
1.0
  2
SOLID
 70
     1
 71
     0
 91
        1
 92
        1
 93
        4
 72
     1
 10
89.7271674037835
 20
-138.7112575608083
 11
89.7271674037835
 21
-138.4390950174736
 72
     1
 10
89.7271674037835
 20
-138.4390950174736
 11
89.99795190892412
 21
-138.4390950174736
 72
     1
 10
89.99795190892412
 20
-138.4390950174736
 11
89.99795190892412
 21
-138.7112575608083
 72
     1
 10
89.99795190892412
 20
-138.7112575608083
 11
89.7271674037835
 21
-138.7112575608083
 97
        0
 75
     2
 76
     1
 98
        0
  0
SPLINE
  5
104
330
F6
100
AcDbEntity
  8
_U+30EC_U+30A4_U+30E4_U+30FC 1
370
     0
100
AcDbSpline
210
0.0
220
0.0
230
1.0
 70
    11
 71
     3
 72
    29
 73
    25
 74
     0
 42
0.0000000001
 43
0.0000000001
 12
1.0
 22
0.0
 32
0.0
 13
1.0
 23
0.0
 33
0.0
 40
0.0
 40
0.0
 40
0.0
 40
0.0
 40
1.0
 40
1.0
 40
1.0
 40
2.0
 40
2.0
 40
2.0
 40
3.0
 40
3.0
 40
3.0
 40
4.0
 40
4.0
 40
4.0
 40
5.0
 40
5.0
 40
5.0
 40
6.0
 40
6.0
 40
6.0
 40
7.0
 40
7.0
 40
7.0
 40
8.0
 40
8.0
 40
8.0
 40
8.0
 10
90.7903238705316
 20
-138.7663790885723
 30
0.0
 10
90.50369192615881
 20
-138.7663790885723
 30
0.0
 10
90.23049585417849
 20
-138.6175509636095
 30
0.0
 10
90.23049585417849
 20
-138.2399684984261
 30
0.0
 10
90.23049585417849
 20
-137.9633273309606
 30
0.0
 10
90.38276907462654
 20
-137.8603189759516
 30
0.0
 10
90.4968017351883
 20
-137.7941731426348
 30
0.0
 10
90.36244301126357
 20
-137.7300943666091
 30
0.0
 10
90.28044973871461
 20
-137.6064154386887
 30
0.0
 10
90.28044973871461
 20
-137.4324381166836
 30
0.0
 10
90.28044973871461
 20
-137.1351263763065
 30
0.0
 10
90.49439016834863
 20
-136.9887098181834
 30
0.0
 10
90.7903238705316
 20
-136.9887098181834
 30
0.0
 10
91.09555933052472
 20
-136.9887098181834
 30
0.0
 10
91.30054251189709
 20
-137.1444281341167
 30
0.0
 10
91.30054251189709
 20
-137.4324381166836
 30
0.0
 10
91.30054251189709
 20
-137.6064154386887
 30
0.0
 10
91.21613767250847
 20
-137.7300943666091
 30
0.0
 10
91.08177894858373
 20
-137.7941731426348
 30
0.0
 10
91.17755260307368
 20
-137.8489501608503
 30
0.0
 10
91.34842933914206
 20
-137.9519585158592
 30
0.0
 10
91.34842933914206
 20
-138.2354898742953
 30
0.0
 10
91.34842933914206
 20
-138.6402885938122
 30
0.0
 10
91.04767250327976
 20
-138.7663790885723
 30
0.0
 10
90.7903238705316
 20
-138.7663790885723
 30
0.0
  0
SPLINE
  5
105
330
F6
100
AcDbEntity
  8
_U+30EC_U+30A4_U+30E4_U+30FC 1
370
     0
100
AcDbSpline
210
0.0
220
0.0
230
1.0
 70
    11
 71
     3
 72
    17
 73
    13
 74
     0
 42
0.0000000001
 43
0.0000000001
 12
1.0
 22
0.0
 32
0.0
 13
1.0
 23
0.0
 33
0.0
 40
0.0
 40
0.0
 40
0.0
 40
0.0
 40
1.0
 40
1.0
 40
1.0
 40
2.0
 40
2.0
 40
2.0
 40
3.0
 40
3.0
 40
3.0
 40
4.0
 40
4.0
 40
4.0
 40
4.0
 10
90.7903238705316
 20
-137.9106173700362
 30
0.0
 10
90.63563908324387
 20
-137.9106173700362
 30
0.0
 10
90.47165253814597
 20
-138.004323967235
 30
0.0
 10
90.47165253814597
 20
-138.224121059194
 30
0.0
 10
90.47165253814597
 20
-138.4459852084441
 30
0.0
 10
90.60842282891039
 20
-138.5558837544235
 30
0.0
 10
90.7903238705316
 20
-138.5558837544235
 30
0.0
 10
90.99082842777312
 20
-138.5558837544235
 30
0.0
 10
91.10933971246573
 20
-138.4232475782414
 30
0.0
 10
91.10933971246573
 20
-138.2310112501645
 30
0.0
 10
91.10933971246573
 20
-137.990543585294
 30
0.0
 10
90.9339843522665
 20
-137.9106173700362
 30
0.0
 10
90.7903238705316
 20
-137.9106173700362
 30
0.0
  0
SPLINE
  5
106
330
F6
100
AcDbEntity
  8
_U+30EC_U+30A4_U+30E4_U+30FC 1
370
     0
100
AcDbSpline
210
0.0
220
0.0
230
1.0
 70
    11
 71
     3
 72
    17
 73
    13
 74
     0
 42
0.0000000001
 43
0.0000000001
 12
1.0
 22
0.0
 32
0.0
 13
1.0
 23
0.0
 33
0.0
 40
0.0
 40
0.0
 40
0.0
 40
0.0
 40
1.0
 40
1.0
 40
1.0
 40
2.0
 40
2.0
 40
2.0
 40
3.0
 40
3.0
 40
3.0
 40
4.0
 40
4.0
 40
4.0
 40
4.0
 10
90.7903238705316
 20
-137.1967935854925
 30
0.0
 10
90.61290145304122
 20
-137.1967935854925
 30
0.0
 10
90.52195093223062
 20
-137.2998019405015
 30
0.0
 10
90.52195093223062
 20
-137.4462184986246
 30
0.0
 10
90.52195093223062
 20
-137.5791991843552
 30
0.0
 10
90.59912107110023
 20
-137.7073567364065
 30
0.0
 10
90.7903238705316
 20
-137.7073567364065
 30
0.0
 10
90.98187117951149
 20
-137.7073567364065
 30
0.0
 10
91.05904131838108
 20
-137.5791991843552
 30
0.0
 10
91.05904131838108
 20
-137.4462184986246
 30
0.0
 10
91.05904131838108
 20
-137.2998019405015
 30
0.0
 10
90.9656792307308
 20
-137.1967935854925
 30
0.0
 10
90.7903238705316
 20
-137.1967935854925
 30
0.0
  0
HATCH
  5
107
330
F6
100
AcDbEntity
  8
_U+30EC_U+30A4_U+30E4_U+30FC 1
 62
   179
420
  2234388
100
AcDbHatch
 10
0.0
 20
0.0
 30
0.0
210
0.0
220
0.0
230
1.0
  2
SOLID
 70
     1
 71
     0
 91
        3
 92
        1
 93
        1
 72
     4
 94
        3
 73
     0
 74
     1
 95
       29
 96
       25
 40
0.0
 40
0.0
 40
0.0
 40
0.0
 40
1.0
 40
1.0
 40
1.0
 40
2.0
 40
2.0
 40
2.0
 40
3.0
 40
3.0
 40
3.0
 40
4.0
 40
4.0
 40
4.0
 40
5.0
 40
5.0
 40
5.0
 40
6.0
 40
6.0
 40
6.0
 40
7.0
 40
7.0
 40
7.0
 40
8.0
 40
8.0
 40
8.0
 40
8.0
 10
90.7903238705316
 20
-138.7663790885723
 10
90.50369192615881
 20
-138.7663790885723
 10
90.23049585417849
 20
-138.6175509636095
 10
90.23049585417849
 20
-138.2399684984261
 10
90.23049585417849
 20
-137.9633273309606
 10
90.38276907462654
 20
-137.8603189759516
 10
90.4968017351883
 20
-137.7941731426348
 10
90.36244301126357
 20
-137.7300943666091
 10
90.28044973871461
 20
-137.6064154386887
 10
90.28044973871461
 20
-137.4324381166836
 10
90.28044973871461
 20
-137.1351263763065
 10
90.49439016834863
 20
-136.9887098181834
 10
90.7903238705316
 20
-136.9887098181834
 10
91.09555933052472
 20
-136.9887098181834
 10
91.30054251189709
 20
-137.1444281341167
 10
91.30054251189709
 20
-137.4324381166836
 10
91.30054251189709
 20
-137.6064154386887
 10
91.21613767250847
 20
-137.7300943666091
 10
91.08177894858373
 20
-137.7941731426348
 10
91.17755260307368
 20
-137.8489501608503
 10
91.34842933914206
 20
-137.9519585158592
 10
91.34842933914206
 20
-138.2354898742953
 10
91.34842933914206
 20
-138.6402885938122
 10
91.04767250327976
 20
-138.7663790885723
 10
90.7903238705316
 20
-138.7663790885723
 97
        0
 97
        0
 92
        1
 93
        1
 72
     4
 94
        3
 73
     0
 74
     1
 95
       17
 96
       13
 40
0.0
 40
0.0
 40
0.0
 40
0.0
 40
1.0
 40
1.0
 40
1.0
 40
2.0
 40
2.0
 40
2.0
 40
3.0
 40
3.0
 40
3.0
 40
4.0
 40
4.0
 40
4.0
 40
4.0
 10
90.7903238705316
 20
-137.9106173700362
 10
90.63563908324387
 20
-137.9106173700362
 10
90.47165253814597
 20
-138.004323967235
 10
90.47165253814597
 20
-138.224121059194
 10
90.47165253814597
 20
-138.4459852084441
 10
90.60842282891039
 20
-138.5558837544235
 10
90.7903238705316
 20
-138.5558837544235
 10
90.99082842777312
 20
-138.5558837544235
 10
91.10933971246573
 20
-138.4232475782414
 10
91.10933971246573
 20
-138.2310112501645
 10
91.10933971246573
 20
-137.990543585294
 10
90.9339843522665
 20
-137.9106173700362
 10
90.7903238705316
 20
-137.9106173700362
 97
        0
 97
        0
 92
        1
 93
        1
 72
     4
 94
        3
 73
     0
 74
     1
 95
       17
 96
       13
 40
0.0
 40
0.0
 40
0.0
 40
0.0
 40
1.0
 40
1.0
 40
1.0
 40
2.0
 40
2.0
 40
2.0
 40
3.0
 40
3.0
 40
3.0
 40
4.0
 40
4.0
 40
4.0
 40
4.0
 10
90.7903238705316
 20
-137.1967935854925
 10
90.61290145304122
 20
-137.1967935854925
 10
90.52195093223062
 20
-137.2998019405015
 10
90.52195093223062
 20
-137.4462184986246
 10
90.52195093223062
 20
-137.5791991843552
 10
90.59912107110023
 20
-137.7073567364065
 10
90.7903238705316
 20
-137.7073567364065
 10
90.98187117951149
 20
-137.7073567364065
 10
91.05904131838108
 20
-137.5791991843552
 10
91.05904131838108
 20
-137.4462184986246
 10
91.05904131838108
 20
-137.2998019405015
 10
90.9656792307308
 20
-137.1967935854925
 10
90.7903238705316
 20
-137.1967935854925
 97
        0
 97
        0
 75
     2
 76
     1
 98
        0
  0
ENDBLK
  5
F9
330
F6
100
AcDbEntity
  8
0
100
AcDbBlockEnd
  0
BLOCK
  5
116
330
114
100
AcDbEntity
  8
0
100
AcDbBlockBegin
  2
block 6
 70
     0
 10
0.0
 20
0.0
 30
0.0
  3
block 6
  1

  0
SPLINE
  5
118
330
114
100
AcDbEntity
  8
_U+30EC_U+30A4_U+30E4_U+30FC 1
370
     0
100
AcDbSpline
210
0.0
220
0.0
230
1.0
 70
    11
 71
     3
 72
    53
 73
    49
 74
     0
 42
0.0000000001
 43
0.0000000001
 12
1.0
 22
0.0
 32
0.0
 13
1.0
 23
0.0
 33
0.0
 40
0.0
 40
0.0
 40
0.0
 40
0.0
 40
1.0
 40
1.0
 40
1.0
 40
2.0
 40
2.0
 40
2.0
 40
3.0
 40
3.0
 40
3.0
 40
4.0
 40
4.0
 40
4.0
 40
5.0
 40
5.0
 40
5.0
 40
6.0
 40
6.0
 40
6.0
 40
7.0
 40
7.0
 40
7.0
 40
8.0
 40
8.0
 40
8.0
 40
9.0
 40
9.0
 40
9.0
 40
10.0
 40
10.0
 40
10.0
 40
11.0
 40
11.0
 40
11.0
 40
12.0
 40
12.0
 40
12.0
 40
13.0
 40
13.0
 40
13.0
 40
14.0
 40
14.0
 40
14.0
 40
15.0
 40
15.0
 40
15.0
 40
16.0
 40
16.0
 40
16.0
 40
16.0
 10
91.05869680883255
 20
-114.1491047891711
 30
0.0
 10
90.96843530711901
 20
-114.1491047891711
 30
0.0
 10
90.85095755107199
 20
-114.1308457830992
 30
0.0
 10
90.73382430457349
 20
-114.0621161281685
 30
0.0
 10
90.53331974733196
 20
-113.9430880791531
 30
0.0
 10
90.50885956938667
 20
-113.8013223999351
 30
0.0
 10
90.48681095828108
 20
-113.6847059177594
 30
0.0
 10
90.48681095828108
 20
-113.6847059177594
 30
0.0
 10
90.74347057193219
 20
-113.6847059177594
 30
0.0
 10
90.74347057193219
 20
-113.6847059177594
 30
0.0
 10
90.80720483840932
 20
-113.899679876039
 30
0.0
 10
90.95362139653243
 20
-113.9317192640518
 30
0.0
 10
91.06110837567223
 20
-113.9317192640518
 30
0.0
 10
91.22268335393045
 20
-113.9317192640518
 30
0.0
 10
91.39838322367818
 20
-113.824232284912
 30
0.0
 10
91.39838322367818
 20
-113.5725680597145
 30
0.0
 10
91.39838322367818
 20
-113.2957546374747
 30
0.0
 10
91.19064396591762
 20
-113.2203070463477
 30
0.0
 10
91.05146210831353
 20
-113.2203070463477
 30
0.0
 10
91.01494409616988
 20
-113.2203070463477
 30
0.0
 10
90.85095755107199
 20
-113.2203070463477
 30
0.0
 10
90.74829370561154
 20
-113.3598334135003
 30
0.0
 10
90.74829370561154
 20
-113.3598334135003
 30
0.0
 10
90.54572209107886
 20
-113.3391628405888
 30
0.0
 10
90.54572209107886
 20
-113.3391628405888
 30
0.0
 10
90.54572209107886
 20
-113.3391628405888
 30
0.0
 10
90.68490394868294
 20
-112.4241454797065
 30
0.0
 10
90.68490394868294
 20
-112.4241454797065
 30
0.0
 10
90.68490394868294
 20
-112.4241454797065
 30
0.0
 10
91.58407387033316
 20
-112.4241454797065
 30
0.0
 10
91.58407387033316
 20
-112.4241454797065
 30
0.0
 10
91.58407387033316
 20
-112.4241454797065
 30
0.0
 10
91.58407387033316
 20
-112.6346408138552
 30
0.0
 10
91.58407387033316
 20
-112.6346408138552
 30
0.0
 10
91.58407387033316
 20
-112.6346408138552
 30
0.0
 10
90.87300616217759
 20
-112.6346408138552
 30
0.0
 10
90.87300616217759
 20
-112.6346408138552
 30
0.0
 10
90.87300616217759
 20
-112.6346408138552
 30
0.0
 10
90.79721406150209
 20
-113.0921494942964
 30
0.0
 10
90.79721406150209
 20
-113.0921494942964
 30
0.0
 10
90.86818302849824
 20
-113.0554592273785
 30
0.0
 10
90.96361217343966
 20
-113.0120510242644
 30
0.0
 10
91.10038246420407
 20
-113.0120510242644
 30
0.0
 10
91.39356008999884
 20
-113.0120510242644
 30
0.0
 10
91.6674451810762
 20
-113.2134168553772
 30
0.0
 10
91.6674451810762
 20
-113.551897486803
 30
0.0
 10
91.6674451810762
 20
-113.8952012519081
 30
0.0
 10
91.40837400058541
 20
-114.1491047891711
 30
0.0
 10
91.05869680883255
 20
-114.1491047891711
 30
0.0
  0
HATCH
  5
119
330
114
100
AcDbEntity
  8
_U+30EC_U+30A4_U+30E4_U+30FC 1
 62
   179
420
  2234388
100
AcDbHatch
 10
0.0
 20
0.0
 30
0.0
210
0.0
220
0.0
230
1.0
  2
SOLID
 70
     1
 71
     0
 91
        1
 92
        1
 93
        1
 72
     4
 94
        3
 73
     0
 74
     1
 95
       53
 96
       49
 40
0.0
 40
0.0
 40
0.0
 40
0.0
 40
1.0
 40
1.0
 40
1.0
 40
2.0
 40
2.0
 40
2.0
 40
3.0
 40
3.0
 40
3.0
 40
4.0
 40
4.0
 40
4.0
 40
5.0
 40
5.0
 40
5.0
 40
6.0
 40
6.0
 40
6.0
 40
7.0
 40
7.0
 40
7.0
 40
8.0
 40
8.0
 40
8.0
 40
9.0
 40
9.0
 40
9.0
 40
10.0
 40
10.0
 40
10.0
 40
11.0
 40
11.0
 40
11.0
 40
12.0
 40
12.0
 40
12.0
 40
13.0
 40
13.0
 40
13.0
 40
14.0
 40
14.0
 40
14.0
 40
15.0
 40
15.0
 40
15.0
 40
16.0
 40
16.0
 40
16.0
 40
16.0
 10
91.05869680883255
 20
-114.1491047891711
 10
90.96843530711901
 20
-114.1491047891711
 10
90.85095755107199
 20
-114.1308457830992
 10
90.73382430457349
 20
-114.0621161281685
 10
90.53331974733196
 20
-113.9430880791531
 10
90.50885956938667
 20
-113.8013223999351
 10
90.48681095828108
 20
-113.6847059177594
 10
90.48681095828108
 20
-113.6847059177594
 10
90.74347057193219
 20
-113.6847059177594
 10
90.74347057193219
 20
-113.6847059177594
 10
90.80720483840932
 20
-113.899679876039
 10
90.95362139653243
 20
-113.9317192640518
 10
91.06110837567223
 20
-113.9317192640518
 10
91.22268335393045
 20
-113.9317192640518
 10
91.39838322367818
 20
-113.824232284912
 10
91.39838322367818
 20
-113.5725680597145
 10
91.39838322367818
 20
-113.2957546374747
 10
91.19064396591762
 20
-113.2203070463477
 10
91.05146210831353
 20
-113.2203070463477
 10
91.01494409616988
 20
-113.2203070463477
 10
90.85095755107199
 20
-113.2203070463477
 10
90.74829370561154
 20
-113.3598334135003
 10
90.74829370561154
 20
-113.3598334135003
 10
90.54572209107886
 20
-113.3391628405888
 10
90.54572209107886
 20
-113.3391628405888
 10
90.54572209107886
 20
-113.3391628405888
 10
90.68490394868294
 20
-112.4241454797065
 10
90.68490394868294
 20
-112.4241454797065
 10
90.68490394868294
 20
-112.4241454797065
 10
91.58407387033316
 20
-112.4241454797065
 10
91.58407387033316
 20
-112.4241454797065
 10
91.58407387033316
 20
-112.4241454797065
 10
91.58407387033316
 20
-112.6346408138552
 10
91.58407387033316
 20
-112.6346408138552
 10
91.58407387033316
 20
-112.6346408138552
 10
90.87300616217759
 20
-112.6346408138552
 10
90.87300616217759
 20
-112.6346408138552
 10
90.87300616217759
 20
-112.6346408138552
 10
90.79721406150209
 20
-113.0921494942964
 10
90.79721406150209
 20
-113.0921494942964
 10
90.86818302849824
 20
-113.0554592273785
 10
90.96361217343966
 20
-113.0120510242644
 10
91.10038246420407
 20
-113.0120510242644
 10
91.39356008999884
 20
-113.0120510242644
 10
91.6674451810762
 20
-113.2134168553772
 10
91.6674451810762
 20
-113.551897486803
 10
91.6674451810762
 20
-113.8952012519081
 10
91.40837400058541
 20
-114.1491047891711
 10
91.05869680883255
 20
-114.1491047891711
 97
        0
 97
        0
 75
     2
 76
     1
 98
        0
  0
SPLINE
  5
11A
330
114
100
AcDbEntity
  8
_U+30EC_U+30A4_U+30E4_U+30FC 1
370
     0
100
AcDbSpline
210
0.0
220
0.0
230
1.0
 70
    11
 71
     3
 72
    53
 73
    49
 74
     0
 42
0.0000000001
 43
0.0000000001
 12
1.0
 22
0.0
 32
0.0
 13
1.0
 23
0.0
 33
0.0
 40
0.0
 40
0.0
 40
0.0
 40
0.0
 40
1.0
 40
1.0
 40
1.0
 40
2.0
 40
2.0
 40
2.0
 40
3.0
 40
3.0
 40
3.0
 40
4.0
 40
4.0
 40
4.0
 40
5.0
 40
5.0
 40
5.0
 40
6.0
 40
6.0
 40
6.0
 40
7.0
 40
7.0
 40
7.0
 40
8.0
 40
8.0
 40
8.0
 40
9.0
 40
9.0
 40
9.0
 40
10.0
 40
10.0
 40
10.0
 40
11.0
 40
11.0
 40
11.0
 40
12.0
 40
12.0
 40
12.0
 40
13.0
 40
13.0
 40
13.0
 40
14.0
 40
14.0
 40
14.0
 40
15.0
 40
15.0
 40
15.0
 40
16.0
 40
16.0
 40
16.0
 40
16.0
 10
92.41709795866656
 20
-114.1491047891711
 30
0.0
 10
92.32683645695302
 20
-114.1491047891711
 30
0.0
 10
92.209358700906
 20
-114.1308457830992
 30
0.0
 10
92.0922254544075
 20
-114.0621161281685
 30
0.0
 10
91.89172089716597
 20
-113.9430880791531
 30
0.0
 10
91.8672607192207
 20
-113.8013223999351
 30
0.0
 10
91.84521210811509
 20
-113.6847059177594
 30
0.0
 10
91.84521210811509
 20
-113.6847059177594
 30
0.0
 10
92.1018717217662
 20
-113.6847059177594
 30
0.0
 10
92.1018717217662
 20
-113.6847059177594
 30
0.0
 10
92.16560598824333
 20
-113.899679876039
 30
0.0
 10
92.31202254636645
 20
-113.9317192640518
 30
0.0
 10
92.41950952550624
 20
-113.9317192640518
 30
0.0
 10
92.58073999421593
 20
-113.9317192640518
 30
0.0
 10
92.7567843735122
 20
-113.824232284912
 30
0.0
 10
92.7567843735122
 20
-113.5725680597145
 30
0.0
 10
92.7567843735122
 20
-113.2957546374747
 30
0.0
 10
92.54904511575162
 20
-113.2203070463477
 30
0.0
 10
92.40986325814754
 20
-113.2203070463477
 30
0.0
 10
92.3733452460039
 20
-113.2203070463477
 30
0.0
 10
92.209358700906
 20
-113.2203070463477
 30
0.0
 10
92.10669485544555
 20
-113.3598334135003
 30
0.0
 10
92.10669485544555
 20
-113.3598334135003
 30
0.0
 10
91.90412324091287
 20
-113.3391628405888
 30
0.0
 10
91.90412324091287
 20
-113.3391628405888
 30
0.0
 10
91.90412324091287
 20
-113.3391628405888
 30
0.0
 10
92.04330509851695
 20
-112.4241454797065
 30
0.0
 10
92.04330509851695
 20
-112.4241454797065
 30
0.0
 10
92.04330509851695
 20
-112.4241454797065
 30
0.0
 10
92.94247502016717
 20
-112.4241454797065
 30
0.0
 10
92.94247502016717
 20
-112.4241454797065
 30
0.0
 10
92.94247502016717
 20
-112.4241454797065
 30
0.0
 10
92.94247502016717
 20
-112.6346408138552
 30
0.0
 10
92.94247502016717
 20
-112.6346408138552
 30
0.0
 10
92.94247502016717
 20
-112.6346408138552
 30
0.0
 10
92.2314073120116
 20
-112.6346408138552
 30
0.0
 10
92.2314073120116
 20
-112.6346408138552
 30
0.0
 10
92.2314073120116
 20
-112.6346408138552
 30
0.0
 10
92.1556152113361
 20
-113.0921494942964
 30
0.0
 10
92.1556152113361
 20
-113.0921494942964
 30
0.0
 10
92.22658417833225
 20
-113.0554592273785
 30
0.0
 10
92.32201332327367
 20
-113.0120510242644
 30
0.0
 10
92.45878361403808
 20
-113.0120510242644
 30
0.0
 10
92.75196123983285
 20
-113.0120510242644
 30
0.0
 10
93.02584633091021
 20
-113.2134168553772
 30
0.0
 10
93.02584633091021
 20
-113.551897486803
 30
0.0
 10
93.02584633091021
 20
-113.8952012519081
 30
0.0
 10
92.76677515041942
 20
-114.1491047891711
 30
0.0
 10
92.41709795866656
 20
-114.1491047891711
 30
0.0
  0
HATCH
  5
11B
330
114
100
AcDbEntity
  8
_U+30EC_U+30A4_U+30E4_U+30FC 1
 62
   179
420
  2234388
100
AcDbHatch
 10
0.0
 20
0.0
 30
0.0
210
0.0
220
0.0
230
1.0
  2
SOLID
 70
     1
 71
     0
 91
        1
 92
        1
 93
        1
 72
     4
 94
        3
 73
     0
 74
     1
 95
       53
 96
       49
 40
0.0
 40
0.0
 40
0.0
 40
0.0
 40
1.0
 40
1.0
 40
1.0
 40
2.0
 40
2.0
 40
2.0
 40
3.0
 40
3.0
 40
3.0
 40
4.0
 40
4.0
 40
4.0
 40
5.0
 40
5.0
 40
5.0
 40
6.0
 40
6.0
 40
6.0
 40
7.0
 40
7.0
 40
7.0
 40
8.0
 40
8.0
 40
8.0
 40
9.0
 40
9.0
 40
9.0
 40
10.0
 40
10.0
 40
10.0
 40
11.0
 40
11.0
 40
11.0
 40
12.0
 40
12.0
 40
12.0
 40
13.0
 40
13.0
 40
13.0
 40
14.0
 40
14.0
 40
14.0
 40
15.0
 40
15.0
 40
15.0
 40
16.0
 40
16.0
 40
16.0
 40
16.0
 10
92.41709795866656
 20
-114.1491047891711
 10
92.32683645695302
 20
-114.1491047891711
 10
92.209358700906
 20
-114.1308457830992
 10
92.0922254544075
 20
-114.0621161281685
 10
91.89172089716597
 20
-113.9430880791531
 10
91.8672607192207
 20
-113.8013223999351
 10
91.84521210811509
 20
-113.6847059177594
 10
91.84521210811509
 20
-113.6847059177594
 10
92.1018717217662
 20
-113.6847059177594
 10
92.1018717217662
 20
-113.6847059177594
 10
92.16560598824333
 20
-113.899679876039
 10
92.31202254636645
 20
-113.9317192640518
 10
92.41950952550624
 20
-113.9317192640518
 10
92.58073999421593
 20
-113.9317192640518
 10
92.7567843735122
 20
-113.824232284912
 10
92.7567843735122
 20
-113.5725680597145
 10
92.7567843735122
 20
-113.2957546374747
 10
92.54904511575162
 20
-113.2203070463477
 10
92.40986325814754
 20
-113.2203070463477
 10
92.3733452460039
 20
-113.2203070463477
 10
92.209358700906
 20
-113.2203070463477
 10
92.10669485544555
 20
-113.3598334135003
 10
92.10669485544555
 20
-113.3598334135003
 10
91.90412324091287
 20
-113.3391628405888
 10
91.90412324091287
 20
-113.3391628405888
 10
91.90412324091287
 20
-113.3391628405888
 10
92.04330509851695
 20
-112.4241454797065
 10
92.04330509851695
 20
-112.4241454797065
 10
92.04330509851695
 20
-112.4241454797065
 10
92.94247502016717
 20
-112.4241454797065
 10
92.94247502016717
 20
-112.4241454797065
 10
92.94247502016717
 20
-112.4241454797065
 10
92.94247502016717
 20
-112.6346408138552
 10
92.94247502016717
 20
-112.6346408138552
 10
92.94247502016717
 20
-112.6346408138552
 10
92.2314073120116
 20
-112.6346408138552
 10
92.2314073120116
 20
-112.6346408138552
 10
92.2314073120116
 20
-112.6346408138552
 10
92.1556152113361
 20
-113.0921494942964
 10
92.1556152113361
 20
-113.0921494942964
 10
92.22658417833225
 20
-113.0554592273785
 10
92.32201332327367
 20
-113.0120510242644
 10
92.45878361403808
 20
-113.0120510242644
 10
92.75196123983285
 20
-113.0120510242644
 10
93.02584633091021
 20
-113.2134168553772
 10
93.02584633091021
 20
-113.551897486803
 10
93.02584633091021
 20
-113.8952012519081
 10
92.76677515041942
 20
-114.1491047891711
 10
92.41709795866656
 20
-114.1491047891711
 97
        0
 97
        0
 75
     2
 76
     1
 98
        0
  0
ENDBLK
  5
117
330
114
100
AcDbEntity
  8
0
100
AcDbBlockEnd
  0
BLOCK
  5
130
330
12E
100
AcDbEntity
  8
0
100
AcDbBlockBegin
  2
block 7
 70
     0
 10
0.0
 20
0.0
 30
0.0
  3
block 7
  1

  0
SPLINE
  5
132
330
12E
100
AcDbEntity
  8
_U+30EC_U+30A4_U+30E4_U+30FC 1
370
     0
100
AcDbSpline
210
0.0
220
0.0
230
1.0
 70
    11
 71
     3
 72
    26
 73
    22
 74
     0
 42
0.0000000001
 43
0.0000000001
 12
1.0
 22
0.0
 32
0.0
 13
1.0
 23
0.0
 33
0.0
 40
0.0
 40
0.0
 40
0.0
 40
0.0
 40
1.0
 40
1.0
 40
1.0
 40
2.0
 40
2.0
 40
2.0
 40
3.0
 40
3.0
 40
3.0
 40
4.0
 40
4.0
 40
4.0
 40
5.0
 40
5.0
 40
5.0
 40
6.0
 40
6.0
 40
6.0
 40
7.0
 40
7.0
 40
7.0
 40
7.0
 10
107.8804090442105
 20
-114.7824855941342
 30
0.0
 10
107.8804090442105
 20
-114.7824855941342
 30
0.0
 10
106.6890950254111
 20
-114.7824855941342
 30
0.0
 10
106.6890950254111
 20
-114.7824855941342
 30
0.0
 10
106.6890950254111
 20
-114.7824855941342
 30
0.0
 10
106.6890950254111
 20
-115.1259616140136
 30
0.0
 10
106.6890950254111
 20
-115.1259616140136
 30
0.0
 10
106.6890950254111
 20
-115.1259616140136
 30
0.0
 10
106.5292425948955
 20
-115.1259616140136
 30
0.0
 10
106.5292425948955
 20
-115.1259616140136
 30
0.0
 10
106.5133951556633
 20
-114.7802462820688
 30
0.0
 10
106.3376952859156
 20
-114.7318426905011
 30
0.0
 10
106.2143608675436
 20
-114.7010090859081
 30
0.0
 10
106.2143608675436
 20
-114.7010090859081
 30
0.0
 10
106.2143608675436
 20
-114.5490803750086
 30
0.0
 10
106.2143608675436
 20
-114.5490803750086
 30
0.0
 10
106.2143608675436
 20
-114.5490803750086
 30
0.0
 10
107.8804090442105
 20
-114.5490803750086
 30
0.0
 10
107.8804090442105
 20
-114.5490803750086
 30
0.0
 10
107.8804090442105
 20
-114.5490803750086
 30
0.0
 10
107.8804090442105
 20
-114.7824855941342
 30
0.0
 10
107.8804090442105
 20
-114.7824855941342
 30
0.0
  0
HATCH
  5
133
330
12E
100
AcDbEntity
  8
_U+30EC_U+30A4_U+30E4_U+30FC 1
 62
   179
420
  2234388
100
AcDbHatch
 10
0.0
 20
0.0
 30
0.0
210
0.0
220
0.0
230
1.0
  2
SOLID
 70
     1
 71
     0
 91
        1
 92
        1
 93
        1
 72
     4
 94
        3
 73
     0
 74
     1
 95
       26
 96
       22
 40
0.0
 40
0.0
 40
0.0
 40
0.0
 40
1.0
 40
1.0
 40
1.0
 40
2.0
 40
2.0
 40
2.0
 40
3.0
 40
3.0
 40
3.0
 40
4.0
 40
4.0
 40
4.0
 40
5.0
 40
5.0
 40
5.0
 40
6.0
 40
6.0
 40
6.0
 40
7.0
 40
7.0
 40
7.0
 40
7.0
 10
107.8804090442105
 20
-114.7824855941342
 10
107.8804090442105
 20
-114.7824855941342
 10
106.6890950254111
 20
-114.7824855941342
 10
106.6890950254111
 20
-114.7824855941342
 10
106.6890950254111
 20
-114.7824855941342
 10
106.6890950254111
 20
-115.1259616140136
 10
106.6890950254111
 20
-115.1259616140136
 10
106.6890950254111
 20
-115.1259616140136
 10
106.5292425948955
 20
-115.1259616140136
 10
106.5292425948955
 20
-115.1259616140136
 10
106.5133951556633
 20
-114.7802462820688
 10
106.3376952859156
 20
-114.7318426905011
 10
106.2143608675436
 20
-114.7010090859081
 10
106.2143608675436
 20
-114.7010090859081
 10
106.2143608675436
 20
-114.5490803750086
 10
106.2143608675436
 20
-114.5490803750086
 10
106.2143608675436
 20
-114.5490803750086
 10
107.8804090442105
 20
-114.5490803750086
 10
107.8804090442105
 20
-114.5490803750086
 10
107.8804090442105
 20
-114.5490803750086
 10
107.8804090442105
 20
-114.7824855941342
 10
107.8804090442105
 20
-114.7824855941342
 97
        0
 97
        0
 75
     2
 76
     1
 98
        0
  0
POLYLINE
  5
134
330
12E
100
AcDbEntity
  8
_U+30EC_U+30A4_U+30E4_U+30FC 1
370
     0
100
AcDb2dPolyline
 66
     1
 10
0.0
 20
0.0
 30
0.0
  0
VERTEX
  5
135
330
134
100
AcDbEntity
  8
_U+30EC_U+30A4_U+30E4_U+30FC 1
370
     0
100
AcDbVertex
100
AcDb2dVertex
 10
107.8804090442105
 20
-113.9663424736786
 30
0.0
  0
VERTEX
  5
136
330
134
100
AcDbEntity
  8
_U+30EC_U+30A4_U+30E4_U+30FC 1
370
     0
100
AcDbVertex
100
AcDb2dVertex
 10
107.6089355199728
 20
-113.9663424736786
 30
0.0
  0
VERTEX
  5
137
330
134
100
AcDbEntity
  8
_U+30EC_U+30A4_U+30E4_U+30FC 1
370
     0
100
AcDbVertex
100
AcDb2dVertex
 10
107.6089355199728
 20
-113.7043429620253
 30
0.0
  0
VERTEX
  5
138
330
134
100
AcDbEntity
  8
_U+30EC_U+30A4_U+30E4_U+30FC 1
370
     0
100
AcDbVertex
100
AcDb2dVertex
 10
107.8804090442105
 20
-113.7043429620253
 30
0.0
  0
VERTEX
  5
139
330
134
100
AcDbEntity
  8
_U+30EC_U+30A4_U+30E4_U+30FC 1
370
     0
100
AcDbVertex
100
AcDb2dVertex
 10
107.8804090442105
 20
-113.9663424736786
 30
0.0
  0
SEQEND
  5
13A
330
134
100
AcDbEntity
  8
_U+30EC_U+30A4_U+30E4_U+30FC 1
370
     0
  0
HATCH
  5
13B
330
12E
100
AcDbEntity
  8
_U+30EC_U+30A4_U+30E4_U+30FC 1
 62
   179
420
  2234388
100
AcDbHatch
 10
0.0
 20
0.0
 30
0.0
210
0.0
220
0.0
230
1.0
  2
SOLID
 70
     1
 71
     0
 91
        1
 92
        1
 93
        4
 72
     1
 10
107.8804090442105
 20
-113.9663424736786
 11
107.6089355199728
 21
-113.9663424736786
 72
     1
 10
107.6089355199728
 20
-113.9663424736786
 11
107.6089355199728
 21
-113.7043429620253
 72
     1
 10
107.6089355199728
 20
-113.7043429620253
 11
107.8804090442105
 21
-113.7043429620253
 72
     1
 10
107.8804090442105
 20
-113.7043429620253
 11
107.8804090442105
 21
-113.9663424736786
 97
        0
 75
     2
 76
     1
 98
        0
  0
SPLINE
  5
13C
330
12E
100
AcDbEntity
  8
_U+30EC_U+30A4_U+30E4_U+30FC 1
370
     0
100
AcDbSpline
210
0.0
220
0.0
230
1.0
 70
    11
 71
     3
 72
    44
 73
    40
 74
     0
 42
0.0000000001
 43
0.0000000001
 12
1.0
 22
0.0
 32
0.0
 13
1.0
 23
0.0
 33
0.0
 40
0.0
 40
0.0
 40
0.0
 40
0.0
 40
1.0
 40
1.0
 40
1.0
 40
2.0
 40
2.0
 40
2.0
 40
3.0
 40
3.0
 40
3.0
 40
4.0
 40
4.0
 40
4.0
 40
5.0
 40
5.0
 40
5.0
 40
6.0
 40
6.0
 40
6.0
 40
7.0
 40
7.0
 40
7.0
 40
8.0
 40
8.0
 40
8.0
 40
9.0
 40
9.0
 40
9.0
 40
10.0
 40
10.0
 40
10.0
 40
11.0
 40
11.0
 40
11.0
 40
12.0
 40
12.0
 40
12.0
 40
13.0
 40
13.0
 40
13.0
 40
13.0
 10
107.2527126467979
 20
-112.8416910525188
 30
0.0
 10
107.4239338924149
 20
-113.0685505902225
 30
0.0
 10
107.5038601076727
 20
-113.165357773358
 30
0.0
 10
107.6588894045089
 20
-113.2160006769911
 30
0.0
 10
107.6588894045089
 20
-113.2160006769911
 30
0.0
 10
107.6588894045089
 20
-112.4058864736346
 30
0.0
 10
107.6588894045089
 20
-112.4058864736346
 30
0.0
 10
107.6588894045089
 20
-112.4058864736346
 30
0.0
 10
107.8804090442105
 20
-112.4058864736346
 30
0.0
 10
107.8804090442105
 20
-112.4058864736346
 30
0.0
 10
107.8804090442105
 20
-112.4058864736346
 30
0.0
 10
107.8804090442105
 20
-113.475760876579
 30
0.0
 10
107.8804090442105
 20
-113.475760876579
 30
0.0
 10
107.4945583498625
 20
-113.4428602146948
 30
0.0
 10
107.4101535104739
 20
-113.3746473240869
 30
0.0
 10
107.0883815921515
 20
-112.9738104643781
 30
0.0
 10
106.8737521434205
 20
-112.7075045833683
 30
0.0
 10
106.8007161191332
 20
-112.6392916927603
 30
0.0
 10
106.6525770132674
 20
-112.6392916927603
 30
0.0
 10
106.5247639707647
 20
-112.6392916927603
 30
0.0
 10
106.3831705463209
 20
-112.7140502647902
 30
0.0
 10
106.3831705463209
 20
-112.9188611913883
 30
0.0
 10
106.3831705463209
 20
-113.189645696529
 30
0.0
 10
106.6319064403559
 20
-113.1984306900164
 30
0.0
 10
106.757307916019
 20
-113.2029093141472
 30
0.0
 10
106.757307916019
 20
-113.2029093141472
 30
0.0
 10
106.757307916019
 20
-113.4361422784986
 30
0.0
 10
106.757307916019
 20
-113.4361422784986
 30
0.0
 10
106.6205376252546
 20
-113.4273572850112
 30
0.0
 10
106.4996147737223
 20
-113.4163329794584
 30
0.0
 10
106.3718017312195
 20
-113.3327894139411
 30
0.0
 10
106.198168918763
 20
-113.2182399890566
 30
0.0
 10
106.1616509066193
 20
-113.0244533680113
 30
0.0
 10
106.1616509066193
 20
-112.9033582617047
 30
0.0
 10
106.1616509066193
 20
-112.6150037695893
 30
0.0
 10
106.3604329161182
 20
-112.3991685374384
 30
0.0
 10
106.6546440705586
 20
-112.3991685374384
 30
0.0
 10
106.9013129073025
 20
-112.3991685374384
 30
0.0
 10
107.0084553768937
 20
-112.5202636437449
 30
0.0
 10
107.2527126467979
 20
-112.8416910525188
 30
0.0
  0
HATCH
  5
13D
330
12E
100
AcDbEntity
  8
_U+30EC_U+30A4_U+30E4_U+30FC 1
 62
   179
420
  2234388
100
AcDbHatch
 10
0.0
 20
0.0
 30
0.0
210
0.0
220
0.0
230
1.0
  2
SOLID
 70
     1
 71
     0
 91
        1
 92
        1
 93
        1
 72
     4
 94
        3
 73
     0
 74
     1
 95
       44
 96
       40
 40
0.0
 40
0.0
 40
0.0
 40
0.0
 40
1.0
 40
1.0
 40
1.0
 40
2.0
 40
2.0
 40
2.0
 40
3.0
 40
3.0
 40
3.0
 40
4.0
 40
4.0
 40
4.0
 40
5.0
 40
5.0
 40
5.0
 40
6.0
 40
6.0
 40
6.0
 40
7.0
 40
7.0
 40
7.0
 40
8.0
 40
8.0
 40
8.0
 40
9.0
 40
9.0
 40
9.0
 40
10.0
 40
10.0
 40
10.0
 40
11.0
 40
11.0
 40
11.0
 40
12.0
 40
12.0
 40
12.0
 40
13.0
 40
13.0
 40
13.0
 40
13.0
 10
107.2527126467979
 20
-112.8416910525188
 10
107.4239338924149
 20
-113.0685505902225
 10
107.5038601076727
 20
-113.165357773358
 10
107.6588894045089
 20
-113.2160006769911
 10
107.6588894045089
 20
-113.2160006769911
 10
107.6588894045089
 20
-112.4058864736346
 10
107.6588894045089
 20
-112.4058864736346
 10
107.6588894045089
 20
-112.4058864736346
 10
107.8804090442105
 20
-112.4058864736346
 10
107.8804090442105
 20
-112.4058864736346
 10
107.8804090442105
 20
-112.4058864736346
 10
107.8804090442105
 20
-113.475760876579
 10
107.8804090442105
 20
-113.475760876579
 10
107.4945583498625
 20
-113.4428602146948
 10
107.4101535104739
 20
-113.3746473240869
 10
107.0883815921515
 20
-112.9738104643781
 10
106.8737521434205
 20
-112.7075045833683
 10
106.8007161191332
 20
-112.6392916927603
 10
106.6525770132674
 20
-112.6392916927603
 10
106.5247639707647
 20
-112.6392916927603
 10
106.3831705463209
 20
-112.7140502647902
 10
106.3831705463209
 20
-112.9188611913883
 10
106.3831705463209
 20
-113.189645696529
 10
106.6319064403559
 20
-113.1984306900164
 10
106.757307916019
 20
-113.2029093141472
 10
106.757307916019
 20
-113.2029093141472
 10
106.757307916019
 20
-113.4361422784986
 10
106.757307916019
 20
-113.4361422784986
 10
106.6205376252546
 20
-113.4273572850112
 10
106.4996147737223
 20
-113.4163329794584
 10
106.3718017312195
 20
-113.3327894139411
 10
106.198168918763
 20
-113.2182399890566
 10
106.1616509066193
 20
-113.0244533680113
 10
106.1616509066193
 20
-112.9033582617047
 10
106.1616509066193
 20
-112.6150037695893
 10
106.3604329161182
 20
-112.3991685374384
 10
106.6546440705586
 20
-112.3991685374384
 10
106.9013129073025
 20
-112.3991685374384
 10
107.0084553768937
 20
-112.5202636437449
 10
107.2527126467979
 20
-112.8416910525188
 97
        0
 97
        0
 75
     2
 76
     1
 98
        0
  0
ENDBLK
  5
131
330
12E
100
AcDbEntity
  8
0
100
AcDbBlockEnd
  0
ENDSEC
  0
SECTION
  2
ENTITIES
  0
POLYLINE
  5
41
330
1F
100
AcDbEntity
  8
_U+30EC_U+30A4_U+30E4_U+30FC 1
370
     0
100
AcDb2dPolyline
 66
     1
 10
0.0
 20
0.0
 30
0.0
  0
VERTEX
  5
42
330
41
100
AcDbEntity
  8
_U+30EC_U+30A4_U+30E4_U+30FC 1
370
     0
100
AcDbVertex
100
AcDb2dVertex
 10
77.96424164717568
 20
-116.8870958041115
 30
0.0
  0
VERTEX
  5
43
330
41
100
AcDbEntity
  8
_U+30EC_U+30A4_U+30E4_U+30FC 1
370
     0
100
AcDbVertex
100
AcDb2dVertex
 10
77.96424164717568
 20
-144.2861110750396
 30
0.0
  0
VERTEX
  5
44
330
41
100
AcDbEntity
  8
_U+30EC_U+30A4_U+30E4_U+30FC 1
370
     0
100
AcDbVertex
100
AcDb2dVertex
 10
78.55232220258402
 20
-144.2861110750396
 30
0.0
  0
VERTEX
  5
45
330
41
100
AcDbEntity
  8
_U+30EC_U+30A4_U+30E4_U+30FC 1
370
     0
100
AcDbVertex
100
AcDb2dVertex
 10
78.55232220258402
 20
-117.9454291371802
 30
0.0
  0
VERTEX
  5
46
330
41
100
AcDbEntity
  8
_U+30EC_U+30A4_U+30E4_U+30FC 1
370
     0
100
AcDbVertex
100
AcDb2dVertex
 10
87.43032775592015
 20
-126.7061360794347
 30
0.0
  0
VERTEX
  5
47
330
41
100
AcDbEntity
  8
_U+30EC_U+30A4_U+30E4_U+30FC 1
370
     0
100
AcDbVertex
100
AcDb2dVertex
 10
87.43032775592015
 20
-136.1722221881792
 30
0.0
  0
VERTEX
  5
48
330
41
100
AcDbEntity
  8
_U+30EC_U+30A4_U+30E4_U+30FC 1
370
     0
100
AcDbVertex
100
AcDb2dVertex
 10
86.0781305340361
 20
-136.1722221881792
 30
0.0
  0
VERTEX
  5
49
330
41
100
AcDbEntity
  8
_U+30EC_U+30A4_U+30E4_U+30FC 1
370
     0
100
AcDbVertex
100
AcDb2dVertex
 10
86.0781305340361
 20
-136.8777777435583
 30
0.0
  0
VERTEX
  5
4A
330
41
100
AcDbEntity
  8
_U+30EC_U+30A4_U+30E4_U+30FC 1
370
     0
100
AcDbVertex
100
AcDb2dVertex
 10
88.01840831132881
 20
-136.8777777435583
 30
0.0
  0
VERTEX
  5
4B
330
41
100
AcDbEntity
  8
_U+30EC_U+30A4_U+30E4_U+30FC 1
370
     0
100
AcDbVertex
100
AcDb2dVertex
 10
88.01840831132881
 20
-126.8236110794052
 30
0.0
  0
VERTEX
  5
4C
330
41
100
AcDbEntity
  8
_U+30EC_U+30A4_U+30E4_U+30FC 1
370
     0
100
AcDbVertex
100
AcDb2dVertex
 10
97.95509997551112
 20
-126.8236110794052
 30
0.0
  0
VERTEX
  5
4D
330
41
100
AcDbEntity
  8
_U+30EC_U+30A4_U+30E4_U+30FC 1
370
     0
100
AcDbVertex
100
AcDb2dVertex
 10
97.95509997551112
 20
-125.0009846909719
 30
0.0
  0
VERTEX
  5
4E
330
41
100
AcDbEntity
  8
_U+30EC_U+30A4_U+30E4_U+30FC 1
370
     0
100
AcDbVertex
100
AcDb2dVertex
 10
97.48449442007359
 20
-125.0009846909719
 30
0.0
  0
VERTEX
  5
4F
330
41
100
AcDbEntity
  8
_U+30EC_U+30A4_U+30E4_U+30FC 1
370
     0
100
AcDbVertex
100
AcDb2dVertex
 10
97.48449442007359
 20
-126.2357069128854
 30
0.0
  0
VERTEX
  5
50
330
41
100
AcDbEntity
  8
_U+30EC_U+30A4_U+30E4_U+30FC 1
370
     0
100
AcDbVertex
100
AcDb2dVertex
 10
87.84201942248401
 20
-126.2357069128854
 30
0.0
  0
VERTEX
  5
51
330
41
100
AcDbEntity
  8
_U+30EC_U+30A4_U+30E4_U+30FC 1
370
     0
100
AcDbVertex
100
AcDb2dVertex
 10
79.02257498024443
 20
-117.4162624706458
 30
0.0
  0
VERTEX
  5
52
330
41
100
AcDbEntity
  8
_U+30EC_U+30A4_U+30E4_U+30FC 1
370
     0
100
AcDbVertex
100
AcDb2dVertex
 10
105.5398221958371
 20
-117.4162624706458
 30
0.0
  0
VERTEX
  5
53
330
41
100
AcDbEntity
  8
_U+30EC_U+30A4_U+30E4_U+30FC 1
370
     0
100
AcDbVertex
100
AcDb2dVertex
 10
105.5398221958371
 20
-116.8283583041264
 30
0.0
  0
VERTEX
  5
54
330
41
100
AcDbEntity
  8
_U+30EC_U+30A4_U+30E4_U+30FC 1
370
     0
100
AcDbVertex
100
AcDb2dVertex
 10
77.96424164717568
 20
-116.8870958041115
 30
0.0
  0
SEQEND
  5
56
330
41
100
AcDbEntity
  8
_U+30EC_U+30A4_U+30E4_U+30FC 1
370
     0
  0
HATCH
  5
55
330
1F
100
AcDbEntity
  8
_U+30EC_U+30A4_U+30E4_U+30FC 1
 62
   253
420
 10066329
100
AcDbHatch
 10
0.0
 20
0.0
 30
0.0
210
0.0
220
0.0
230
1.0
  2
SOLID
 70
     1
 71
     0
 91
        1
 92
        1
 93
       18
 72
     1
 10
77.96424164717568
 20
-116.8870958041115
 11
77.96424164717568
 21
-144.2861110750396
 72
     1
 10
77.96424164717568
 20
-144.2861110750396
 11
78.55232220258402
 21
-144.2861110750396
 72
     1
 10
78.55232220258402
 20
-144.2861110750396
 11
78.55232220258402
 21
-117.9454291371802
 72
     1
 10
78.55232220258402
 20
-117.9454291371802
 11
87.43032775592015
 21
-126.7061360794347
 72
     1
 10
87.43032775592015
 20
-126.7061360794347
 11
87.43032775592015
 21
-136.1722221881792
 72
     1
 10
87.43032775592015
 20
-136.1722221881792
 11
86.0781305340361
 21
-136.1722221881792
 72
     1
 10
86.0781305340361
 20
-136.1722221881792
 11
86.0781305340361
 21
-136.8777777435583
 72
     1
 10
86.0781305340361
 20
-136.8777777435583
 11
88.01840831132881
 21
-136.8777777435583
 72
     1
 10
88.01840831132881
 20
-136.8777777435583
 11
88.01840831132881
 21
-126.8236110794052
 72
     1
 10
88.01840831132881
 20
-126.8236110794052
 11
97.95509997551112
 21
-126.8236110794052
 72
     1
 10
97.95509997551112
 20
-126.8236110794052
 11
97.95509997551112
 21
-125.0009846909719
 72
     1
 10
97.95509997551112
 20
-125.0009846909719
 11
97.48449442007359
 21
-125.0009846909719
 72
     1
 10
97.48449442007359
 20
-125.0009846909719
 11
97.48449442007359
 21
-126.2357069128854
 72
     1
 10
97.48449442007359
 20
-126.2357069128854
 11
87.84201942248401
 21
-126.2357069128854
 72
     1
 10
87.84201942248401
 20
-126.2357069128854
 11
79.02257498024443
 21
-117.4162624706458
 72
     1
 10
79.02257498024443
 20
-117.4162624706458
 11
105.5398221958371
 21
-117.4162624706458
 72
     1
 10
105.5398221958371
 20
-117.4162624706458
 11
105.5398221958371
 21
-116.8283583041264
 72
     1
 10
105.5398221958371
 20
-116.8283583041264
 11
77.96424164717568
 21
-116.8870958041115
 97
        0
 75
     2
 76
     1
 98
        0
  0
POLYLINE
  5
57
330
1F
100
AcDbEntity
  8
_U+30EC_U+30A4_U+30E4_U+30FC 1
 62
   179
420
  2234388
370
    25
100
AcDb2dPolyline
 66
     1
 10
0.0
 20
0.0
 30
0.0
  0
VERTEX
  5
58
330
57
100
AcDbEntity
  8
_U+30EC_U+30A4_U+30E4_U+30FC 1
 62
   179
420
  2234388
370
    25
100
AcDbVertex
100
AcDb2dVertex
 10
78.00971273202865
 20
-116.8361194152355
 30
0.0
  0
VERTEX
  5
59
330
57
100
AcDbEntity
  8
_U+30EC_U+30A4_U+30E4_U+30FC 1
 62
   179
420
  2234388
370
    25
100
AcDbVertex
100
AcDb2dVertex
 10
105.5094833069561
 20
-116.8361194152355
 30
0.0
  0
SEQEND
  5
5A
330
57
100
AcDbEntity
  8
_U+30EC_U+30A4_U+30E4_U+30FC 1
 62
   179
420
  2234388
370
    25
  0
POLYLINE
  5
5B
330
1F
100
AcDbEntity
  8
_U+30EC_U+30A4_U+30E4_U+30FC 1
 62
   179
420
  2234388
370
    25
100
AcDb2dPolyline
 66
     1
 10
0.0
 20
0.0
 30
0.0
  0
VERTEX
  5
5C
330
5B
100
AcDbEntity
  8
_U+30EC_U+30A4_U+30E4_U+30FC 1
 62
   179
420
  2234388
370
    25
100
AcDbVertex
100
AcDb2dVertex
 10
78.00971273202865
 20
-116.8361194152355
 30
0.0
  0
VERTEX
  5
5D
330
5B
100
AcDbEntity
  8
_U+30EC_U+30A4_U+30E4_U+30FC 1
 62
   179
420
  2234388
370
    25
100
AcDbVertex
100
AcDb2dVertex
 10
78.00971273202865
 20
-144.3360644083607
 30
0.0
  0
SEQEND
  5
5E
330
5B
100
AcDbEntity
  8
_U+30EC_U+30A4_U+30E4_U+30FC 1
 62
   179
420
  2234388
370
    25
  0
POLYLINE
  5
5F
330
1F
100
AcDbEntity
  8
_U+30EC_U+30A4_U+30E4_U+30FC 1
 62
   179
420
  2234388
370
    25
100
AcDb2dPolyline
 66
     1
 10
0.0
 20
0.0
 30
0.0
  0
VERTEX
  5
60
330
5F
100
AcDbEntity
  8
_U+30EC_U+30A4_U+30E4_U+30FC 1
 62
   179
420
  2234388
370
    25
100
AcDbVertex
100
AcDb2dVertex
 10
78.00971273202865
 20
-144.3360644083607
 30
0.0
  0
VERTEX
  5
61
330
5F
100
AcDbEntity
  8
_U+30EC_U+30A4_U+30E4_U+30FC 1
 62
   179
420
  2234388
370
    25
100
AcDbVertex
100
AcDb2dVertex
 10
78.60950549450443
 20
-144.3360644083607
 30
0.0
  0
SEQEND
  5
62
330
5F
100
AcDbEntity
  8
_U+30EC_U+30A4_U+30E4_U+30FC 1
 62
   179
420
  2234388
370
    25
  0
POLYLINE
  5
63
330
1F
100
AcDbEntity
  8
_U+30EC_U+30A4_U+30E4_U+30FC 1
 62
   179
420
  2234388
370
    25
100
AcDb2dPolyline
 66
     1
 10
0.0
 20
0.0
 30
0.0
  0
VERTEX
  5
64
330
63
100
AcDbEntity
  8
_U+30EC_U+30A4_U+30E4_U+30FC 1
 62
   179
420
  2234388
370
    25
100
AcDbVertex
100
AcDb2dVertex
 10
105.5094833069561
 20
-116.8361194152355
 30
0.0
  0
VERTEX
  5
65
330
63
100
AcDbEntity
  8
_U+30EC_U+30A4_U+30E4_U+30FC 1
 62
   179
420
  2234388
370
    25
100
AcDbVertex
100
AcDb2dVertex
 10
105.5094833069561
 20
-117.4360533039745
 30
0.0
  0
SEQEND
  5
66
330
63
100
AcDbEntity
  8
_U+30EC_U+30A4_U+30E4_U+30FC 1
 62
   179
420
  2234388
370
    25
  0
POLYLINE
  5
67
330
1F
100
AcDbEntity
  8
_U+30EC_U+30A4_U+30E4_U+30FC 1
 62
   179
420
  2234388
370
    25
100
AcDb2dPolyline
 66
     1
 10
0.0
 20
0.0
 30
0.0
  0
VERTEX
  5
68
330
67
100
AcDbEntity
  8
_U+30EC_U+30A4_U+30E4_U+30FC 1
 62
   179
420
  2234388
370
    25
100
AcDbVertex
100
AcDb2dVertex
 10
78.60950549450443
 20
-117.8603391372017
 30
0.0
  0
VERTEX
  5
69
330
67
100
AcDbEntity
  8
_U+30EC_U+30A4_U+30E4_U+30FC 1
 62
   179
420
  2234388
370
    25
100
AcDbVertex
100
AcDb2dVertex
 10
78.60950549450443
 20
-144.3360644083607
 30
0.0
  0
SEQEND
  5
6A
330
67
100
AcDbEntity
  8
_U+30EC_U+30A4_U+30E4_U+30FC 1
 62
   179
420
  2234388
370
    25
  0
POLYLINE
  5
6B
330
1F
100
AcDbEntity
  8
_U+30EC_U+30A4_U+30E4_U+30FC 1
 62
   179
420
  2234388
370
    25
100
AcDb2dPolyline
 66
     1
 10
0.0
 20
0.0
 30
0.0
  0
VERTEX
  5
6C
330
6B
100
AcDbEntity
  8
_U+30EC_U+30A4_U+30E4_U+30FC 1
 62
   179
420
  2234388
370
    25
100
AcDbVertex
100
AcDb2dVertex
 10
79.03393242812085
 20
-117.4360533039745
 30
0.0
  0
VERTEX
  5
6D
330
6B
100
AcDbEntity
  8
_U+30EC_U+30A4_U+30E4_U+30FC 1
 62
   179
420
  2234388
370
    25
100
AcDbVertex
100
AcDb2dVertex
 10
105.5094833069561
 20
-117.4360533039745
 30
0.0
  0
SEQEND
  5
6E
330
6B
100
AcDbEntity
  8
_U+30EC_U+30A4_U+30E4_U+30FC 1
 62
   179
420
  2234388
370
    25
  0
POLYLINE
  5
6F
330
1F
100
AcDbEntity
  8
_U+30EC_U+30A4_U+30E4_U+30FC 1
 62
   179
420
  2234388
370
    25
100
AcDb2dPolyline
 66
     1
 10
0.0
 20
0.0
 30
0.0
  0
VERTEX
  5
70
330
6F
100
AcDbEntity
  8
_U+30EC_U+30A4_U+30E4_U+30FC 1
 62
   179
420
  2234388
370
    25
100
AcDbVertex
100
AcDb2dVertex
 10
86.109455025387
 20
-136.2362866326076
 30
0.0
  0
VERTEX
  5
71
330
6F
100
AcDbEntity
  8
_U+30EC_U+30A4_U+30E4_U+30FC 1
 62
   179
420
  2234388
370
    25
100
AcDbVertex
100
AcDb2dVertex
 10
86.109455025387
 20
-136.8360794102352
 30
0.0
  0
SEQEND
  5
72
330
6F
100
AcDbEntity
  8
_U+30EC_U+30A4_U+30E4_U+30FC 1
 62
   179
420
  2234388
370
    25
  0
POLYLINE
  5
73
330
1F
100
AcDbEntity
  8
_U+30EC_U+30A4_U+30E4_U+30FC 1
 62
   179
420
  2234388
370
    25
100
AcDb2dPolyline
 66
     1
 10
0.0
 20
0.0
 30
0.0
  0
VERTEX
  5
74
330
73
100
AcDbEntity
  8
_U+30EC_U+30A4_U+30E4_U+30FC 1
 62
   179
420
  2234388
370
    25
100
AcDbVertex
100
AcDb2dVertex
 10
88.00979831023854
 20
-126.83602885718
 30
0.0
  0
VERTEX
  5
75
330
73
100
AcDbEntity
  8
_U+30EC_U+30A4_U+30E4_U+30FC 1
 62
   179
420
  2234388
370
    25
100
AcDbVertex
100
AcDb2dVertex
 10
88.00979831023854
 20
-136.8360794102352
 30
0.0
  0
SEQEND
  5
76
330
73
100
AcDbEntity
  8
_U+30EC_U+30A4_U+30E4_U+30FC 1
 62
   179
420
  2234388
370
    25
  0
POLYLINE
  5
77
330
1F
100
AcDbEntity
  8
_U+30EC_U+30A4_U+30E4_U+30FC 1
 62
   179
420
  2234388
370
    25
100
AcDb2dPolyline
 66
     1
 10
0.0
 20
0.0
 30
0.0
  0
VERTEX
  5
78
330
77
100
AcDbEntity
  8
_U+30EC_U+30A4_U+30E4_U+30FC 1
 62
   179
420
  2234388
370
    25
100
AcDbVertex
100
AcDb2dVertex
 10
87.40965276999397
 20
-126.6603102461125
 30
0.0
  0
VERTEX
  5
79
330
77
100
AcDbEntity
  8
_U+30EC_U+30A4_U+30E4_U+30FC 1
 62
   179
420
  2234388
370
    25
100
AcDbVertex
100
AcDb2dVertex
 10
87.40965276999397
 20
-136.2362866326076
 30
0.0
  0
SEQEND
  5
7A
330
77
100
AcDbEntity
  8
_U+30EC_U+30A4_U+30E4_U+30FC 1
 62
   179
420
  2234388
370
    25
  0
POLYLINE
  5
7B
330
1F
100
AcDbEntity
  8
_U+30EC_U+30A4_U+30E4_U+30FC 1
 62
   179
420
  2234388
370
    25
100
AcDb2dPolyline
 66
     1
 10
0.0
 20
0.0
 30
0.0
  0
VERTEX
  5
7C
330
7B
100
AcDbEntity
  8
_U+30EC_U+30A4_U+30E4_U+30FC 1
 62
   179
420
  2234388
370
    25
100
AcDbVertex
100
AcDb2dVertex
 10
86.109455025387
 20
-136.8360794102352
 30
0.0
  0
VERTEX
  5
7D
330
7B
100
AcDbEntity
  8
_U+30EC_U+30A4_U+30E4_U+30FC 1
 62
   179
420
  2234388
370
    25
100
AcDbVertex
100
AcDb2dVertex
 10
88.00979831023854
 20
-136.8360794102352
 30
0.0
  0
SEQEND
  5
7E
330
7B
100
AcDbEntity
  8
_U+30EC_U+30A4_U+30E4_U+30FC 1
 62
   179
420
  2234388
370
    25
  0
POLYLINE
  5
7F
330
1F
100
AcDbEntity
  8
_U+30EC_U+30A4_U+30E4_U+30FC 1
 62
   179
420
  2234388
370
    25
100
AcDb2dPolyline
 66
     1
 10
0.0
 20
0.0
 30
0.0
  0
VERTEX
  5
80
330
7F
100
AcDbEntity
  8
_U+30EC_U+30A4_U+30E4_U+30FC 1
 62
   179
420
  2234388
370
    25
100
AcDbVertex
100
AcDb2dVertex
 10
86.109455025387
 20
-136.2362866326076
 30
0.0
  0
VERTEX
  5
81
330
7F
100
AcDbEntity
  8
_U+30EC_U+30A4_U+30E4_U+30FC 1
 62
   179
420
  2234388
370
    25
100
AcDbVertex
100
AcDb2dVertex
 10
87.40965276999397
 20
-136.2362866326076
 30
0.0
  0
SEQEND
  5
82
330
7F
100
AcDbEntity
  8
_U+30EC_U+30A4_U+30E4_U+30FC 1
 62
   179
420
  2234388
370
    25
  0
POLYLINE
  5
83
330
1F
100
AcDbEntity
  8
_U+30EC_U+30A4_U+30E4_U+30FC 1
 62
   179
420
  2234388
370
    25
100
AcDb2dPolyline
 66
     1
 10
0.0
 20
0.0
 30
0.0
  0
VERTEX
  5
84
330
83
100
AcDbEntity
  8
_U+30EC_U+30A4_U+30E4_U+30FC 1
 62
   179
420
  2234388
370
    25
100
AcDbVertex
100
AcDb2dVertex
 10
79.03393242812085
 20
-117.4360533039745
 30
0.0
  0
VERTEX
  5
85
330
83
100
AcDbEntity
  8
_U+30EC_U+30A4_U+30E4_U+30FC 1
 62
   179
420
  2234388
370
    25
100
AcDbVertex
100
AcDb2dVertex
 10
87.83407970361039
 20
-126.2360596906632
 30
0.0
  0
SEQEND
  5
86
330
83
100
AcDbEntity
  8
_U+30EC_U+30A4_U+30E4_U+30FC 1
 62
   179
420
  2234388
370
    25
  0
POLYLINE
  5
87
330
1F
100
AcDbEntity
  8
_U+30EC_U+30A4_U+30E4_U+30FC 1
 62
   179
420
  2234388
370
    25
100
AcDb2dPolyline
 66
     1
 10
0.0
 20
0.0
 30
0.0
  0
VERTEX
  5
88
330
87
100
AcDbEntity
  8
_U+30EC_U+30A4_U+30E4_U+30FC 1
 62
   179
420
  2234388
370
    25
100
AcDbVertex
100
AcDb2dVertex
 10
78.60950549450443
 20
-117.8603391372017
 30
0.0
  0
VERTEX
  5
89
330
87
100
AcDbEntity
  8
_U+30EC_U+30A4_U+30E4_U+30FC 1
 62
   179
420
  2234388
370
    25
100
AcDbVertex
100
AcDb2dVertex
 10
87.40965276999397
 20
-126.6603102461125
 30
0.0
  0
SEQEND
  5
8A
330
87
100
AcDbEntity
  8
_U+30EC_U+30A4_U+30E4_U+30FC 1
 62
   179
420
  2234388
370
    25
  0
POLYLINE
  5
8B
330
1F
100
AcDbEntity
  8
_U+30EC_U+30A4_U+30E4_U+30FC 1
 62
   179
420
  2234388
370
    25
100
AcDb2dPolyline
 66
     1
 10
0.0
 20
0.0
 30
0.0
  0
VERTEX
  5
8C
330
8B
100
AcDbEntity
  8
_U+30EC_U+30A4_U+30E4_U+30FC 1
 62
   179
420
  2234388
370
    25
100
AcDbVertex
100
AcDb2dVertex
 10
97.40938557043509
 20
-124.9360383020994
 30
0.0
  0
VERTEX
  5
8D
330
8B
100
AcDbEntity
  8
_U+30EC_U+30A4_U+30E4_U+30FC 1
 62
   179
420
  2234388
370
    25
100
AcDbVertex
100
AcDb2dVertex
 10
97.40938557043509
 20
-126.2360596906632
 30
0.0
  0
SEQEND
  5
8E
330
8B
100
AcDbEntity
  8
_U+30EC_U+30A4_U+30E4_U+30FC 1
 62
   179
420
  2234388
370
    25
  0
POLYLINE
  5
8F
330
1F
100
AcDbEntity
  8
_U+30EC_U+30A4_U+30E4_U+30FC 1
 62
   179
420
  2234388
370
    25
100
AcDb2dPolyline
 66
     1
 10
0.0
 20
0.0
 30
0.0
  0
VERTEX
  5
90
330
8F
100
AcDbEntity
  8
_U+30EC_U+30A4_U+30E4_U+30FC 1
 62
   179
420
  2234388
370
    25
100
AcDbVertex
100
AcDb2dVertex
 10
87.83407970361039
 20
-126.2360596906632
 30
0.0
  0
VERTEX
  5
91
330
8F
100
AcDbEntity
  8
_U+30EC_U+30A4_U+30E4_U+30FC 1
 62
   179
420
  2234388
370
    25
100
AcDbVertex
100
AcDb2dVertex
 10
97.40938557043509
 20
-126.2360596906632
 30
0.0
  0
SEQEND
  5
92
330
8F
100
AcDbEntity
  8
_U+30EC_U+30A4_U+30E4_U+30FC 1
 62
   179
420
  2234388
370
    25
  0
POLYLINE
  5
93
330
1F
100
AcDbEntity
  8
_U+30EC_U+30A4_U+30E4_U+30FC 1
 62
   179
420
  2234388
370
    25
100
AcDb2dPolyline
 66
     1
 10
0.0
 20
0.0
 30
0.0
  0
VERTEX
  5
94
330
93
100
AcDbEntity
  8
_U+30EC_U+30A4_U+30E4_U+30FC 1
 62
   179
420
  2234388
370
    25
100
AcDbVertex
100
AcDb2dVertex
 10
97.40938557043509
 20
-124.9360383020994
 30
0.0
  0
VERTEX
  5
95
330
93
100
AcDbEntity
  8
_U+30EC_U+30A4_U+30E4_U+30FC 1
 62
   179
420
  2234388
370
    25
100
AcDbVertex
100
AcDb2dVertex
 10
98.00953111067966
 20
-124.9360383020994
 30
0.0
  0
SEQEND
  5
96
330
93
100
AcDbEntity
  8
_U+30EC_U+30A4_U+30E4_U+30FC 1
 62
   179
420
  2234388
370
    25
  0
POLYLINE
  5
97
330
1F
100
AcDbEntity
  8
_U+30EC_U+30A4_U+30E4_U+30FC 1
 62
   179
420
  2234388
370
    25
100
AcDb2dPolyline
 66
     1
 10
0.0
 20
0.0
 30
0.0
  0
VERTEX
  5
98
330
97
100
AcDbEntity
  8
_U+30EC_U+30A4_U+30E4_U+30FC 1
 62
   179
420
  2234388
370
    25
100
AcDbVertex
100
AcDb2dVertex
 10
88.00979831023854
 20
-126.83602885718
 30
0.0
  0
VERTEX
  5
99
330
97
100
AcDbEntity
  8
_U+30EC_U+30A4_U+30E4_U+30FC 1
 62
   179
420
  2234388
370
    25
100
AcDbVertex
100
AcDb2dVertex
 10
98.00953111067966
 20
-126.83602885718
 30
0.0
  0
SEQEND
  5
9A
330
97
100
AcDbEntity
  8
_U+30EC_U+30A4_U+30E4_U+30FC 1
 62
   179
420
  2234388
370
    25
  0
POLYLINE
  5
9B
330
1F
100
AcDbEntity
  8
_U+30EC_U+30A4_U+30E4_U+30FC 1
 62
   179
420
  2234388
370
    25
100
AcDb2dPolyline
 66
     1
 10
0.0
 20
0.0
 30
0.0
  0
VERTEX
  5
9C
330
9B
100
AcDbEntity
  8
_U+30EC_U+30A4_U+30E4_U+30FC 1
 62
   179
420
  2234388
370
    25
100
AcDbVertex
100
AcDb2dVertex
 10
98.00953111067966
 20
-124.9360383020994
 30
0.0
  0
VERTEX
  5
9D
330
9B
100
AcDbEntity
  8
_U+30EC_U+30A4_U+30E4_U+30FC 1
 62
   179
420
  2234388
370
    25
100
AcDbVertex
100
AcDb2dVertex
 10
98.00953111067966
 20
-126.83602885718
 30
0.0
  0
SEQEND
  5
9E
330
9B
100
AcDbEntity
  8
_U+30EC_U+30A4_U+30E4_U+30FC 1
 62
   179
420
  2234388
370
    25
  0
SPLINE
  5
9F
330
1F
100
AcDbEntity
  8
_U+30EC_U+30A4_U+30E4_U+30FC 1
 62
   179
420
  2234388
370
     9
100
AcDbSpline
210
0.0
220
0.0
230
1.0
 70
    11
 71
     3
 72
    17
 73
    13
 74
     0
 42
0.0000000001
 43
0.0000000001
 12
1.0
 22
0.0
 32
0.0
 13
1.0
 23
0.0
 33
0.0
 40
0.0
 40
0.0
 40
0.0
 40
0.0
 40
1.0
 40
1.0
 40
1.0
 40
2.0
 40
2.0
 40
2.0
 40
3.0
 40
3.0
 40
3.0
 40
4.0
 40
4.0
 40
4.0
 40
4.0
 10
105.5597867513899
 20
-114.8360458046244
 30
0.0
 10
105.5597867513899
 20
-114.8084938601867
 30
0.0
 10
105.5370678630806
 20
-114.7860924713036
 30
0.0
 10
105.5094833069561
 20
-114.7860924713036
 30
0.0
 10
105.4819286978207
 20
-114.7860924713036
 30
0.0
 10
105.4598800872721
 20
-114.8084938601867
 30
0.0
 10
105.4598800872721
 20
-114.8360458046244
 30
0.0
 10
105.4598800872721
 20
-114.8637741379508
 30
0.0
 10
105.4819286978207
 20
-114.8861755268342
 30
0.0
 10
105.5094833069561
 20
-114.8861755268342
 30
0.0
 10
105.5370678630806
 20
-114.8861755268342
 30
0.0
 10
105.5597867513899
 20
-114.8637741379508
 30
0.0
 10
105.5597867513899
 20
-114.8360458046244
 30
0.0
  0
SPLINE
  5
A0
330
1F
100
AcDbEntity
  8
_U+30EC_U+30A4_U+30E4_U+30FC 1
 62
   179
420
  2234388
370
     9
100
AcDbSpline
210
0.0
220
0.0
230
1.0
 70
    11
 71
     3
 72
    17
 73
    13
 74
     0
 42
0.0000000001
 43
0.0000000001
 12
1.0
 22
0.0
 32
0.0
 13
1.0
 23
0.0
 33
0.0
 40
0.0
 40
0.0
 40
0.0
 40
0.0
 40
1.0
 40
1.0
 40
1.0
 40
2.0
 40
2.0
 40
2.0
 40
3.0
 40
3.0
 40
3.0
 40
4.0
 40
4.0
 40
4.0
 40
4.0
 10
78.05966606408757
 20
-114.8360458046244
 30
0.0
 10
78.05966606408757
 20
-114.8084938601867
 30
0.0
 10
78.03726664715722
 20
-114.7860924713036
 30
0.0
 10
78.00971273202865
 20
-114.7860924713036
 30
0.0
 10
77.9821607882871
 20
-114.7860924713036
 30
0.0
 10
77.95975939996973
 20
-114.8084938601867
 30
0.0
 10
77.95975939996973
 20
-114.8360458046244
 30
0.0
 10
77.95975939996973
 20
-114.8637741379508
 30
0.0
 10
77.9821607882871
 20
-114.8861755268342
 30
0.0
 10
78.00971273202865
 20
-114.8861755268342
 30
0.0
 10
78.03726664715722
 20
-114.8861755268342
 30
0.0
 10
78.05966606408757
 20
-114.8637741379508
 30
0.0
 10
78.05966606408757
 20
-114.8360458046244
 30
0.0
  0
SPLINE
  5
A1
330
1F
100
AcDbEntity
  8
_U+30EC_U+30A4_U+30E4_U+30FC 1
 62
   179
420
  2234388
370
     9
100
AcDbSpline
210
0.0
220
0.0
230
1.0
 70
    11
 71
     3
 72
    17
 73
    13
 74
     0
 42
0.0000000001
 43
0.0000000001
 12
1.0
 22
0.0
 32
0.0
 13
1.0
 23
0.0
 33
0.0
 40
0.0
 40
0.0
 40
0.0
 40
0.0
 40
1.0
 40
1.0
 40
1.0
 40
2.0
 40
2.0
 40
2.0
 40
3.0
 40
3.0
 40
3.0
 40
4.0
 40
4.0
 40
4.0
 40
4.0
 10
76.05945139289507
 20
-116.8361194152355
 30
0.0
 10
76.05945139289507
 20
-116.8085321930202
 30
0.0
 10
76.03740278234646
 20
-116.7861660819147
 30
0.0
 10
76.00981556082805
 20
-116.7861660819147
 30
0.0
 10
75.98191083931773
 20
-116.7861660819147
 30
0.0
 10
75.95954472877723
 20
-116.8085321930202
 30
0.0
 10
75.95954472877723
 20
-116.8361194152355
 30
0.0
 10
75.95954472877723
 20
-116.863671359673
 30
0.0
 10
75.98191083931773
 20
-116.8860727485563
 30
0.0
 10
76.00981556082805
 20
-116.8860727485563
 30
0.0
 10
76.03740278234646
 20
-116.8860727485563
 30
0.0
 10
76.05945139289507
 20
-116.863671359673
 30
0.0
 10
76.05945139289507
 20
-116.8361194152355
 30
0.0
  0
SPLINE
  5
A2
330
1F
100
AcDbEntity
  8
_U+30EC_U+30A4_U+30E4_U+30FC 1
 62
   179
420
  2234388
370
     9
100
AcDbSpline
210
0.0
220
0.0
230
1.0
 70
    11
 71
     3
 72
    17
 73
    13
 74
     0
 42
0.0000000001
 43
0.0000000001
 12
1.0
 22
0.0
 32
0.0
 13
1.0
 23
0.0
 33
0.0
 40
0.0
 40
0.0
 40
0.0
 40
0.0
 40
1.0
 40
1.0
 40
1.0
 40
2.0
 40
2.0
 40
2.0
 40
3.0
 40
3.0
 40
3.0
 40
4.0
 40
4.0
 40
4.0
 40
4.0
 10
76.05945139289507
 20
-144.3360644083607
 30
0.0
 10
76.05945139289507
 20
-144.3085124639229
 30
0.0
 10
76.03740278234646
 20
-144.2861110750396
 30
0.0
 10
76.00981556082805
 20
-144.2861110750396
 30
0.0
 10
75.98191083931773
 20
-144.2861110750396
 30
0.0
 10
75.95954472877723
 20
-144.3085124639229
 30
0.0
 10
75.95954472877723
 20
-144.3360644083607
 30
0.0
 10
75.95954472877723
 20
-144.3636163527979
 30
0.0
 10
75.98191083931773
 20
-144.3860177416812
 30
0.0
 10
76.00981556082805
 20
-144.3860177416812
 30
0.0
 10
76.03740278234646
 20
-144.3860177416812
 30
0.0
 10
76.05945139289507
 20
-144.3636163527979
 30
0.0
 10
76.05945139289507
 20
-144.3360644083607
 30
0.0
  0
SPLINE
  5
A3
330
1F
100
AcDbEntity
  8
_U+30EC_U+30A4_U+30E4_U+30FC 1
 62
   179
420
  2234388
370
     9
100
AcDbSpline
210
0.0
220
0.0
230
1.0
 70
    11
 71
     3
 72
    17
 73
    13
 74
     0
 42
0.0000000001
 43
0.0000000001
 12
1.0
 22
0.0
 32
0.0
 13
1.0
 23
0.0
 33
0.0
 40
0.0
 40
0.0
 40
0.0
 40
0.0
 40
1.0
 40
1.0
 40
1.0
 40
2.0
 40
2.0
 40
2.0
 40
3.0
 40
3.0
 40
3.0
 40
4.0
 40
4.0
 40
4.0
 40
4.0
 10
78.65981160433213
 20
-146.3359263523048
 30
0.0
 10
78.65981160433213
 20
-146.3083744078676
 30
0.0
 10
78.63705743824598
 20
-146.286325796762
 30
0.0
 10
78.60950549450443
 20
-146.286325796762
 30
0.0
 10
78.58195553591021
 20
-146.286325796762
 30
0.0
 10
78.5599049402143
 20
-146.3083744078676
 30
0.0
 10
78.5599049402143
 20
-146.3359263523048
 30
0.0
 10
78.5599049402143
 20
-146.3635135745201
 30
0.0
 10
78.58195553591021
 20
-146.3862324634037
 30
0.0
 10
78.60950549450443
 20
-146.3862324634037
 30
0.0
 10
78.63705743824598
 20
-146.3862324634037
 30
0.0
 10
78.65981160433213
 20
-146.3635135745201
 30
0.0
 10
78.65981160433213
 20
-146.3359263523048
 30
0.0
  0
SPLINE
  5
A4
330
1F
100
AcDbEntity
  8
_U+30EC_U+30A4_U+30E4_U+30FC 1
 62
   179
420
  2234388
370
     9
100
AcDbSpline
210
0.0
220
0.0
230
1.0
 70
    11
 71
     3
 72
    17
 73
    13
 74
     0
 42
0.0000000001
 43
0.0000000001
 12
1.0
 22
0.0
 32
0.0
 13
1.0
 23
0.0
 33
0.0
 40
0.0
 40
0.0
 40
0.0
 40
0.0
 40
1.0
 40
1.0
 40
1.0
 40
2.0
 40
2.0
 40
2.0
 40
3.0
 40
3.0
 40
3.0
 40
4.0
 40
4.0
 40
4.0
 40
4.0
 10
86.1597611352147
 20
-146.3359263523048
 30
0.0
 10
86.1597611352147
 20
-146.3083744078676
 30
0.0
 10
86.13704442291007
 20
-146.286325796762
 30
0.0
 10
86.109455025387
 20
-146.286325796762
 30
0.0
 10
86.08190308164546
 20
-146.286325796762
 30
0.0
 10
86.05985447109687
 20
-146.3083744078676
 30
0.0
 10
86.05985447109687
 20
-146.3359263523048
 30
0.0
 10
86.05985447109687
 20
-146.3635135745201
 30
0.0
 10
86.08190308164546
 20
-146.3862324634037
 30
0.0
 10
86.109455025387
 20
-146.3862324634037
 30
0.0
 10
86.13704442291007
 20
-146.3862324634037
 30
0.0
 10
86.1597611352147
 20
-146.3635135745201
 30
0.0
 10
86.1597611352147
 20
-146.3359263523048
 30
0.0
  0
SPLINE
  5
A5
330
1F
100
AcDbEntity
  8
_U+30EC_U+30A4_U+30E4_U+30FC 1
 62
   179
420
  2234388
370
     9
100
AcDbSpline
210
0.0
220
0.0
230
1.0
 70
    11
 71
     3
 72
    17
 73
    13
 74
     0
 42
0.0000000001
 43
0.0000000001
 12
1.0
 22
0.0
 32
0.0
 13
1.0
 23
0.0
 33
0.0
 40
0.0
 40
0.0
 40
0.0
 40
0.0
 40
1.0
 40
1.0
 40
1.0
 40
2.0
 40
2.0
 40
2.0
 40
3.0
 40
3.0
 40
3.0
 40
4.0
 40
4.0
 40
4.0
 40
4.0
 10
88.05939886452869
 20
-138.835976631958
 30
0.0
 10
88.05939886452869
 20
-138.8084246875202
 30
0.0
 10
88.03735025398008
 20
-138.7860232986368
 30
0.0
 10
88.00979831023854
 20
-138.7860232986368
 30
0.0
 10
87.98221108872013
 20
-138.7860232986368
 30
0.0
 10
87.95949442245451
 20
-138.8084246875202
 30
0.0
 10
87.95949442245451
 20
-138.835976631958
 30
0.0
 10
87.95949442245451
 20
-138.8635285763951
 30
0.0
 10
87.98221108872013
 20
-138.8862827430563
 30
0.0
 10
88.00979831023854
 20
-138.8862827430563
 30
0.0
 10
88.03735025398008
 20
-138.8862827430563
 30
0.0
 10
88.05939886452869
 20
-138.8635285763951
 30
0.0
 10
88.05939886452869
 20
-138.835976631958
 30
0.0
  0
SPLINE
  5
A6
330
1F
100
AcDbEntity
  8
_U+30EC_U+30A4_U+30E4_U+30FC 1
 62
   179
420
  2234388
370
     9
100
AcDbSpline
210
0.0
220
0.0
230
1.0
 70
    11
 71
     3
 72
    17
 73
    13
 74
     0
 42
0.0000000001
 43
0.0000000001
 12
1.0
 22
0.0
 32
0.0
 13
1.0
 23
0.0
 33
0.0
 40
0.0
 40
0.0
 40
0.0
 40
0.0
 40
1.0
 40
1.0
 40
1.0
 40
2.0
 40
2.0
 40
2.0
 40
3.0
 40
3.0
 40
3.0
 40
4.0
 40
4.0
 40
4.0
 40
4.0
 10
86.1597611352147
 20
-138.835976631958
 30
0.0
 10
86.1597611352147
 20
-138.8084246875202
 30
0.0
 10
86.13704442291007
 20
-138.7860232986368
 30
0.0
 10
86.109455025387
 20
-138.7860232986368
 30
0.0
 10
86.08190308164546
 20
-138.7860232986368
 30
0.0
 10
86.05985447109687
 20
-138.8084246875202
 30
0.0
 10
86.05985447109687
 20
-138.835976631958
 30
0.0
 10
86.05985447109687
 20
-138.8635285763951
 30
0.0
 10
86.08190308164546
 20
-138.8862827430563
 30
0.0
 10
86.109455025387
 20
-138.8862827430563
 30
0.0
 10
86.13704442291007
 20
-138.8862827430563
 30
0.0
 10
86.1597611352147
 20
-138.8635285763951
 30
0.0
 10
86.1597611352147
 20
-138.835976631958
 30
0.0
  0
SPLINE
  5
A7
330
1F
100
AcDbEntity
  8
_U+30EC_U+30A4_U+30E4_U+30FC 1
 62
   179
420
  2234388
370
     9
100
AcDbSpline
210
0.0
220
0.0
230
1.0
 70
    11
 71
     3
 72
    17
 73
    13
 74
     0
 42
0.0000000001
 43
0.0000000001
 12
1.0
 22
0.0
 32
0.0
 13
1.0
 23
0.0
 33
0.0
 40
0.0
 40
0.0
 40
0.0
 40
0.0
 40
1.0
 40
1.0
 40
1.0
 40
2.0
 40
2.0
 40
2.0
 40
3.0
 40
3.0
 40
3.0
 40
4.0
 40
4.0
 40
4.0
 40
4.0
 10
100.0596991139311
 20
-136.8360794102352
 30
0.0
 10
100.0596991139311
 20
-136.808527465798
 30
0.0
 10
100.0372977256137
 20
-136.7861260769147
 30
0.0
 10
100.0097457818722
 20
-136.7861260769147
 30
0.0
 10
99.98219383813061
 20
-136.7861260769147
 30
0.0
 10
99.95943967204445
 20
-136.808527465798
 30
0.0
 10
99.95943967204445
 20
-136.8360794102352
 30
0.0
 10
99.95943967204445
 20
-136.8636666324504
 30
0.0
 10
99.98219383813061
 20
-136.8860327435563
 30
0.0
 10
100.0097457818722
 20
-136.8860327435563
 30
0.0
 10
100.0372977256137
 20
-136.8860327435563
 30
0.0
 10
100.0596991139311
 20
-136.8636666324504
 30
0.0
 10
100.0596991139311
 20
-136.8360794102352
 30
0.0
  0
SPLINE
  5
A8
330
1F
100
AcDbEntity
  8
_U+30EC_U+30A4_U+30E4_U+30FC 1
 62
   179
420
  2234388
370
     9
100
AcDbSpline
210
0.0
220
0.0
230
1.0
 70
    11
 71
     3
 72
    17
 73
    13
 74
     0
 42
0.0000000001
 43
0.0000000001
 12
1.0
 22
0.0
 32
0.0
 13
1.0
 23
0.0
 33
0.0
 40
0.0
 40
0.0
 40
0.0
 40
0.0
 40
1.0
 40
1.0
 40
1.0
 40
2.0
 40
2.0
 40
2.0
 40
3.0
 40
3.0
 40
3.0
 40
4.0
 40
4.0
 40
4.0
 40
4.0
 10
100.0596991139311
 20
-126.83602885718
 30
0.0
 10
100.0596991139311
 20
-126.8084416349647
 30
0.0
 10
100.0372977256137
 20
-126.7860755238592
 30
0.0
 10
100.0097457818722
 20
-126.7860755238592
 30
0.0
 10
99.98219383813061
 20
-126.7860755238592
 30
0.0
 10
99.95943967204445
 20
-126.8084416349647
 30
0.0
 10
99.95943967204445
 20
-126.83602885718
 30
0.0
 10
99.95943967204445
 20
-126.8637571905063
 30
0.0
 10
99.98219383813061
 20
-126.8861233016118
 30
0.0
 10
100.0097457818722
 20
-126.8861233016118
 30
0.0
 10
100.0372977256137
 20
-126.8861233016118
 30
0.0
 10
100.0596991139311
 20
-126.8637571905063
 30
0.0
 10
100.0596991139311
 20
-126.83602885718
 30
0.0
  0
POLYLINE
  5
A9
330
1F
100
AcDbEntity
  8
_U+30EC_U+30A4_U+30E4_U+30FC 1
 62
   179
420
  2234388
370
     9
100
AcDb2dPolyline
 66
     1
 10
0.0
 20
0.0
 30
0.0
  0
VERTEX
  5
AA
330
A9
100
AcDbEntity
  8
_U+30EC_U+30A4_U+30E4_U+30FC 1
 62
   179
420
  2234388
370
     9
100
AcDbVertex
100
AcDb2dVertex
 10
76.00981556082805
 20
-116.8361194152355
 30
0.0
  0
VERTEX
  5
AB
330
A9
100
AcDbEntity
  8
_U+30EC_U+30A4_U+30E4_U+30FC 1
 62
   179
420
  2234388
370
     9
100
AcDbVertex
100
AcDb2dVertex
 10
76.00981556082805
 20
-144.3360644083607
 30
0.0
  0
SEQEND
  5
AC
330
A9
100
AcDbEntity
  8
_U+30EC_U+30A4_U+30E4_U+30FC 1
 62
   179
420
  2234388
370
     9
  0
POLYLINE
  5
AD
330
1F
100
AcDbEntity
  8
_U+30EC_U+30A4_U+30E4_U+30FC 1
 62
   179
420
  2234388
370
     9
100
AcDb2dPolyline
 66
     1
 10
0.0
 20
0.0
 30
0.0
  0
VERTEX
  5
AE
330
AD
100
AcDbEntity
  8
_U+30EC_U+30A4_U+30E4_U+30FC 1
 62
   179
420
  2234388
370
     9
100
AcDbVertex
100
AcDb2dVertex
 10
76.73950109776777
 20
-116.8361194152355
 30
0.0
  0
VERTEX
  5
AF
330
AD
100
AcDbEntity
  8
_U+30EC_U+30A4_U+30E4_U+30FC 1
 62
   179
420
  2234388
370
     9
100
AcDbVertex
100
AcDb2dVertex
 10
75.50961387001136
 20
-116.8361194152355
 30
0.0
  0
SEQEND
  5
B0
330
AD
100
AcDbEntity
  8
_U+30EC_U+30A4_U+30E4_U+30FC 1
 62
   179
420
  2234388
370
     9
  0
POLYLINE
  5
B1
330
1F
100
AcDbEntity
  8
_U+30EC_U+30A4_U+30E4_U+30FC 1
 62
   179
420
  2234388
370
     9
100
AcDb2dPolyline
 66
     1
 10
0.0
 20
0.0
 30
0.0
  0
VERTEX
  5
B2
330
B1
100
AcDbEntity
  8
_U+30EC_U+30A4_U+30E4_U+30FC 1
 62
   179
420
  2234388
370
     9
100
AcDbVertex
100
AcDb2dVertex
 10
76.73950109776777
 20
-144.3360644083607
 30
0.0
  0
VERTEX
  5
B3
330
B1
100
AcDbEntity
  8
_U+30EC_U+30A4_U+30E4_U+30FC 1
 62
   179
420
  2234388
370
     9
100
AcDbVertex
100
AcDb2dVertex
 10
75.50961387001136
 20
-144.3360644083607
 30
0.0
  0
SEQEND
  5
B4
330
B1
100
AcDbEntity
  8
_U+30EC_U+30A4_U+30E4_U+30FC 1
 62
   179
420
  2234388
370
     9
  0
INSERT
  5
B6
330
1F
100
AcDbEntity
  8
_U+30EC_U+30A4_U+30E4_U+30FC 1
100
AcDbBlockReference
  2
block 2
 10
0.0
 20
0.0
 30
0.0
  0
POLYLINE
  5
BD
330
1F
100
AcDbEntity
  8
_U+30EC_U+30A4_U+30E4_U+30FC 1
 62
   179
420
  2234388
370
     9
100
AcDb2dPolyline
 66
     1
 10
0.0
 20
0.0
 30
0.0
  0
VERTEX
  5
BE
330
BD
100
AcDbEntity
  8
_U+30EC_U+30A4_U+30E4_U+30FC 1
 62
   179
420
  2234388
370
     9
100
AcDbVertex
100
AcDb2dVertex
 10
100.0097457818722
 20
-126.83602885718
 30
0.0
  0
VERTEX
  5
BF
330
BD
100
AcDbEntity
  8
_U+30EC_U+30A4_U+30E4_U+30FC 1
 62
   179
420
  2234388
370
     9
100
AcDbVertex
100
AcDb2dVertex
 10
100.0097457818722
 20
-136.8360794102352
 30
0.0
  0
SEQEND
  5
C0
330
BD
100
AcDbEntity
  8
_U+30EC_U+30A4_U+30E4_U+30FC 1
 62
   179
420
  2234388
370
     9
  0
POLYLINE
  5
C1
330
1F
100
AcDbEntity
  8
_U+30EC_U+30A4_U+30E4_U+30FC 1
 62
   179
420
  2234388
370
     9
100
AcDb2dPolyline
 66
     1
 10
0.0
 20
0.0
 30
0.0
  0
VERTEX
  5
C2
330
C1
100
AcDbEntity
  8
_U+30EC_U+30A4_U+30E4_U+30FC 1
 62
   179
420
  2234388
370
     9
100
AcDbVertex
100
AcDb2dVertex
 10
99.27974274494053
 20
-126.83602885718
 30
0.0
  0
VERTEX
  5
C3
330
C1
100
AcDbEntity
  8
_U+30EC_U+30A4_U+30E4_U+30FC 1
 62
   179
420
  2234388
370
     9
100
AcDbVertex
100
AcDb2dVertex
 10
100.5096318802301
 20
-126.83602885718
 30
0.0
  0
SEQEND
  5
C4
330
C1
100
AcDbEntity
  8
_U+30EC_U+30A4_U+30E4_U+30FC 1
 62
   179
420
  2234388
370
     9
  0
POLYLINE
  5
C5
330
1F
100
AcDbEntity
  8
_U+30EC_U+30A4_U+30E4_U+30FC 1
 62
   179
420
  2234388
370
     9
100
AcDb2dPolyline
 66
     1
 10
0.0
 20
0.0
 30
0.0
  0
VERTEX
  5
C6
330
C5
100
AcDbEntity
  8
_U+30EC_U+30A4_U+30E4_U+30FC 1
 62
   179
420
  2234388
370
     9
100
AcDbVertex
100
AcDb2dVertex
 10
89.27965716673063
 20
-136.8360794102352
 30
0.0
  0
VERTEX
  5
C7
330
C5
100
AcDbEntity
  8
_U+30EC_U+30A4_U+30E4_U+30FC 1
 62
   179
420
  2234388
370
     9
100
AcDbVertex
100
AcDb2dVertex
 10
100.5096318802301
 20
-136.8360794102352
 30
0.0
  0
SEQEND
  5
C8
330
C5
100
AcDbEntity
  8
_U+30EC_U+30A4_U+30E4_U+30FC 1
 62
   179
420
  2234388
370
     9
  0
INSERT
  5
CA
330
1F
100
AcDbEntity
  8
_U+30EC_U+30A4_U+30E4_U+30FC 1
100
AcDbBlockReference
  2
block 3
 10
0.0
 20
0.0
 30
0.0
  0
POLYLINE
  5
D2
330
1F
100
AcDbEntity
  8
_U+30EC_U+30A4_U+30E4_U+30FC 1
 62
   179
420
  2234388
370
     9
100
AcDb2dPolyline
 66
     1
 10
0.0
 20
0.0
 30
0.0
  0
VERTEX
  5
D3
330
D2
100
AcDbEntity
  8
_U+30EC_U+30A4_U+30E4_U+30FC 1
 62
   179
420
  2234388
370
     9
100
AcDbVertex
100
AcDb2dVertex
 10
86.109455025387
 20
-146.3359263523048
 30
0.0
  0
VERTEX
  5
D4
330
D2
100
AcDbEntity
  8
_U+30EC_U+30A4_U+30E4_U+30FC 1
 62
   179
420
  2234388
370
     9
100
AcDbVertex
100
AcDb2dVertex
 10
78.60950549450443
 20
-146.3359263523048
 30
0.0
  0
SEQEND
  5
D5
330
D2
100
AcDbEntity
  8
_U+30EC_U+30A4_U+30E4_U+30FC 1
 62
   179
420
  2234388
370
     9
  0
POLYLINE
  5
D6
330
1F
100
AcDbEntity
  8
_U+30EC_U+30A4_U+30E4_U+30FC 1
 62
   179
420
  2234388
370
     9
100
AcDb2dPolyline
 66
     1
 10
0.0
 20
0.0
 30
0.0
  0
VERTEX
  5
D7
330
D6
100
AcDbEntity
  8
_U+30EC_U+30A4_U+30E4_U+30FC 1
 62
   179
420
  2234388
370
     9
100
AcDbVertex
100
AcDb2dVertex
 10
86.109455025387
 20
-138.1062910765848
 30
0.0
  0
VERTEX
  5
D8
330
D6
100
AcDbEntity
  8
_U+30EC_U+30A4_U+30E4_U+30FC 1
 62
   179
420
  2234388
370
     9
100
AcDbVertex
100
AcDb2dVertex
 10
86.109455025387
 20
-146.8361652410685
 30
0.0
  0
SEQEND
  5
D9
330
D6
100
AcDbEntity
  8
_U+30EC_U+30A4_U+30E4_U+30FC 1
 62
   179
420
  2234388
370
     9
  0
POLYLINE
  5
DA
330
1F
100
AcDbEntity
  8
_U+30EC_U+30A4_U+30E4_U+30FC 1
 62
   179
420
  2234388
370
     9
100
AcDb2dPolyline
 66
     1
 10
0.0
 20
0.0
 30
0.0
  0
VERTEX
  5
DB
330
DA
100
AcDbEntity
  8
_U+30EC_U+30A4_U+30E4_U+30FC 1
 62
   179
420
  2234388
370
     9
100
AcDbVertex
100
AcDb2dVertex
 10
78.60950549450443
 20
-145.6062760747098
 30
0.0
  0
VERTEX
  5
DC
330
DA
100
AcDbEntity
  8
_U+30EC_U+30A4_U+30E4_U+30FC 1
 62
   179
420
  2234388
370
     9
100
AcDbVertex
100
AcDb2dVertex
 10
78.60950549450443
 20
-146.8361652410685
 30
0.0
  0
SEQEND
  5
DD
330
DA
100
AcDbEntity
  8
_U+30EC_U+30A4_U+30E4_U+30FC 1
 62
   179
420
  2234388
370
     9
  0
INSERT
  5
DF
330
1F
100
AcDbEntity
  8
_U+30EC_U+30A4_U+30E4_U+30FC 1
100
AcDbBlockReference
  2
block 4
 10
0.0
 20
0.0
 30
0.0
  0
POLYLINE
  5
E6
330
1F
100
AcDbEntity
  8
_U+30EC_U+30A4_U+30E4_U+30FC 1
 62
   179
420
  2234388
370
     9
100
AcDb2dPolyline
 66
     1
 10
0.0
 20
0.0
 30
0.0
  0
VERTEX
  5
E7
330
E6
100
AcDbEntity
  8
_U+30EC_U+30A4_U+30E4_U+30FC 1
 62
   179
420
  2234388
370
     9
100
AcDbVertex
100
AcDb2dVertex
 10
88.00979831023854
 20
-138.835976631958
 30
0.0
  0
VERTEX
  5
E8
330
E6
100
AcDbEntity
  8
_U+30EC_U+30A4_U+30E4_U+30FC 1
 62
   179
420
  2234388
370
     9
100
AcDbVertex
100
AcDb2dVertex
 10
90.63838074317782
 20
-138.835976631958
 30
0.0
  0
SEQEND
  5
E9
330
E6
100
AcDbEntity
  8
_U+30EC_U+30A4_U+30E4_U+30FC 1
 62
   179
420
  2234388
370
     9
  0
POLYLINE
  5
EA
330
1F
100
AcDbEntity
  8
_U+30EC_U+30A4_U+30E4_U+30FC 1
 62
   179
420
  2234388
370
     9
100
AcDb2dPolyline
 66
     1
 10
0.0
 20
0.0
 30
0.0
  0
VERTEX
  5
EB
330
EA
100
AcDbEntity
  8
_U+30EC_U+30A4_U+30E4_U+30FC 1
 62
   179
420
  2234388
370
     9
100
AcDbVertex
100
AcDb2dVertex
 10
86.109455025387
 20
-138.835976631958
 30
0.0
  0
VERTEX
  5
EC
330
EA
100
AcDbEntity
  8
_U+30EC_U+30A4_U+30E4_U+30FC 1
 62
   179
420
  2234388
370
     9
100
AcDbVertex
100
AcDb2dVertex
 10
88.00979831023854
 20
-138.835976631958
 30
0.0
  0
SEQEND
  5
ED
330
EA
100
AcDbEntity
  8
_U+30EC_U+30A4_U+30E4_U+30FC 1
 62
   179
420
  2234388
370
     9
  0
POLYLINE
  5
EE
330
1F
100
AcDbEntity
  8
_U+30EC_U+30A4_U+30E4_U+30FC 1
 62
   179
420
  2234388
370
     9
100
AcDb2dPolyline
 66
     1
 10
0.0
 20
0.0
 30
0.0
  0
VERTEX
  5
EF
330
EE
100
AcDbEntity
  8
_U+30EC_U+30A4_U+30E4_U+30FC 1
 62
   179
420
  2234388
370
     9
100
AcDbVertex
100
AcDb2dVertex
 10
86.109455025387
 20
-138.1062910765848
 30
0.0
  0
VERTEX
  5
F0
330
EE
100
AcDbEntity
  8
_U+30EC_U+30A4_U+30E4_U+30FC 1
 62
   179
420
  2234388
370
     9
100
AcDbVertex
100
AcDb2dVertex
 10
86.109455025387
 20
-139.3362155207217
 30
0.0
  0
SEQEND
  5
F1
330
EE
100
AcDbEntity
  8
_U+30EC_U+30A4_U+30E4_U+30FC 1
 62
   179
420
  2234388
370
     9
  0
POLYLINE
  5
F2
330
1F
100
AcDbEntity
  8
_U+30EC_U+30A4_U+30E4_U+30FC 1
 62
   179
420
  2234388
370
     9
100
AcDb2dPolyline
 66
     1
 10
0.0
 20
0.0
 30
0.0
  0
VERTEX
  5
F3
330
F2
100
AcDbEntity
  8
_U+30EC_U+30A4_U+30E4_U+30FC 1
 62
   179
420
  2234388
370
     9
100
AcDbVertex
100
AcDb2dVertex
 10
88.00979831023854
 20
-138.1062910765848
 30
0.0
  0
VERTEX
  5
F4
330
F2
100
AcDbEntity
  8
_U+30EC_U+30A4_U+30E4_U+30FC 1
 62
   179
420
  2234388
370
     9
100
AcDbVertex
100
AcDb2dVertex
 10
88.00979831023854
 20
-139.3362155207217
 30
0.0
  0
SEQEND
  5
F5
330
F2
100
AcDbEntity
  8
_U+30EC_U+30A4_U+30E4_U+30FC 1
 62
   179
420
  2234388
370
     9
  0
INSERT
  5
F7
330
1F
100
AcDbEntity
  8
_U+30EC_U+30A4_U+30E4_U+30FC 1
100
AcDbBlockReference
  2
block 5
 10
0.0
 20
0.0
 30
0.0
  0
POLYLINE
  5
108
330
1F
100
AcDbEntity
  8
_U+30EC_U+30A4_U+30E4_U+30FC 1
 62
   179
420
  2234388
370
     9
100
AcDb2dPolyline
 66
     1
 10
0.0
 20
0.0
 30
0.0
  0
VERTEX
  5
109
330
108
100
AcDbEntity
  8
_U+30EC_U+30A4_U+30E4_U+30FC 1
 62
   179
420
  2234388
370
     9
100
AcDbVertex
100
AcDb2dVertex
 10
78.00971273202865
 20
-114.8360458046244
 30
0.0
  0
VERTEX
  5
10A
330
108
100
AcDbEntity
  8
_U+30EC_U+30A4_U+30E4_U+30FC 1
 62
   179
420
  2234388
370
     9
100
AcDbVertex
100
AcDb2dVertex
 10
105.5094833069561
 20
-114.8360458046244
 30
0.0
  0
SEQEND
  5
10B
330
108
100
AcDbEntity
  8
_U+30EC_U+30A4_U+30E4_U+30FC 1
 62
   179
420
  2234388
370
     9
  0
POLYLINE
  5
10C
330
1F
100
AcDbEntity
  8
_U+30EC_U+30A4_U+30E4_U+30FC 1
 62
   179
420
  2234388
370
     9
100
AcDb2dPolyline
 66
     1
 10
0.0
 20
0.0
 30
0.0
  0
VERTEX
  5
10D
330
10C
100
AcDbEntity
  8
_U+30EC_U+30A4_U+30E4_U+30FC 1
 62
   179
420
  2234388
370
     9
100
AcDbVertex
100
AcDb2dVertex
 10
78.00971273202865
 20
-115.5660841377751
 30
0.0
  0
VERTEX
  5
10E
330
10C
100
AcDbEntity
  8
_U+30EC_U+30A4_U+30E4_U+30FC 1
 62
   179
420
  2234388
370
     9
100
AcDbVertex
100
AcDb2dVertex
 10
78.00971273202865
 20
-114.3360185825271
 30
0.0
  0
SEQEND
  5
10F
330
10C
100
AcDbEntity
  8
_U+30EC_U+30A4_U+30E4_U+30FC 1
 62
   179
420
  2234388
370
     9
  0
POLYLINE
  5
110
330
1F
100
AcDbEntity
  8
_U+30EC_U+30A4_U+30E4_U+30FC 1
 62
   179
420
  2234388
370
     9
100
AcDb2dPolyline
 66
     1
 10
0.0
 20
0.0
 30
0.0
  0
VERTEX
  5
111
330
110
100
AcDbEntity
  8
_U+30EC_U+30A4_U+30E4_U+30FC 1
 62
   179
420
  2234388
370
     9
100
AcDbVertex
100
AcDb2dVertex
 10
105.5094833069561
 20
-115.5660841377751
 30
0.0
  0
VERTEX
  5
112
330
110
100
AcDbEntity
  8
_U+30EC_U+30A4_U+30E4_U+30FC 1
 62
   179
420
  2234388
370
     9
100
AcDbVertex
100
AcDb2dVertex
 10
105.5094833069561
 20
-114.3360185825271
 30
0.0
  0
SEQEND
  5
113
330
110
100
AcDbEntity
  8
_U+30EC_U+30A4_U+30E4_U+30FC 1
 62
   179
420
  2234388
370
     9
  0
INSERT
  5
115
330
1F
100
AcDbEntity
  8
_U+30EC_U+30A4_U+30E4_U+30FC 1
100
AcDbBlockReference
  2
block 6
 10
0.0
 20
0.0
 30
0.0
  0
SPLINE
  5
11C
330
1F
100
AcDbEntity
  8
_U+30EC_U+30A4_U+30E4_U+30FC 1
 62
   179
420
  2234388
370
     9
100
AcDbSpline
210
0.0
220
0.0
230
1.0
 70
    11
 71
     3
 72
    17
 73
    13
 74
     0
 42
0.0000000001
 43
0.0000000001
 12
1.0
 22
0.0
 32
0.0
 13
1.0
 23
0.0
 33
0.0
 40
0.0
 40
0.0
 40
0.0
 40
0.0
 40
1.0
 40
1.0
 40
1.0
 40
2.0
 40
2.0
 40
2.0
 40
3.0
 40
3.0
 40
3.0
 40
4.0
 40
4.0
 40
4.0
 40
4.0
 10
108.5060455651135
 20
-117.4360533039745
 30
0.0
 10
108.5060455651135
 20
-117.3809494150992
 30
0.0
 10
108.4612427884787
 20
-117.3361466373325
 30
0.0
 10
108.406141639565
 20
-117.3361466373325
 30
0.0
 10
108.3509997357357
 20
-117.3361466373325
 30
0.0
 10
108.3062322368778
 20
-117.3809494150992
 30
0.0
 10
108.3062322368778
 20
-117.4360533039745
 30
0.0
 10
108.3062322368778
 20
-117.4913688595161
 30
0.0
 10
108.3509997357357
 20
-117.536136359505
 30
0.0
 10
108.406141639565
 20
-117.536136359505
 30
0.0
 10
108.4612427884787
 20
-117.536136359505
 30
0.0
 10
108.5060455651135
 20
-117.4913688595161
 30
0.0
 10
108.5060455651135
 20
-117.4360533039745
 30
0.0
  0
POLYLINE
  5
11D
330
1F
100
AcDbEntity
  8
_U+30EC_U+30A4_U+30E4_U+30FC 1
 62
   179
420
  2234388
370
     9
100
AcDb2dPolyline
 66
     1
 10
0.0
 20
0.0
 30
0.0
  0
VERTEX
  5
11E
330
11D
100
AcDbEntity
  8
_U+30EC_U+30A4_U+30E4_U+30FC 1
 62
   179
420
  2234388
370
     9
100
AcDbVertex
100
AcDb2dVertex
 10
106.9460975493555
 20
-117.4360533039745
 30
0.0
  0
VERTEX
  5
11F
330
11D
100
AcDbEntity
  8
_U+30EC_U+30A4_U+30E4_U+30FC 1
 62
   179
420
  2234388
370
     9
100
AcDbVertex
100
AcDb2dVertex
 10
109.4065813754722
 20
-117.4360533039745
 30
0.0
  0
SEQEND
  5
120
330
11D
100
AcDbEntity
  8
_U+30EC_U+30A4_U+30E4_U+30FC 1
 62
   179
420
  2234388
370
     9
  0
SPLINE
  5
121
330
1F
100
AcDbEntity
  8
_U+30EC_U+30A4_U+30E4_U+30FC 1
 62
   179
420
  2234388
370
     9
100
AcDbSpline
210
0.0
220
0.0
230
1.0
 70
    11
 71
     3
 72
    17
 73
    13
 74
     0
 42
0.0000000001
 43
0.0000000001
 12
1.0
 22
0.0
 32
0.0
 13
1.0
 23
0.0
 33
0.0
 40
0.0
 40
0.0
 40
0.0
 40
0.0
 40
1.0
 40
1.0
 40
1.0
 40
2.0
 40
2.0
 40
2.0
 40
3.0
 40
3.0
 40
3.0
 40
4.0
 40
4.0
 40
4.0
 40
4.0
 10
108.5060455651135
 20
-116.8361194152355
 30
0.0
 10
108.5060455651135
 20
-116.7809802485825
 30
0.0
 10
108.4612427884787
 20
-116.7362127485939
 30
0.0
 10
108.406141639565
 20
-116.7362127485939
 30
0.0
 10
108.3509997357357
 20
-116.7362127485939
 30
0.0
 10
108.3062322368778
 20
-116.7809802485825
 30
0.0
 10
108.3062322368778
 20
-116.8361194152355
 30
0.0
 10
108.3062322368778
 20
-116.8913996929993
 30
0.0
 10
108.3509997357357
 20
-116.936202470766
 30
0.0
 10
108.406141639565
 20
-116.936202470766
 30
0.0
 10
108.4612427884787
 20
-116.936202470766
 30
0.0
 10
108.5060455651135
 20
-116.8913996929993
 30
0.0
 10
108.5060455651135
 20
-116.8361194152355
 30
0.0
  0
POLYLINE
  5
122
330
1F
100
AcDbEntity
  8
_U+30EC_U+30A4_U+30E4_U+30FC 1
 62
   179
420
  2234388
370
     9
100
AcDb2dPolyline
 66
     1
 10
0.0
 20
0.0
 30
0.0
  0
VERTEX
  5
123
330
122
100
AcDbEntity
  8
_U+30EC_U+30A4_U+30E4_U+30FC 1
 62
   179
420
  2234388
370
     9
100
AcDbVertex
100
AcDb2dVertex
 10
108.406141639565
 20
-116.8361194152355
 30
0.0
  0
VERTEX
  5
124
330
122
100
AcDbEntity
  8
_U+30EC_U+30A4_U+30E4_U+30FC 1
 62
   179
420
  2234388
370
     9
100
AcDbVertex
100
AcDb2dVertex
 10
108.406141639565
 20
-117.4360533039745
 30
0.0
  0
SEQEND
  5
125
330
122
100
AcDbEntity
  8
_U+30EC_U+30A4_U+30E4_U+30FC 1
 62
   179
420
  2234388
370
     9
  0
POLYLINE
  5
126
330
1F
100
AcDbEntity
  8
_U+30EC_U+30A4_U+30E4_U+30FC 1
 62
   179
420
  2234388
370
     9
100
AcDb2dPolyline
 66
     1
 10
0.0
 20
0.0
 30
0.0
  0
VERTEX
  5
127
330
126
100
AcDbEntity
  8
_U+30EC_U+30A4_U+30E4_U+30FC 1
 62
   179
420
  2234388
370
     9
100
AcDbVertex
100
AcDb2dVertex
 10
106.9460975493555
 20
-116.8361194152355
 30
0.0
  0
VERTEX
  5
128
330
126
100
AcDbEntity
  8
_U+30EC_U+30A4_U+30E4_U+30FC 1
 62
   179
420
  2234388
370
     9
100
AcDbVertex
100
AcDb2dVertex
 10
109.4065813754722
 20
-116.8361194152355
 30
0.0
  0
SEQEND
  5
129
330
126
100
AcDbEntity
  8
_U+30EC_U+30A4_U+30E4_U+30FC 1
 62
   179
420
  2234388
370
     9
  0
POLYLINE
  5
12A
330
1F
100
AcDbEntity
  8
_U+30EC_U+30A4_U+30E4_U+30FC 1
 62
   179
420
  2234388
370
     9
100
AcDb2dPolyline
 66
     1
 10
0.0
 20
0.0
 30
0.0
  0
VERTEX
  5
12B
330
12A
100
AcDbEntity
  8
_U+30EC_U+30A4_U+30E4_U+30FC 1
 62
   179
420
  2234388
370
     9
100
AcDbVertex
100
AcDb2dVertex
 10
108.406141639565
 20
-116.8361194152355
 30
0.0
  0
VERTEX
  5
12C
330
12A
100
AcDbEntity
  8
_U+30EC_U+30A4_U+30E4_U+30FC 1
 62
   179
420
  2234388
370
     9
100
AcDbVertex
100
AcDb2dVertex
 10
108.406141639565
 20
-111.5782135832166
 30
0.0
  0
SEQEND
  5
12D
330
12A
100
AcDbEntity
  8
_U+30EC_U+30A4_U+30E4_U+30FC 1
 62
   179
420
  2234388
370
     9
  0
INSERT
  5
12F
330
1F
100
AcDbEntity
  8
_U+30EC_U+30A4_U+30E4_U+30FC 1
100
AcDbBlockReference
  2
block 7
 10
0.0
 20
0.0
 30
0.0
  0
ENDSEC
  0
SECTION
  2
OBJECTS
  0
DICTIONARY
  5
C
330
0
100
AcDbDictionary
281
     1
  3
ACAD_GROUP
350
D
  3
ACAD_LAYOUT
350
1A
  3
ACAD_MATERIAL
350
3B
  3
ACAD_MLEADERSTYLE
350
13F
  3
ACAD_MLINESTYLE
350
17
  3
ACAD_PLOTSETTINGS
350
19
  3
ACAD_PLOTSTYLENAME
350
E
  3
ACAD_TABLESTYLE
350
13E
  3
ACAD_VISUALSTYLE
350
2A
  0
SUN
  5
3F
330
29
100
AcDbSun
 90
        1
290
     0
 63
     7
421
 16777215
 40
1.0
291
     1
 91
  2455826
 92
 54000000
292
     0
 70
     2
 71
   256
280
     1
  0
DICTIONARY
  5
D
102
{ACAD_REACTORS
330
C
102
}
330
C
100
AcDbDictionary
281
     1
  0
DICTIONARY
  5
1A
102
{ACAD_REACTORS
330
C
102
}
330
C
100
AcDbDictionary
281
     1
  3
Layout1
350
1E
  3
Layout2
350
26
  3
Model
350
22
  0
DICTIONARY
  5
3B
102
{ACAD_REACTORS
330
C
102
}
330
C
100
AcDbDictionary
281
     1
  3
ByBlock
350
3D
  3
ByLayer
350
3C
  3
Global
350
3E
  0
DICTIONARY
  5
13F
102
{ACAD_REACTORS
330
C
102
}
330
C
100
AcDbDictionary
281
     1
  0
DICTIONARY
  5
17
102
{ACAD_REACTORS
330
C
102
}
330
C
100
AcDbDictionary
281
     1
  3
Standard
350
18
  0
DICTIONARY
  5
19
102
{ACAD_REACTORS
330
C
102
}
330
C
100
AcDbDictionary
281
     1
  0
ACDBDICTIONARYWDFLT
  5
E
102
{ACAD_REACTORS
330
C
102
}
330
C
100
AcDbDictionary
281
     1
  3
Normal
350
F
100
AcDbDictionaryWithDefault
340
F
  0
DICTIONARY
  5
13E
102
{ACAD_REACTORS
330
C
102
}
330
C
100
AcDbDictionary
281
     1
  0
DICTIONARY
  5
2A
102
{ACAD_REACTORS
330
C
102
}
330
C
100
AcDbDictionary
281
     1
  3
2dWireframe
350
2F
  3
3D Hidden
350
31
  3
3dWireframe
350
30
  3
Basic
350
32
  3
Brighten
350
36
  3
ColorChange
350
3A
  3
Conceptual
350
34
  3
Dim
350
35
  3
Facepattern
350
39
  3
Flat
350
2B
  3
FlatWithEdges
350
2C
  3
Gouraud
350
2D
  3
GouraudWithEdges
350
2E
  3
Linepattern
350
38
  3
Realistic
350
33
  3
Thicken
350
37
  0
LAYOUT
  5
1E
102
{ACAD_REACTORS
330
1A
102
}
330
1A
100
AcDbPlotSettings
  1

  2
none_device
  4

  6

 40
0.0
 41
0.0
 42
0.0
 43
0.0
 44
0.0
 45
0.0
 46
0.0
 47
0.0
 48
0.0
 49
0.0
140
0.0
141
0.0
142
1.0
143
1.0
 70
   688
 72
     0
 73
     0
 74
     5
  7

 75
    16
 76
     0
 77
     2
 78
   300
147
1.0
148
0.0
149
0.0
100
AcDbLayout
  1
Layout1
 70
     1
 71
     1
 10
0.0
 20
0.0
 11
12.0
 21
9.0
 12
0.0
 22
0.0
 32
0.0
 14
1.000000000000000E+20
 24
1.000000000000000E+20
 34
1.000000000000000E+20
 15
-1.000000000000000E+20
 25
-1.000000000000000E+20
 35
-1.000000000000000E+20
146
0.0
 13
0.0
 23
0.0
 33
0.0
 16
1.0
 26
0.0
 36
0.0
 17
0.0
 27
1.0
 37
0.0
 76
     0
330
1B
  0
LAYOUT
  5
26
102
{ACAD_REACTORS
330
1A
102
}
330
1A
100
AcDbPlotSettings
  1

  2
none_device
  4

  6

 40
0.0
 41
0.0
 42
0.0
 43
0.0
 44
0.0
 45
0.0
 46
0.0
 47
0.0
 48
0.0
 49
0.0
140
0.0
141
0.0
142
1.0
143
1.0
 70
   688
 72
     0
 73
     0
 74
     5
  7

 75
    16
 76
     0
 77
     2
 78
   300
147
1.0
148
0.0
149
0.0
100
AcDbLayout
  1
Layout2
 70
     1
 71
     2
 10
0.0
 20
0.0
 11
0.0
 21
0.0
 12
0.0
 22
0.0
 32
0.0
 14
0.0
 24
0.0
 34
0.0
 15
0.0
 25
0.0
 35
0.0
146
0.0
 13
0.0
 23
0.0
 33
0.0
 16
1.0
 26
0.0
 36
0.0
 17
0.0
 27
1.0
 37
0.0
 76
     0
330
23
  0
LAYOUT
  5
22
102
{ACAD_REACTORS
330
1A
102
}
330
1A
100
AcDbPlotSettings
  1

  2
none_device
  4

  6

 40
0.0
 41
0.0
 42
0.0
 43
0.0
 44
0.0
 45
0.0
 46
0.0
 47
0.0
 48
0.0
 49
0.0
140
0.0
141
0.0
142
1.0
143
1.0
 70
  1712
 72
     0
 73
     0
 74
     0
  7

 75
     0
 76
     0
 77
     2
 78
   300
147
1.0
148
0.0
149
0.0
100
AcDbLayout
  1
Model
 70
     1
 71
     0
 10
0.0
 20
0.0
 11
12.0
 21
9.0
 12
0.0
 22
0.0
 32
0.0
 14
1.000000000000000E+20
 24
1.000000000000000E+20
 34
1.000000000000000E+20
 15
-1.000000000000000E+20
 25
-1.000000000000000E+20
 35
-1.000000000000000E+20
146
0.0
 13
0.0
 23
0.0
 33
0.0
 16
1.0
 26
0.0
 36
0.0
 17
0.0
 27
1.0
 37
0.0
 76
     0
330
1F
331
29
  0
MATERIAL
  5
3D
102
{ACAD_REACTORS
330
3B
102
}
330
3B
100
AcDbMaterial
  1
ByBlock
 72
     1
 94
      127
  0
MATERIAL
  5
3C
102
{ACAD_REACTORS
330
3B
102
}
330
3B
100
AcDbMaterial
  1
ByLayer
 72
     1
 94
      127
  0
MATERIAL
  5
3E
102
{ACAD_REACTORS
330
3B
102
}
330
3B
100
AcDbMaterial
  1
Global
 72
     1
 94
      127
  0
MLINESTYLE
  5
18
102
{ACAD_REACTORS
330
17
102
}
330
17
100
AcDbMlineStyle
  2
Standard
 70
     0
  3

 62
   256
 51
90.0
 52
90.0
 71
     2
 49
0.5
 62
   256
  6
BYLAYER
 49
-0.5
 62
   256
  6
BYLAYER
  0
ACDBPLACEHOLDER
  5
F
102
{ACAD_REACTORS
330
E
102
}
330
E
  0
VISUALSTYLE
  5
2F
102
{ACAD_REACTORS
330
2A
102
}
330
2A
100
AcDbVisualStyle
  2
2dWireframe
 70
     4
177
     2
291
     0
 71
     0
176
     1
 72
     2
176
     1
 73
     0
176
     1
 90
        0
176
     1
 40
-0.6
176
     1
 41
-30.0
176
     1
 62
     5
 63
     7
421
 16777215
176
     1
 74
     1
176
     1
 91
        4
176
     1
 64
     7
176
     1
 65
   257
176
     1
 75
     1
176
     1
175
     1
176
     1
 42
1.0
176
     1
 92
        0
176
     1
 66
   257
176
     1
 43
1.0
176
     1
 76
     1
176
     1
 77
     6
176
     1
 78
     2
176
     1
 67
     7
176
     1
 79
     5
176
     1
170
     0
176
     1
171
     0
176
     1
290
     0
176
     1
 93
        1
176
     1
 44
0.0
176
     1
173
     0
176
     1
  0
VISUALSTYLE
  5
31
102
{ACAD_REACTORS
330
2A
102
}
330
2A
100
AcDbVisualStyle
  2
3D Hidden
 70
     6
177
     2
291
     0
 71
     1
176
     1
 72
     2
176
     1
 73
     2
176
     1
 90
        0
176
     1
 40
-0.6
176
     1
 41
-30.0
176
     1
 62
     5
 63
     7
421
 16777215
176
     1
 74
     2
176
     1
 91
        2
176
     1
 64
     7
176
     1
 65
   257
176
     1
 75
     2
176
     1
175
     1
176
     1
 42
40.0
176
     1
 92
        0
176
     1
 66
   257
176
     1
 43
1.0
176
     1
 76
     1
176
     1
 77
     6
176
     1
 78
     2
176
     1
 67
     7
176
     1
 79
     3
176
     1
170
     0
176
     1
171
     0
176
     1
290
     0
176
     1
 93
        1
176
     1
 44
0.0
176
     1
173
     0
176
     1
  0
VISUALSTYLE
  5
30
102
{ACAD_REACTORS
330
2A
102
}
330
2A
100
AcDbVisualStyle
  2
3dWireframe
 70
     5
177
     2
291
     0
 71
     0
176
     1
 72
     2
176
     1
 73
     0
176
     1
 90
        0
176
     1
 40
-0.6
176
     1
 41
-30.0
176
     1
 62
     5
 63
     7
421
 16777215
176
     1
 74
     1
176
     1
 91
        4
176
     1
 64
     7
176
     1
 65
   257
176
     1
 75
     1
176
     1
175
     1
176
     1
 42
1.0
176
     1
 92
        0
176
     1
 66
   257
176
     1
 43
1.0
176
     1
 76
     1
176
     1
 77
     6
176
     1
 78
     2
176
     1
 67
     7
176
     1
 79
     5
176
     1
170
     0
176
     1
171
     0
176
     1
290
     0
176
     1
 93
        1
176
     1
 44
0.0
176
     1
173
     0
176
     1
  0
VISUALSTYLE
  5
32
102
{ACAD_REACTORS
330
2A
102
}
330
2A
100
AcDbVisualStyle
  2
Basic
 70
     7
177
     2
291
     1
 71
     1
176
     1
 72
     0
176
     1
 73
     1
176
     1
 90
        0
176
     1
 40
-0.6
176
     1
 41
-30.0
176
     1
 62
     5
 63
     7
421
 16777215
176
     1
 74
     0
176
     1
 91
        4
176
     1
 64
     7
176
     1
 65
   257
176
     1
 75
     1
176
     1
175
     1
176
     1
 42
1.0
176
     1
 92
        8
176
     1
 66
     7
176
     1
 43
1.0
176
     1
 76
     1
176
     1
 77
     6
176
     1
 78
     2
176
     1
 67
     7
176
     1
 79
     5
176
     1
170
     0
176
     1
171
     0
176
     1
290
     0
176
     1
 93
        1
176
     1
 44
0.0
176
     1
173
     0
176
     1
  0
VISUALSTYLE
  5
36
102
{ACAD_REACTORS
330
2A
102
}
330
2A
100
AcDbVisualStyle
  2
Brighten
 70
    12
177
     2
291
     1
 71
     2
176
     1
 72
     2
176
     1
 73
     0
176
     1
 90
        0
176
     1
 40
-0.6
176
     1
 41
-30.0
176
     1
 62
     5
 63
     7
421
 16777215
176
     1
 74
     1
176
     1
 91
        4
176
     1
 64
     7
176
     1
 65
   257
176
     1
 75
     1
176
     1
175
     1
176
     1
 42
1.0
176
     1
 92
        8
176
     1
 66
     7
176
     1
 43
1.0
176
     1
 76
     1
176
     1
 77
     6
176
     1
 78
     2
176
     1
 67
     7
176
     1
 79
     5
176
     1
170
     0
176
     1
171
     0
176
     1
290
     0
176
     1
 93
        1
176
     1
 44
50.0
176
     1
173
     0
176
     1
  0
VISUALSTYLE
  5
3A
102
{ACAD_REACTORS
330
2A
102
}
330
2A
100
AcDbVisualStyle
  2
ColorChange
 70
    16
177
     2
291
     1
 71
     2
176
     1
 72
     2
176
     1
 73
     3
176
     1
 90
        0
176
     1
 40
-0.6
176
     1
 41
-30.0
176
     1
 62
     5
 63
     8
421
  8421504
176
     1
 74
     1
176
     1
 91
        4
176
     1
 64
     7
176
     1
 65
   257
176
     1
 75
     1
176
     1
175
     1
176
     1
 42
1.0
176
     1
 92
        8
176
     1
 66
     8
424
  8421504
176
     1
 43
1.0
176
     1
 76
     1
176
     1
 77
     6
176
     1
 78
     2
176
     1
 67
     7
176
     1
 79
     5
176
     1
170
     0
176
     1
171
     0
176
     1
290
     0
176
     1
 93
        1
176
     1
 44
0.0
176
     1
173
     0
176
     1
  0
VISUALSTYLE
  5
34
102
{ACAD_REACTORS
330
2A
102
}
330
2A
100
AcDbVisualStyle
  2
Conceptual
 70
     9
177
     2
291
     0
 71
     3
176
     1
 72
     2
176
     1
 73
     0
176
     1
 90
        0
176
     1
 40
-0.6
176
     1
 41
-30.0
176
     1
 62
     5
 63
     7
421
 16777215
176
     1
 74
     2
176
     1
 91
        2
176
     1
 64
     7
176
     1
 65
   257
176
     1
 75
     1
176
     1
175
     1
176
     1
 42
40.0
176
     1
 92
        8
176
     1
 66
     7
176
     1
 43
1.0
176
     1
 76
     1
176
     1
 77
     6
176
     1
 78
     2
176
     1
 67
     7
176
     1
 79
     3
176
     1
170
     0
176
     1
171
     0
176
     1
290
     0
176
     1
 93
        1
176
     1
 44
0.0
176
     1
173
     0
176
     1
  0
VISUALSTYLE
  5
35
102
{ACAD_REACTORS
330
2A
102
}
330
2A
100
AcDbVisualStyle
  2
Dim
 70
    11
177
     2
291
     1
 71
     2
176
     1
 72
     2
176
     1
 73
     0
176
     1
 90
        0
176
     1
 40
-0.6
176
     1
 41
-30.0
176
     1
 62
     5
 63
     7
421
 16777215
176
     1
 74
     1
176
     1
 91
        4
176
     1
 64
     7
176
     1
 65
   257
176
     1
 75
     1
176
     1
175
     1
176
     1
 42
1.0
176
     1
 92
        8
176
     1
 66
     7
176
     1
 43
1.0
176
     1
 76
     1
176
     1
 77
     6
176
     1
 78
     2
176
     1
 67
     7
176
     1
 79
     5
176
     1
170
     0
176
     1
171
     0
176
     1
290
     0
176
     1
 93
        1
176
     1
 44
-50.0
176
     1
173
     0
176
     1
  0
VISUALSTYLE
  5
39
102
{ACAD_REACTORS
330
2A
102
}
330
2A
100
AcDbVisualStyle
  2
Facepattern
 70
    15
177
     2
291
     1
 71
     2
176
     1
 72
     2
176
     1
 73
     0
176
     1
 90
        0
176
     1
 40
-0.6
176
     1
 41
-30.0
176
     1
 62
     5
 63
     7
421
 16777215
176
     1
 74
     1
176
     1
 91
        4
176
     1
 64
     7
176
     1
 65
   257
176
     1
 75
     1
176
     1
175
     1
176
     1
 42
1.0
176
     1
 92
        8
176
     1
 66
     7
176
     1
 43
1.0
176
     1
 76
     1
176
     1
 77
     6
176
     1
 78
     2
176
     1
 67
     7
176
     1
 79
     5
176
     1
170
     0
176
     1
171
     0
176
     1
290
     0
176
     1
 93
        1
176
     1
 44
0.0
176
     1
173
     0
176
     1
  0
VISUALSTYLE
  5
2B
102
{ACAD_REACTORS
330
2A
102
}
330
2A
100
AcDbVisualStyle
  2
Flat
 70
     0
177
     2
291
     1
 71
     2
176
     1
 72
     1
176
     1
 73
     1
176
     1
 90
        2
176
     1
 40
-0.6
176
     1
 41
30.0
176
     1
 62
     5
 63
     7
421
 16777215
176
     1
 74
     0
176
     1
 91
        4
176
     1
 64
     7
176
     1
 65
   257
176
     1
 75
     1
176
     1
175
     1
176
     1
 42
1.0
176
     1
 92
        8
176
     1
 66
     7
176
     1
 43
1.0
176
     1
 76
     1
176
     1
 77
     6
176
     1
 78
     2
176
     1
 67
     7
176
     1
 79
     5
176
     1
170
     0
176
     1
171
     0
176
     1
290
     0
176
     1
 93
       13
176
     1
 44
0.0
176
     1
173
     0
176
     1
  0
VISUALSTYLE
  5
2C
102
{ACAD_REACTORS
330
2A
102
}
330
2A
100
AcDbVisualStyle
  2
FlatWithEdges
 70
     1
177
     2
291
     1
 71
     2
176
     1
 72
     1
176
     1
 73
     1
176
     1
 90
        2
176
     1
 40
-0.6
176
     1
 41
30.0
176
     1
 62
     5
 63
     7
421
 16777215
176
     1
 74
     1
176
     1
 91
        4
176
     1
 64
     7
176
     1
 65
   257
176
     1
 75
     1
176
     1
175
     1
176
     1
 42
1.0
176
     1
 92
        0
176
     1
 66
   257
176
     1
 43
1.0
176
     1
 76
     1
176
     1
 77
     6
176
     1
 78
     2
176
     1
 67
     7
176
     1
 79
     5
176
     1
170
     0
176
     1
171
     0
176
     1
290
     0
176
     1
 93
       13
176
     1
 44
0.0
176
     1
173
     0
176
     1
  0
VISUALSTYLE
  5
2D
102
{ACAD_REACTORS
330
2A
102
}
330
2A
100
AcDbVisualStyle
  2
Gouraud
 70
     2
177
     2
291
     1
 71
     2
176
     1
 72
     2
176
     1
 73
     1
176
     1
 90
        2
176
     1
 40
-0.6
176
     1
 41
30.0
176
     1
 62
     5
 63
     7
421
 16777215
176
     1
 74
     0
176
     1
 91
        4
176
     1
 64
     7
176
     1
 65
   257
176
     1
 75
     1
176
     1
175
     1
176
     1
 42
1.0
176
     1
 92
        0
176
     1
 66
     7
176
     1
 43
1.0
176
     1
 76
     1
176
     1
 77
     6
176
     1
 78
     2
176
     1
 67
     7
176
     1
 79
     5
176
     1
170
     0
176
     1
171
     0
176
     1
290
     0
176
     1
 93
       13
176
     1
 44
0.0
176
     1
173
     0
176
     1
  0
VISUALSTYLE
  5
2E
102
{ACAD_REACTORS
330
2A
102
}
330
2A
100
AcDbVisualStyle
  2
GouraudWithEdges
 70
     3
177
     2
291
     1
 71
     2
176
     1
 72
     2
176
     1
 73
     1
176
     1
 90
        2
176
     1
 40
-0.6
176
     1
 41
30.0
176
     1
 62
     5
 63
     7
421
 16777215
176
     1
 74
     1
176
     1
 91
        4
176
     1
 64
     7
176
     1
 65
   257
176
     1
 75
     1
176
     1
175
     1
176
     1
 42
1.0
176
     1
 92
        0
176
     1
 66
   257
176
     1
 43
1.0
176
     1
 76
     1
176
     1
 77
     6
176
     1
 78
     2
176
     1
 67
     7
176
     1
 79
     5
176
     1
170
     0
176
     1
171
     0
176
     1
290
     0
176
     1
 93
       13
176
     1
 44
0.0
176
     1
173
     0
176
     1
  0
VISUALSTYLE
  5
38
102
{ACAD_REACTORS
330
2A
102
}
330
2A
100
AcDbVisualStyle
  2
Linepattern
 70
    14
177
     2
291
     1
 71
     2
176
     1
 72
     2
176
     1
 73
     0
176
     1
 90
        0
176
     1
 40
-0.6
176
     1
 41
-30.0
176
     1
 62
     5
 63
     7
421
 16777215
176
     1
 74
     1
176
     1
 91
        4
176
     1
 64
     7
176
     1
 65
   257
176
     1
 75
     7
176
     1
175
     7
176
     1
 42
1.0
176
     1
 92
        8
176
     1
 66
     7
176
     1
 43
1.0
176
     1
 76
     1
176
     1
 77
     6
176
     1
 78
     2
176
     1
 67
     7
176
     1
 79
     5
176
     1
170
     0
176
     1
171
     0
176
     1
290
     0
176
     1
 93
        1
176
     1
 44
0.0
176
     1
173
     0
176
     1
  0
VISUALSTYLE
  5
33
102
{ACAD_REACTORS
330
2A
102
}
330
2A
100
AcDbVisualStyle
  2
Realistic
 70
     8
177
     2
291
     0
 71
     2
176
     1
 72
     2
176
     1
 73
     0
176
     1
 90
        0
176
     1
 40
-0.6
176
     1
 41
-30.0
176
     1
 62
     5
 63
     7
421
 16777215
176
     1
 74
     1
176
     1
 91
        0
176
     1
 64
     7
176
     1
 65
   257
176
     1
 75
     1
176
     1
175
     1
176
     1
 42
1.0
176
     1
 92
        8
176
     1
 66
     8
424
  7895160
176
     1
 43
1.0
176
     1
 76
     1
176
     1
 77
     6
176
     1
 78
     2
176
     1
 67
     7
176
     1
 79
     5
176
     1
170
     0
176
     1
171
     0
176
     1
290
     0
176
     1
 93
       13
176
     1
 44
0.0
176
     1
173
     0
176
     1
  0
VISUALSTYLE
  5
37
102
{ACAD_REACTORS
330
2A
102
}
330
2A
100
AcDbVisualStyle
  2
Thicken
 70
    13
177
     2
291
     1
 71
     2
176
     1
 72
     2
176
     1
 73
     0
176
     1
 90
        0
176
     1
 40
-0.6
176
     1
 41
-30.0
176
     1
 62
     5
 63
     7
421
 16777215
176
     1
 74
     1
176
     1
 91
        4
176
     1
 64
     7
176
     1
 65
   257
176
     1
 75
     1
176
     1
175
     1
176
     1
 42
1.0
176
     1
 92
       12
176
     1
 66
     7
176
     1
 43
1.0
176
     1
 76
     1
176
     1
 77
     6
176
     1
 78
     2
176
     1
 67
     7
176
     1
 79
     5
176
     1
170
     0
176
     1
171
     0
176
     1
290
     0
176
     1
 93
        1
176
     1
 44
0.0
176
     1
173
     0
176
     1
  0
ENDSEC
  0
EOF
