  0
SECTION
  2
HEADER
  9
$ACADVER
  1
AC1024
  9
$ACADMAINTVER
 70
     6
  9
$DWGCODEPAGE
  3
UNDEFINED
  9
$INSBASE
 10
0.0
 20
0.0
 30
0.0
  9
$EXTMIN
 10
1.000000000000000E+20
 20
1.000000000000000E+20
 30
1.000000000000000E+20
  9
$EXTMAX
 10
-1.000000000000000E+20
 20
-1.000000000000000E+20
 30
-1.000000000000000E+20
  9
$LIMMIN
 10
0.0
 20
0.0
  9
$LIMMAX
 10
12.0
 20
9.0
  9
$ORTHOMODE
 70
     0
  9
$REGENMODE
 70
     1
  9
$FILLMODE
 70
     1
  9
$QTEXTMODE
 70
     0
  9
$MIRRTEXT
 70
     1
  9
$LTSCALE
 40
1.0
  9
$ATTMODE
 70
     1
  9
$TEXTSIZE
 40
0.2
  9
$TRACEWID
 40
0.05
  9
$TEXTSTYLE
  7
Standard
  9
$CLAYER
  8
0
  9
$CELTYPE
  6
ByLayer
  9
$CECOLOR
 62
   256
  9
$CELTSCALE
 40
1.0
  9
$DISPSILH
 70
     0
  9
$DIMSCALE
 40
1.0
  9
$DIMASZ
 40
0.18
  9
$DIMEXO
 40
0.0625
  9
$DIMDLI
 40
0.38
  9
$DIMRND
 40
0.0
  9
$DIMDLE
 40
0.0
  9
$DIMEXE
 40
0.18
  9
$DIMTP
 40
0.0
  9
$DIMTM
 40
0.0
  9
$DIMTXT
 40
0.18
  9
$DIMCEN
 40
0.09
  9
$DIMTSZ
 40
0.0
  9
$DIMTOL
 70
     0
  9
$DIMLIM
 70
     0
  9
$DIMTIH
 70
     1
  9
$DIMTOH
 70
     1
  9
$DIMSE1
 70
     0
  9
$DIMSE2
 70
     0
  9
$DIMTAD
 70
     0
  9
$DIMZIN
 70
     0
  9
$DIMBLK
  1

  9
$DIMASO
 70
     1
  9
$DIMSHO
 70
     1
  9
$DIMPOST
  1

  9
$DIMAPOST
  1

  9
$DIMALT
 70
     0
  9
$DIMALTD
 70
     2
  9
$DIMALTF
 40
25.4
  9
$DIMLFAC
 40
1.0
  9
$DIMTOFL
 70
     0
  9
$DIMTVP
 40
0.0
  9
$DIMTIX
 70
     0
  9
$DIMSOXD
 70
     0
  9
$DIMSAH
 70
     0
  9
$DIMBLK1
  1

  9
$DIMBLK2
  1

  9
$DIMSTYLE
  2
Standard
  9
$DIMCLRD
 70
     0
  9
$DIMCLRE
 70
     0
  9
$DIMCLRT
 70
     0
  9
$DIMTFAC
 40
1.0
  9
$DIMGAP
 40
0.09
  9
$DIMJUST
 70
     0
  9
$DIMSD1
 70
     0
  9
$DIMSD2
 70
     0
  9
$DIMTOLJ
 70
     1
  9
$DIMTZIN
 70
     0
  9
$DIMALTZ
 70
     0
  9
$DIMALTTZ
 70
     0
  9
$DIMUPT
 70
     0
  9
$DIMDEC
 70
     4
  9
$DIMTDEC
 70
     4
  9
$DIMALTU
 70
     2
  9
$DIMALTTD
 70
     2
  9
$DIMTXSTY
  7
Standard
  9
$DIMAUNIT
 70
     0
  9
$DIMADEC
 70
     0
  9
$DIMALTRND
 40
0.0
  9
$DIMAZIN
 70
     0
  9
$DIMDSEP
 70
    46
  9
$DIMATFIT
 70
     3
  9
$DIMFRAC
 70
     0
  9
$DIMLDRBLK
  1

  9
$DIMLUNIT
 70
     2
  9
$DIMLWD
 70
    -2
  9
$DIMLWE
 70
    -2
  9
$DIMTMOVE
 70
     0
  9
$DIMFXL
 40
1.0
  9
$DIMFXLON
 70
     0
  9
$DIMJOGANG
 40
0.7853981633974483
  9
$DIMTFILL
 70
     0
  9
$DIMTFILLCLR
 70
     0
  9
$DIMARCSYM
 70
     0
  9
$DIMLTYPE
  6

  9
$DIMLTEX1
  6

  9
$DIMLTEX2
  6

  9
$DIMTXTDIRECTION
 70
     0
  9
$LUNITS
 70
     2
  9
$LUPREC
 70
     4
  9
$SKETCHINC
 40
0.1
  9
$FILLETRAD
 40
0.5
  9
$AUNITS
 70
     0
  9
$AUPREC
 70
     0
  9
$MENU
  1
.
  9
$ELEVATION
 40
0.0
  9
$PELEVATION
 40
0.0
  9
$THICKNESS
 40
0.0
  9
$LIMCHECK
 70
     0
  9
$CHAMFERA
 40
0.5
  9
$CHAMFERB
 40
0.5
  9
$CHAMFERC
 40
1.0
  9
$CHAMFERD
 40
0.0
  9
$SKPOLY
 70
     0
  9
$TDCREATE
 40
2457917.627141204
  9
$TDUCREATE
 40
2457917.252141204
  9
$TDUPDATE
 40
2457917.627141204
  9
$TDUUPDATE
 40
2457917.252141204
  9
$TDINDWG
 40
0.0000000116
  9
$TDUSRTIMER
 40
0.0000000116
  9
$USRTIMER
 70
     1
  9
$ANGBASE
 50
0.0
  9
$ANGDIR
 70
     0
  9
$PDMODE
 70
     0
  9
$PDSIZE
 40
0.0
  9
$PLINEWID
 40
0.0
  9
$SPLFRAME
 70
     0
  9
$SPLINETYPE
 70
     6
  9
$SPLINESEGS
 70
     8
  9
$HANDSEED
  5
1A6
  9
$SURFTAB1
 70
     6
  9
$SURFTAB2
 70
     6
  9
$SURFTYPE
 70
     6
  9
$SURFU
 70
     6
  9
$SURFV
 70
     6
  9
$UCSBASE
  2

  9
$UCSNAME
  2

  9
$UCSORG
 10
0.0
 20
0.0
 30
0.0
  9
$UCSXDIR
 10
1.0
 20
0.0
 30
0.0
  9
$UCSYDIR
 10
0.0
 20
1.0
 30
0.0
  9
$UCSORTHOREF
  2

  9
$UCSORTHOVIEW
 70
     0
  9
$UCSORGTOP
 10
0.0
 20
0.0
 30
0.0
  9
$UCSORGBOTTOM
 10
0.0
 20
0.0
 30
0.0
  9
$UCSORGLEFT
 10
0.0
 20
0.0
 30
0.0
  9
$UCSORGRIGHT
 10
0.0
 20
0.0
 30
0.0
  9
$UCSORGFRONT
 10
0.0
 20
0.0
 30
0.0
  9
$UCSORGBACK
 10
0.0
 20
0.0
 30
0.0
  9
$PUCSBASE
  2

  9
$PUCSNAME
  2

  9
$PUCSORG
 10
0.0
 20
0.0
 30
0.0
  9
$PUCSXDIR
 10
1.0
 20
0.0
 30
0.0
  9
$PUCSYDIR
 10
0.0
 20
1.0
 30
0.0
  9
$PUCSORTHOREF
  2

  9
$PUCSORTHOVIEW
 70
     0
  9
$PUCSORGTOP
 10
0.0
 20
0.0
 30
0.0
  9
$PUCSORGBOTTOM
 10
0.0
 20
0.0
 30
0.0
  9
$PUCSORGLEFT
 10
0.0
 20
0.0
 30
0.0
  9
$PUCSORGRIGHT
 10
0.0
 20
0.0
 30
0.0
  9
$PUCSORGFRONT
 10
0.0
 20
0.0
 30
0.0
  9
$PUCSORGBACK
 10
0.0
 20
0.0
 30
0.0
  9
$USERI1
 70
     0
  9
$USERI2
 70
     0
  9
$USERI3
 70
     0
  9
$USERI4
 70
     0
  9
$USERI5
 70
     0
  9
$USERR1
 40
0.0
  9
$USERR2
 40
0.0
  9
$USERR3
 40
0.0
  9
$USERR4
 40
0.0
  9
$USERR5
 40
0.0
  9
$WORLDVIEW
 70
     1
  9
$SHADEDGE
 70
     3
  9
$SHADEDIF
 70
    70
  9
$TILEMODE
 70
     1
  9
$MAXACTVP
 70
    64
  9
$PINSBASE
 10
0.0
 20
0.0
 30
0.0
  9
$PLIMCHECK
 70
     0
  9
$PEXTMIN
 10
1.000000000000000E+20
 20
1.000000000000000E+20
 30
1.000000000000000E+20
  9
$PEXTMAX
 10
-1.000000000000000E+20
 20
-1.000000000000000E+20
 30
-1.000000000000000E+20
  9
$PLIMMIN
 10
0.0
 20
0.0
  9
$PLIMMAX
 10
12.0
 20
9.0
  9
$UNITMODE
 70
     0
  9
$VISRETAIN
 70
     1
  9
$PLINEGEN
 70
     0
  9
$PSLTSCALE
 70
     1
  9
$TREEDEPTH
 70
  3020
  9
$CMLSTYLE
  2
Standard
  9
$CMLJUST
 70
     0
  9
$CMLSCALE
 40
1.0
  9
$PROXYGRAPHICS
 70
     1
  9
$MEASUREMENT
 70
     0
  9
$CELWEIGHT
370
    -1
  9
$ENDCAPS
280
     0
  9
$JOINSTYLE
280
     0
  9
$LWDISPLAY
290
     1
  9
$INSUNITS
 70
     1
  9
$HYPERLINKBASE
  1

  9
$STYLESHEET
  1

  9
$XEDIT
290
     1
  9
$CEPSNTYPE
380
     0
  9
$PSTYLEMODE
290
     1
  9
$FINGERPRINTGUID
  2
{878FDFD9-8C53-AE84-970F-54C5D5F6A477}
  9
$VERSIONGUID
  2
{FAEB1C32-E019-11D5-929B-00C0DF256EC4}
  9
$EXTNAMES
290
     1
  9
$PSVPSCALE
 40
0.0
  9
$OLESTARTUP
290
     0
  9
$SORTENTS
280
   127
  9
$INDEXCTL
280
     0
  9
$HIDETEXT
280
     1
  9
$XCLIPFRAME
280
     2
  9
$HALOGAP
280
     0
  9
$OBSCOLOR
 70
   257
  9
$OBSLTYPE
280
     0
  9
$INTERSECTIONDISPLAY
280
     0
  9
$INTERSECTIONCOLOR
 70
   257
  9
$DIMASSOC
280
     2
  9
$PROJECTNAME
  1

  9
$CAMERADISPLAY
290
     0
  9
$LENSLENGTH
 40
50.0
  9
$CAMERAHEIGHT
 40
0.0
  9
$STEPSPERSEC
 40
2.0
  9
$STEPSIZE
 40
6.0
  9
$3DDWFPREC
 40
2.0
  9
$PSOLWIDTH
 40
0.25
  9
$PSOLHEIGHT
 40
4.0
  9
$LOFTANG1
 40
1.570796326794897
  9
$LOFTANG2
 40
1.570796326794897
  9
$LOFTMAG1
 40
0.0
  9
$LOFTMAG2
 40
0.0
  9
$LOFTPARAM
 70
     7
  9
$LOFTNORMALS
280
     1
  9
$LATITUDE
 40
37.795
  9
$LONGITUDE
 40
-122.394
  9
$NORTHDIRECTION
 40
0.0
  9
$TIMEZONE
 70
 -8000
  9
$LIGHTGLYPHDISPLAY
280
     1
  9
$TILEMODELIGHTSYNCH
280
     1
  9
$CMATERIAL
347
3C
  9
$SOLIDHIST
280
     1
  9
$SHOWHIST
280
     1
  9
$DWFFRAME
280
     2
  9
$DGNFRAME
280
     2
  9
$REALWORLDSCALE
290
     1
  9
$INTERFERECOLOR
 62
   256
  9
$CSHADOW
280
     0
  9
$SHADOWPLANELOCATION
 40
0.0
  0
ENDSEC
  0
SECTION
  2
CLASSES
  0
CLASS
  1
ACDBDICTIONARYWDFLT
  2
AcDbDictionaryWithDefault
  3
ObjectDBX Classes
 90
        0
 91
        4
280
     0
281
     0
  0
CLASS
  1
VISUALSTYLE
  2
AcDbVisualStyle
  3
ObjectDBX Classes
 90
     4095
 91
        4
280
     0
281
     0
  0
CLASS
  1
MATERIAL
  2
AcDbMaterial
  3
ObjectDBX Classes
 90
     1153
 91
        4
280
     0
281
     0
  0
CLASS
  1
SUN
  2
AcDbSun
  3
SCENEOE
 90
     1024
 91
        4
280
     0
281
     0
  0
ENDSEC
  0
SECTION
  2
TABLES
  0
TABLE
  2
VPORT
  5
8
330
0
100
AcDbSymbolTable
 70
     1
  0
VPORT
  5
29
330
8
100
AcDbSymbolTableRecord
100
AcDbViewportTableRecord
  2
*Active
 70
     0
 10
0.0
 20
0.0
 11
1.0
 21
1.0
 12
0.0
 22
0.0
 13
0.0
 23
0.0
 14
0.5
 24
0.5
 15
0.5
 25
0.5
 16
0.0
 26
0.0
 36
1.0
 17
91.00082462281999
 27
-128.4993055234307
 37
0.0
 40
256.9986110468615
 41
0.7081814508812795
 42
50.0
 43
0.0
 44
0.0
 50
0.0
 51
0.0
 71
     0
 72
   100
 73
     1
 74
     3
 75
     0
 76
     0
 77
     0
 78
     0
281
     0
 65
     1
110
0.0
120
0.0
130
0.0
111
1.0
121
0.0
131
0.0
112
0.0
122
1.0
132
0.0
 79
     0
146
0.0
 60
     3
 61
     5
292
     1
282
     1
141
0.0
142
0.0
 63
   250
361
3F
  0
ENDTAB
  0
TABLE
  2
LTYPE
  5
5
330
0
100
AcDbSymbolTable
 70
     1
  0
LTYPE
  5
14
330
5
100
AcDbSymbolTableRecord
100
AcDbLinetypeTableRecord
  2
ByBlock
 70
     0
  3

 72
    65
 73
     0
 40
0.0
  0
LTYPE
  5
15
330
5
100
AcDbSymbolTableRecord
100
AcDbLinetypeTableRecord
  2
ByLayer
 70
     0
  3

 72
    65
 73
     0
 40
0.0
  0
LTYPE
  5
16
330
5
100
AcDbSymbolTableRecord
100
AcDbLinetypeTableRecord
  2
Continuous
 70
     0
  3
Solid line
 72
    65
 73
     0
 40
0.0
  0
ENDTAB
  0
TABLE
  2
LAYER
  5
2
330
0
100
AcDbSymbolTable
 70
     2
  0
LAYER
  5
10
330
2
100
AcDbSymbolTableRecord
100
AcDbLayerTableRecord
  2
0
 70
     0
 62
     7
  6
Continuous
370
    -3
390
F
347
3E
  0
LAYER
  5
40
330
2
100
AcDbSymbolTableRecord
100
AcDbLayerTableRecord
  2
_U+30EC_U+30A4_U+30E4_U+30FC 1
 70
     0
 62
     7
  6
Continuous
370
    -3
390
F
347
3E
  0
ENDTAB
  0
TABLE
  2
STYLE
  5
3
330
0
100
AcDbSymbolTable
 70
     1
  0
STYLE
  5
11
330
3
100
AcDbSymbolTableRecord
100
AcDbTextStyleTableRecord
  2
Standard
 70
     0
 40
0.0
 41
1.0
 50
0.0
 71
     0
 42
0.2
  3
txt
  4

  0
ENDTAB
  0
TABLE
  2
VIEW
  5
6
330
0
100
AcDbSymbolTable
 70
     0
  0
ENDTAB
  0
TABLE
  2
UCS
  5
7
330
0
100
AcDbSymbolTable
 70
     0
  0
ENDTAB
  0
TABLE
  2
APPID
  5
9
330
0
100
AcDbSymbolTable
 70
     1
  0
APPID
  5
12
330
9
100
AcDbSymbolTableRecord
100
AcDbRegAppTableRecord
  2
ACAD
 70
     0
  0
ENDTAB
  0
TABLE
  2
DIMSTYLE
  5
A
330
0
100
AcDbSymbolTable
 70
     1
100
AcDbDimStyleTable
  0
DIMSTYLE
105
27
330
A
100
AcDbSymbolTableRecord
100
AcDbDimStyleTableRecord
  2
Standard
 70
     0
178
     0
340
11
  0
ENDTAB
  0
TABLE
  2
BLOCK_RECORD
  5
1
330
0
100
AcDbSymbolTable
 70
     9
  0
BLOCK_RECORD
  5
1F
330
1
100
AcDbSymbolTableRecord
100
AcDbBlockTableRecord
  2
*Model_Space
340
22
 70
     0
280
     1
281
     0
  0
BLOCK_RECORD
  5
1B
330
1
100
AcDbSymbolTableRecord
100
AcDbBlockTableRecord
  2
*Paper_Space
340
1E
 70
     0
280
     1
281
     0
  0
BLOCK_RECORD
  5
23
330
1
100
AcDbSymbolTableRecord
100
AcDbBlockTableRecord
  2
*Paper_Space0
340
26
 70
     0
280
     1
281
     0
  0
BLOCK_RECORD
  5
A5
330
1
100
AcDbSymbolTableRecord
100
AcDbBlockTableRecord
  2
block 2
340
0
102
{BLKREFS
331
A6
102
}
 70
     0
280
     1
281
     0
  0
BLOCK_RECORD
  5
C4
330
1
100
AcDbSymbolTableRecord
100
AcDbBlockTableRecord
  2
block 3
340
0
102
{BLKREFS
331
C5
102
}
 70
     0
280
     1
281
     0
  0
BLOCK_RECORD
  5
FA
330
1
100
AcDbSymbolTableRecord
100
AcDbBlockTableRecord
  2
block 4
340
0
102
{BLKREFS
331
FB
102
}
 70
     0
280
     1
281
     0
  0
BLOCK_RECORD
  5
118
330
1
100
AcDbSymbolTableRecord
100
AcDbBlockTableRecord
  2
block 5
340
0
102
{BLKREFS
331
119
102
}
 70
     0
280
     1
281
     0
  0
BLOCK_RECORD
  5
130
330
1
100
AcDbSymbolTableRecord
100
AcDbBlockTableRecord
  2
block 6
340
0
102
{BLKREFS
331
131
102
}
 70
     0
280
     1
281
     0
  0
BLOCK_RECORD
  5
14E
330
1
100
AcDbSymbolTableRecord
100
AcDbBlockTableRecord
  2
block 7
340
0
102
{BLKREFS
331
14F
102
}
 70
     0
280
     1
281
     0
  0
BLOCK_RECORD
  5
176
330
1
100
AcDbSymbolTableRecord
100
AcDbBlockTableRecord
  2
block 8
340
0
102
{BLKREFS
331
177
102
}
 70
     0
280
     1
281
     0
  0
BLOCK_RECORD
  5
194
330
1
100
AcDbSymbolTableRecord
100
AcDbBlockTableRecord
  2
block 9
340
0
102
{BLKREFS
331
195
102
}
 70
     0
280
     1
281
     0
  0
ENDTAB
  0
ENDSEC
  0
SECTION
  2
BLOCKS
  0
BLOCK
  5
20
330
1F
100
AcDbEntity
  8
0
100
AcDbBlockBegin
  2
*Model_Space
 70
     0
 10
0.0
 20
0.0
 30
0.0
  3
*Model_Space
  1

  0
ENDBLK
  5
21
330
1F
100
AcDbEntity
  8
0
100
AcDbBlockEnd
  0
BLOCK
  5
1C
330
1B
100
AcDbEntity
 67
     1
  8
0
100
AcDbBlockBegin
  2
*Paper_Space
 70
     0
 10
0.0
 20
0.0
 30
0.0
  3
*Paper_Space
  1

  0
ENDBLK
  5
1D
330
1B
100
AcDbEntity
 67
     1
  8
0
100
AcDbBlockEnd
  0
BLOCK
  5
24
330
23
100
AcDbEntity
  8
0
100
AcDbBlockBegin
  2
*Paper_Space0
 70
     0
 10
0.0
 20
0.0
 30
0.0
  3
*Paper_Space0
  1

  0
ENDBLK
  5
25
330
23
100
AcDbEntity
  8
0
100
AcDbBlockEnd
  0
BLOCK
  5
A7
330
A5
100
AcDbEntity
  8
0
100
AcDbBlockBegin
  2
block 2
 70
     0
 10
0.0
 20
0.0
 30
0.0
  3
block 2
  1

  0
SPLINE
  5
A9
330
A5
100
AcDbEntity
  8
_U+30EC_U+30A4_U+30E4_U+30FC 1
370
     0
100
AcDbSpline
210
0.0
220
0.0
230
1.0
 70
    11
 71
     3
 72
    32
 73
    28
 74
     0
 42
0.0000000001
 43
0.0000000001
 12
1.0
 22
0.0
 32
0.0
 13
1.0
 23
0.0
 33
0.0
 40
0.0
 40
0.0
 40
0.0
 40
0.0
 40
1.0
 40
1.0
 40
1.0
 40
2.0
 40
2.0
 40
2.0
 40
3.0
 40
3.0
 40
3.0
 40
4.0
 40
4.0
 40
4.0
 40
5.0
 40
5.0
 40
5.0
 40
6.0
 40
6.0
 40
6.0
 40
7.0
 40
7.0
 40
7.0
 40
8.0
 40
8.0
 40
8.0
 40
9.0
 40
9.0
 40
9.0
 40
9.0
 10
86.39507105044984
 20
-112.3176920292123
 30
0.0
 10
86.20851912992357
 20
-112.3176920292123
 30
0.0
 10
85.9442803062049
 20
-112.242072183311
 30
0.0
 10
85.90328366993043
 20
-111.8829209789737
 30
0.0
 10
85.90328366993043
 20
-111.8829209789737
 30
0.0
 10
86.13324379357086
 20
-111.8829209789737
 30
0.0
 10
86.13324379357086
 20
-111.8829209789737
 30
0.0
 10
86.14461260867219
 20
-111.9469997549994
 30
0.0
 10
86.17889130875042
 20
-112.1071966950635
 30
0.0
 10
86.39748261728953
 20
-112.1071966950635
 30
0.0
 10
86.7116753255443
 20
-112.1071966950635
 30
0.0
 10
86.75267196181878
 20
-111.7502848027916
 30
0.0
 10
86.76628008898551
 20
-111.5284206535415
 30
0.0
 10
86.66843937720442
 20
-111.6152370597698
 30
0.0
 10
86.59557560769139
 20
-111.67707652373
 30
0.0
 10
86.39972192935494
 20
-111.67707652373
 30
0.0
 10
86.20610756308389
 20
-111.67707652373
 30
0.0
 10
85.88054603972779
 20
-111.5626993536197
 30
0.0
 10
85.88054603972779
 20
-111.1234496792504
 30
0.0
 10
85.88054603972779
 20
-110.7779066020798
 30
0.0
 10
86.09465872413607
 20
-110.5400227588233
 30
0.0
 10
86.43606768672431
 20
-110.5400227588233
 30
0.0
 10
86.98952227642971
 20
-110.5400227588233
 30
0.0
 10
87.00089109153103
 20
-111.1394693732568
 30
0.0
 10
87.00089109153103
 20
-111.3704630255428
 30
0.0
 10
87.00089109153103
 20
-111.6198879386749
 30
0.0
 10
86.98039277339379
 20
-112.3176920292123
 30
0.0
 10
86.39507105044984
 20
-112.3176920292123
 30
0.0
  0
SPLINE
  5
AA
330
A5
100
AcDbEntity
  8
_U+30EC_U+30A4_U+30E4_U+30FC 1
370
     0
100
AcDbSpline
210
0.0
220
0.0
230
1.0
 70
    11
 71
     3
 72
    17
 73
    13
 74
     0
 42
0.0000000001
 43
0.0000000001
 12
1.0
 22
0.0
 32
0.0
 13
1.0
 23
0.0
 33
0.0
 40
0.0
 40
0.0
 40
0.0
 40
0.0
 40
1.0
 40
1.0
 40
1.0
 40
2.0
 40
2.0
 40
2.0
 40
3.0
 40
3.0
 40
3.0
 40
4.0
 40
4.0
 40
4.0
 40
4.0
 10
86.438479253564
 20
-110.7482787809067
 30
0.0
 10
86.31083846583549
 20
-110.7482787809067
 30
0.0
 10
86.12187497846953
 20
-110.8099459900927
 30
0.0
 10
86.12187497846953
 20
-111.1187988003453
 30
0.0
 10
86.12187497846953
 20
-111.3635728345723
 30
0.0
 10
86.27225339640069
 20
-111.4665811895813
 30
0.0
 10
86.41798093542675
 20
-111.4665811895813
 30
0.0
 10
86.70030651044299
 20
-111.4665811895813
 30
0.0
 10
86.74130314671746
 20
-111.2400661614261
 30
0.0
 10
86.74130314671746
 20
-111.1143201762145
 30
0.0
 10
86.74130314671746
 20
-110.9243231602029
 30
0.0
 10
86.63881155603127
 20
-110.7482787809067
 30
0.0
 10
86.438479253564
 20
-110.7482787809067
 30
0.0
  0
HATCH
  5
AB
330
A5
100
AcDbEntity
  8
_U+30EC_U+30A4_U+30E4_U+30FC 1
 62
   179
420
  2234388
100
AcDbHatch
 10
0.0
 20
0.0
 30
0.0
210
0.0
220
0.0
230
1.0
  2
SOLID
 70
     1
 71
     0
 91
        2
 92
        1
 93
        1
 72
     4
 94
        3
 73
     0
 74
     1
 95
       32
 96
       28
 40
0.0
 40
0.0
 40
0.0
 40
0.0
 40
1.0
 40
1.0
 40
1.0
 40
2.0
 40
2.0
 40
2.0
 40
3.0
 40
3.0
 40
3.0
 40
4.0
 40
4.0
 40
4.0
 40
5.0
 40
5.0
 40
5.0
 40
6.0
 40
6.0
 40
6.0
 40
7.0
 40
7.0
 40
7.0
 40
8.0
 40
8.0
 40
8.0
 40
9.0
 40
9.0
 40
9.0
 40
9.0
 10
86.39507105044984
 20
-112.3176920292123
 10
86.20851912992357
 20
-112.3176920292123
 10
85.9442803062049
 20
-112.242072183311
 10
85.90328366993043
 20
-111.8829209789737
 10
85.90328366993043
 20
-111.8829209789737
 10
86.13324379357086
 20
-111.8829209789737
 10
86.13324379357086
 20
-111.8829209789737
 10
86.14461260867219
 20
-111.9469997549994
 10
86.17889130875042
 20
-112.1071966950635
 10
86.39748261728953
 20
-112.1071966950635
 10
86.7116753255443
 20
-112.1071966950635
 10
86.75267196181878
 20
-111.7502848027916
 10
86.76628008898551
 20
-111.5284206535415
 10
86.66843937720442
 20
-111.6152370597698
 10
86.59557560769139
 20
-111.67707652373
 10
86.39972192935494
 20
-111.67707652373
 10
86.20610756308389
 20
-111.67707652373
 10
85.88054603972779
 20
-111.5626993536197
 10
85.88054603972779
 20
-111.1234496792504
 10
85.88054603972779
 20
-110.7779066020798
 10
86.09465872413607
 20
-110.5400227588233
 10
86.43606768672431
 20
-110.5400227588233
 10
86.98952227642971
 20
-110.5400227588233
 10
87.00089109153103
 20
-111.1394693732568
 10
87.00089109153103
 20
-111.3704630255428
 10
87.00089109153103
 20
-111.6198879386749
 10
86.98039277339379
 20
-112.3176920292123
 10
86.39507105044984
 20
-112.3176920292123
 97
        0
 97
        0
 92
        1
 93
        1
 72
     4
 94
        3
 73
     0
 74
     1
 95
       17
 96
       13
 40
0.0
 40
0.0
 40
0.0
 40
0.0
 40
1.0
 40
1.0
 40
1.0
 40
2.0
 40
2.0
 40
2.0
 40
3.0
 40
3.0
 40
3.0
 40
4.0
 40
4.0
 40
4.0
 40
4.0
 10
86.438479253564
 20
-110.7482787809067
 10
86.31083846583549
 20
-110.7482787809067
 10
86.12187497846953
 20
-110.8099459900927
 10
86.12187497846953
 20
-111.1187988003453
 10
86.12187497846953
 20
-111.3635728345723
 10
86.27225339640069
 20
-111.4665811895813
 10
86.41798093542675
 20
-111.4665811895813
 10
86.70030651044299
 20
-111.4665811895813
 10
86.74130314671746
 20
-111.2400661614261
 10
86.74130314671746
 20
-111.1143201762145
 10
86.74130314671746
 20
-110.9243231602029
 10
86.63881155603127
 20
-110.7482787809067
 10
86.438479253564
 20
-110.7482787809067
 97
        0
 97
        0
 75
     2
 76
     1
 98
        0
  0
POLYLINE
  5
AC
330
A5
100
AcDbEntity
  8
_U+30EC_U+30A4_U+30E4_U+30FC 1
370
     0
100
AcDb2dPolyline
 66
     1
 10
0.0
 20
0.0
 30
0.0
  0
VERTEX
  5
AD
330
AC
100
AcDbEntity
  8
_U+30EC_U+30A4_U+30E4_U+30FC 1
370
     0
100
AcDbVertex
100
AcDb2dVertex
 10
87.23309052723687
 20
-112.2627427562225
 30
0.0
  0
VERTEX
  5
AE
330
AC
100
AcDbEntity
  8
_U+30EC_U+30A4_U+30E4_U+30FC 1
370
     0
100
AcDbVertex
100
AcDb2dVertex
 10
87.23309052723687
 20
-111.9905802128878
 30
0.0
  0
VERTEX
  5
AF
330
AC
100
AcDbEntity
  8
_U+30EC_U+30A4_U+30E4_U+30FC 1
370
     0
100
AcDbVertex
100
AcDb2dVertex
 10
87.50404728715176
 20
-111.9905802128878
 30
0.0
  0
VERTEX
  5
B0
330
AC
100
AcDbEntity
  8
_U+30EC_U+30A4_U+30E4_U+30FC 1
370
     0
100
AcDbVertex
100
AcDb2dVertex
 10
87.50404728715176
 20
-112.2627427562225
 30
0.0
  0
VERTEX
  5
B1
330
AC
100
AcDbEntity
  8
_U+30EC_U+30A4_U+30E4_U+30FC 1
370
     0
100
AcDbVertex
100
AcDb2dVertex
 10
87.23309052723687
 20
-112.2627427562225
 30
0.0
  0
SEQEND
  5
B2
330
AC
100
AcDbEntity
  8
_U+30EC_U+30A4_U+30E4_U+30FC 1
370
     0
  0
HATCH
  5
B3
330
A5
100
AcDbEntity
  8
_U+30EC_U+30A4_U+30E4_U+30FC 1
 62
   179
420
  2234388
100
AcDbHatch
 10
0.0
 20
0.0
 30
0.0
210
0.0
220
0.0
230
1.0
  2
SOLID
 70
     1
 71
     0
 91
        1
 92
        1
 93
        4
 72
     1
 10
87.23309052723687
 20
-112.2627427562225
 11
87.23309052723687
 21
-111.9905802128878
 72
     1
 10
87.23309052723687
 20
-111.9905802128878
 11
87.50404728715176
 21
-111.9905802128878
 72
     1
 10
87.50404728715176
 20
-111.9905802128878
 11
87.50404728715176
 21
-112.2627427562225
 72
     1
 10
87.50404728715176
 20
-112.2627427562225
 11
87.23309052723687
 21
-112.2627427562225
 97
        0
 75
     2
 76
     1
 98
        0
  0
SPLINE
  5
B4
330
A5
100
AcDbEntity
  8
_U+30EC_U+30A4_U+30E4_U+30FC 1
370
     0
100
AcDbSpline
210
0.0
220
0.0
230
1.0
 70
    11
 71
     3
 72
    29
 73
    25
 74
     0
 42
0.0000000001
 43
0.0000000001
 12
1.0
 22
0.0
 32
0.0
 13
1.0
 23
0.0
 33
0.0
 40
0.0
 40
0.0
 40
0.0
 40
0.0
 40
1.0
 40
1.0
 40
1.0
 40
2.0
 40
2.0
 40
2.0
 40
3.0
 40
3.0
 40
3.0
 40
4.0
 40
4.0
 40
4.0
 40
5.0
 40
5.0
 40
5.0
 40
6.0
 40
6.0
 40
6.0
 40
7.0
 40
7.0
 40
7.0
 40
8.0
 40
8.0
 40
8.0
 40
8.0
 10
88.29659150353349
 20
-112.3176920292123
 30
0.0
 10
88.00961504961218
 20
-112.3176920292123
 30
0.0
 10
87.73641897763187
 20
-112.1688639042495
 30
0.0
 10
87.73641897763187
 20
-111.7914536938403
 30
0.0
 10
87.73641897763187
 20
-111.5146402716005
 30
0.0
 10
87.88903670762843
 20
-111.4116319165915
 30
0.0
 10
88.00289711341594
 20
-111.3453138285005
 30
0.0
 10
87.8685383894912
 20
-111.2812350524748
 30
0.0
 10
87.78654511694225
 20
-111.1577283793286
 30
0.0
 10
87.78654511694225
 20
-110.9839233120978
 30
0.0
 10
87.78654511694225
 20
-110.6864393169464
 30
0.0
 10
88.00048554657627
 20
-110.5400227588233
 30
0.0
 10
88.29659150353349
 20
-110.5400227588233
 30
0.0
 10
88.60165470875236
 20
-110.5400227588233
 30
0.0
 10
88.80663789012473
 20
-110.6955688199824
 30
0.0
 10
88.80663789012473
 20
-110.9839233120978
 30
0.0
 10
88.80663789012473
 20
-111.1577283793286
 30
0.0
 10
88.72240530551038
 20
-111.2812350524748
 30
0.0
 10
88.58804658158563
 20
-111.3453138285005
 30
0.0
 10
88.68364798130132
 20
-111.4002631014902
 30
0.0
 10
88.85435246259544
 20
-111.5032714564992
 30
0.0
 10
88.85435246259544
 20
-111.7868028149352
 30
0.0
 10
88.85435246259544
 20
-112.1917737892264
 30
0.0
 10
88.55394013628165
 20
-112.3176920292123
 30
0.0
 10
88.29659150353349
 20
-112.3176920292123
 30
0.0
  0
SPLINE
  5
B5
330
A5
100
AcDbEntity
  8
_U+30EC_U+30A4_U+30E4_U+30FC 1
370
     0
100
AcDbSpline
210
0.0
220
0.0
230
1.0
 70
    11
 71
     3
 72
    17
 73
    13
 74
     0
 42
0.0000000001
 43
0.0000000001
 12
1.0
 22
0.0
 32
0.0
 13
1.0
 23
0.0
 33
0.0
 40
0.0
 40
0.0
 40
0.0
 40
0.0
 40
1.0
 40
1.0
 40
1.0
 40
2.0
 40
2.0
 40
2.0
 40
3.0
 40
3.0
 40
3.0
 40
4.0
 40
4.0
 40
4.0
 40
4.0
 10
88.29659150353349
 20
-111.4621025654505
 30
0.0
 10
88.14173446147151
 20
-111.4621025654505
 30
0.0
 10
87.97774791637362
 20
-111.5558091626493
 30
0.0
 10
87.97774791637362
 20
-111.7754339998339
 30
0.0
 10
87.97774791637362
 20
-111.997298149084
 30
0.0
 10
88.11434595236378
 20
-112.1071966950635
 30
0.0
 10
88.29659150353349
 20
-112.1071966950635
 30
0.0
 10
88.49692380600078
 20
-112.1071966950635
 30
0.0
 10
88.61526283591911
 20
-111.9745605188814
 30
0.0
 10
88.61526283591911
 20
-111.7823241908044
 30
0.0
 10
88.61526283591911
 20
-111.5420287807083
 30
0.0
 10
88.44007973049415
 20
-111.4621025654505
 30
0.0
 10
88.29659150353349
 20
-111.4621025654505
 30
0.0
  0
SPLINE
  5
B6
330
A5
100
AcDbEntity
  8
_U+30EC_U+30A4_U+30E4_U+30FC 1
370
     0
100
AcDbSpline
210
0.0
220
0.0
230
1.0
 70
    11
 71
     3
 72
    17
 73
    13
 74
     0
 42
0.0000000001
 43
0.0000000001
 12
1.0
 22
0.0
 32
0.0
 13
1.0
 23
0.0
 33
0.0
 40
0.0
 40
0.0
 40
0.0
 40
0.0
 40
1.0
 40
1.0
 40
1.0
 40
2.0
 40
2.0
 40
2.0
 40
3.0
 40
3.0
 40
3.0
 40
4.0
 40
4.0
 40
4.0
 40
4.0
 10
88.29659150353349
 20
-110.7482787809067
 30
0.0
 10
88.11899683126886
 20
-110.7482787809067
 30
0.0
 10
88.02787405568401
 20
-110.8511148811414
 30
0.0
 10
88.02787405568401
 20
-110.9975314392645
 30
0.0
 10
88.02787405568401
 20
-111.1303398702209
 30
0.0
 10
88.10521644932787
 20
-111.2584974222722
 30
0.0
 10
88.29659150353349
 20
-111.2584974222722
 30
0.0
 10
88.48779430296486
 20
-111.2584974222722
 30
0.0
 10
88.56530895138299
 20
-111.1303398702209
 30
0.0
 10
88.56530895138299
 20
-110.9975314392645
 30
0.0
 10
88.56530895138299
 20
-110.8511148811414
 30
0.0
 10
88.47194686373271
 20
-110.7482787809067
 30
0.0
 10
88.29659150353349
 20
-110.7482787809067
 30
0.0
  0
HATCH
  5
B7
330
A5
100
AcDbEntity
  8
_U+30EC_U+30A4_U+30E4_U+30FC 1
 62
   179
420
  2234388
100
AcDbHatch
 10
0.0
 20
0.0
 30
0.0
210
0.0
220
0.0
230
1.0
  2
SOLID
 70
     1
 71
     0
 91
        3
 92
        1
 93
        1
 72
     4
 94
        3
 73
     0
 74
     1
 95
       29
 96
       25
 40
0.0
 40
0.0
 40
0.0
 40
0.0
 40
1.0
 40
1.0
 40
1.0
 40
2.0
 40
2.0
 40
2.0
 40
3.0
 40
3.0
 40
3.0
 40
4.0
 40
4.0
 40
4.0
 40
5.0
 40
5.0
 40
5.0
 40
6.0
 40
6.0
 40
6.0
 40
7.0
 40
7.0
 40
7.0
 40
8.0
 40
8.0
 40
8.0
 40
8.0
 10
88.29659150353349
 20
-112.3176920292123
 10
88.00961504961218
 20
-112.3176920292123
 10
87.73641897763187
 20
-112.1688639042495
 10
87.73641897763187
 20
-111.7914536938403
 10
87.73641897763187
 20
-111.5146402716005
 10
87.88903670762843
 20
-111.4116319165915
 10
88.00289711341594
 20
-111.3453138285005
 10
87.8685383894912
 20
-111.2812350524748
 10
87.78654511694225
 20
-111.1577283793286
 10
87.78654511694225
 20
-110.9839233120978
 10
87.78654511694225
 20
-110.6864393169464
 10
88.00048554657627
 20
-110.5400227588233
 10
88.29659150353349
 20
-110.5400227588233
 10
88.60165470875236
 20
-110.5400227588233
 10
88.80663789012473
 20
-110.6955688199824
 10
88.80663789012473
 20
-110.9839233120978
 10
88.80663789012473
 20
-111.1577283793286
 10
88.72240530551038
 20
-111.2812350524748
 10
88.58804658158563
 20
-111.3453138285005
 10
88.68364798130132
 20
-111.4002631014902
 10
88.85435246259544
 20
-111.5032714564992
 10
88.85435246259544
 20
-111.7868028149352
 10
88.85435246259544
 20
-112.1917737892264
 10
88.55394013628165
 20
-112.3176920292123
 10
88.29659150353349
 20
-112.3176920292123
 97
        0
 97
        0
 92
        1
 93
        1
 72
     4
 94
        3
 73
     0
 74
     1
 95
       17
 96
       13
 40
0.0
 40
0.0
 40
0.0
 40
0.0
 40
1.0
 40
1.0
 40
1.0
 40
2.0
 40
2.0
 40
2.0
 40
3.0
 40
3.0
 40
3.0
 40
4.0
 40
4.0
 40
4.0
 40
4.0
 10
88.29659150353349
 20
-111.4621025654505
 10
88.14173446147151
 20
-111.4621025654505
 10
87.97774791637362
 20
-111.5558091626493
 10
87.97774791637362
 20
-111.7754339998339
 10
87.97774791637362
 20
-111.997298149084
 10
88.11434595236378
 20
-112.1071966950635
 10
88.29659150353349
 20
-112.1071966950635
 10
88.49692380600078
 20
-112.1071966950635
 10
88.61526283591911
 20
-111.9745605188814
 10
88.61526283591911
 20
-111.7823241908044
 10
88.61526283591911
 20
-111.5420287807083
 10
88.44007973049415
 20
-111.4621025654505
 10
88.29659150353349
 20
-111.4621025654505
 97
        0
 97
        0
 92
        1
 93
        1
 72
     4
 94
        3
 73
     0
 74
     1
 95
       17
 96
       13
 40
0.0
 40
0.0
 40
0.0
 40
0.0
 40
1.0
 40
1.0
 40
1.0
 40
2.0
 40
2.0
 40
2.0
 40
3.0
 40
3.0
 40
3.0
 40
4.0
 40
4.0
 40
4.0
 40
4.0
 10
88.29659150353349
 20
-110.7482787809067
 10
88.11899683126886
 20
-110.7482787809067
 10
88.02787405568401
 20
-110.8511148811414
 10
88.02787405568401
 20
-110.9975314392645
 10
88.02787405568401
 20
-111.1303398702209
 10
88.10521644932787
 20
-111.2584974222722
 10
88.29659150353349
 20
-111.2584974222722
 10
88.48779430296486
 20
-111.2584974222722
 10
88.56530895138299
 20
-111.1303398702209
 10
88.56530895138299
 20
-110.9975314392645
 10
88.56530895138299
 20
-110.8511148811414
 10
88.47194686373271
 20
-110.7482787809067
 10
88.29659150353349
 20
-110.7482787809067
 97
        0
 97
        0
 75
     2
 76
     1
 98
        0
  0
ENDBLK
  5
A8
330
A5
100
AcDbEntity
  8
0
100
AcDbBlockEnd
  0
BLOCK
  5
C6
330
C4
100
AcDbEntity
  8
0
100
AcDbBlockBegin
  2
block 3
 70
     0
 10
0.0
 20
0.0
 30
0.0
  3
block 3
  1

  0
SPLINE
  5
C8
330
C4
100
AcDbEntity
  8
_U+30EC_U+30A4_U+30E4_U+30FC 1
370
     0
100
AcDbSpline
210
0.0
220
0.0
230
1.0
 70
    11
 71
     3
 72
    26
 73
    22
 74
     0
 42
0.0000000001
 43
0.0000000001
 12
1.0
 22
0.0
 32
0.0
 13
1.0
 23
0.0
 33
0.0
 40
0.0
 40
0.0
 40
0.0
 40
0.0
 40
1.0
 40
1.0
 40
1.0
 40
2.0
 40
2.0
 40
2.0
 40
3.0
 40
3.0
 40
3.0
 40
4.0
 40
4.0
 40
4.0
 40
5.0
 40
5.0
 40
5.0
 40
6.0
 40
6.0
 40
6.0
 40
7.0
 40
7.0
 40
7.0
 40
7.0
 10
95.13527829652868
 20
-112.2627427562225
 30
0.0
 10
95.13527829652868
 20
-112.2627427562225
 30
0.0
 10
95.13527829652868
 20
-111.0685004062607
 30
0.0
 10
95.13527829652868
 20
-111.0685004062607
 30
0.0
 10
95.13527829652868
 20
-111.0685004062607
 30
0.0
 10
94.78008895199943
 20
-111.0685004062607
 30
0.0
 10
94.78008895199943
 20
-111.0685004062607
 30
0.0
 10
94.78008895199943
 20
-111.0685004062607
 30
0.0
 10
94.78008895199943
 20
-110.9083034661965
 30
0.0
 10
94.78008895199943
 20
-110.9083034661965
 30
0.0
 10
95.13768986336837
 20
-110.8924560269644
 30
0.0
 10
95.18764374790449
 20
-110.7162393928939
 30
0.0
 10
95.21968313591731
 20
-110.5927327197477
 30
0.0
 10
95.21968313591731
 20
-110.5927327197477
 30
0.0
 10
95.3767794900447
 20
-110.5927327197477
 30
0.0
 10
95.3767794900447
 20
-110.5927327197477
 30
0.0
 10
95.3767794900447
 20
-110.5927327197477
 30
0.0
 10
95.3767794900447
 20
-112.2627427562225
 30
0.0
 10
95.3767794900447
 20
-112.2627427562225
 30
0.0
 10
95.3767794900447
 20
-112.2627427562225
 30
0.0
 10
95.13527829652868
 20
-112.2627427562225
 30
0.0
 10
95.13527829652868
 20
-112.2627427562225
 30
0.0
  0
HATCH
  5
C9
330
C4
100
AcDbEntity
  8
_U+30EC_U+30A4_U+30E4_U+30FC 1
 62
   179
420
  2234388
100
AcDbHatch
 10
0.0
 20
0.0
 30
0.0
210
0.0
220
0.0
230
1.0
  2
SOLID
 70
     1
 71
     0
 91
        1
 92
        1
 93
        1
 72
     4
 94
        3
 73
     0
 74
     1
 95
       26
 96
       22
 40
0.0
 40
0.0
 40
0.0
 40
0.0
 40
1.0
 40
1.0
 40
1.0
 40
2.0
 40
2.0
 40
2.0
 40
3.0
 40
3.0
 40
3.0
 40
4.0
 40
4.0
 40
4.0
 40
5.0
 40
5.0
 40
5.0
 40
6.0
 40
6.0
 40
6.0
 40
7.0
 40
7.0
 40
7.0
 40
7.0
 10
95.13527829652868
 20
-112.2627427562225
 10
95.13527829652868
 20
-112.2627427562225
 10
95.13527829652868
 20
-111.0685004062607
 10
95.13527829652868
 20
-111.0685004062607
 10
95.13527829652868
 20
-111.0685004062607
 10
94.78008895199943
 20
-111.0685004062607
 10
94.78008895199943
 20
-111.0685004062607
 10
94.78008895199943
 20
-111.0685004062607
 10
94.78008895199943
 20
-110.9083034661965
 10
94.78008895199943
 20
-110.9083034661965
 10
95.13768986336837
 20
-110.8924560269644
 10
95.18764374790449
 20
-110.7162393928939
 10
95.21968313591731
 20
-110.5927327197477
 10
95.21968313591731
 20
-110.5927327197477
 10
95.3767794900447
 20
-110.5927327197477
 10
95.3767794900447
 20
-110.5927327197477
 10
95.3767794900447
 20
-110.5927327197477
 10
95.3767794900447
 20
-112.2627427562225
 10
95.3767794900447
 20
-112.2627427562225
 10
95.3767794900447
 20
-112.2627427562225
 10
95.13527829652868
 20
-112.2627427562225
 10
95.13527829652868
 20
-112.2627427562225
 97
        0
 97
        0
 75
     2
 76
     1
 98
        0
  0
POLYLINE
  5
CA
330
C4
100
AcDbEntity
  8
_U+30EC_U+30A4_U+30E4_U+30FC 1
370
     0
100
AcDb2dPolyline
 66
     1
 10
0.0
 20
0.0
 30
0.0
  0
VERTEX
  5
CB
330
CA
100
AcDbEntity
  8
_U+30EC_U+30A4_U+30E4_U+30FC 1
370
     0
100
AcDbVertex
100
AcDb2dVertex
 10
96.81131725010273
 20
-111.8875718578788
 30
0.0
  0
VERTEX
  5
CC
330
CA
100
AcDbEntity
  8
_U+30EC_U+30A4_U+30E4_U+30FC 1
370
     0
100
AcDbVertex
100
AcDb2dVertex
 10
96.81131725010273
 20
-112.2627427562225
 30
0.0
  0
VERTEX
  5
CD
330
CA
100
AcDbEntity
  8
_U+30EC_U+30A4_U+30E4_U+30FC 1
370
     0
100
AcDbVertex
100
AcDb2dVertex
 10
96.57670624755721
 20
-112.2627427562225
 30
0.0
  0
VERTEX
  5
CE
330
CA
100
AcDbEntity
  8
_U+30EC_U+30A4_U+30E4_U+30FC 1
370
     0
100
AcDbVertex
100
AcDb2dVertex
 10
96.57670624755721
 20
-111.8875718578788
 30
0.0
  0
VERTEX
  5
CF
330
CA
100
AcDbEntity
  8
_U+30EC_U+30A4_U+30E4_U+30FC 1
370
     0
100
AcDbVertex
100
AcDb2dVertex
 10
95.87080618262952
 20
-111.8875718578788
 30
0.0
  0
VERTEX
  5
D0
330
CA
100
AcDbEntity
  8
_U+30EC_U+30A4_U+30E4_U+30FC 1
370
     0
100
AcDbVertex
100
AcDb2dVertex
 10
95.87080618262952
 20
-111.6450371357172
 30
0.0
  0
VERTEX
  5
D1
330
CA
100
AcDbEntity
  8
_U+30EC_U+30A4_U+30E4_U+30FC 1
370
     0
100
AcDbVertex
100
AcDb2dVertex
 10
96.60185544459954
 20
-110.5927327197477
 30
0.0
  0
VERTEX
  5
D2
330
CA
100
AcDbEntity
  8
_U+30EC_U+30A4_U+30E4_U+30FC 1
370
     0
100
AcDbVertex
100
AcDb2dVertex
 10
96.81131725010273
 20
-110.5927327197477
 30
0.0
  0
VERTEX
  5
D3
330
CA
100
AcDbEntity
  8
_U+30EC_U+30A4_U+30E4_U+30FC 1
370
     0
100
AcDbVertex
100
AcDb2dVertex
 10
96.81131725010273
 20
-111.672425644825
 30
0.0
  0
VERTEX
  5
D4
330
CA
100
AcDbEntity
  8
_U+30EC_U+30A4_U+30E4_U+30FC 1
370
     0
100
AcDbVertex
100
AcDb2dVertex
 10
97.03455943754692
 20
-111.672425644825
 30
0.0
  0
VERTEX
  5
D5
330
CA
100
AcDbEntity
  8
_U+30EC_U+30A4_U+30E4_U+30FC 1
370
     0
100
AcDbVertex
100
AcDb2dVertex
 10
97.03455943754692
 20
-111.8875718578788
 30
0.0
  0
VERTEX
  5
D6
330
CA
100
AcDbEntity
  8
_U+30EC_U+30A4_U+30E4_U+30FC 1
370
     0
100
AcDbVertex
100
AcDb2dVertex
 10
96.81131725010273
 20
-111.8875718578788
 30
0.0
  0
SEQEND
  5
D7
330
CA
100
AcDbEntity
  8
_U+30EC_U+30A4_U+30E4_U+30FC 1
370
     0
  0
POLYLINE
  5
D8
330
C4
100
AcDbEntity
  8
_U+30EC_U+30A4_U+30E4_U+30FC 1
370
     0
100
AcDb2dPolyline
 66
     1
 10
0.0
 20
0.0
 30
0.0
  0
VERTEX
  5
D9
330
D8
100
AcDbEntity
  8
_U+30EC_U+30A4_U+30E4_U+30FC 1
370
     0
100
AcDbVertex
100
AcDb2dVertex
 10
96.57670624755721
 20
-110.9632527391863
 30
0.0
  0
VERTEX
  5
DA
330
D8
100
AcDbEntity
  8
_U+30EC_U+30A4_U+30E4_U+30FC 1
370
     0
100
AcDbVertex
100
AcDb2dVertex
 10
96.08474661226354
 20
-111.672425644825
 30
0.0
  0
VERTEX
  5
DB
330
D8
100
AcDbEntity
  8
_U+30EC_U+30A4_U+30E4_U+30FC 1
370
     0
100
AcDbVertex
100
AcDb2dVertex
 10
96.57670624755721
 20
-111.672425644825
 30
0.0
  0
VERTEX
  5
DC
330
D8
100
AcDbEntity
  8
_U+30EC_U+30A4_U+30E4_U+30FC 1
370
     0
100
AcDbVertex
100
AcDb2dVertex
 10
96.57670624755721
 20
-110.9632527391863
 30
0.0
  0
SEQEND
  5
DD
330
D8
100
AcDbEntity
  8
_U+30EC_U+30A4_U+30E4_U+30FC 1
370
     0
  0
HATCH
  5
DE
330
C4
100
AcDbEntity
  8
_U+30EC_U+30A4_U+30E4_U+30FC 1
 62
   179
420
  2234388
100
AcDbHatch
 10
0.0
 20
0.0
 30
0.0
210
0.0
220
0.0
230
1.0
  2
SOLID
 70
     1
 71
     0
 91
        2
 92
        1
 93
       11
 72
     1
 10
96.81131725010273
 20
-111.8875718578788
 11
96.81131725010273
 21
-112.2627427562225
 72
     1
 10
96.81131725010273
 20
-112.2627427562225
 11
96.57670624755721
 21
-112.2627427562225
 72
     1
 10
96.57670624755721
 20
-112.2627427562225
 11
96.57670624755721
 21
-111.8875718578788
 72
     1
 10
96.57670624755721
 20
-111.8875718578788
 11
95.87080618262952
 21
-111.8875718578788
 72
     1
 10
95.87080618262952
 20
-111.8875718578788
 11
95.87080618262952
 21
-111.6450371357172
 72
     1
 10
95.87080618262952
 20
-111.6450371357172
 11
96.60185544459954
 21
-110.5927327197477
 72
     1
 10
96.60185544459954
 20
-110.5927327197477
 11
96.81131725010273
 21
-110.5927327197477
 72
     1
 10
96.81131725010273
 20
-110.5927327197477
 11
96.81131725010273
 21
-111.672425644825
 72
     1
 10
96.81131725010273
 20
-111.672425644825
 11
97.03455943754692
 21
-111.672425644825
 72
     1
 10
97.03455943754692
 20
-111.672425644825
 11
97.03455943754692
 21
-111.8875718578788
 72
     1
 10
97.03455943754692
 20
-111.8875718578788
 11
96.81131725010273
 21
-111.8875718578788
 97
        0
 92
        1
 93
        3
 72
     1
 10
96.57670624755721
 20
-110.9632527391863
 11
96.08474661226354
 21
-111.672425644825
 72
     1
 10
96.08474661226354
 20
-111.672425644825
 11
96.57670624755721
 21
-111.672425644825
 72
     1
 10
96.57670624755721
 20
-111.672425644825
 11
96.57670624755721
 21
-110.9632527391863
 97
        0
 75
     2
 76
     1
 98
        0
  0
POLYLINE
  5
DF
330
C4
100
AcDbEntity
  8
_U+30EC_U+30A4_U+30E4_U+30FC 1
370
     0
100
AcDb2dPolyline
 66
     1
 10
0.0
 20
0.0
 30
0.0
  0
VERTEX
  5
E0
330
DF
100
AcDbEntity
  8
_U+30EC_U+30A4_U+30E4_U+30FC 1
370
     0
100
AcDbVertex
100
AcDb2dVertex
 10
97.24608830034126
 20
-112.2627427562225
 30
0.0
  0
VERTEX
  5
E1
330
DF
100
AcDbEntity
  8
_U+30EC_U+30A4_U+30E4_U+30FC 1
370
     0
100
AcDbVertex
100
AcDb2dVertex
 10
97.24608830034126
 20
-111.9905802128878
 30
0.0
  0
VERTEX
  5
E2
330
DF
100
AcDbEntity
  8
_U+30EC_U+30A4_U+30E4_U+30FC 1
370
     0
100
AcDbVertex
100
AcDb2dVertex
 10
97.5168728054819
 20
-111.9905802128878
 30
0.0
  0
VERTEX
  5
E3
330
DF
100
AcDbEntity
  8
_U+30EC_U+30A4_U+30E4_U+30FC 1
370
     0
100
AcDbVertex
100
AcDb2dVertex
 10
97.5168728054819
 20
-112.2627427562225
 30
0.0
  0
VERTEX
  5
E4
330
DF
100
AcDbEntity
  8
_U+30EC_U+30A4_U+30E4_U+30FC 1
370
     0
100
AcDbVertex
100
AcDb2dVertex
 10
97.24608830034126
 20
-112.2627427562225
 30
0.0
  0
SEQEND
  5
E5
330
DF
100
AcDbEntity
  8
_U+30EC_U+30A4_U+30E4_U+30FC 1
370
     0
  0
HATCH
  5
E6
330
C4
100
AcDbEntity
  8
_U+30EC_U+30A4_U+30E4_U+30FC 1
 62
   179
420
  2234388
100
AcDbHatch
 10
0.0
 20
0.0
 30
0.0
210
0.0
220
0.0
230
1.0
  2
SOLID
 70
     1
 71
     0
 91
        1
 92
        1
 93
        4
 72
     1
 10
97.24608830034126
 20
-112.2627427562225
 11
97.24608830034126
 21
-111.9905802128878
 72
     1
 10
97.24608830034126
 20
-111.9905802128878
 11
97.5168728054819
 21
-111.9905802128878
 72
     1
 10
97.5168728054819
 20
-111.9905802128878
 11
97.5168728054819
 21
-112.2627427562225
 72
     1
 10
97.5168728054819
 20
-112.2627427562225
 11
97.24608830034126
 21
-112.2627427562225
 97
        0
 75
     2
 76
     1
 98
        0
  0
SPLINE
  5
E7
330
C4
100
AcDbEntity
  8
_U+30EC_U+30A4_U+30E4_U+30FC 1
370
     0
100
AcDbSpline
210
0.0
220
0.0
230
1.0
 70
    11
 71
     3
 72
    32
 73
    28
 74
     0
 42
0.0000000001
 43
0.0000000001
 12
1.0
 22
0.0
 32
0.0
 13
1.0
 23
0.0
 33
0.0
 40
0.0
 40
0.0
 40
0.0
 40
0.0
 40
1.0
 40
1.0
 40
1.0
 40
2.0
 40
2.0
 40
2.0
 40
3.0
 40
3.0
 40
3.0
 40
4.0
 40
4.0
 40
4.0
 40
5.0
 40
5.0
 40
5.0
 40
6.0
 40
6.0
 40
6.0
 40
7.0
 40
7.0
 40
7.0
 40
8.0
 40
8.0
 40
8.0
 40
9.0
 40
9.0
 40
9.0
 40
9.0
 10
98.3140679007687
 20
-112.3176920292123
 30
0.0
 10
97.75871850854644
 20
-112.3176920292123
 30
0.0
 10
97.74941675073626
 20
-111.7182454147788
 30
0.0
 10
97.74941675073626
 20
-111.4872517624928
 30
0.0
 10
97.74941675073626
 20
-111.2378268493607
 30
0.0
 10
97.76974281409923
 20
-110.5377834467579
 30
0.0
 10
98.35506453704318
 20
-110.5377834467579
 30
0.0
 10
98.54178871234373
 20
-110.5377834467579
 30
0.0
 10
98.80602753606239
 20
-110.6132310378849
 30
0.0
 10
98.84667966278833
 20
-110.9723822422222
 30
0.0
 10
98.84667966278833
 20
-110.9723822422222
 30
0.0
 10
98.61689179392216
 20
-110.9723822422222
 30
0.0
 10
98.61689179392216
 20
-110.9723822422222
 30
0.0
 10
98.60552297882084
 20
-110.9107150330362
 30
0.0
 10
98.57141653351687
 20
-110.7505180929721
 30
0.0
 10
98.35265297020351
 20
-110.7505180929721
 30
0.0
 10
98.03846026194873
 20
-110.7505180929721
 30
0.0
 10
97.9953965683831
 20
-111.1051906731786
 30
0.0
 10
97.9816161864421
 20
-111.3270548224287
 30
0.0
 10
98.08186846506287
 20
-111.2424777282658
 30
0.0
 10
98.15490448935017
 20
-111.1783989522401
 30
0.0
 10
98.35058591291236
 20
-111.1783989522401
 30
0.0
 10
98.5442002791834
 20
-111.1783989522401
 30
0.0
 10
98.86976180253951
 20
-111.2950154344158
 30
0.0
 10
98.86976180253951
 20
-111.7342651087852
 30
0.0
 10
98.86976180253951
 20
-112.0796359311815
 30
0.0
 10
98.65582137290549
 20
-112.3176920292123
 30
0.0
 10
98.3140679007687
 20
-112.3176920292123
 30
0.0
  0
SPLINE
  5
E8
330
C4
100
AcDbEntity
  8
_U+30EC_U+30A4_U+30E4_U+30FC 1
370
     0
100
AcDbSpline
210
0.0
220
0.0
230
1.0
 70
    11
 71
     3
 72
    17
 73
    13
 74
     0
 42
0.0000000001
 43
0.0000000001
 12
1.0
 22
0.0
 32
0.0
 13
1.0
 23
0.0
 33
0.0
 40
0.0
 40
0.0
 40
0.0
 40
0.0
 40
1.0
 40
1.0
 40
1.0
 40
2.0
 40
2.0
 40
2.0
 40
3.0
 40
3.0
 40
3.0
 40
4.0
 40
4.0
 40
4.0
 40
4.0
 10
98.33232690684054
 20
-111.3888942863889
 30
0.0
 10
98.05017358659858
 20
-111.3888942863889
 30
0.0
 10
98.00883244077558
 20
-111.6176486266095
 30
0.0
 10
98.00883244077558
 20
-111.7433946118211
 30
0.0
 10
98.00883244077558
 20
-111.9332193730584
 30
0.0
 10
98.11149628623602
 20
-112.1094360071289
 30
0.0
 10
98.30958927663788
 20
-112.1094360071289
 30
0.0
 10
98.4394693764318
 20
-112.1094360071289
 30
0.0
 10
98.6282606090235
 20
-112.0453572311033
 30
0.0
 10
98.6282606090235
 20
-111.7365044208506
 30
0.0
 10
98.6282606090235
 20
-111.493969698689
 30
0.0
 10
98.4780544458666
 20
-111.3888942863889
 30
0.0
 10
98.33232690684054
 20
-111.3888942863889
 30
0.0
  0
HATCH
  5
E9
330
C4
100
AcDbEntity
  8
_U+30EC_U+30A4_U+30E4_U+30FC 1
 62
   179
420
  2234388
100
AcDbHatch
 10
0.0
 20
0.0
 30
0.0
210
0.0
220
0.0
230
1.0
  2
SOLID
 70
     1
 71
     0
 91
        2
 92
        1
 93
        1
 72
     4
 94
        3
 73
     0
 74
     1
 95
       32
 96
       28
 40
0.0
 40
0.0
 40
0.0
 40
0.0
 40
1.0
 40
1.0
 40
1.0
 40
2.0
 40
2.0
 40
2.0
 40
3.0
 40
3.0
 40
3.0
 40
4.0
 40
4.0
 40
4.0
 40
5.0
 40
5.0
 40
5.0
 40
6.0
 40
6.0
 40
6.0
 40
7.0
 40
7.0
 40
7.0
 40
8.0
 40
8.0
 40
8.0
 40
9.0
 40
9.0
 40
9.0
 40
9.0
 10
98.3140679007687
 20
-112.3176920292123
 10
97.75871850854644
 20
-112.3176920292123
 10
97.74941675073626
 20
-111.7182454147788
 10
97.74941675073626
 20
-111.4872517624928
 10
97.74941675073626
 20
-111.2378268493607
 10
97.76974281409923
 20
-110.5377834467579
 10
98.35506453704318
 20
-110.5377834467579
 10
98.54178871234373
 20
-110.5377834467579
 10
98.80602753606239
 20
-110.6132310378849
 10
98.84667966278833
 20
-110.9723822422222
 10
98.84667966278833
 20
-110.9723822422222
 10
98.61689179392216
 20
-110.9723822422222
 10
98.61689179392216
 20
-110.9723822422222
 10
98.60552297882084
 20
-110.9107150330362
 10
98.57141653351687
 20
-110.7505180929721
 10
98.35265297020351
 20
-110.7505180929721
 10
98.03846026194873
 20
-110.7505180929721
 10
97.9953965683831
 20
-111.1051906731786
 10
97.9816161864421
 20
-111.3270548224287
 10
98.08186846506287
 20
-111.2424777282658
 10
98.15490448935017
 20
-111.1783989522401
 10
98.35058591291236
 20
-111.1783989522401
 10
98.5442002791834
 20
-111.1783989522401
 10
98.86976180253951
 20
-111.2950154344158
 10
98.86976180253951
 20
-111.7342651087852
 10
98.86976180253951
 20
-112.0796359311815
 10
98.65582137290549
 20
-112.3176920292123
 10
98.3140679007687
 20
-112.3176920292123
 97
        0
 97
        0
 92
        1
 93
        1
 72
     4
 94
        3
 73
     0
 74
     1
 95
       17
 96
       13
 40
0.0
 40
0.0
 40
0.0
 40
0.0
 40
1.0
 40
1.0
 40
1.0
 40
2.0
 40
2.0
 40
2.0
 40
3.0
 40
3.0
 40
3.0
 40
4.0
 40
4.0
 40
4.0
 40
4.0
 10
98.33232690684054
 20
-111.3888942863889
 10
98.05017358659858
 20
-111.3888942863889
 10
98.00883244077558
 20
-111.6176486266095
 10
98.00883244077558
 20
-111.7433946118211
 10
98.00883244077558
 20
-111.9332193730584
 10
98.11149628623602
 20
-112.1094360071289
 10
98.30958927663788
 20
-112.1094360071289
 10
98.4394693764318
 20
-112.1094360071289
 10
98.6282606090235
 20
-112.0453572311033
 10
98.6282606090235
 20
-111.7365044208506
 10
98.6282606090235
 20
-111.493969698689
 10
98.4780544458666
 20
-111.3888942863889
 10
98.33232690684054
 20
-111.3888942863889
 97
        0
 97
        0
 75
     2
 76
     1
 98
        0
  0
ENDBLK
  5
C7
330
C4
100
AcDbEntity
  8
0
100
AcDbBlockEnd
  0
BLOCK
  5
FC
330
FA
100
AcDbEntity
  8
0
100
AcDbBlockBegin
  2
block 4
 70
     0
 10
0.0
 20
0.0
 30
0.0
  3
block 4
  1

  0
SPLINE
  5
FE
330
FA
100
AcDbEntity
  8
_U+30EC_U+30A4_U+30E4_U+30FC 1
370
     0
100
AcDbSpline
210
0.0
220
0.0
230
1.0
 70
    11
 71
     3
 72
    62
 73
    58
 74
     0
 42
0.0000000001
 43
0.0000000001
 12
1.0
 22
0.0
 32
0.0
 13
1.0
 23
0.0
 33
0.0
 40
0.0
 40
0.0
 40
0.0
 40
0.0
 40
1.0
 40
1.0
 40
1.0
 40
2.0
 40
2.0
 40
2.0
 40
3.0
 40
3.0
 40
3.0
 40
4.0
 40
4.0
 40
4.0
 40
5.0
 40
5.0
 40
5.0
 40
6.0
 40
6.0
 40
6.0
 40
7.0
 40
7.0
 40
7.0
 40
8.0
 40
8.0
 40
8.0
 40
9.0
 40
9.0
 40
9.0
 40
10.0
 40
10.0
 40
10.0
 40
11.0
 40
11.0
 40
11.0
 40
12.0
 40
12.0
 40
12.0
 40
13.0
 40
13.0
 40
13.0
 40
14.0
 40
14.0
 40
14.0
 40
15.0
 40
15.0
 40
15.0
 40
16.0
 40
16.0
 40
16.0
 40
17.0
 40
17.0
 40
17.0
 40
18.0
 40
18.0
 40
18.0
 40
19.0
 40
19.0
 40
19.0
 40
19.0
 10
98.82153046574601
 20
-129.8177435656359
 30
0.0
 10
98.7192111298341
 20
-129.8177435656359
 30
0.0
 10
98.48460012728857
 20
-129.7946614258847
 30
0.0
 10
98.35024140336384
 20
-129.5934678495461
 30
0.0
 10
98.27065969765457
 20
-129.4722004884653
 30
0.0
 10
98.26583656397521
 20
-129.3647135093255
 30
0.0
 10
98.26135793984439
 20
-129.2730739694179
 30
0.0
 10
98.26135793984439
 20
-129.2730739694179
 30
0.0
 10
98.49803599968105
 20
-129.2730739694179
 30
0.0
 10
98.49803599968105
 20
-129.2730739694179
 30
0.0
 10
98.50044756652072
 20
-129.3533446942242
 30
0.0
 10
98.51181638162205
 20
-129.6072482314871
 30
0.0
 10
98.81705184161518
 20
-129.6072482314871
 30
0.0
 10
98.96519094748093
 20
-129.6072482314871
 30
0.0
 10
99.12883298303029
 20
-129.5318006403601
 30
0.0
 10
99.12883298303029
 20
-129.2847872940677
 30
0.0
 10
99.12883298303029
 20
-129.1586967993076
 30
0.0
 10
99.08783634675582
 20
-129.1063313479318
 30
0.0
 10
99.05372990145185
 20
-129.0718803930793
 30
0.0
 10
98.97414819574257
 20
-128.9919541778215
 30
0.0
 10
98.84874672007949
 20
-128.9781737958805
 30
0.0
 10
98.78949107773319
 20
-128.9781737958805
 30
0.0
 10
98.76916501437022
 20
-128.9781737958805
 30
0.0
 10
98.73023543538689
 20
-128.9802408531716
 30
0.0
 10
98.70060761421374
 20
-128.985063986851
 30
0.0
 10
98.70060761421374
 20
-128.985063986851
 30
0.0
 10
98.70060761421374
 20
-128.7745686527022
 30
0.0
 10
98.70060761421374
 20
-128.7745686527022
 30
0.0
 10
98.74194876003673
 20
-128.7811143341242
 30
0.0
 10
98.78742402044203
 20
-128.7838704105124
 30
0.0
 10
98.79431421141254
 20
-128.7838704105124
 30
0.0
 10
98.86459415931164
 20
-128.7838704105124
 30
0.0
 10
99.07887909849417
 20
-128.7607882707612
 30
0.0
 10
99.07887909849417
 20
-128.5044731666586
 30
0.0
 10
99.07887909849417
 20
-128.3124090933559
 30
0.0
 10
98.93763018359893
 20
-128.2528089414611
 30
0.0
 10
98.81911889890634
 20
-128.2528089414611
 30
0.0
 10
98.5345540118247
 20
-128.2528089414611
 30
0.0
 10
98.52559676356304
 20
-128.5044731666586
 30
0.0
 10
98.5207736298837
 20
-128.5823323246253
 30
0.0
 10
98.5207736298837
 20
-128.5823323246253
 30
0.0
 10
98.30235457611886
 20
-128.5823323246253
 30
0.0
 10
98.30235457611886
 20
-128.5823323246253
 30
0.0
 10
98.31131182438051
 20
-128.4472845816035
 30
0.0
 10
98.34093964555366
 20
-128.0400742952469
 30
0.0
 10
98.83289928084733
 20
-128.0400742952469
 30
0.0
 10
99.07405596481482
 20
-128.0400742952469
 30
0.0
 10
99.33381616440266
 20
-128.1773613503341
 30
0.0
 10
99.33381616440266
 20
-128.4975829756881
 30
0.0
 10
99.33381616440266
 20
-128.698948806801
 30
0.0
 10
99.23115231894222
 20
-128.7880045250947
 30
0.0
 10
99.12435435889947
 20
-128.85449486796
 30
0.0
 10
99.19050019221626
 20
-128.8844671986817
 30
0.0
 10
99.38618161577845
 20
-128.97128360491
 30
0.0
 10
99.38618161577845
 20
-129.2710069121267
 30
0.0
 10
99.38618161577845
 20
-129.6368760526602
 30
0.0
 10
99.11987573476864
 20
-129.8177435656359
 30
0.0
 10
98.82153046574601
 20
-129.8177435656359
 30
0.0
  0
HATCH
  5
FF
330
FA
100
AcDbEntity
  8
_U+30EC_U+30A4_U+30E4_U+30FC 1
 62
   179
420
  2234388
100
AcDbHatch
 10
0.0
 20
0.0
 30
0.0
210
0.0
220
0.0
230
1.0
  2
SOLID
 70
     1
 71
     0
 91
        1
 92
        1
 93
        1
 72
     4
 94
        3
 73
     0
 74
     1
 95
       62
 96
       58
 40
0.0
 40
0.0
 40
0.0
 40
0.0
 40
1.0
 40
1.0
 40
1.0
 40
2.0
 40
2.0
 40
2.0
 40
3.0
 40
3.0
 40
3.0
 40
4.0
 40
4.0
 40
4.0
 40
5.0
 40
5.0
 40
5.0
 40
6.0
 40
6.0
 40
6.0
 40
7.0
 40
7.0
 40
7.0
 40
8.0
 40
8.0
 40
8.0
 40
9.0
 40
9.0
 40
9.0
 40
10.0
 40
10.0
 40
10.0
 40
11.0
 40
11.0
 40
11.0
 40
12.0
 40
12.0
 40
12.0
 40
13.0
 40
13.0
 40
13.0
 40
14.0
 40
14.0
 40
14.0
 40
15.0
 40
15.0
 40
15.0
 40
16.0
 40
16.0
 40
16.0
 40
17.0
 40
17.0
 40
17.0
 40
18.0
 40
18.0
 40
18.0
 40
19.0
 40
19.0
 40
19.0
 40
19.0
 10
98.82153046574601
 20
-129.8177435656359
 10
98.7192111298341
 20
-129.8177435656359
 10
98.48460012728857
 20
-129.7946614258847
 10
98.35024140336384
 20
-129.5934678495461
 10
98.27065969765457
 20
-129.4722004884653
 10
98.26583656397521
 20
-129.3647135093255
 10
98.26135793984439
 20
-129.2730739694179
 10
98.26135793984439
 20
-129.2730739694179
 10
98.49803599968105
 20
-129.2730739694179
 10
98.49803599968105
 20
-129.2730739694179
 10
98.50044756652072
 20
-129.3533446942242
 10
98.51181638162205
 20
-129.6072482314871
 10
98.81705184161518
 20
-129.6072482314871
 10
98.96519094748093
 20
-129.6072482314871
 10
99.12883298303029
 20
-129.5318006403601
 10
99.12883298303029
 20
-129.2847872940677
 10
99.12883298303029
 20
-129.1586967993076
 10
99.08783634675582
 20
-129.1063313479318
 10
99.05372990145185
 20
-129.0718803930793
 10
98.97414819574257
 20
-128.9919541778215
 10
98.84874672007949
 20
-128.9781737958805
 10
98.78949107773319
 20
-128.9781737958805
 10
98.76916501437022
 20
-128.9781737958805
 10
98.73023543538689
 20
-128.9802408531716
 10
98.70060761421374
 20
-128.985063986851
 10
98.70060761421374
 20
-128.985063986851
 10
98.70060761421374
 20
-128.7745686527022
 10
98.70060761421374
 20
-128.7745686527022
 10
98.74194876003673
 20
-128.7811143341242
 10
98.78742402044203
 20
-128.7838704105124
 10
98.79431421141254
 20
-128.7838704105124
 10
98.86459415931164
 20
-128.7838704105124
 10
99.07887909849417
 20
-128.7607882707612
 10
99.07887909849417
 20
-128.5044731666586
 10
99.07887909849417
 20
-128.3124090933559
 10
98.93763018359893
 20
-128.2528089414611
 10
98.81911889890634
 20
-128.2528089414611
 10
98.5345540118247
 20
-128.2528089414611
 10
98.52559676356304
 20
-128.5044731666586
 10
98.5207736298837
 20
-128.5823323246253
 10
98.5207736298837
 20
-128.5823323246253
 10
98.30235457611886
 20
-128.5823323246253
 10
98.30235457611886
 20
-128.5823323246253
 10
98.31131182438051
 20
-128.4472845816035
 10
98.34093964555366
 20
-128.0400742952469
 10
98.83289928084733
 20
-128.0400742952469
 10
99.07405596481482
 20
-128.0400742952469
 10
99.33381616440266
 20
-128.1773613503341
 10
99.33381616440266
 20
-128.4975829756881
 10
99.33381616440266
 20
-128.698948806801
 10
99.23115231894222
 20
-128.7880045250947
 10
99.12435435889947
 20
-128.85449486796
 10
99.19050019221626
 20
-128.8844671986817
 10
99.38618161577845
 20
-128.97128360491
 10
99.38618161577845
 20
-129.2710069121267
 10
99.38618161577845
 20
-129.6368760526602
 10
99.11987573476864
 20
-129.8177435656359
 10
98.82153046574601
 20
-129.8177435656359
 97
        0
 97
        0
 75
     2
 76
     1
 98
        0
  0
POLYLINE
  5
100
330
FA
100
AcDbEntity
  8
_U+30EC_U+30A4_U+30E4_U+30FC 1
370
     0
100
AcDb2dPolyline
 66
     1
 10
0.0
 20
0.0
 30
0.0
  0
VERTEX
  5
101
330
100
100
AcDbEntity
  8
_U+30EC_U+30A4_U+30E4_U+30FC 1
370
     0
100
AcDbVertex
100
AcDb2dVertex
 10
99.62320418516364
 20
-129.7629665474204
 30
0.0
  0
VERTEX
  5
102
330
100
100
AcDbEntity
  8
_U+30EC_U+30A4_U+30E4_U+30FC 1
370
     0
100
AcDbVertex
100
AcDb2dVertex
 10
99.62320418516364
 20
-129.4908040040856
 30
0.0
  0
VERTEX
  5
103
330
100
100
AcDbEntity
  8
_U+30EC_U+30A4_U+30E4_U+30FC 1
370
     0
100
AcDbVertex
100
AcDb2dVertex
 10
99.89398869030428
 20
-129.4908040040856
 30
0.0
  0
VERTEX
  5
104
330
100
100
AcDbEntity
  8
_U+30EC_U+30A4_U+30E4_U+30FC 1
370
     0
100
AcDbVertex
100
AcDb2dVertex
 10
99.89398869030428
 20
-129.7629665474204
 30
0.0
  0
VERTEX
  5
105
330
100
100
AcDbEntity
  8
_U+30EC_U+30A4_U+30E4_U+30FC 1
370
     0
100
AcDbVertex
100
AcDb2dVertex
 10
99.62320418516364
 20
-129.7629665474204
 30
0.0
  0
SEQEND
  5
106
330
100
100
AcDbEntity
  8
_U+30EC_U+30A4_U+30E4_U+30FC 1
370
     0
  0
HATCH
  5
107
330
FA
100
AcDbEntity
  8
_U+30EC_U+30A4_U+30E4_U+30FC 1
 62
   179
420
  2234388
100
AcDbHatch
 10
0.0
 20
0.0
 30
0.0
210
0.0
220
0.0
230
1.0
  2
SOLID
 70
     1
 71
     0
 91
        1
 92
        1
 93
        4
 72
     1
 10
99.62320418516364
 20
-129.7629665474204
 11
99.62320418516364
 21
-129.4908040040856
 72
     1
 10
99.62320418516364
 20
-129.4908040040856
 11
99.89398869030428
 21
-129.4908040040856
 72
     1
 10
99.89398869030428
 20
-129.4908040040856
 11
99.89398869030428
 21
-129.7629665474204
 72
     1
 10
99.89398869030428
 20
-129.7629665474204
 11
99.62320418516364
 21
-129.7629665474204
 97
        0
 75
     2
 76
     1
 98
        0
  0
SPLINE
  5
108
330
FA
100
AcDbEntity
  8
_U+30EC_U+30A4_U+30E4_U+30FC 1
370
     0
100
AcDbSpline
210
0.0
220
0.0
230
1.0
 70
    11
 71
     3
 72
    29
 73
    25
 74
     0
 42
0.0000000001
 43
0.0000000001
 12
1.0
 22
0.0
 32
0.0
 13
1.0
 23
0.0
 33
0.0
 40
0.0
 40
0.0
 40
0.0
 40
0.0
 40
1.0
 40
1.0
 40
1.0
 40
2.0
 40
2.0
 40
2.0
 40
3.0
 40
3.0
 40
3.0
 40
4.0
 40
4.0
 40
4.0
 40
5.0
 40
5.0
 40
5.0
 40
6.0
 40
6.0
 40
6.0
 40
7.0
 40
7.0
 40
7.0
 40
8.0
 40
8.0
 40
8.0
 40
8.0
 10
100.6863606519117
 20
-129.8177435656359
 30
0.0
 10
100.399728707539
 20
-129.8177435656359
 30
0.0
 10
100.1261881260101
 20
-129.6689154406731
 30
0.0
 10
100.1261881260101
 20
-129.2916774850382
 30
0.0
 10
100.1261881260101
 20
-129.0146918080241
 30
0.0
 10
100.2791503655552
 20
-128.9116834530151
 30
0.0
 10
100.3928385165685
 20
-128.8451931101498
 30
0.0
 10
100.2584797926437
 20
-128.7811143341242
 30
0.0
 10
100.1764865200948
 20
-128.6577799157522
 30
0.0
 10
100.1764865200948
 20
-128.4839748485214
 30
0.0
 10
100.1764865200948
 20
-128.1864908533701
 30
0.0
 10
100.3904269497288
 20
-128.0400742952469
 30
0.0
 10
100.6863606519117
 20
-128.0400742952469
 30
0.0
 10
100.9915961119049
 20
-128.0400742952469
 30
0.0
 10
101.1965792932773
 20
-128.195620356406
 30
0.0
 10
101.1965792932773
 20
-128.4839748485214
 30
0.0
 10
101.1965792932773
 20
-128.6577799157522
 30
0.0
 10
101.1121744538886
 20
-128.7811143341242
 30
0.0
 10
100.9778157299639
 20
-128.8451931101498
 30
0.0
 10
101.0735893844538
 20
-128.9003146379138
 30
0.0
 10
101.2444661205222
 20
-129.0033229929228
 30
0.0
 10
101.2444661205222
 20
-129.2868543513588
 30
0.0
 10
101.2444661205222
 20
-129.6919975804242
 30
0.0
 10
100.9440537942084
 20
-129.8177435656359
 30
0.0
 10
100.6863606519117
 20
-129.8177435656359
 30
0.0
  0
SPLINE
  5
109
330
FA
100
AcDbEntity
  8
_U+30EC_U+30A4_U+30E4_U+30FC 1
370
     0
100
AcDbSpline
210
0.0
220
0.0
230
1.0
 70
    11
 71
     3
 72
    17
 73
    13
 74
     0
 42
0.0000000001
 43
0.0000000001
 12
1.0
 22
0.0
 32
0.0
 13
1.0
 23
0.0
 33
0.0
 40
0.0
 40
0.0
 40
0.0
 40
0.0
 40
1.0
 40
1.0
 40
1.0
 40
2.0
 40
2.0
 40
2.0
 40
3.0
 40
3.0
 40
3.0
 40
4.0
 40
4.0
 40
4.0
 40
4.0
 10
100.6863606519117
 20
-128.9623263566483
 30
0.0
 10
100.531675864624
 20
-128.9623263566483
 30
0.0
 10
100.3676893195261
 20
-129.0560329538471
 30
0.0
 10
100.3676893195261
 20
-129.2754855362575
 30
0.0
 10
100.3676893195261
 20
-129.4973496855076
 30
0.0
 10
100.5044596102906
 20
-129.6072482314871
 30
0.0
 10
100.6863606519117
 20
-129.6072482314871
 30
0.0
 10
100.8868652091533
 20
-129.6072482314871
 30
0.0
 10
101.0053764938459
 20
-129.474612055305
 30
0.0
 10
101.0053764938459
 20
-129.282375727228
 30
0.0
 10
101.0053764938459
 20
-129.0422525719061
 30
0.0
 10
100.8300211336467
 20
-128.9623263566483
 30
0.0
 10
100.6863606519117
 20
-128.9623263566483
 30
0.0
  0
SPLINE
  5
10A
330
FA
100
AcDbEntity
  8
_U+30EC_U+30A4_U+30E4_U+30FC 1
370
     0
100
AcDbSpline
210
0.0
220
0.0
230
1.0
 70
    11
 71
     3
 72
    17
 73
    13
 74
     0
 42
0.0000000001
 43
0.0000000001
 12
1.0
 22
0.0
 32
0.0
 13
1.0
 23
0.0
 33
0.0
 40
0.0
 40
0.0
 40
0.0
 40
0.0
 40
1.0
 40
1.0
 40
1.0
 40
2.0
 40
2.0
 40
2.0
 40
3.0
 40
3.0
 40
3.0
 40
4.0
 40
4.0
 40
4.0
 40
4.0
 10
100.6863606519117
 20
-128.2483303173303
 30
0.0
 10
100.5089382344214
 20
-128.2483303173303
 30
0.0
 10
100.4176432040623
 20
-128.351166417565
 30
0.0
 10
100.4176432040623
 20
-128.4975829756881
 30
0.0
 10
100.4176432040623
 20
-128.6303914066445
 30
0.0
 10
100.4951578524804
 20
-128.7585489586958
 30
0.0
 10
100.6863606519117
 20
-128.7585489586958
 30
0.0
 10
100.8779079608916
 20
-128.7585489586958
 30
0.0
 10
100.9550780997612
 20
-128.6303914066445
 30
0.0
 10
100.9550780997612
 20
-128.4975829756881
 30
0.0
 10
100.9550780997612
 20
-128.351166417565
 30
0.0
 10
100.8620605216595
 20
-128.2483303173303
 30
0.0
 10
100.6863606519117
 20
-128.2483303173303
 30
0.0
  0
HATCH
  5
10B
330
FA
100
AcDbEntity
  8
_U+30EC_U+30A4_U+30E4_U+30FC 1
 62
   179
420
  2234388
100
AcDbHatch
 10
0.0
 20
0.0
 30
0.0
210
0.0
220
0.0
230
1.0
  2
SOLID
 70
     1
 71
     0
 91
        3
 92
        1
 93
        1
 72
     4
 94
        3
 73
     0
 74
     1
 95
       29
 96
       25
 40
0.0
 40
0.0
 40
0.0
 40
0.0
 40
1.0
 40
1.0
 40
1.0
 40
2.0
 40
2.0
 40
2.0
 40
3.0
 40
3.0
 40
3.0
 40
4.0
 40
4.0
 40
4.0
 40
5.0
 40
5.0
 40
5.0
 40
6.0
 40
6.0
 40
6.0
 40
7.0
 40
7.0
 40
7.0
 40
8.0
 40
8.0
 40
8.0
 40
8.0
 10
100.6863606519117
 20
-129.8177435656359
 10
100.399728707539
 20
-129.8177435656359
 10
100.1261881260101
 20
-129.6689154406731
 10
100.1261881260101
 20
-129.2916774850382
 10
100.1261881260101
 20
-129.0146918080241
 10
100.2791503655552
 20
-128.9116834530151
 10
100.3928385165685
 20
-128.8451931101498
 10
100.2584797926437
 20
-128.7811143341242
 10
100.1764865200948
 20
-128.6577799157522
 10
100.1764865200948
 20
-128.4839748485214
 10
100.1764865200948
 20
-128.1864908533701
 10
100.3904269497288
 20
-128.0400742952469
 10
100.6863606519117
 20
-128.0400742952469
 10
100.9915961119049
 20
-128.0400742952469
 10
101.1965792932773
 20
-128.195620356406
 10
101.1965792932773
 20
-128.4839748485214
 10
101.1965792932773
 20
-128.6577799157522
 10
101.1121744538886
 20
-128.7811143341242
 10
100.9778157299639
 20
-128.8451931101498
 10
101.0735893844538
 20
-128.9003146379138
 10
101.2444661205222
 20
-129.0033229929228
 10
101.2444661205222
 20
-129.2868543513588
 10
101.2444661205222
 20
-129.6919975804242
 10
100.9440537942084
 20
-129.8177435656359
 10
100.6863606519117
 20
-129.8177435656359
 97
        0
 97
        0
 92
        1
 93
        1
 72
     4
 94
        3
 73
     0
 74
     1
 95
       17
 96
       13
 40
0.0
 40
0.0
 40
0.0
 40
0.0
 40
1.0
 40
1.0
 40
1.0
 40
2.0
 40
2.0
 40
2.0
 40
3.0
 40
3.0
 40
3.0
 40
4.0
 40
4.0
 40
4.0
 40
4.0
 10
100.6863606519117
 20
-128.9623263566483
 10
100.531675864624
 20
-128.9623263566483
 10
100.3676893195261
 20
-129.0560329538471
 10
100.3676893195261
 20
-129.2754855362575
 10
100.3676893195261
 20
-129.4973496855076
 10
100.5044596102906
 20
-129.6072482314871
 10
100.6863606519117
 20
-129.6072482314871
 10
100.8868652091533
 20
-129.6072482314871
 10
101.0053764938459
 20
-129.474612055305
 10
101.0053764938459
 20
-129.282375727228
 10
101.0053764938459
 20
-129.0422525719061
 10
100.8300211336467
 20
-128.9623263566483
 10
100.6863606519117
 20
-128.9623263566483
 97
        0
 97
        0
 92
        1
 93
        1
 72
     4
 94
        3
 73
     0
 74
     1
 95
       17
 96
       13
 40
0.0
 40
0.0
 40
0.0
 40
0.0
 40
1.0
 40
1.0
 40
1.0
 40
2.0
 40
2.0
 40
2.0
 40
3.0
 40
3.0
 40
3.0
 40
4.0
 40
4.0
 40
4.0
 40
4.0
 10
100.6863606519117
 20
-128.2483303173303
 10
100.5089382344214
 20
-128.2483303173303
 10
100.4176432040623
 20
-128.351166417565
 10
100.4176432040623
 20
-128.4975829756881
 10
100.4176432040623
 20
-128.6303914066445
 10
100.4951578524804
 20
-128.7585489586958
 10
100.6863606519117
 20
-128.7585489586958
 10
100.8779079608916
 20
-128.7585489586958
 10
100.9550780997612
 20
-128.6303914066445
 10
100.9550780997612
 20
-128.4975829756881
 10
100.9550780997612
 20
-128.351166417565
 10
100.8620605216595
 20
-128.2483303173303
 10
100.6863606519117
 20
-128.2483303173303
 97
        0
 97
        0
 75
     2
 76
     1
 98
        0
  0
ENDBLK
  5
FD
330
FA
100
AcDbEntity
  8
0
100
AcDbBlockEnd
  0
BLOCK
  5
11A
330
118
100
AcDbEntity
  8
0
100
AcDbBlockBegin
  2
block 5
 70
     0
 10
0.0
 20
0.0
 30
0.0
  3
block 5
  1

  0
SPLINE
  5
11C
330
118
100
AcDbEntity
  8
_U+30EC_U+30A4_U+30E4_U+30FC 1
370
     0
100
AcDbSpline
210
0.0
220
0.0
230
1.0
 70
    11
 71
     3
 72
    26
 73
    22
 74
     0
 42
0.0000000001
 43
0.0000000001
 12
1.0
 22
0.0
 32
0.0
 13
1.0
 23
0.0
 33
0.0
 40
0.0
 40
0.0
 40
0.0
 40
0.0
 40
1.0
 40
1.0
 40
1.0
 40
2.0
 40
2.0
 40
2.0
 40
3.0
 40
3.0
 40
3.0
 40
4.0
 40
4.0
 40
4.0
 40
5.0
 40
5.0
 40
5.0
 40
6.0
 40
6.0
 40
6.0
 40
7.0
 40
7.0
 40
7.0
 40
7.0
 10
106.956778944615
 20
-139.5270561717155
 30
0.0
 10
106.956778944615
 20
-139.5270561717155
 30
0.0
 10
105.7623643398789
 20
-139.5270561717155
 30
0.0
 10
105.7623643398789
 20
-139.5270561717155
 30
0.0
 10
105.7623643398789
 20
-139.5270561717155
 30
0.0
 10
105.7623643398789
 20
-139.9080837323841
 30
0.0
 10
105.7623643398789
 20
-139.9080837323841
 30
0.0
 10
105.7623643398789
 20
-139.9080837323841
 30
0.0
 10
105.6025119093633
 20
-139.9080837323841
 30
0.0
 10
105.6025119093633
 20
-139.9080837323841
 30
0.0
 10
105.5866644701311
 20
-139.5246446048758
 30
0.0
 10
105.4102755812863
 20
-139.4709011153059
 30
0.0
 10
105.2869411629144
 20
-139.4367946700019
 30
0.0
 10
105.2869411629144
 20
-139.4367946700019
 30
0.0
 10
105.2869411629144
 20
-139.2679849912247
 30
0.0
 10
105.2869411629144
 20
-139.2679849912247
 30
0.0
 10
105.2869411629144
 20
-139.2679849912247
 30
0.0
 10
106.956778944615
 20
-139.2679849912247
 30
0.0
 10
106.956778944615
 20
-139.2679849912247
 30
0.0
 10
106.956778944615
 20
-139.2679849912247
 30
0.0
 10
106.956778944615
 20
-139.5270561717155
 30
0.0
 10
106.956778944615
 20
-139.5270561717155
 30
0.0
  0
HATCH
  5
11D
330
118
100
AcDbEntity
  8
_U+30EC_U+30A4_U+30E4_U+30FC 1
 62
   179
420
  2234388
100
AcDbHatch
 10
0.0
 20
0.0
 30
0.0
210
0.0
220
0.0
230
1.0
  2
SOLID
 70
     1
 71
     0
 91
        1
 92
        1
 93
        1
 72
     4
 94
        3
 73
     0
 74
     1
 95
       26
 96
       22
 40
0.0
 40
0.0
 40
0.0
 40
0.0
 40
1.0
 40
1.0
 40
1.0
 40
2.0
 40
2.0
 40
2.0
 40
3.0
 40
3.0
 40
3.0
 40
4.0
 40
4.0
 40
4.0
 40
5.0
 40
5.0
 40
5.0
 40
6.0
 40
6.0
 40
6.0
 40
7.0
 40
7.0
 40
7.0
 40
7.0
 10
106.956778944615
 20
-139.5270561717155
 10
106.956778944615
 20
-139.5270561717155
 10
105.7623643398789
 20
-139.5270561717155
 10
105.7623643398789
 20
-139.5270561717155
 10
105.7623643398789
 20
-139.5270561717155
 10
105.7623643398789
 20
-139.9080837323841
 10
105.7623643398789
 20
-139.9080837323841
 10
105.7623643398789
 20
-139.9080837323841
 10
105.6025119093633
 20
-139.9080837323841
 10
105.6025119093633
 20
-139.9080837323841
 10
105.5866644701311
 20
-139.5246446048758
 10
105.4102755812863
 20
-139.4709011153059
 10
105.2869411629144
 20
-139.4367946700019
 10
105.2869411629144
 20
-139.4367946700019
 10
105.2869411629144
 20
-139.2679849912247
 10
105.2869411629144
 20
-139.2679849912247
 10
105.2869411629144
 20
-139.2679849912247
 10
106.956778944615
 20
-139.2679849912247
 10
106.956778944615
 20
-139.2679849912247
 10
106.956778944615
 20
-139.2679849912247
 10
106.956778944615
 20
-139.5270561717155
 10
106.956778944615
 20
-139.5270561717155
 97
        0
 97
        0
 75
     2
 76
     1
 98
        0
  0
SPLINE
  5
11E
330
118
100
AcDbEntity
  8
_U+30EC_U+30A4_U+30E4_U+30FC 1
370
     0
100
AcDbSpline
210
0.0
220
0.0
230
1.0
 70
    11
 71
     3
 72
    53
 73
    49
 74
     0
 42
0.0000000001
 43
0.0000000001
 12
1.0
 22
0.0
 32
0.0
 13
1.0
 23
0.0
 33
0.0
 40
0.0
 40
0.0
 40
0.0
 40
0.0
 40
1.0
 40
1.0
 40
1.0
 40
2.0
 40
2.0
 40
2.0
 40
3.0
 40
3.0
 40
3.0
 40
4.0
 40
4.0
 40
4.0
 40
5.0
 40
5.0
 40
5.0
 40
6.0
 40
6.0
 40
6.0
 40
7.0
 40
7.0
 40
7.0
 40
8.0
 40
8.0
 40
8.0
 40
9.0
 40
9.0
 40
9.0
 40
10.0
 40
10.0
 40
10.0
 40
11.0
 40
11.0
 40
11.0
 40
12.0
 40
12.0
 40
12.0
 40
13.0
 40
13.0
 40
13.0
 40
14.0
 40
14.0
 40
14.0
 40
15.0
 40
15.0
 40
15.0
 40
16.0
 40
16.0
 40
16.0
 40
16.0
 10
107.0115559628304
 20
-138.1345485765775
 30
0.0
 10
107.0115559628304
 20
-138.224810078291
 30
0.0
 10
106.9936414663072
 20
-138.342287834338
 30
0.0
 10
106.9247395566021
 20
-138.4594210808365
 30
0.0
 10
106.8055392528125
 20
-138.6599256380781
 30
0.0
 10
106.6639458283687
 20
-138.6843858160234
 30
0.0
 10
106.5471570914188
 20
-138.706434427129
 30
0.0
 10
106.5471570914188
 20
-138.706434427129
 30
0.0
 10
106.5471570914188
 20
-138.4497748134778
 30
0.0
 10
106.5471570914188
 20
-138.4497748134778
 30
0.0
 10
106.7621310496984
 20
-138.3860405470007
 30
0.0
 10
106.7945149472597
 20
-138.2396239888776
 30
0.0
 10
106.7945149472597
 20
-138.1317925001893
 30
0.0
 10
106.7945149472597
 20
-137.9705620314796
 30
0.0
 10
106.6870279681199
 20
-137.7948621617319
 30
0.0
 10
106.4351914881481
 20
-137.7948621617319
 30
0.0
 10
106.1585503206826
 20
-137.7948621617319
 30
0.0
 10
106.0827582200071
 20
-138.0022569099439
 30
0.0
 10
106.0827582200071
 20
-138.1417832770965
 30
0.0
 10
106.0827582200071
 20
-138.1786457987887
 30
0.0
 10
106.0827582200071
 20
-138.342287834338
 30
0.0
 10
106.2226290967082
 20
-138.44460717025
 30
0.0
 10
106.2226290967082
 20
-138.44460717025
 30
0.0
 10
106.2019585237967
 20
-138.6478678038797
 30
0.0
 10
106.2019585237967
 20
-138.6478678038797
 30
0.0
 10
106.2019585237967
 20
-138.6478678038797
 30
0.0
 10
105.2869411629144
 20
-138.5083414367271
 30
0.0
 10
105.2869411629144
 20
-138.5083414367271
 30
0.0
 10
105.2869411629144
 20
-138.5083414367271
 30
0.0
 10
105.2869411629144
 20
-137.6088270055284
 30
0.0
 10
105.2869411629144
 20
-137.6088270055284
 30
0.0
 10
105.2869411629144
 20
-137.6088270055284
 30
0.0
 10
105.4970919875146
 20
-137.6088270055284
 30
0.0
 10
105.4970919875146
 20
-137.6088270055284
 30
0.0
 10
105.4970919875146
 20
-137.6088270055284
 30
0.0
 10
105.4970919875146
 20
-138.3202392232324
 30
0.0
 10
105.4970919875146
 20
-138.3202392232324
 30
0.0
 10
105.4970919875146
 20
-138.3202392232324
 30
0.0
 10
105.9546006679558
 20
-138.3960313239079
 30
0.0
 10
105.9546006679558
 20
-138.3960313239079
 30
0.0
 10
105.9180826558122
 20
-138.3250623569118
 30
0.0
 10
105.874674452698
 20
-138.2296332119704
 30
0.0
 10
105.874674452698
 20
-138.0928629212059
 30
0.0
 10
105.874674452698
 20
-137.7996852954112
 30
0.0
 10
106.0758680290366
 20
-137.5261447138824
 30
0.0
 10
106.4145209152367
 20
-137.5261447138824
 30
0.0
 10
106.7579969351161
 20
-137.5261447138824
 30
0.0
 10
107.0115559628304
 20
-137.7852158943732
 30
0.0
 10
107.0115559628304
 20
-138.1345485765775
 30
0.0
  0
HATCH
  5
11F
330
118
100
AcDbEntity
  8
_U+30EC_U+30A4_U+30E4_U+30FC 1
 62
   179
420
  2234388
100
AcDbHatch
 10
0.0
 20
0.0
 30
0.0
210
0.0
220
0.0
230
1.0
  2
SOLID
 70
     1
 71
     0
 91
        1
 92
        1
 93
        1
 72
     4
 94
        3
 73
     0
 74
     1
 95
       53
 96
       49
 40
0.0
 40
0.0
 40
0.0
 40
0.0
 40
1.0
 40
1.0
 40
1.0
 40
2.0
 40
2.0
 40
2.0
 40
3.0
 40
3.0
 40
3.0
 40
4.0
 40
4.0
 40
4.0
 40
5.0
 40
5.0
 40
5.0
 40
6.0
 40
6.0
 40
6.0
 40
7.0
 40
7.0
 40
7.0
 40
8.0
 40
8.0
 40
8.0
 40
9.0
 40
9.0
 40
9.0
 40
10.0
 40
10.0
 40
10.0
 40
11.0
 40
11.0
 40
11.0
 40
12.0
 40
12.0
 40
12.0
 40
13.0
 40
13.0
 40
13.0
 40
14.0
 40
14.0
 40
14.0
 40
15.0
 40
15.0
 40
15.0
 40
16.0
 40
16.0
 40
16.0
 40
16.0
 10
107.0115559628304
 20
-138.1345485765775
 10
107.0115559628304
 20
-138.224810078291
 10
106.9936414663072
 20
-138.342287834338
 10
106.9247395566021
 20
-138.4594210808365
 10
106.8055392528125
 20
-138.6599256380781
 10
106.6639458283687
 20
-138.6843858160234
 10
106.5471570914188
 20
-138.706434427129
 10
106.5471570914188
 20
-138.706434427129
 10
106.5471570914188
 20
-138.4497748134778
 10
106.5471570914188
 20
-138.4497748134778
 10
106.7621310496984
 20
-138.3860405470007
 10
106.7945149472597
 20
-138.2396239888776
 10
106.7945149472597
 20
-138.1317925001893
 10
106.7945149472597
 20
-137.9705620314796
 10
106.6870279681199
 20
-137.7948621617319
 10
106.4351914881481
 20
-137.7948621617319
 10
106.1585503206826
 20
-137.7948621617319
 10
106.0827582200071
 20
-138.0022569099439
 10
106.0827582200071
 20
-138.1417832770965
 10
106.0827582200071
 20
-138.1786457987887
 10
106.0827582200071
 20
-138.342287834338
 10
106.2226290967082
 20
-138.44460717025
 10
106.2226290967082
 20
-138.44460717025
 10
106.2019585237967
 20
-138.6478678038797
 10
106.2019585237967
 20
-138.6478678038797
 10
106.2019585237967
 20
-138.6478678038797
 10
105.2869411629144
 20
-138.5083414367271
 10
105.2869411629144
 20
-138.5083414367271
 10
105.2869411629144
 20
-138.5083414367271
 10
105.2869411629144
 20
-137.6088270055284
 10
105.2869411629144
 20
-137.6088270055284
 10
105.2869411629144
 20
-137.6088270055284
 10
105.4970919875146
 20
-137.6088270055284
 10
105.4970919875146
 20
-137.6088270055284
 10
105.4970919875146
 20
-137.6088270055284
 10
105.4970919875146
 20
-138.3202392232324
 10
105.4970919875146
 20
-138.3202392232324
 10
105.4970919875146
 20
-138.3202392232324
 10
105.9546006679558
 20
-138.3960313239079
 10
105.9546006679558
 20
-138.3960313239079
 10
105.9180826558122
 20
-138.3250623569118
 10
105.874674452698
 20
-138.2296332119704
 10
105.874674452698
 20
-138.0928629212059
 10
105.874674452698
 20
-137.7996852954112
 10
106.0758680290366
 20
-137.5261447138824
 10
106.4145209152367
 20
-137.5261447138824
 10
106.7579969351161
 20
-137.5261447138824
 10
107.0115559628304
 20
-137.7852158943732
 10
107.0115559628304
 20
-138.1345485765775
 97
        0
 97
        0
 75
     2
 76
     1
 98
        0
  0
ENDBLK
  5
11B
330
118
100
AcDbEntity
  8
0
100
AcDbBlockEnd
  0
BLOCK
  5
132
330
130
100
AcDbEntity
  8
0
100
AcDbBlockBegin
  2
block 6
 70
     0
 10
0.0
 20
0.0
 30
0.0
  3
block 6
  1

  0
SPLINE
  5
134
330
130
100
AcDbEntity
  8
_U+30EC_U+30A4_U+30E4_U+30FC 1
370
     0
100
AcDbSpline
210
0.0
220
0.0
230
1.0
 70
    11
 71
     3
 72
    62
 73
    58
 74
     0
 42
0.0000000001
 43
0.0000000001
 12
1.0
 22
0.0
 32
0.0
 13
1.0
 23
0.0
 33
0.0
 40
0.0
 40
0.0
 40
0.0
 40
0.0
 40
1.0
 40
1.0
 40
1.0
 40
2.0
 40
2.0
 40
2.0
 40
3.0
 40
3.0
 40
3.0
 40
4.0
 40
4.0
 40
4.0
 40
5.0
 40
5.0
 40
5.0
 40
6.0
 40
6.0
 40
6.0
 40
7.0
 40
7.0
 40
7.0
 40
8.0
 40
8.0
 40
8.0
 40
9.0
 40
9.0
 40
9.0
 40
10.0
 40
10.0
 40
10.0
 40
11.0
 40
11.0
 40
11.0
 40
12.0
 40
12.0
 40
12.0
 40
13.0
 40
13.0
 40
13.0
 40
14.0
 40
14.0
 40
14.0
 40
15.0
 40
15.0
 40
15.0
 40
16.0
 40
16.0
 40
16.0
 40
17.0
 40
17.0
 40
17.0
 40
18.0
 40
18.0
 40
18.0
 40
19.0
 40
19.0
 40
19.0
 40
19.0
 10
79.72691648397452
 20
-140.2188313451536
 30
0.0
 10
79.72691648397452
 20
-140.3214951906141
 30
0.0
 10
79.70400659899761
 20
-140.5557616836111
 30
0.0
 10
79.50264076788476
 20
-140.6901204075358
 30
0.0
 10
79.38137340680396
 20
-140.7700466227936
 30
0.0
 10
79.27388642766417
 20
-140.7745252469244
 30
0.0
 10
79.18241914253079
 20
-140.7790038710553
 30
0.0
 10
79.18241914253079
 20
-140.7790038710553
 30
0.0
 10
79.18241914253079
 20
-140.5423258112186
 30
0.0
 10
79.18241914253079
 20
-140.5423258112186
 30
0.0
 10
79.26251761256285
 20
-140.5399142443789
 30
0.0
 10
79.51642114982576
 20
-140.5288899388261
 30
0.0
 10
79.51642114982576
 20
-140.223654478833
 30
0.0
 10
79.51642114982576
 20
-140.0755153729672
 30
0.0
 10
79.44097355869879
 20
-139.9115288278693
 30
0.0
 10
79.19378795763211
 20
-139.9115288278693
 30
0.0
 10
79.06804197242049
 20
-139.9115288278693
 30
0.0
 10
79.01533201149617
 20
-139.9525254641438
 30
0.0
 10
78.98105331141794
 20
-139.9866319094478
 30
0.0
 10
78.90095484138588
 20
-140.0665581247056
 30
0.0
 10
78.88734671421913
 20
-140.1916150908202
 30
0.0
 10
78.88734671421913
 20
-140.2508707331665
 30
0.0
 10
78.88734671421913
 20
-140.2711967965294
 30
0.0
 10
78.88958602628455
 20
-140.3101263755128
 30
0.0
 10
78.89406465041537
 20
-140.3397541966859
 30
0.0
 10
78.89406465041537
 20
-140.3397541966859
 30
0.0
 10
78.68374157104087
 20
-140.3397541966859
 30
0.0
 10
78.68374157104087
 20
-140.3397541966859
 30
0.0
 10
78.69045950723711
 20
-140.2987575604114
 30
0.0
 10
78.69287107407679
 20
-140.2532823000061
 30
0.0
 10
78.69287107407679
 20
-140.2463921090356
 30
0.0
 10
78.69287107407679
 20
-140.175767651588
 30
0.0
 10
78.66996118909988
 20
-139.961827221954
 30
0.0
 10
78.41364608499728
 20
-139.961827221954
 30
0.0
 10
78.22158201169461
 20
-139.961827221954
 30
0.0
 10
78.16198185979978
 20
-140.1030761368492
 30
0.0
 10
78.16198185979978
 20
-140.2212429119933
 30
0.0
 10
78.16198185979978
 20
-140.5061523086235
 30
0.0
 10
78.41364608499728
 20
-140.5151095568851
 30
0.0
 10
78.49150524296394
 20
-140.5195881810159
 30
0.0
 10
78.49150524296394
 20
-140.5195881810159
 30
0.0
 10
78.49150524296394
 20
-140.7383517443293
 30
0.0
 10
78.49150524296394
 20
-140.7383517443293
 30
0.0
 10
78.35645749994214
 20
-140.7290499865191
 30
0.0
 10
77.94924721358561
 20
-140.699422165346
 30
0.0
 10
77.94924721358561
 20
-140.2078070396008
 30
0.0
 10
77.94924721358561
 20
-139.9663058460848
 30
0.0
 10
78.08653426867282
 20
-139.7068901560455
 30
0.0
 10
78.40675589402679
 20
-139.7068901560455
 30
0.0
 10
78.60812172513964
 20
-139.7068901560455
 30
0.0
 10
78.69734969820762
 20
-139.8092094919574
 30
0.0
 10
78.76366778629867
 20
-139.9163519615487
 30
0.0
 10
78.79346786224608
 20
-139.8502061282319
 30
0.0
 10
78.88045652324864
 20
-139.6545247046697
 30
0.0
 10
79.18017983046538
 20
-139.6545247046697
 30
0.0
 10
79.54622122577317
 20
-139.6545247046697
 30
0.0
 10
79.72691648397452
 20
-139.920486076131
 30
0.0
 10
79.72691648397452
 20
-140.2188313451536
 30
0.0
  0
HATCH
  5
135
330
130
100
AcDbEntity
  8
_U+30EC_U+30A4_U+30E4_U+30FC 1
 62
   179
420
  2234388
100
AcDbHatch
 10
0.0
 20
0.0
 30
0.0
210
0.0
220
0.0
230
1.0
  2
SOLID
 70
     1
 71
     0
 91
        1
 92
        1
 93
        1
 72
     4
 94
        3
 73
     0
 74
     1
 95
       62
 96
       58
 40
0.0
 40
0.0
 40
0.0
 40
0.0
 40
1.0
 40
1.0
 40
1.0
 40
2.0
 40
2.0
 40
2.0
 40
3.0
 40
3.0
 40
3.0
 40
4.0
 40
4.0
 40
4.0
 40
5.0
 40
5.0
 40
5.0
 40
6.0
 40
6.0
 40
6.0
 40
7.0
 40
7.0
 40
7.0
 40
8.0
 40
8.0
 40
8.0
 40
9.0
 40
9.0
 40
9.0
 40
10.0
 40
10.0
 40
10.0
 40
11.0
 40
11.0
 40
11.0
 40
12.0
 40
12.0
 40
12.0
 40
13.0
 40
13.0
 40
13.0
 40
14.0
 40
14.0
 40
14.0
 40
15.0
 40
15.0
 40
15.0
 40
16.0
 40
16.0
 40
16.0
 40
17.0
 40
17.0
 40
17.0
 40
18.0
 40
18.0
 40
18.0
 40
19.0
 40
19.0
 40
19.0
 40
19.0
 10
79.72691648397452
 20
-140.2188313451536
 10
79.72691648397452
 20
-140.3214951906141
 10
79.70400659899761
 20
-140.5557616836111
 10
79.50264076788476
 20
-140.6901204075358
 10
79.38137340680396
 20
-140.7700466227936
 10
79.27388642766417
 20
-140.7745252469244
 10
79.18241914253079
 20
-140.7790038710553
 10
79.18241914253079
 20
-140.7790038710553
 10
79.18241914253079
 20
-140.5423258112186
 10
79.18241914253079
 20
-140.5423258112186
 10
79.26251761256285
 20
-140.5399142443789
 10
79.51642114982576
 20
-140.5288899388261
 10
79.51642114982576
 20
-140.223654478833
 10
79.51642114982576
 20
-140.0755153729672
 10
79.44097355869879
 20
-139.9115288278693
 10
79.19378795763211
 20
-139.9115288278693
 10
79.06804197242049
 20
-139.9115288278693
 10
79.01533201149617
 20
-139.9525254641438
 10
78.98105331141794
 20
-139.9866319094478
 10
78.90095484138588
 20
-140.0665581247056
 10
78.88734671421913
 20
-140.1916150908202
 10
78.88734671421913
 20
-140.2508707331665
 10
78.88734671421913
 20
-140.2711967965294
 10
78.88958602628455
 20
-140.3101263755128
 10
78.89406465041537
 20
-140.3397541966859
 10
78.89406465041537
 20
-140.3397541966859
 10
78.68374157104087
 20
-140.3397541966859
 10
78.68374157104087
 20
-140.3397541966859
 10
78.69045950723711
 20
-140.2987575604114
 10
78.69287107407679
 20
-140.2532823000061
 10
78.69287107407679
 20
-140.2463921090356
 10
78.69287107407679
 20
-140.175767651588
 10
78.66996118909988
 20
-139.961827221954
 10
78.41364608499728
 20
-139.961827221954
 10
78.22158201169461
 20
-139.961827221954
 10
78.16198185979978
 20
-140.1030761368492
 10
78.16198185979978
 20
-140.2212429119933
 10
78.16198185979978
 20
-140.5061523086235
 10
78.41364608499728
 20
-140.5151095568851
 10
78.49150524296394
 20
-140.5195881810159
 10
78.49150524296394
 20
-140.5195881810159
 10
78.49150524296394
 20
-140.7383517443293
 10
78.49150524296394
 20
-140.7383517443293
 10
78.35645749994214
 20
-140.7290499865191
 10
77.94924721358561
 20
-140.699422165346
 10
77.94924721358561
 20
-140.2078070396008
 10
77.94924721358561
 20
-139.9663058460848
 10
78.08653426867282
 20
-139.7068901560455
 10
78.40675589402679
 20
-139.7068901560455
 10
78.60812172513964
 20
-139.7068901560455
 10
78.69734969820762
 20
-139.8092094919574
 10
78.76366778629867
 20
-139.9163519615487
 10
78.79346786224608
 20
-139.8502061282319
 10
78.88045652324864
 20
-139.6545247046697
 10
79.18017983046538
 20
-139.6545247046697
 10
79.54622122577317
 20
-139.6545247046697
 10
79.72691648397452
 20
-139.920486076131
 10
79.72691648397452
 20
-140.2188313451536
 97
        0
 97
        0
 75
     2
 76
     1
 98
        0
  0
POLYLINE
  5
136
330
130
100
AcDbEntity
  8
_U+30EC_U+30A4_U+30E4_U+30FC 1
370
     0
100
AcDb2dPolyline
 66
     1
 10
0.0
 20
0.0
 30
0.0
  0
VERTEX
  5
137
330
136
100
AcDbEntity
  8
_U+30EC_U+30A4_U+30E4_U+30FC 1
370
     0
100
AcDbVertex
100
AcDb2dVertex
 10
79.67196721098479
 20
-139.4175021352845
 30
0.0
  0
VERTEX
  5
138
330
136
100
AcDbEntity
  8
_U+30EC_U+30A4_U+30E4_U+30FC 1
370
     0
100
AcDbVertex
100
AcDb2dVertex
 10
79.39980466765006
 20
-139.4175021352845
 30
0.0
  0
VERTEX
  5
139
330
136
100
AcDbEntity
  8
_U+30EC_U+30A4_U+30E4_U+30FC 1
370
     0
100
AcDbVertex
100
AcDb2dVertex
 10
79.39980466765006
 20
-139.1467176301439
 30
0.0
  0
VERTEX
  5
13A
330
136
100
AcDbEntity
  8
_U+30EC_U+30A4_U+30E4_U+30FC 1
370
     0
100
AcDbVertex
100
AcDb2dVertex
 10
79.67196721098479
 20
-139.1467176301439
 30
0.0
  0
VERTEX
  5
13B
330
136
100
AcDbEntity
  8
_U+30EC_U+30A4_U+30E4_U+30FC 1
370
     0
100
AcDbVertex
100
AcDb2dVertex
 10
79.67196721098479
 20
-139.4175021352845
 30
0.0
  0
SEQEND
  5
13C
330
136
100
AcDbEntity
  8
_U+30EC_U+30A4_U+30E4_U+30FC 1
370
     0
  0
HATCH
  5
13D
330
130
100
AcDbEntity
  8
_U+30EC_U+30A4_U+30E4_U+30FC 1
 62
   179
420
  2234388
100
AcDbHatch
 10
0.0
 20
0.0
 30
0.0
210
0.0
220
0.0
230
1.0
  2
SOLID
 70
     1
 71
     0
 91
        1
 92
        1
 93
        4
 72
     1
 10
79.67196721098479
 20
-139.4175021352845
 11
79.39980466765006
 21
-139.4175021352845
 72
     1
 10
79.39980466765006
 20
-139.4175021352845
 11
79.39980466765006
 21
-139.1467176301439
 72
     1
 10
79.39980466765006
 20
-139.1467176301439
 11
79.67196721098479
 21
-139.1467176301439
 72
     1
 10
79.67196721098479
 20
-139.1467176301439
 11
79.67196721098479
 21
-139.4175021352845
 97
        0
 75
     2
 76
     1
 98
        0
  0
SPLINE
  5
13E
330
130
100
AcDbEntity
  8
_U+30EC_U+30A4_U+30E4_U+30FC 1
370
     0
100
AcDbSpline
210
0.0
220
0.0
230
1.0
 70
    11
 71
     3
 72
    29
 73
    25
 74
     0
 42
0.0000000001
 43
0.0000000001
 12
1.0
 22
0.0
 32
0.0
 13
1.0
 23
0.0
 33
0.0
 40
0.0
 40
0.0
 40
0.0
 40
0.0
 40
1.0
 40
1.0
 40
1.0
 40
2.0
 40
2.0
 40
2.0
 40
3.0
 40
3.0
 40
3.0
 40
4.0
 40
4.0
 40
4.0
 40
5.0
 40
5.0
 40
5.0
 40
6.0
 40
6.0
 40
6.0
 40
7.0
 40
7.0
 40
7.0
 40
8.0
 40
8.0
 40
8.0
 40
8.0
 10
79.72691648397452
 20
-138.3540011589879
 30
0.0
 10
79.72691648397452
 20
-138.6409776129092
 30
0.0
 10
79.57808835901173
 20
-138.9141736848895
 30
0.0
 10
79.2006781486026
 20
-138.9141736848895
 30
0.0
 10
78.9238647263628
 20
-138.9141736848895
 30
0.0
 10
78.82085637135381
 20
-138.7615559548929
 30
0.0
 10
78.75453828326276
 20
-138.6478678038797
 30
0.0
 10
78.69045950723711
 20
-138.7822265278045
 30
0.0
 10
78.5669528340909
 20
-138.8642198003534
 30
0.0
 10
78.39314776686005
 20
-138.8642198003534
 30
0.0
 10
78.09566377170873
 20
-138.8642198003534
 30
0.0
 10
77.94924721358561
 20
-138.6499348611709
 30
0.0
 10
77.94924721358561
 20
-138.3540011589879
 30
0.0
 10
77.94924721358561
 20
-138.0491102085433
 30
0.0
 10
78.10479327474464
 20
-137.8437825176224
 30
0.0
 10
78.39314776686005
 20
-137.8437825176224
 30
0.0
 10
78.5669528340909
 20
-137.8437825176224
 30
0.0
 10
78.69045950723711
 20
-137.928187357011
 30
0.0
 10
78.75453828326276
 20
-138.0625460809358
 30
0.0
 10
78.80948755625249
 20
-137.9671169359943
 30
0.0
 10
78.91249591126146
 20
-137.7962401999259
 30
0.0
 10
79.19602726969752
 20
-137.7962401999259
 30
0.0
 10
79.60099824398864
 20
-137.7962401999259
 30
0.0
 10
79.72691648397452
 20
-138.0966525262397
 30
0.0
 10
79.72691648397452
 20
-138.3540011589879
 30
0.0
  0
SPLINE
  5
13F
330
130
100
AcDbEntity
  8
_U+30EC_U+30A4_U+30E4_U+30FC 1
370
     0
100
AcDbSpline
210
0.0
220
0.0
230
1.0
 70
    11
 71
     3
 72
    17
 73
    13
 74
     0
 42
0.0000000001
 43
0.0000000001
 12
1.0
 22
0.0
 32
0.0
 13
1.0
 23
0.0
 33
0.0
 40
0.0
 40
0.0
 40
0.0
 40
0.0
 40
1.0
 40
1.0
 40
1.0
 40
2.0
 40
2.0
 40
2.0
 40
3.0
 40
3.0
 40
3.0
 40
4.0
 40
4.0
 40
4.0
 40
4.0
 10
78.15750323566895
 20
-138.3540011589879
 30
0.0
 10
78.15750323566895
 20
-138.5314235764783
 30
0.0
 10
78.26033933590367
 20
-138.6227186068374
 30
0.0
 10
78.40675589402679
 20
-138.6227186068374
 30
0.0
 10
78.53956432498317
 20
-138.6227186068374
 30
0.0
 10
78.66772187703447
 20
-138.5452039584193
 30
0.0
 10
78.66772187703447
 20
-138.3540011589879
 30
0.0
 10
78.66772187703447
 20
-138.1627983595565
 30
0.0
 10
78.53956432498317
 20
-138.0852837111384
 30
0.0
 10
78.40675589402679
 20
-138.0852837111384
 30
0.0
 10
78.26033933590367
 20
-138.0852837111384
 30
0.0
 10
78.15750323566895
 20
-138.1786457987887
 30
0.0
 10
78.15750323566895
 20
-138.3540011589879
 30
0.0
  0
SPLINE
  5
140
330
130
100
AcDbEntity
  8
_U+30EC_U+30A4_U+30E4_U+30FC 1
370
     0
100
AcDbSpline
210
0.0
220
0.0
230
1.0
 70
    11
 71
     3
 72
    17
 73
    13
 74
     0
 42
0.0000000001
 43
0.0000000001
 12
1.0
 22
0.0
 32
0.0
 13
1.0
 23
0.0
 33
0.0
 40
0.0
 40
0.0
 40
0.0
 40
0.0
 40
1.0
 40
1.0
 40
1.0
 40
2.0
 40
2.0
 40
2.0
 40
3.0
 40
3.0
 40
3.0
 40
4.0
 40
4.0
 40
4.0
 40
4.0
 10
78.87132702021273
 20
-138.3540011589879
 30
0.0
 10
78.87132702021273
 20
-138.5086859462756
 30
0.0
 10
78.96503361741152
 20
-138.6726724913735
 30
0.0
 10
79.1846584545962
 20
-138.6726724913735
 30
0.0
 10
79.40652260384628
 20
-138.6726724913735
 30
0.0
 10
79.51642114982576
 20
-138.5362467101576
 30
0.0
 10
79.51642114982576
 20
-138.3540011589879
 30
0.0
 10
79.51642114982576
 20
-138.1538411112949
 30
0.0
 10
79.38378497364364
 20
-138.0353298266023
 30
0.0
 10
79.1915486455667
 20
-138.0353298266023
 30
0.0
 10
78.95125323547052
 20
-138.0353298266023
 30
0.0
 10
78.87132702021273
 20
-138.210340677253
 30
0.0
 10
78.87132702021273
 20
-138.3540011589879
 30
0.0
  0
HATCH
  5
141
330
130
100
AcDbEntity
  8
_U+30EC_U+30A4_U+30E4_U+30FC 1
 62
   179
420
  2234388
100
AcDbHatch
 10
0.0
 20
0.0
 30
0.0
210
0.0
220
0.0
230
1.0
  2
SOLID
 70
     1
 71
     0
 91
        3
 92
        1
 93
        1
 72
     4
 94
        3
 73
     0
 74
     1
 95
       29
 96
       25
 40
0.0
 40
0.0
 40
0.0
 40
0.0
 40
1.0
 40
1.0
 40
1.0
 40
2.0
 40
2.0
 40
2.0
 40
3.0
 40
3.0
 40
3.0
 40
4.0
 40
4.0
 40
4.0
 40
5.0
 40
5.0
 40
5.0
 40
6.0
 40
6.0
 40
6.0
 40
7.0
 40
7.0
 40
7.0
 40
8.0
 40
8.0
 40
8.0
 40
8.0
 10
79.72691648397452
 20
-138.3540011589879
 10
79.72691648397452
 20
-138.6409776129092
 10
79.57808835901173
 20
-138.9141736848895
 10
79.2006781486026
 20
-138.9141736848895
 10
78.9238647263628
 20
-138.9141736848895
 10
78.82085637135381
 20
-138.7615559548929
 10
78.75453828326276
 20
-138.6478678038797
 10
78.69045950723711
 20
-138.7822265278045
 10
78.5669528340909
 20
-138.8642198003534
 10
78.39314776686005
 20
-138.8642198003534
 10
78.09566377170873
 20
-138.8642198003534
 10
77.94924721358561
 20
-138.6499348611709
 10
77.94924721358561
 20
-138.3540011589879
 10
77.94924721358561
 20
-138.0491102085433
 10
78.10479327474464
 20
-137.8437825176224
 10
78.39314776686005
 20
-137.8437825176224
 10
78.5669528340909
 20
-137.8437825176224
 10
78.69045950723711
 20
-137.928187357011
 10
78.75453828326276
 20
-138.0625460809358
 10
78.80948755625249
 20
-137.9671169359943
 10
78.91249591126146
 20
-137.7962401999259
 10
79.19602726969752
 20
-137.7962401999259
 10
79.60099824398864
 20
-137.7962401999259
 10
79.72691648397452
 20
-138.0966525262397
 10
79.72691648397452
 20
-138.3540011589879
 97
        0
 97
        0
 92
        1
 93
        1
 72
     4
 94
        3
 73
     0
 74
     1
 95
       17
 96
       13
 40
0.0
 40
0.0
 40
0.0
 40
0.0
 40
1.0
 40
1.0
 40
1.0
 40
2.0
 40
2.0
 40
2.0
 40
3.0
 40
3.0
 40
3.0
 40
4.0
 40
4.0
 40
4.0
 40
4.0
 10
78.15750323566895
 20
-138.3540011589879
 10
78.15750323566895
 20
-138.5314235764783
 10
78.26033933590367
 20
-138.6227186068374
 10
78.40675589402679
 20
-138.6227186068374
 10
78.53956432498317
 20
-138.6227186068374
 10
78.66772187703447
 20
-138.5452039584193
 10
78.66772187703447
 20
-138.3540011589879
 10
78.66772187703447
 20
-138.1627983595565
 10
78.53956432498317
 20
-138.0852837111384
 10
78.40675589402679
 20
-138.0852837111384
 10
78.26033933590367
 20
-138.0852837111384
 10
78.15750323566895
 20
-138.1786457987887
 10
78.15750323566895
 20
-138.3540011589879
 97
        0
 97
        0
 92
        1
 93
        1
 72
     4
 94
        3
 73
     0
 74
     1
 95
       17
 96
       13
 40
0.0
 40
0.0
 40
0.0
 40
0.0
 40
1.0
 40
1.0
 40
1.0
 40
2.0
 40
2.0
 40
2.0
 40
3.0
 40
3.0
 40
3.0
 40
4.0
 40
4.0
 40
4.0
 40
4.0
 10
78.87132702021273
 20
-138.3540011589879
 10
78.87132702021273
 20
-138.5086859462756
 10
78.96503361741152
 20
-138.6726724913735
 10
79.1846584545962
 20
-138.6726724913735
 10
79.40652260384628
 20
-138.6726724913735
 10
79.51642114982576
 20
-138.5362467101576
 10
79.51642114982576
 20
-138.3540011589879
 10
79.51642114982576
 20
-138.1538411112949
 10
79.38378497364364
 20
-138.0353298266023
 10
79.1915486455667
 20
-138.0353298266023
 10
78.95125323547052
 20
-138.0353298266023
 10
78.87132702021273
 20
-138.210340677253
 10
78.87132702021273
 20
-138.3540011589879
 97
        0
 97
        0
 75
     2
 76
     1
 98
        0
  0
ENDBLK
  5
133
330
130
100
AcDbEntity
  8
0
100
AcDbBlockEnd
  0
BLOCK
  5
150
330
14E
100
AcDbEntity
  8
0
100
AcDbBlockBegin
  2
block 7
 70
     0
 10
0.0
 20
0.0
 30
0.0
  3
block 7
  1

  0
POLYLINE
  5
152
330
14E
100
AcDbEntity
  8
_U+30EC_U+30A4_U+30E4_U+30FC 1
370
     0
100
AcDb2dPolyline
 66
     1
 10
0.0
 20
0.0
 30
0.0
  0
VERTEX
  5
153
330
152
100
AcDbEntity
  8
_U+30EC_U+30A4_U+30E4_U+30FC 1
370
     0
100
AcDbVertex
100
AcDb2dVertex
 10
76.14418943408896
 20
-130.3372639648115
 30
0.0
  0
VERTEX
  5
154
330
152
100
AcDbEntity
  8
_U+30EC_U+30A4_U+30E4_U+30FC 1
370
     0
100
AcDbVertex
100
AcDb2dVertex
 10
76.51936033243267
 20
-130.3372639648115
 30
0.0
  0
VERTEX
  5
155
330
152
100
AcDbEntity
  8
_U+30EC_U+30A4_U+30E4_U+30FC 1
370
     0
100
AcDbVertex
100
AcDb2dVertex
 10
76.51936033243267
 20
-130.5891004447833
 30
0.0
  0
VERTEX
  5
156
330
152
100
AcDbEntity
  8
_U+30EC_U+30A4_U+30E4_U+30FC 1
370
     0
100
AcDbVertex
100
AcDb2dVertex
 10
76.14418943408896
 20
-130.5891004447833
 30
0.0
  0
VERTEX
  5
157
330
152
100
AcDbEntity
  8
_U+30EC_U+30A4_U+30E4_U+30FC 1
370
     0
100
AcDbVertex
100
AcDb2dVertex
 10
76.14418943408896
 20
-131.3466769419897
 30
0.0
  0
VERTEX
  5
158
330
152
100
AcDbEntity
  8
_U+30EC_U+30A4_U+30E4_U+30FC 1
370
     0
100
AcDbVertex
100
AcDb2dVertex
 10
75.90165471192736
 20
-131.3466769419897
 30
0.0
  0
VERTEX
  5
159
330
152
100
AcDbEntity
  8
_U+30EC_U+30A4_U+30E4_U+30FC 1
370
     0
100
AcDbVertex
100
AcDb2dVertex
 10
74.8493502959578
 20
-130.5622286999983
 30
0.0
  0
VERTEX
  5
15A
330
152
100
AcDbEntity
  8
_U+30EC_U+30A4_U+30E4_U+30FC 1
370
     0
100
AcDbVertex
100
AcDb2dVertex
 10
74.8493502959578
 20
-130.3372639648115
 30
0.0
  0
VERTEX
  5
15B
330
152
100
AcDbEntity
  8
_U+30EC_U+30A4_U+30E4_U+30FC 1
370
     0
100
AcDbVertex
100
AcDb2dVertex
 10
75.9290432210351
 20
-130.3372639648115
 30
0.0
  0
VERTEX
  5
15C
330
152
100
AcDbEntity
  8
_U+30EC_U+30A4_U+30E4_U+30FC 1
370
     0
100
AcDbVertex
100
AcDb2dVertex
 10
75.9290432210351
 20
-130.0978298285867
 30
0.0
  0
VERTEX
  5
15D
330
152
100
AcDbEntity
  8
_U+30EC_U+30A4_U+30E4_U+30FC 1
370
     0
100
AcDbVertex
100
AcDb2dVertex
 10
76.14418943408896
 20
-130.0978298285867
 30
0.0
  0
VERTEX
  5
15E
330
152
100
AcDbEntity
  8
_U+30EC_U+30A4_U+30E4_U+30FC 1
370
     0
100
AcDbVertex
100
AcDb2dVertex
 10
76.14418943408896
 20
-130.3372639648115
 30
0.0
  0
SEQEND
  5
15F
330
152
100
AcDbEntity
  8
_U+30EC_U+30A4_U+30E4_U+30FC 1
370
     0
  0
POLYLINE
  5
160
330
14E
100
AcDbEntity
  8
_U+30EC_U+30A4_U+30E4_U+30FC 1
370
     0
100
AcDb2dPolyline
 66
     1
 10
0.0
 20
0.0
 30
0.0
  0
VERTEX
  5
161
330
160
100
AcDbEntity
  8
_U+30EC_U+30A4_U+30E4_U+30FC 1
370
     0
100
AcDbVertex
100
AcDb2dVertex
 10
75.21987031539642
 20
-130.5891004447833
 30
0.0
  0
VERTEX
  5
162
330
160
100
AcDbEntity
  8
_U+30EC_U+30A4_U+30E4_U+30FC 1
370
     0
100
AcDbVertex
100
AcDb2dVertex
 10
75.9290432210351
 20
-131.1168890731236
 30
0.0
  0
VERTEX
  5
163
330
160
100
AcDbEntity
  8
_U+30EC_U+30A4_U+30E4_U+30FC 1
370
     0
100
AcDbVertex
100
AcDb2dVertex
 10
75.9290432210351
 20
-130.5891004447833
 30
0.0
  0
VERTEX
  5
164
330
160
100
AcDbEntity
  8
_U+30EC_U+30A4_U+30E4_U+30FC 1
370
     0
100
AcDbVertex
100
AcDb2dVertex
 10
75.21987031539642
 20
-130.5891004447833
 30
0.0
  0
SEQEND
  5
165
330
160
100
AcDbEntity
  8
_U+30EC_U+30A4_U+30E4_U+30FC 1
370
     0
  0
HATCH
  5
166
330
14E
100
AcDbEntity
  8
_U+30EC_U+30A4_U+30E4_U+30FC 1
 62
   179
420
  2234388
100
AcDbHatch
 10
0.0
 20
0.0
 30
0.0
210
0.0
220
0.0
230
1.0
  2
SOLID
 70
     1
 71
     0
 91
        2
 92
        1
 93
       11
 72
     1
 10
76.14418943408896
 20
-130.3372639648115
 11
76.51936033243267
 21
-130.3372639648115
 72
     1
 10
76.51936033243267
 20
-130.3372639648115
 11
76.51936033243267
 21
-130.5891004447833
 72
     1
 10
76.51936033243267
 20
-130.5891004447833
 11
76.14418943408896
 21
-130.5891004447833
 72
     1
 10
76.14418943408896
 20
-130.5891004447833
 11
76.14418943408896
 21
-131.3466769419897
 72
     1
 10
76.14418943408896
 20
-131.3466769419897
 11
75.90165471192736
 21
-131.3466769419897
 72
     1
 10
75.90165471192736
 20
-131.3466769419897
 11
74.8493502959578
 21
-130.5622286999983
 72
     1
 10
74.8493502959578
 20
-130.5622286999983
 11
74.8493502959578
 21
-130.3372639648115
 72
     1
 10
74.8493502959578
 20
-130.3372639648115
 11
75.9290432210351
 21
-130.3372639648115
 72
     1
 10
75.9290432210351
 20
-130.3372639648115
 11
75.9290432210351
 21
-130.0978298285867
 72
     1
 10
75.9290432210351
 20
-130.0978298285867
 11
76.14418943408896
 21
-130.0978298285867
 72
     1
 10
76.14418943408896
 20
-130.0978298285867
 11
76.14418943408896
 21
-130.3372639648115
 97
        0
 92
        1
 93
        3
 72
     1
 10
75.21987031539642
 20
-130.5891004447833
 11
75.9290432210351
 21
-131.1168890731236
 72
     1
 10
75.9290432210351
 20
-131.1168890731236
 11
75.9290432210351
 21
-130.5891004447833
 72
     1
 10
75.9290432210351
 20
-130.5891004447833
 11
75.21987031539642
 21
-130.5891004447833
 97
        0
 75
     2
 76
     1
 98
        0
  0
SPLINE
  5
167
330
14E
100
AcDbEntity
  8
_U+30EC_U+30A4_U+30E4_U+30FC 1
370
     0
100
AcDbSpline
210
0.0
220
0.0
230
1.0
 70
    11
 71
     3
 72
    29
 73
    25
 74
     0
 42
0.0000000001
 43
0.0000000001
 12
1.0
 22
0.0
 32
0.0
 13
1.0
 23
0.0
 33
0.0
 40
0.0
 40
0.0
 40
0.0
 40
0.0
 40
1.0
 40
1.0
 40
1.0
 40
2.0
 40
2.0
 40
2.0
 40
3.0
 40
3.0
 40
3.0
 40
4.0
 40
4.0
 40
4.0
 40
5.0
 40
5.0
 40
5.0
 40
6.0
 40
6.0
 40
6.0
 40
7.0
 40
7.0
 40
7.0
 40
8.0
 40
8.0
 40
8.0
 40
8.0
 10
76.32712400435572
 20
-128.903070714302
 30
0.0
 10
76.5536390325109
 20
-129.027783170868
 30
0.0
 10
76.5743096054224
 20
-129.2282877281096
 30
0.0
 10
76.5743096054224
 20
-129.3626464520343
 30
0.0
 10
76.5743096054224
 20
-129.5483370986893
 30
0.0
 10
76.52401121133775
 20
-129.7119791342387
 30
0.0
 10
76.32712400435572
 20
-129.8222221897667
 30
0.0
 10
76.11680092498122
 20
-129.9417670031048
 30
0.0
 10
75.86048582087864
 20
-129.9638156142104
 30
0.0
 10
75.68426918680811
 20
-129.9638156142104
 30
0.0
 10
75.52872312564907
 20
-129.9638156142104
 30
0.0
 10
75.25656058231434
 20
-129.9441785699445
 30
0.0
 10
75.04141436926048
 20
-129.8222221897667
 30
0.0
 10
74.82178953207581
 20
-129.6975097332006
 30
0.0
 10
74.79664033503349
 20
-129.5114745769971
 30
0.0
 10
74.79664033503349
 20
-129.3626464520343
 30
0.0
 10
74.79664033503349
 20
-129.179367372219
 30
0.0
 10
74.84469941705272
 20
-129.01331376983
 30
0.0
 10
75.04141436926048
 20
-128.903070714302
 30
0.0
 10
75.24967039134384
 20
-128.7883490346432
 30
0.0
 10
75.49668373763625
 20
-128.7614772898582
 30
0.0
 10
75.68426918680811
 20
-128.7614772898582
 30
0.0
 10
75.86961532391454
 20
-128.7614772898582
 30
0.0
 10
76.11904023704663
 20
-128.7859374678035
 30
0.0
 10
76.32712400435572
 20
-128.903070714302
 30
0.0
  0
SPLINE
  5
168
330
14E
100
AcDbEntity
  8
_U+30EC_U+30A4_U+30E4_U+30FC 1
370
     0
100
AcDbSpline
210
0.0
220
0.0
230
1.0
 70
    11
 71
     3
 72
    17
 73
    13
 74
     0
 42
0.0000000001
 43
0.0000000001
 12
1.0
 22
0.0
 32
0.0
 13
1.0
 23
0.0
 33
0.0
 40
0.0
 40
0.0
 40
0.0
 40
0.0
 40
1.0
 40
1.0
 40
1.0
 40
2.0
 40
2.0
 40
2.0
 40
3.0
 40
3.0
 40
3.0
 40
4.0
 40
4.0
 40
4.0
 40
4.0
 10
75.00489635711683
 20
-129.3626464520343
 30
0.0
 10
75.00489635711683
 20
-129.6510009441498
 30
0.0
 10
75.31133760052981
 20
-129.7047444337196
 30
0.0
 10
75.68426918680811
 20
-129.7047444337196
 30
0.0
 10
76.02981226397866
 20
-129.7047444337196
 30
0.0
 10
76.36381427127364
 20
-129.6630587783481
 30
0.0
 10
76.36381427127364
 20
-129.3626464520343
 30
0.0
 10
76.36381427127364
 20
-129.0767035267586
 30
0.0
 10
76.0594400851518
 20
-129.020548470349
 30
0.0
 10
75.68426918680811
 20
-129.020548470349
 30
0.0
 10
75.3388983644118
 20
-129.020548470349
 30
0.0
 10
75.00489635711683
 20
-129.0643011830117
 30
0.0
 10
75.00489635711683
 20
-129.3626464520343
 30
0.0
  0
HATCH
  5
169
330
14E
100
AcDbEntity
  8
_U+30EC_U+30A4_U+30E4_U+30FC 1
 62
   179
420
  2234388
100
AcDbHatch
 10
0.0
 20
0.0
 30
0.0
210
0.0
220
0.0
230
1.0
  2
SOLID
 70
     1
 71
     0
 91
        2
 92
        1
 93
        1
 72
     4
 94
        3
 73
     0
 74
     1
 95
       29
 96
       25
 40
0.0
 40
0.0
 40
0.0
 40
0.0
 40
1.0
 40
1.0
 40
1.0
 40
2.0
 40
2.0
 40
2.0
 40
3.0
 40
3.0
 40
3.0
 40
4.0
 40
4.0
 40
4.0
 40
5.0
 40
5.0
 40
5.0
 40
6.0
 40
6.0
 40
6.0
 40
7.0
 40
7.0
 40
7.0
 40
8.0
 40
8.0
 40
8.0
 40
8.0
 10
76.32712400435572
 20
-128.903070714302
 10
76.5536390325109
 20
-129.027783170868
 10
76.5743096054224
 20
-129.2282877281096
 10
76.5743096054224
 20
-129.3626464520343
 10
76.5743096054224
 20
-129.5483370986893
 10
76.52401121133775
 20
-129.7119791342387
 10
76.32712400435572
 20
-129.8222221897667
 10
76.11680092498122
 20
-129.9417670031048
 10
75.86048582087864
 20
-129.9638156142104
 10
75.68426918680811
 20
-129.9638156142104
 10
75.52872312564907
 20
-129.9638156142104
 10
75.25656058231434
 20
-129.9441785699445
 10
75.04141436926048
 20
-129.8222221897667
 10
74.82178953207581
 20
-129.6975097332006
 10
74.79664033503349
 20
-129.5114745769971
 10
74.79664033503349
 20
-129.3626464520343
 10
74.79664033503349
 20
-129.179367372219
 10
74.84469941705272
 20
-129.01331376983
 10
75.04141436926048
 20
-128.903070714302
 10
75.24967039134384
 20
-128.7883490346432
 10
75.49668373763625
 20
-128.7614772898582
 10
75.68426918680811
 20
-128.7614772898582
 10
75.86961532391454
 20
-128.7614772898582
 10
76.11904023704663
 20
-128.7859374678035
 10
76.32712400435572
 20
-128.903070714302
 97
        0
 97
        0
 92
        1
 93
        1
 72
     4
 94
        3
 73
     0
 74
     1
 95
       17
 96
       13
 40
0.0
 40
0.0
 40
0.0
 40
0.0
 40
1.0
 40
1.0
 40
1.0
 40
2.0
 40
2.0
 40
2.0
 40
3.0
 40
3.0
 40
3.0
 40
4.0
 40
4.0
 40
4.0
 40
4.0
 10
75.00489635711683
 20
-129.3626464520343
 10
75.00489635711683
 20
-129.6510009441498
 10
75.31133760052981
 20
-129.7047444337196
 10
75.68426918680811
 20
-129.7047444337196
 10
76.02981226397866
 20
-129.7047444337196
 10
76.36381427127364
 20
-129.6630587783481
 10
76.36381427127364
 20
-129.3626464520343
 10
76.36381427127364
 20
-129.0767035267586
 10
76.0594400851518
 20
-129.020548470349
 10
75.68426918680811
 20
-129.020548470349
 10
75.3388983644118
 20
-129.020548470349
 10
75.00489635711683
 20
-129.0643011830117
 10
75.00489635711683
 20
-129.3626464520343
 97
        0
 97
        0
 75
     2
 76
     1
 98
        0
  0
ENDBLK
  5
151
330
14E
100
AcDbEntity
  8
0
100
AcDbBlockEnd
  0
BLOCK
  5
178
330
176
100
AcDbEntity
  8
0
100
AcDbBlockBegin
  2
block 8
 70
     0
 10
0.0
 20
0.0
 30
0.0
  3
block 8
  1

  0
SPLINE
  5
17A
330
176
100
AcDbEntity
  8
_U+30EC_U+30A4_U+30E4_U+30FC 1
370
     0
100
AcDbSpline
210
0.0
220
0.0
230
1.0
 70
    11
 71
     3
 72
    62
 73
    58
 74
     0
 42
0.0000000001
 43
0.0000000001
 12
1.0
 22
0.0
 32
0.0
 13
1.0
 23
0.0
 33
0.0
 40
0.0
 40
0.0
 40
0.0
 40
0.0
 40
1.0
 40
1.0
 40
1.0
 40
2.0
 40
2.0
 40
2.0
 40
3.0
 40
3.0
 40
3.0
 40
4.0
 40
4.0
 40
4.0
 40
5.0
 40
5.0
 40
5.0
 40
6.0
 40
6.0
 40
6.0
 40
7.0
 40
7.0
 40
7.0
 40
8.0
 40
8.0
 40
8.0
 40
9.0
 40
9.0
 40
9.0
 40
10.0
 40
10.0
 40
10.0
 40
11.0
 40
11.0
 40
11.0
 40
12.0
 40
12.0
 40
12.0
 40
13.0
 40
13.0
 40
13.0
 40
14.0
 40
14.0
 40
14.0
 40
15.0
 40
15.0
 40
15.0
 40
16.0
 40
16.0
 40
16.0
 40
17.0
 40
17.0
 40
17.0
 40
18.0
 40
18.0
 40
18.0
 40
19.0
 40
19.0
 40
19.0
 40
19.0
 10
92.2906629543579
 20
-146.2704860745435
 30
0.0
 10
92.1914442043827
 20
-146.2704860745435
 30
0.0
 10
91.96475692145326
 20
-146.2477484443409
 30
0.0
 10
91.83487682165934
 20
-146.0462103584537
 30
0.0
 10
91.75805119233827
 20
-145.9249429973729
 30
0.0
 10
91.75322805865892
 20
-145.8174560182331
 30
0.0
 10
91.74909394407662
 20
-145.726160987874
 30
0.0
 10
91.74909394407662
 20
-145.726160987874
 30
0.0
 10
91.97784828429721
 20
-145.726160987874
 30
0.0
 10
91.97784828429721
 20
-145.726160987874
 30
0.0
 10
91.98025985113688
 20
-145.8060872031318
 30
0.0
 10
91.99128415668969
 20
-146.0599907403947
 30
0.0
 10
92.2865288397756
 20
-146.0599907403947
 30
0.0
 10
92.42915579286493
 20
-146.0599907403947
 30
0.0
 10
92.58797469473495
 20
-145.9845431492678
 30
0.0
 10
92.58797469473495
 20
-145.7371852934268
 30
0.0
 10
92.58797469473495
 20
-145.6117838177637
 30
0.0
 10
92.54835609665459
 20
-145.5587293472909
 30
0.0
 10
92.51528317999619
 20
-145.5246229019869
 30
0.0
 10
92.43811304112658
 20
-145.4443521771806
 30
0.0
 10
92.31684568004579
 20
-145.4309163047881
 30
0.0
 10
92.25965709499064
 20
-145.4309163047881
 30
0.0
 10
92.24002005072472
 20
-145.4309163047881
 30
0.0
 10
92.2024685099355
 20
-145.4333278716278
 30
0.0
 10
92.17421872695645
 20
-145.4374619862101
 30
0.0
 10
92.17421872695645
 20
-145.4374619862101
 30
0.0
 10
92.17421872695645
 20
-145.2273111616098
 30
0.0
 10
92.17421872695645
 20
-145.2273111616098
 30
0.0
 10
92.2134928154883
 20
-145.2342013525804
 30
0.0
 10
92.2575900376995
 20
-145.2362684098715
 30
0.0
 10
92.26448022867
 20
-145.2362684098715
 30
0.0
 10
92.33269311927795
 20
-145.2362684098715
 30
0.0
 10
92.53939884839293
 20
-145.2135307796688
 30
0.0
 10
92.53939884839293
 20
-144.9572156755663
 30
0.0
 10
92.53939884839293
 20
-144.7649793474893
 30
0.0
 10
92.40297306717704
 20
-144.705723705143
 30
0.0
 10
92.28859589706674
 20
-144.705723705143
 30
0.0
 10
92.01333276779528
 20
-144.705723705143
 30
0.0
 10
92.00472002908215
 20
-144.9572156755663
 30
0.0
 10
91.99989689540281
 20
-145.0350748335329
 30
0.0
 10
91.99989689540281
 20
-145.0350748335329
 30
0.0
 10
91.78871254215699
 20
-145.0350748335329
 30
0.0
 10
91.78871254215699
 20
-145.0350748335329
 30
0.0
 10
91.79732528087011
 20
-144.9000270905111
 30
0.0
 10
91.82626408294621
 20
-144.4928168041546
 30
0.0
 10
92.3016872599107
 20
-144.4928168041546
 30
0.0
 10
92.53526473381064
 20
-144.4928168041546
 30
0.0
 10
92.78606768513681
 20
-144.6299316044675
 30
0.0
 10
92.78606768513681
 20
-144.9503254845958
 30
0.0
 10
92.78606768513681
 20
-145.1515190609344
 30
0.0
 10
92.68684893516162
 20
-145.2410915435509
 30
0.0
 10
92.58349607060413
 20
-145.3072373768676
 30
0.0
 10
92.64757484662978
 20
-145.3368651980408
 30
0.0
 10
92.83671058876999
 20
-145.4240261138176
 30
0.0
 10
92.83671058876999
 20
-145.7237494210343
 30
0.0
 10
92.83671058876999
 20
-146.0899630711164
 30
0.0
 10
92.5790174464733
 20
-146.2704860745435
 30
0.0
 10
92.2906629543579
 20
-146.2704860745435
 30
0.0
  0
HATCH
  5
17B
330
176
100
AcDbEntity
  8
_U+30EC_U+30A4_U+30E4_U+30FC 1
 62
   179
420
  2234388
100
AcDbHatch
 10
0.0
 20
0.0
 30
0.0
210
0.0
220
0.0
230
1.0
  2
SOLID
 70
     1
 71
     0
 91
        1
 92
        1
 93
        1
 72
     4
 94
        3
 73
     0
 74
     1
 95
       62
 96
       58
 40
0.0
 40
0.0
 40
0.0
 40
0.0
 40
1.0
 40
1.0
 40
1.0
 40
2.0
 40
2.0
 40
2.0
 40
3.0
 40
3.0
 40
3.0
 40
4.0
 40
4.0
 40
4.0
 40
5.0
 40
5.0
 40
5.0
 40
6.0
 40
6.0
 40
6.0
 40
7.0
 40
7.0
 40
7.0
 40
8.0
 40
8.0
 40
8.0
 40
9.0
 40
9.0
 40
9.0
 40
10.0
 40
10.0
 40
10.0
 40
11.0
 40
11.0
 40
11.0
 40
12.0
 40
12.0
 40
12.0
 40
13.0
 40
13.0
 40
13.0
 40
14.0
 40
14.0
 40
14.0
 40
15.0
 40
15.0
 40
15.0
 40
16.0
 40
16.0
 40
16.0
 40
17.0
 40
17.0
 40
17.0
 40
18.0
 40
18.0
 40
18.0
 40
19.0
 40
19.0
 40
19.0
 40
19.0
 10
92.2906629543579
 20
-146.2704860745435
 10
92.1914442043827
 20
-146.2704860745435
 10
91.96475692145326
 20
-146.2477484443409
 10
91.83487682165934
 20
-146.0462103584537
 10
91.75805119233827
 20
-145.9249429973729
 10
91.75322805865892
 20
-145.8174560182331
 10
91.74909394407662
 20
-145.726160987874
 10
91.74909394407662
 20
-145.726160987874
 10
91.97784828429721
 20
-145.726160987874
 10
91.97784828429721
 20
-145.726160987874
 10
91.98025985113688
 20
-145.8060872031318
 10
91.99128415668969
 20
-146.0599907403947
 10
92.2865288397756
 20
-146.0599907403947
 10
92.42915579286493
 20
-146.0599907403947
 10
92.58797469473495
 20
-145.9845431492678
 10
92.58797469473495
 20
-145.7371852934268
 10
92.58797469473495
 20
-145.6117838177637
 10
92.54835609665459
 20
-145.5587293472909
 10
92.51528317999619
 20
-145.5246229019869
 10
92.43811304112658
 20
-145.4443521771806
 10
92.31684568004579
 20
-145.4309163047881
 10
92.25965709499064
 20
-145.4309163047881
 10
92.24002005072472
 20
-145.4309163047881
 10
92.2024685099355
 20
-145.4333278716278
 10
92.17421872695645
 20
-145.4374619862101
 10
92.17421872695645
 20
-145.4374619862101
 10
92.17421872695645
 20
-145.2273111616098
 10
92.17421872695645
 20
-145.2273111616098
 10
92.2134928154883
 20
-145.2342013525804
 10
92.2575900376995
 20
-145.2362684098715
 10
92.26448022867
 20
-145.2362684098715
 10
92.33269311927795
 20
-145.2362684098715
 10
92.53939884839293
 20
-145.2135307796688
 10
92.53939884839293
 20
-144.9572156755663
 10
92.53939884839293
 20
-144.7649793474893
 10
92.40297306717704
 20
-144.705723705143
 10
92.28859589706674
 20
-144.705723705143
 10
92.01333276779528
 20
-144.705723705143
 10
92.00472002908215
 20
-144.9572156755663
 10
91.99989689540281
 20
-145.0350748335329
 10
91.99989689540281
 20
-145.0350748335329
 10
91.78871254215699
 20
-145.0350748335329
 10
91.78871254215699
 20
-145.0350748335329
 10
91.79732528087011
 20
-144.9000270905111
 10
91.82626408294621
 20
-144.4928168041546
 10
92.3016872599107
 20
-144.4928168041546
 10
92.53526473381064
 20
-144.4928168041546
 10
92.78606768513681
 20
-144.6299316044675
 10
92.78606768513681
 20
-144.9503254845958
 10
92.78606768513681
 20
-145.1515190609344
 10
92.68684893516162
 20
-145.2410915435509
 10
92.58349607060413
 20
-145.3072373768676
 10
92.64757484662978
 20
-145.3368651980408
 10
92.83671058876999
 20
-145.4240261138176
 10
92.83671058876999
 20
-145.7237494210343
 10
92.83671058876999
 20
-146.0899630711164
 10
92.5790174464733
 20
-146.2704860745435
 10
92.2906629543579
 20
-146.2704860745435
 97
        0
 97
        0
 75
     2
 76
     1
 98
        0
  0
SPLINE
  5
17C
330
176
100
AcDbEntity
  8
_U+30EC_U+30A4_U+30E4_U+30FC 1
370
     0
100
AcDbSpline
210
0.0
220
0.0
230
1.0
 70
    11
 71
     3
 72
    29
 73
    25
 74
     0
 42
0.0000000001
 43
0.0000000001
 12
1.0
 22
0.0
 32
0.0
 13
1.0
 23
0.0
 33
0.0
 40
0.0
 40
0.0
 40
0.0
 40
0.0
 40
1.0
 40
1.0
 40
1.0
 40
2.0
 40
2.0
 40
2.0
 40
3.0
 40
3.0
 40
3.0
 40
4.0
 40
4.0
 40
4.0
 40
5.0
 40
5.0
 40
5.0
 40
6.0
 40
6.0
 40
6.0
 40
7.0
 40
7.0
 40
7.0
 40
8.0
 40
8.0
 40
8.0
 40
8.0
 10
93.93741859630731
 20
-146.0231282187026
 30
0.0
 10
93.82510848348817
 20
-146.249815501632
 30
0.0
 10
93.64458548006108
 20
-146.2704860745435
 30
0.0
 10
93.52331811898028
 20
-146.2704860745435
 30
0.0
 10
93.35623098794566
 20
-146.2704860745435
 30
0.0
 10
93.20843639162845
 20
-146.2201876804588
 30
0.0
 10
93.10956215120179
 20
-146.0231282187026
 30
0.0
 10
93.00173066251347
 20
-145.8129773941023
 30
0.0
 10
92.981749108699
 20
-145.5566622899997
 30
0.0
 10
92.981749108699
 20
-145.3802734011549
 30
0.0
 10
92.981749108699
 20
-145.2248995947702
 30
0.0
 10
92.99966360522231
 20
-144.9527370514354
 30
0.0
 10
93.10956215120179
 20
-144.7374185836073
 30
0.0
 10
93.22187226402093
 20
-144.5179660011969
 30
0.0
 10
93.38930390460406
 20
-144.4928168041546
 30
0.0
 10
93.52331811898028
 20
-144.4928168041546
 30
0.0
 10
93.68868270227227
 20
-144.4928168041546
 30
0.0
 10
93.83819984633212
 20
-144.5410481409481
 30
0.0
 10
93.93741859630731
 20
-144.7374185836073
 30
0.0
 10
94.04077146086482
 20
-144.9458468604649
 30
0.0
 10
94.06488712926156
 20
-145.1928602067574
 30
0.0
 10
94.06488712926156
 20
-145.3802734011549
 30
0.0
 10
94.06488712926156
 20
-145.5656195382614
 30
0.0
 10
94.04318302770449
 20
-145.8150444513935
 30
0.0
 10
93.93741859630731
 20
-146.0231282187026
 30
0.0
  0
SPLINE
  5
17D
330
176
100
AcDbEntity
  8
_U+30EC_U+30A4_U+30E4_U+30FC 1
370
     0
100
AcDbSpline
210
0.0
220
0.0
230
1.0
 70
    11
 71
     3
 72
    17
 73
    13
 74
     0
 42
0.0000000001
 43
0.0000000001
 12
1.0
 22
0.0
 32
0.0
 13
1.0
 23
0.0
 33
0.0
 40
0.0
 40
0.0
 40
0.0
 40
0.0
 40
1.0
 40
1.0
 40
1.0
 40
2.0
 40
2.0
 40
2.0
 40
3.0
 40
3.0
 40
3.0
 40
4.0
 40
4.0
 40
4.0
 40
4.0
 10
93.52331811898028
 20
-144.7009005714637
 30
0.0
 10
93.26355791939245
 20
-144.7009005714637
 30
0.0
 10
93.21532658259895
 20
-145.0075140696509
 30
0.0
 10
93.21532658259895
 20
-145.3802734011549
 30
0.0
 10
93.21532658259895
 20
-145.726160987874
 30
0.0
 10
93.25253361383965
 20
-146.0599907403947
 30
0.0
 10
93.52331811898028
 20
-146.0599907403947
 30
0.0
 10
93.78101126127697
 20
-146.0599907403947
 30
0.0
 10
93.83199867445867
 20
-145.7557888090472
 30
0.0
 10
93.83199867445867
 20
-145.3802734011549
 30
0.0
 10
93.83199867445867
 20
-145.0350748335329
 30
0.0
 10
93.79203556682977
 20
-144.7009005714637
 30
0.0
 10
93.52331811898028
 20
-144.7009005714637
 30
0.0
  0
HATCH
  5
17E
330
176
100
AcDbEntity
  8
_U+30EC_U+30A4_U+30E4_U+30FC 1
 62
   179
420
  2234388
100
AcDbHatch
 10
0.0
 20
0.0
 30
0.0
210
0.0
220
0.0
230
1.0
  2
SOLID
 70
     1
 71
     0
 91
        2
 92
        1
 93
        1
 72
     4
 94
        3
 73
     0
 74
     1
 95
       29
 96
       25
 40
0.0
 40
0.0
 40
0.0
 40
0.0
 40
1.0
 40
1.0
 40
1.0
 40
2.0
 40
2.0
 40
2.0
 40
3.0
 40
3.0
 40
3.0
 40
4.0
 40
4.0
 40
4.0
 40
5.0
 40
5.0
 40
5.0
 40
6.0
 40
6.0
 40
6.0
 40
7.0
 40
7.0
 40
7.0
 40
8.0
 40
8.0
 40
8.0
 40
8.0
 10
93.93741859630731
 20
-146.0231282187026
 10
93.82510848348817
 20
-146.249815501632
 10
93.64458548006108
 20
-146.2704860745435
 10
93.52331811898028
 20
-146.2704860745435
 10
93.35623098794566
 20
-146.2704860745435
 10
93.20843639162845
 20
-146.2201876804588
 10
93.10956215120179
 20
-146.0231282187026
 10
93.00173066251347
 20
-145.8129773941023
 10
92.981749108699
 20
-145.5566622899997
 10
92.981749108699
 20
-145.3802734011549
 10
92.981749108699
 20
-145.2248995947702
 10
92.99966360522231
 20
-144.9527370514354
 10
93.10956215120179
 20
-144.7374185836073
 10
93.22187226402093
 20
-144.5179660011969
 10
93.38930390460406
 20
-144.4928168041546
 10
93.52331811898028
 20
-144.4928168041546
 10
93.68868270227227
 20
-144.4928168041546
 10
93.83819984633212
 20
-144.5410481409481
 10
93.93741859630731
 20
-144.7374185836073
 10
94.04077146086482
 20
-144.9458468604649
 10
94.06488712926156
 20
-145.1928602067574
 10
94.06488712926156
 20
-145.3802734011549
 10
94.06488712926156
 20
-145.5656195382614
 10
94.04318302770449
 20
-145.8150444513935
 10
93.93741859630731
 20
-146.0231282187026
 97
        0
 97
        0
 92
        1
 93
        1
 72
     4
 94
        3
 73
     0
 74
     1
 95
       17
 96
       13
 40
0.0
 40
0.0
 40
0.0
 40
0.0
 40
1.0
 40
1.0
 40
1.0
 40
2.0
 40
2.0
 40
2.0
 40
3.0
 40
3.0
 40
3.0
 40
4.0
 40
4.0
 40
4.0
 40
4.0
 10
93.52331811898028
 20
-144.7009005714637
 10
93.26355791939245
 20
-144.7009005714637
 10
93.21532658259895
 20
-145.0075140696509
 10
93.21532658259895
 20
-145.3802734011549
 10
93.21532658259895
 20
-145.726160987874
 10
93.25253361383965
 20
-146.0599907403947
 10
93.52331811898028
 20
-146.0599907403947
 10
93.78101126127697
 20
-146.0599907403947
 10
93.83199867445867
 20
-145.7557888090472
 10
93.83199867445867
 20
-145.3802734011549
 10
93.83199867445867
 20
-145.0350748335329
 10
93.79203556682977
 20
-144.7009005714637
 10
93.52331811898028
 20
-144.7009005714637
 97
        0
 97
        0
 75
     2
 76
     1
 98
        0
  0
POLYLINE
  5
17F
330
176
100
AcDbEntity
  8
_U+30EC_U+30A4_U+30E4_U+30FC 1
370
     0
100
AcDb2dPolyline
 66
     1
 10
0.0
 20
0.0
 30
0.0
  0
VERTEX
  5
180
330
17F
100
AcDbEntity
  8
_U+30EC_U+30A4_U+30E4_U+30FC 1
370
     0
100
AcDbVertex
100
AcDb2dVertex
 10
94.28950735489985
 20
-146.2153645467795
 30
0.0
  0
VERTEX
  5
181
330
17F
100
AcDbEntity
  8
_U+30EC_U+30A4_U+30E4_U+30FC 1
370
     0
100
AcDbVertex
100
AcDb2dVertex
 10
94.28950735489985
 20
-145.9432020034448
 30
0.0
  0
VERTEX
  5
182
330
17F
100
AcDbEntity
  8
_U+30EC_U+30A4_U+30E4_U+30FC 1
370
     0
100
AcDbVertex
100
AcDb2dVertex
 10
94.55167912132737
 20
-145.9432020034448
 30
0.0
  0
VERTEX
  5
183
330
17F
100
AcDbEntity
  8
_U+30EC_U+30A4_U+30E4_U+30FC 1
370
     0
100
AcDbVertex
100
AcDb2dVertex
 10
94.55167912132737
 20
-146.2153645467795
 30
0.0
  0
VERTEX
  5
184
330
17F
100
AcDbEntity
  8
_U+30EC_U+30A4_U+30E4_U+30FC 1
370
     0
100
AcDbVertex
100
AcDb2dVertex
 10
94.28950735489985
 20
-146.2153645467795
 30
0.0
  0
SEQEND
  5
185
330
17F
100
AcDbEntity
  8
_U+30EC_U+30A4_U+30E4_U+30FC 1
370
     0
  0
HATCH
  5
186
330
176
100
AcDbEntity
  8
_U+30EC_U+30A4_U+30E4_U+30FC 1
 62
   179
420
  2234388
100
AcDbHatch
 10
0.0
 20
0.0
 30
0.0
210
0.0
220
0.0
230
1.0
  2
SOLID
 70
     1
 71
     0
 91
        1
 92
        1
 93
        4
 72
     1
 10
94.28950735489985
 20
-146.2153645467795
 11
94.28950735489985
 21
-145.9432020034448
 72
     1
 10
94.28950735489985
 20
-145.9432020034448
 11
94.55167912132737
 21
-145.9432020034448
 72
     1
 10
94.55167912132737
 20
-145.9432020034448
 11
94.55167912132737
 21
-146.2153645467795
 72
     1
 10
94.55167912132737
 20
-146.2153645467795
 11
94.28950735489985
 21
-146.2153645467795
 97
        0
 75
     2
 76
     1
 98
        0
  0
SPLINE
  5
187
330
176
100
AcDbEntity
  8
_U+30EC_U+30A4_U+30E4_U+30FC 1
370
     0
100
AcDbSpline
210
0.0
220
0.0
230
1.0
 70
    11
 71
     3
 72
    29
 73
    25
 74
     0
 42
0.0000000001
 43
0.0000000001
 12
1.0
 22
0.0
 32
0.0
 13
1.0
 23
0.0
 33
0.0
 40
0.0
 40
0.0
 40
0.0
 40
0.0
 40
1.0
 40
1.0
 40
1.0
 40
2.0
 40
2.0
 40
2.0
 40
3.0
 40
3.0
 40
3.0
 40
4.0
 40
4.0
 40
4.0
 40
5.0
 40
5.0
 40
5.0
 40
6.0
 40
6.0
 40
6.0
 40
7.0
 40
7.0
 40
7.0
 40
8.0
 40
8.0
 40
8.0
 40
8.0
 10
95.3175238476984
 20
-146.2704860745435
 30
0.0
 10
95.04053817068431
 20
-146.2704860745435
 30
0.0
 10
94.77595483741713
 20
-146.1216579495807
 30
0.0
 10
94.77595483741713
 20
-145.7440754843973
 30
0.0
 10
94.77595483741713
 20
-145.4674343169318
 30
0.0
 10
94.92340492418582
 20
-145.3644259619228
 30
0.0
 10
95.03364797971382
 20
-145.298280128606
 30
0.0
 10
94.9037678799199
 20
-145.2342013525804
 30
0.0
 10
94.82453068375915
 20
-145.1105224246599
 30
0.0
 10
94.82453068375915
 20
-144.9365451026547
 30
0.0
 10
94.82453068375915
 20
-144.6392333622777
 30
0.0
 10
95.03158092242266
 20
-144.4928168041546
 30
0.0
 10
95.3175238476984
 20
-144.4928168041546
 30
0.0
 10
95.61276853078431
 20
-144.4928168041546
 30
0.0
 10
95.81086152118618
 20
-144.6485351200879
 30
0.0
 10
95.81086152118618
 20
-144.9365451026547
 30
0.0
 10
95.81086152118618
 20
-145.1105224246599
 30
0.0
 10
95.72955726773428
 20
-145.2342013525804
 30
0.0
 10
95.59933265839184
 20
-145.298280128606
 30
0.0
 10
95.69200572694506
 20
-145.3530571468215
 30
0.0
 10
95.85702580068853
 20
-145.4560655018304
 30
0.0
 10
95.85702580068853
 20
-145.7395968602665
 30
0.0
 10
95.85702580068853
 20
-146.1443955797833
 30
0.0
 10
95.56625974173343
 20
-146.2704860745435
 30
0.0
 10
95.3175238476984
 20
-146.2704860745435
 30
0.0
  0
SPLINE
  5
188
330
176
100
AcDbEntity
  8
_U+30EC_U+30A4_U+30E4_U+30FC 1
370
     0
100
AcDbSpline
210
0.0
220
0.0
230
1.0
 70
    11
 71
     3
 72
    17
 73
    13
 74
     0
 42
0.0000000001
 43
0.0000000001
 12
1.0
 22
0.0
 32
0.0
 13
1.0
 23
0.0
 33
0.0
 40
0.0
 40
0.0
 40
0.0
 40
0.0
 40
1.0
 40
1.0
 40
1.0
 40
2.0
 40
2.0
 40
2.0
 40
3.0
 40
3.0
 40
3.0
 40
4.0
 40
4.0
 40
4.0
 40
4.0
 10
95.3175238476984
 20
-145.4147243560074
 30
0.0
 10
95.16800670363855
 20
-145.4147243560074
 30
0.0
 10
95.00953231131706
 20
-145.5084309532062
 30
0.0
 10
95.00953231131706
 20
-145.7282280451652
 30
0.0
 10
95.00953231131706
 20
-145.9500921944152
 30
0.0
 10
95.14182397795066
 20
-146.0599907403947
 30
0.0
 10
95.3175238476984
 20
-146.0599907403947
 30
0.0
 10
95.51148272351797
 20
-146.0599907403947
 30
0.0
 10
95.62620440317679
 20
-145.9273545642126
 30
0.0
 10
95.62620440317679
 20
-145.7351182361357
 30
0.0
 10
95.62620440317679
 20
-145.4946505712652
 30
0.0
 10
95.45636119575397
 20
-145.4147243560074
 30
0.0
 10
95.3175238476984
 20
-145.4147243560074
 30
0.0
  0
SPLINE
  5
189
330
176
100
AcDbEntity
  8
_U+30EC_U+30A4_U+30E4_U+30FC 1
370
     0
100
AcDbSpline
210
0.0
220
0.0
230
1.0
 70
    11
 71
     3
 72
    17
 73
    13
 74
     0
 42
0.0000000001
 43
0.0000000001
 12
1.0
 22
0.0
 32
0.0
 13
1.0
 23
0.0
 33
0.0
 40
0.0
 40
0.0
 40
0.0
 40
0.0
 40
1.0
 40
1.0
 40
1.0
 40
2.0
 40
2.0
 40
2.0
 40
3.0
 40
3.0
 40
3.0
 40
4.0
 40
4.0
 40
4.0
 40
4.0
 10
95.3175238476984
 20
-144.7009005714637
 30
0.0
 10
95.14595809253296
 20
-144.7009005714637
 30
0.0
 10
95.05776364811057
 20
-144.8039089264726
 30
0.0
 10
95.05776364811057
 20
-144.9503254845958
 30
0.0
 10
95.05776364811057
 20
-145.0833061703264
 30
0.0
 10
95.13286672968901
 20
-145.2114637223777
 30
0.0
 10
95.3175238476984
 20
-145.2114637223777
 30
0.0
 10
95.50286998480485
 20
-145.2114637223777
 30
0.0
 10
95.57728404728624
 20
-145.0833061703264
 30
0.0
 10
95.57728404728624
 20
-144.9503254845958
 30
0.0
 10
95.57728404728624
 20
-144.8039089264726
 30
0.0
 10
95.4870225455727
 20
-144.7009005714637
 30
0.0
 10
95.3175238476984
 20
-144.7009005714637
 30
0.0
  0
HATCH
  5
18A
330
176
100
AcDbEntity
  8
_U+30EC_U+30A4_U+30E4_U+30FC 1
 62
   179
420
  2234388
100
AcDbHatch
 10
0.0
 20
0.0
 30
0.0
210
0.0
220
0.0
230
1.0
  2
SOLID
 70
     1
 71
     0
 91
        3
 92
        1
 93
        1
 72
     4
 94
        3
 73
     0
 74
     1
 95
       29
 96
       25
 40
0.0
 40
0.0
 40
0.0
 40
0.0
 40
1.0
 40
1.0
 40
1.0
 40
2.0
 40
2.0
 40
2.0
 40
3.0
 40
3.0
 40
3.0
 40
4.0
 40
4.0
 40
4.0
 40
5.0
 40
5.0
 40
5.0
 40
6.0
 40
6.0
 40
6.0
 40
7.0
 40
7.0
 40
7.0
 40
8.0
 40
8.0
 40
8.0
 40
8.0
 10
95.3175238476984
 20
-146.2704860745435
 10
95.04053817068431
 20
-146.2704860745435
 10
94.77595483741713
 20
-146.1216579495807
 10
94.77595483741713
 20
-145.7440754843973
 10
94.77595483741713
 20
-145.4674343169318
 10
94.92340492418582
 20
-145.3644259619228
 10
95.03364797971382
 20
-145.298280128606
 10
94.9037678799199
 20
-145.2342013525804
 10
94.82453068375915
 20
-145.1105224246599
 10
94.82453068375915
 20
-144.9365451026547
 10
94.82453068375915
 20
-144.6392333622777
 10
95.03158092242266
 20
-144.4928168041546
 10
95.3175238476984
 20
-144.4928168041546
 10
95.61276853078431
 20
-144.4928168041546
 10
95.81086152118618
 20
-144.6485351200879
 10
95.81086152118618
 20
-144.9365451026547
 10
95.81086152118618
 20
-145.1105224246599
 10
95.72955726773428
 20
-145.2342013525804
 10
95.59933265839184
 20
-145.298280128606
 10
95.69200572694506
 20
-145.3530571468215
 10
95.85702580068853
 20
-145.4560655018304
 10
95.85702580068853
 20
-145.7395968602665
 10
95.85702580068853
 20
-146.1443955797833
 10
95.56625974173343
 20
-146.2704860745435
 10
95.3175238476984
 20
-146.2704860745435
 97
        0
 97
        0
 92
        1
 93
        1
 72
     4
 94
        3
 73
     0
 74
     1
 95
       17
 96
       13
 40
0.0
 40
0.0
 40
0.0
 40
0.0
 40
1.0
 40
1.0
 40
1.0
 40
2.0
 40
2.0
 40
2.0
 40
3.0
 40
3.0
 40
3.0
 40
4.0
 40
4.0
 40
4.0
 40
4.0
 10
95.3175238476984
 20
-145.4147243560074
 10
95.16800670363855
 20
-145.4147243560074
 10
95.00953231131706
 20
-145.5084309532062
 10
95.00953231131706
 20
-145.7282280451652
 10
95.00953231131706
 20
-145.9500921944152
 10
95.14182397795066
 20
-146.0599907403947
 10
95.3175238476984
 20
-146.0599907403947
 10
95.51148272351797
 20
-146.0599907403947
 10
95.62620440317679
 20
-145.9273545642126
 10
95.62620440317679
 20
-145.7351182361357
 10
95.62620440317679
 20
-145.4946505712652
 10
95.45636119575397
 20
-145.4147243560074
 10
95.3175238476984
 20
-145.4147243560074
 97
        0
 97
        0
 92
        1
 93
        1
 72
     4
 94
        3
 73
     0
 74
     1
 95
       17
 96
       13
 40
0.0
 40
0.0
 40
0.0
 40
0.0
 40
1.0
 40
1.0
 40
1.0
 40
2.0
 40
2.0
 40
2.0
 40
3.0
 40
3.0
 40
3.0
 40
4.0
 40
4.0
 40
4.0
 40
4.0
 10
95.3175238476984
 20
-144.7009005714637
 10
95.14595809253296
 20
-144.7009005714637
 10
95.05776364811057
 20
-144.8039089264726
 10
95.05776364811057
 20
-144.9503254845958
 10
95.05776364811057
 20
-145.0833061703264
 10
95.13286672968901
 20
-145.2114637223777
 10
95.3175238476984
 20
-145.2114637223777
 10
95.50286998480485
 20
-145.2114637223777
 10
95.57728404728624
 20
-145.0833061703264
 10
95.57728404728624
 20
-144.9503254845958
 10
95.57728404728624
 20
-144.8039089264726
 10
95.4870225455727
 20
-144.7009005714637
 10
95.3175238476984
 20
-144.7009005714637
 97
        0
 97
        0
 75
     2
 76
     1
 98
        0
  0
ENDBLK
  5
179
330
176
100
AcDbEntity
  8
0
100
AcDbBlockEnd
  0
BLOCK
  5
196
330
194
100
AcDbEntity
  8
0
100
AcDbBlockBegin
  2
block 9
 70
     0
 10
0.0
 20
0.0
 30
0.0
  3
block 9
  1

  0
SPLINE
  5
198
330
194
100
AcDbEntity
  8
_U+30EC_U+30A4_U+30E4_U+30FC 1
370
     0
100
AcDbSpline
210
0.0
220
0.0
230
1.0
 70
    11
 71
     3
 72
    26
 73
    22
 74
     0
 42
0.0000000001
 43
0.0000000001
 12
1.0
 22
0.0
 32
0.0
 13
1.0
 23
0.0
 33
0.0
 40
0.0
 40
0.0
 40
0.0
 40
0.0
 40
1.0
 40
1.0
 40
1.0
 40
2.0
 40
2.0
 40
2.0
 40
3.0
 40
3.0
 40
3.0
 40
4.0
 40
4.0
 40
4.0
 40
5.0
 40
5.0
 40
5.0
 40
6.0
 40
6.0
 40
6.0
 40
7.0
 40
7.0
 40
7.0
 40
7.0
 10
78.6937323479481
 20
-112.2618814823512
 30
0.0
 10
78.6937323479481
 20
-112.2618814823512
 30
0.0
 10
78.6937323479481
 20
-111.0705674635518
 30
0.0
 10
78.6937323479481
 20
-111.0705674635518
 30
0.0
 10
78.6937323479481
 20
-111.0705674635518
 30
0.0
 10
78.3502563280687
 20
-111.0705674635518
 30
0.0
 10
78.3502563280687
 20
-111.0705674635518
 30
0.0
 10
78.3502563280687
 20
-111.0705674635518
 30
0.0
 10
78.3502563280687
 20
-110.9107150330362
 30
0.0
 10
78.3502563280687
 20
-110.9107150330362
 30
0.0
 10
78.69597166001351
 20
-110.8948675938041
 30
0.0
 10
78.74437525158127
 20
-110.7191677240563
 30
0.0
 10
78.77520885617426
 20
-110.5958333056844
 30
0.0
 10
78.77520885617426
 20
-110.5958333056844
 30
0.0
 10
78.92713756707377
 20
-110.5958333056844
 30
0.0
 10
78.92713756707377
 20
-110.5958333056844
 30
0.0
 10
78.92713756707377
 20
-110.5958333056844
 30
0.0
 10
78.92713756707377
 20
-112.2618814823512
 30
0.0
 10
78.92713756707377
 20
-112.2618814823512
 30
0.0
 10
78.92713756707377
 20
-112.2618814823512
 30
0.0
 10
78.6937323479481
 20
-112.2618814823512
 30
0.0
 10
78.6937323479481
 20
-112.2618814823512
 30
0.0
  0
HATCH
  5
199
330
194
100
AcDbEntity
  8
_U+30EC_U+30A4_U+30E4_U+30FC 1
 62
   179
420
  2234388
100
AcDbHatch
 10
0.0
 20
0.0
 30
0.0
210
0.0
220
0.0
230
1.0
  2
SOLID
 70
     1
 71
     0
 91
        1
 92
        1
 93
        1
 72
     4
 94
        3
 73
     0
 74
     1
 95
       26
 96
       22
 40
0.0
 40
0.0
 40
0.0
 40
0.0
 40
1.0
 40
1.0
 40
1.0
 40
2.0
 40
2.0
 40
2.0
 40
3.0
 40
3.0
 40
3.0
 40
4.0
 40
4.0
 40
4.0
 40
5.0
 40
5.0
 40
5.0
 40
6.0
 40
6.0
 40
6.0
 40
7.0
 40
7.0
 40
7.0
 40
7.0
 10
78.6937323479481
 20
-112.2618814823512
 10
78.6937323479481
 20
-112.2618814823512
 10
78.6937323479481
 20
-111.0705674635518
 10
78.6937323479481
 20
-111.0705674635518
 10
78.6937323479481
 20
-111.0705674635518
 10
78.3502563280687
 20
-111.0705674635518
 10
78.3502563280687
 20
-111.0705674635518
 10
78.3502563280687
 20
-111.0705674635518
 10
78.3502563280687
 20
-110.9107150330362
 10
78.3502563280687
 20
-110.9107150330362
 10
78.69597166001351
 20
-110.8948675938041
 10
78.74437525158127
 20
-110.7191677240563
 10
78.77520885617426
 20
-110.5958333056844
 10
78.77520885617426
 20
-110.5958333056844
 10
78.92713756707377
 20
-110.5958333056844
 10
78.92713756707377
 20
-110.5958333056844
 10
78.92713756707377
 20
-110.5958333056844
 10
78.92713756707377
 20
-112.2618814823512
 10
78.92713756707377
 20
-112.2618814823512
 10
78.92713756707377
 20
-112.2618814823512
 10
78.6937323479481
 20
-112.2618814823512
 10
78.6937323479481
 20
-112.2618814823512
 97
        0
 97
        0
 75
     2
 76
     1
 98
        0
  0
POLYLINE
  5
19A
330
194
100
AcDbEntity
  8
_U+30EC_U+30A4_U+30E4_U+30FC 1
370
     0
100
AcDb2dPolyline
 66
     1
 10
0.0
 20
0.0
 30
0.0
  0
VERTEX
  5
19B
330
19A
100
AcDbEntity
  8
_U+30EC_U+30A4_U+30E4_U+30FC 1
370
     0
100
AcDbVertex
100
AcDb2dVertex
 10
79.50987546840379
 20
-112.2618814823512
 30
0.0
  0
VERTEX
  5
19C
330
19A
100
AcDbEntity
  8
_U+30EC_U+30A4_U+30E4_U+30FC 1
370
     0
100
AcDbVertex
100
AcDb2dVertex
 10
79.50987546840379
 20
-111.9904079581135
 30
0.0
  0
VERTEX
  5
19D
330
19A
100
AcDbEntity
  8
_U+30EC_U+30A4_U+30E4_U+30FC 1
370
     0
100
AcDbVertex
100
AcDb2dVertex
 10
79.77187498005704
 20
-111.9904079581135
 30
0.0
  0
VERTEX
  5
19E
330
19A
100
AcDbEntity
  8
_U+30EC_U+30A4_U+30E4_U+30FC 1
370
     0
100
AcDbVertex
100
AcDb2dVertex
 10
79.77187498005704
 20
-112.2618814823512
 30
0.0
  0
VERTEX
  5
19F
330
19A
100
AcDbEntity
  8
_U+30EC_U+30A4_U+30E4_U+30FC 1
370
     0
100
AcDbVertex
100
AcDb2dVertex
 10
79.50987546840379
 20
-112.2618814823512
 30
0.0
  0
SEQEND
  5
1A0
330
19A
100
AcDbEntity
  8
_U+30EC_U+30A4_U+30E4_U+30FC 1
370
     0
  0
HATCH
  5
1A1
330
194
100
AcDbEntity
  8
_U+30EC_U+30A4_U+30E4_U+30FC 1
 62
   179
420
  2234388
100
AcDbHatch
 10
0.0
 20
0.0
 30
0.0
210
0.0
220
0.0
230
1.0
  2
SOLID
 70
     1
 71
     0
 91
        1
 92
        1
 93
        4
 72
     1
 10
79.50987546840379
 20
-112.2618814823512
 11
79.50987546840379
 21
-111.9904079581135
 72
     1
 10
79.50987546840379
 20
-111.9904079581135
 11
79.77187498005704
 21
-111.9904079581135
 72
     1
 10
79.77187498005704
 20
-111.9904079581135
 11
79.77187498005704
 21
-112.2618814823512
 72
     1
 10
79.77187498005704
 20
-112.2618814823512
 11
79.50987546840379
 21
-112.2618814823512
 97
        0
 75
     2
 76
     1
 98
        0
  0
SPLINE
  5
1A2
330
194
100
AcDbEntity
  8
_U+30EC_U+30A4_U+30E4_U+30FC 1
370
     0
100
AcDbSpline
210
0.0
220
0.0
230
1.0
 70
    11
 71
     3
 72
    44
 73
    40
 74
     0
 42
0.0000000001
 43
0.0000000001
 12
1.0
 22
0.0
 32
0.0
 13
1.0
 23
0.0
 33
0.0
 40
0.0
 40
0.0
 40
0.0
 40
0.0
 40
1.0
 40
1.0
 40
1.0
 40
2.0
 40
2.0
 40
2.0
 40
3.0
 40
3.0
 40
3.0
 40
4.0
 40
4.0
 40
4.0
 40
5.0
 40
5.0
 40
5.0
 40
6.0
 40
6.0
 40
6.0
 40
7.0
 40
7.0
 40
7.0
 40
8.0
 40
8.0
 40
8.0
 40
9.0
 40
9.0
 40
9.0
 40
10.0
 40
10.0
 40
10.0
 40
11.0
 40
11.0
 40
11.0
 40
12.0
 40
12.0
 40
12.0
 40
13.0
 40
13.0
 40
13.0
 40
13.0
 10
80.63452688956359
 20
-111.6341850849387
 30
0.0
 10
80.4076673518599
 20
-111.8054063305556
 30
0.0
 10
80.31086016872437
 20
-111.8853325458134
 30
0.0
 10
80.2602172650912
 20
-112.0403618426496
 30
0.0
 10
80.2602172650912
 20
-112.0403618426496
 30
0.0
 10
81.0703314684477
 20
-112.0403618426496
 30
0.0
 10
81.0703314684477
 20
-112.0403618426496
 30
0.0
 10
81.0703314684477
 20
-112.0403618426496
 30
0.0
 10
81.0703314684477
 20
-112.2618814823512
 30
0.0
 10
81.0703314684477
 20
-112.2618814823512
 30
0.0
 10
81.0703314684477
 20
-112.2618814823512
 30
0.0
 10
80.00045706550335
 20
-112.2618814823512
 30
0.0
 10
80.00045706550335
 20
-112.2618814823512
 30
0.0
 10
80.0333577273875
 20
-111.8760307880032
 30
0.0
 10
80.1017428727697
 20
-111.7916259486146
 30
0.0
 10
80.50240747770427
 20
-111.4698540302923
 30
0.0
 10
80.76871335871408
 20
-111.2552245815612
 30
0.0
 10
80.83692624932202
 20
-111.1821885572739
 30
0.0
 10
80.83692624932202
 20
-111.0340494514082
 30
0.0
 10
80.83692624932202
 20
-110.9062364089054
 30
0.0
 10
80.7621676772921
 20
-110.7646429844616
 30
0.0
 10
80.557356750694
 20
-110.7646429844616
 30
0.0
 10
80.28657224555336
 20
-110.7646429844616
 30
0.0
 10
80.27778725206598
 20
-111.0133788784967
 30
0.0
 10
80.27330862793515
 20
-111.1387803541597
 30
0.0
 10
80.27330862793515
 20
-111.1387803541597
 30
0.0
 10
80.04007566358374
 20
-111.1387803541597
 30
0.0
 10
80.04007566358374
 20
-111.1387803541597
 30
0.0
 10
80.04886065707112
 20
-111.0020100633953
 30
0.0
 10
80.05988496262393
 20
-110.8810872118631
 30
0.0
 10
80.14342852814123
 20
-110.7532741693603
 30
0.0
 10
80.25797795302579
 20
-110.5796413569037
 30
0.0
 10
80.45176457407109
 20
-110.5431233447601
 30
0.0
 10
80.57285968037762
 20
-110.5431233447601
 30
0.0
 10
80.86121417249304
 20
-110.5431233447601
 30
0.0
 10
81.07704940464393
 20
-110.741905354259
 30
0.0
 10
81.07704940464393
 20
-111.0361165086993
 30
0.0
 10
81.07704940464393
 20
-111.2827853454432
 30
0.0
 10
80.9559542983374
 20
-111.3899278150345
 30
0.0
 10
80.63452688956359
 20
-111.6341850849387
 30
0.0
  0
HATCH
  5
1A3
330
194
100
AcDbEntity
  8
_U+30EC_U+30A4_U+30E4_U+30FC 1
 62
   179
420
  2234388
100
AcDbHatch
 10
0.0
 20
0.0
 30
0.0
210
0.0
220
0.0
230
1.0
  2
SOLID
 70
     1
 71
     0
 91
        1
 92
        1
 93
        1
 72
     4
 94
        3
 73
     0
 74
     1
 95
       44
 96
       40
 40
0.0
 40
0.0
 40
0.0
 40
0.0
 40
1.0
 40
1.0
 40
1.0
 40
2.0
 40
2.0
 40
2.0
 40
3.0
 40
3.0
 40
3.0
 40
4.0
 40
4.0
 40
4.0
 40
5.0
 40
5.0
 40
5.0
 40
6.0
 40
6.0
 40
6.0
 40
7.0
 40
7.0
 40
7.0
 40
8.0
 40
8.0
 40
8.0
 40
9.0
 40
9.0
 40
9.0
 40
10.0
 40
10.0
 40
10.0
 40
11.0
 40
11.0
 40
11.0
 40
12.0
 40
12.0
 40
12.0
 40
13.0
 40
13.0
 40
13.0
 40
13.0
 10
80.63452688956359
 20
-111.6341850849387
 10
80.4076673518599
 20
-111.8054063305556
 10
80.31086016872437
 20
-111.8853325458134
 10
80.2602172650912
 20
-112.0403618426496
 10
80.2602172650912
 20
-112.0403618426496
 10
81.0703314684477
 20
-112.0403618426496
 10
81.0703314684477
 20
-112.0403618426496
 10
81.0703314684477
 20
-112.0403618426496
 10
81.0703314684477
 20
-112.2618814823512
 10
81.0703314684477
 20
-112.2618814823512
 10
81.0703314684477
 20
-112.2618814823512
 10
80.00045706550335
 20
-112.2618814823512
 10
80.00045706550335
 20
-112.2618814823512
 10
80.0333577273875
 20
-111.8760307880032
 10
80.1017428727697
 20
-111.7916259486146
 10
80.50240747770427
 20
-111.4698540302923
 10
80.76871335871408
 20
-111.2552245815612
 10
80.83692624932202
 20
-111.1821885572739
 10
80.83692624932202
 20
-111.0340494514082
 10
80.83692624932202
 20
-110.9062364089054
 10
80.7621676772921
 20
-110.7646429844616
 10
80.557356750694
 20
-110.7646429844616
 10
80.28657224555336
 20
-110.7646429844616
 10
80.27778725206598
 20
-111.0133788784967
 10
80.27330862793515
 20
-111.1387803541597
 10
80.27330862793515
 20
-111.1387803541597
 10
80.04007566358374
 20
-111.1387803541597
 10
80.04007566358374
 20
-111.1387803541597
 10
80.04886065707112
 20
-111.0020100633953
 10
80.05988496262393
 20
-110.8810872118631
 10
80.14342852814123
 20
-110.7532741693603
 10
80.25797795302579
 20
-110.5796413569037
 10
80.45176457407109
 20
-110.5431233447601
 10
80.57285968037762
 20
-110.5431233447601
 10
80.86121417249304
 20
-110.5431233447601
 10
81.07704940464393
 20
-110.741905354259
 10
81.07704940464393
 20
-111.0361165086993
 10
81.07704940464393
 20
-111.2827853454432
 10
80.9559542983374
 20
-111.3899278150345
 10
80.63452688956359
 20
-111.6341850849387
 97
        0
 97
        0
 75
     2
 76
     1
 98
        0
  0
ENDBLK
  5
197
330
194
100
AcDbEntity
  8
0
100
AcDbBlockEnd
  0
ENDSEC
  0
SECTION
  2
ENTITIES
  0
POLYLINE
  5
41
330
1F
100
AcDbEntity
  8
_U+30EC_U+30A4_U+30E4_U+30FC 1
370
     0
100
AcDb2dPolyline
 66
     1
 10
0.0
 20
0.0
 30
0.0
  0
VERTEX
  5
42
330
41
100
AcDbEntity
  8
_U+30EC_U+30A4_U+30E4_U+30FC 1
370
     0
100
AcDbVertex
100
AcDb2dVertex
 10
90.75208331064532
 20
-143.051388853126
 30
0.0
  0
VERTEX
  5
43
330
41
100
AcDbEntity
  8
_U+30EC_U+30A4_U+30E4_U+30FC 1
370
     0
100
AcDbVertex
100
AcDb2dVertex
 10
90.75208331064532
 20
-115.9756944154505
 30
0.0
  0
VERTEX
  5
44
330
41
100
AcDbEntity
  8
_U+30EC_U+30A4_U+30E4_U+30FC 1
370
     0
100
AcDbVertex
100
AcDb2dVertex
 10
91.72222219929166
 20
-115.9756944154505
 30
0.0
  0
VERTEX
  5
45
330
41
100
AcDbEntity
  8
_U+30EC_U+30A4_U+30E4_U+30FC 1
370
     0
100
AcDbVertex
100
AcDb2dVertex
 10
91.72222219929166
 20
-143.051388853126
 30
0.0
  0
VERTEX
  5
46
330
41
100
AcDbEntity
  8
_U+30EC_U+30A4_U+30E4_U+30FC 1
370
     0
100
AcDbVertex
100
AcDb2dVertex
 10
103.6284721963151
 20
-143.051388853126
 30
0.0
  0
VERTEX
  5
47
330
41
100
AcDbEntity
  8
_U+30EC_U+30A4_U+30E4_U+30FC 1
370
     0
100
AcDbVertex
100
AcDb2dVertex
 10
103.6284721963151
 20
-134.4083332997313
 30
0.0
  0
VERTEX
  5
48
330
41
100
AcDbEntity
  8
_U+30EC_U+30A4_U+30E4_U+30FC 1
370
     0
100
AcDbVertex
100
AcDb2dVertex
 10
101.8645833078672
 20
-134.4083332997313
 30
0.0
  0
VERTEX
  5
49
330
41
100
AcDbEntity
  8
_U+30EC_U+30A4_U+30E4_U+30FC 1
370
     0
100
AcDbVertex
100
AcDb2dVertex
 10
101.8645833078672
 20
-133.5263888555073
 30
0.0
  0
VERTEX
  5
4A
330
41
100
AcDbEntity
  8
_U+30EC_U+30A4_U+30E4_U+30FC 1
370
     0
100
AcDbVertex
100
AcDb2dVertex
 10
104.5104166405391
 20
-133.5263888555073
 30
0.0
  0
VERTEX
  5
4B
330
41
100
AcDbEntity
  8
_U+30EC_U+30A4_U+30E4_U+30FC 1
370
     0
100
AcDbVertex
100
AcDb2dVertex
 10
104.5104166405391
 20
-144.0215277417724
 30
0.0
  0
VERTEX
  5
4C
330
41
100
AcDbEntity
  8
_U+30EC_U+30A4_U+30E4_U+30FC 1
370
     0
100
AcDbVertex
100
AcDb2dVertex
 10
83.07916664589688
 20
-144.0215277417724
 30
0.0
  0
VERTEX
  5
4D
330
41
100
AcDbEntity
  8
_U+30EC_U+30A4_U+30E4_U+30FC 1
370
     0
100
AcDbVertex
100
AcDb2dVertex
 10
83.07916664589688
 20
-141.3756944091005
 30
0.0
  0
VERTEX
  5
4E
330
41
100
AcDbEntity
  8
_U+30EC_U+30A4_U+30E4_U+30FC 1
370
     0
100
AcDbVertex
100
AcDb2dVertex
 10
83.87291664569844
 20
-141.3756944091005
 30
0.0
  0
VERTEX
  5
4F
330
41
100
AcDbEntity
  8
_U+30EC_U+30A4_U+30E4_U+30FC 1
370
     0
100
AcDbVertex
100
AcDb2dVertex
 10
83.87291664569844
 20
-142.9631944087037
 30
0.0
  0
VERTEX
  5
50
330
41
100
AcDbEntity
  8
_U+30EC_U+30A4_U+30E4_U+30FC 1
370
     0
100
AcDbVertex
100
AcDb2dVertex
 10
90.75208331064532
 20
-143.051388853126
 30
0.0
  0
SEQEND
  5
52
330
41
100
AcDbEntity
  8
_U+30EC_U+30A4_U+30E4_U+30FC 1
370
     0
  0
HATCH
  5
51
330
1F
100
AcDbEntity
  8
_U+30EC_U+30A4_U+30E4_U+30FC 1
 62
   253
420
 10066329
100
AcDbHatch
 10
0.0
 20
0.0
 30
0.0
210
0.0
220
0.0
230
1.0
  2
SOLID
 70
     1
 71
     0
 91
        1
 92
        1
 93
       14
 72
     1
 10
90.75208331064532
 20
-143.051388853126
 11
90.75208331064532
 21
-115.9756944154505
 72
     1
 10
90.75208331064532
 20
-115.9756944154505
 11
91.72222219929166
 21
-115.9756944154505
 72
     1
 10
91.72222219929166
 20
-115.9756944154505
 11
91.72222219929166
 21
-143.051388853126
 72
     1
 10
91.72222219929166
 20
-143.051388853126
 11
103.6284721963151
 21
-143.051388853126
 72
     1
 10
103.6284721963151
 20
-143.051388853126
 11
103.6284721963151
 21
-134.4083332997313
 72
     1
 10
103.6284721963151
 20
-134.4083332997313
 11
101.8645833078672
 21
-134.4083332997313
 72
     1
 10
101.8645833078672
 20
-134.4083332997313
 11
101.8645833078672
 21
-133.5263888555073
 72
     1
 10
101.8645833078672
 20
-133.5263888555073
 11
104.5104166405391
 21
-133.5263888555073
 72
     1
 10
104.5104166405391
 20
-133.5263888555073
 11
104.5104166405391
 21
-144.0215277417724
 72
     1
 10
104.5104166405391
 20
-144.0215277417724
 11
83.07916664589688
 21
-144.0215277417724
 72
     1
 10
83.07916664589688
 20
-144.0215277417724
 11
83.07916664589688
 21
-141.3756944091005
 72
     1
 10
83.07916664589688
 20
-141.3756944091005
 11
83.87291664569844
 21
-141.3756944091005
 72
     1
 10
83.87291664569844
 20
-141.3756944091005
 11
83.87291664569844
 21
-142.9631944087037
 72
     1
 10
83.87291664569844
 20
-142.9631944087037
 11
90.75208331064532
 21
-143.051388853126
 97
        0
 75
     2
 76
     1
 98
        0
  0
POLYLINE
  5
53
330
1F
100
AcDbEntity
  8
_U+30EC_U+30A4_U+30E4_U+30FC 1
 62
   179
420
  2234388
370
    25
100
AcDb2dPolyline
 66
     1
 10
0.0
 20
0.0
 30
0.0
  0
VERTEX
  5
54
330
53
100
AcDbEntity
  8
_U+30EC_U+30A4_U+30E4_U+30FC 1
 62
   179
420
  2234388
370
    25
100
AcDbVertex
100
AcDb2dVertex
 10
90.79825962798786
 20
-116.0416638598784
 30
0.0
  0
VERTEX
  5
55
330
53
100
AcDbEntity
  8
_U+30EC_U+30A4_U+30E4_U+30FC 1
 62
   179
420
  2234388
370
    25
100
AcDbVertex
100
AcDb2dVertex
 10
90.79825962798786
 20
-143.2016016308666
 30
0.0
  0
SEQEND
  5
56
330
53
100
AcDbEntity
  8
_U+30EC_U+30A4_U+30E4_U+30FC 1
 62
   179
420
  2234388
370
    25
  0
POLYLINE
  5
57
330
1F
100
AcDbEntity
  8
_U+30EC_U+30A4_U+30E4_U+30FC 1
 62
   179
420
  2234388
370
    25
100
AcDb2dPolyline
 66
     1
 10
0.0
 20
0.0
 30
0.0
  0
VERTEX
  5
58
330
57
100
AcDbEntity
  8
_U+30EC_U+30A4_U+30E4_U+30FC 1
 62
   179
420
  2234388
370
    25
100
AcDbVertex
100
AcDb2dVertex
 10
83.9383548029986
 20
-143.2016016308666
 30
0.0
  0
VERTEX
  5
59
330
57
100
AcDbEntity
  8
_U+30EC_U+30A4_U+30E4_U+30FC 1
 62
   179
420
  2234388
370
    25
100
AcDbVertex
100
AcDb2dVertex
 10
90.79825962798786
 20
-143.2016016308666
 30
0.0
  0
SEQEND
  5
5A
330
57
100
AcDbEntity
  8
_U+30EC_U+30A4_U+30E4_U+30FC 1
 62
   179
420
  2234388
370
    25
  0
POLYLINE
  5
5B
330
1F
100
AcDbEntity
  8
_U+30EC_U+30A4_U+30E4_U+30FC 1
 62
   179
420
  2234388
370
    25
100
AcDb2dPolyline
 66
     1
 10
0.0
 20
0.0
 30
0.0
  0
VERTEX
  5
5C
330
5B
100
AcDbEntity
  8
_U+30EC_U+30A4_U+30E4_U+30FC 1
 62
   179
420
  2234388
370
    25
100
AcDbVertex
100
AcDb2dVertex
 10
83.9383548029986
 20
-141.3819032979876
 30
0.0
  0
VERTEX
  5
5D
330
5B
100
AcDbEntity
  8
_U+30EC_U+30A4_U+30E4_U+30FC 1
 62
   179
420
  2234388
370
    25
100
AcDbVertex
100
AcDb2dVertex
 10
83.9383548029986
 20
-143.2016016308666
 30
0.0
  0
SEQEND
  5
5E
330
5B
100
AcDbEntity
  8
_U+30EC_U+30A4_U+30E4_U+30FC 1
 62
   179
420
  2234388
370
    25
  0
POLYLINE
  5
5F
330
1F
100
AcDbEntity
  8
_U+30EC_U+30A4_U+30E4_U+30FC 1
 62
   179
420
  2234388
370
    25
100
AcDb2dPolyline
 66
     1
 10
0.0
 20
0.0
 30
0.0
  0
VERTEX
  5
60
330
5F
100
AcDbEntity
  8
_U+30EC_U+30A4_U+30E4_U+30FC 1
 62
   179
420
  2234388
370
    25
100
AcDbVertex
100
AcDb2dVertex
 10
91.63815293989373
 20
-116.0416638598784
 30
0.0
  0
VERTEX
  5
61
330
5F
100
AcDbEntity
  8
_U+30EC_U+30A4_U+30E4_U+30FC 1
 62
   179
420
  2234388
370
    25
100
AcDbVertex
100
AcDb2dVertex
 10
91.63815293989373
 20
-143.2016016308666
 30
0.0
  0
SEQEND
  5
62
330
5F
100
AcDbEntity
  8
_U+30EC_U+30A4_U+30E4_U+30FC 1
 62
   179
420
  2234388
370
    25
  0
POLYLINE
  5
63
330
1F
100
AcDbEntity
  8
_U+30EC_U+30A4_U+30E4_U+30FC 1
 62
   179
420
  2234388
370
    25
100
AcDb2dPolyline
 66
     1
 10
0.0
 20
0.0
 30
0.0
  0
VERTEX
  5
64
330
63
100
AcDbEntity
  8
_U+30EC_U+30A4_U+30E4_U+30FC 1
 62
   179
420
  2234388
370
    25
100
AcDbVertex
100
AcDb2dVertex
 10
101.8583718458209
 20
-133.5415582999478
 30
0.0
  0
VERTEX
  5
65
330
63
100
AcDbEntity
  8
_U+30EC_U+30A4_U+30E4_U+30FC 1
 62
   179
420
  2234388
370
    25
100
AcDbVertex
100
AcDb2dVertex
 10
101.8583718458209
 20
-134.3814516330715
 30
0.0
  0
SEQEND
  5
66
330
63
100
AcDbEntity
  8
_U+30EC_U+30A4_U+30E4_U+30FC 1
 62
   179
420
  2234388
370
    25
  0
POLYLINE
  5
67
330
1F
100
AcDbEntity
  8
_U+30EC_U+30A4_U+30E4_U+30FC 1
 62
   179
420
  2234388
370
    25
100
AcDb2dPolyline
 66
     1
 10
0.0
 20
0.0
 30
0.0
  0
VERTEX
  5
68
330
67
100
AcDbEntity
  8
_U+30EC_U+30A4_U+30E4_U+30FC 1
 62
   179
420
  2234388
370
    25
100
AcDbVertex
100
AcDb2dVertex
 10
83.09828510220835
 20
-144.0414949639896
 30
0.0
  0
VERTEX
  5
69
330
67
100
AcDbEntity
  8
_U+30EC_U+30A4_U+30E4_U+30FC 1
 62
   179
420
  2234388
370
    25
100
AcDbVertex
100
AcDb2dVertex
 10
104.5179987224126
 20
-144.0414949639896
 30
0.0
  0
SEQEND
  5
6A
330
67
100
AcDbEntity
  8
_U+30EC_U+30A4_U+30E4_U+30FC 1
 62
   179
420
  2234388
370
    25
  0
POLYLINE
  5
6B
330
1F
100
AcDbEntity
  8
_U+30EC_U+30A4_U+30E4_U+30FC 1
 62
   179
420
  2234388
370
    25
100
AcDb2dPolyline
 66
     1
 10
0.0
 20
0.0
 30
0.0
  0
VERTEX
  5
6C
330
6B
100
AcDbEntity
  8
_U+30EC_U+30A4_U+30E4_U+30FC 1
 62
   179
420
  2234388
370
    25
100
AcDbVertex
100
AcDb2dVertex
 10
83.09828510220835
 20
-141.3819032979876
 30
0.0
  0
VERTEX
  5
6D
330
6B
100
AcDbEntity
  8
_U+30EC_U+30A4_U+30E4_U+30FC 1
 62
   179
420
  2234388
370
    25
100
AcDbVertex
100
AcDb2dVertex
 10
83.9383548029986
 20
-141.3819032979876
 30
0.0
  0
SEQEND
  5
6E
330
6B
100
AcDbEntity
  8
_U+30EC_U+30A4_U+30E4_U+30FC 1
 62
   179
420
  2234388
370
    25
  0
POLYLINE
  5
6F
330
1F
100
AcDbEntity
  8
_U+30EC_U+30A4_U+30E4_U+30FC 1
 62
   179
420
  2234388
370
    25
100
AcDb2dPolyline
 66
     1
 10
0.0
 20
0.0
 30
0.0
  0
VERTEX
  5
70
330
6F
100
AcDbEntity
  8
_U+30EC_U+30A4_U+30E4_U+30FC 1
 62
   179
420
  2234388
370
    25
100
AcDbVertex
100
AcDb2dVertex
 10
104.5179987224126
 20
-133.5415582999478
 30
0.0
  0
VERTEX
  5
71
330
6F
100
AcDbEntity
  8
_U+30EC_U+30A4_U+30E4_U+30FC 1
 62
   179
420
  2234388
370
    25
100
AcDbVertex
100
AcDb2dVertex
 10
104.5179987224126
 20
-144.0414949639896
 30
0.0
  0
SEQEND
  5
72
330
6F
100
AcDbEntity
  8
_U+30EC_U+30A4_U+30E4_U+30FC 1
 62
   179
420
  2234388
370
    25
  0
POLYLINE
  5
73
330
1F
100
AcDbEntity
  8
_U+30EC_U+30A4_U+30E4_U+30FC 1
 62
   179
420
  2234388
370
    25
100
AcDb2dPolyline
 66
     1
 10
0.0
 20
0.0
 30
0.0
  0
VERTEX
  5
74
330
73
100
AcDbEntity
  8
_U+30EC_U+30A4_U+30E4_U+30FC 1
 62
   179
420
  2234388
370
    25
100
AcDbVertex
100
AcDb2dVertex
 10
83.09828510220835
 20
-141.3819032979876
 30
0.0
  0
VERTEX
  5
75
330
73
100
AcDbEntity
  8
_U+30EC_U+30A4_U+30E4_U+30FC 1
 62
   179
420
  2234388
370
    25
100
AcDbVertex
100
AcDb2dVertex
 10
83.09828510220835
 20
-144.0414949639896
 30
0.0
  0
SEQEND
  5
76
330
73
100
AcDbEntity
  8
_U+30EC_U+30A4_U+30E4_U+30FC 1
 62
   179
420
  2234388
370
    25
  0
POLYLINE
  5
77
330
1F
100
AcDbEntity
  8
_U+30EC_U+30A4_U+30E4_U+30FC 1
 62
   179
420
  2234388
370
    25
100
AcDb2dPolyline
 66
     1
 10
0.0
 20
0.0
 30
0.0
  0
VERTEX
  5
78
330
77
100
AcDbEntity
  8
_U+30EC_U+30A4_U+30E4_U+30FC 1
 62
   179
420
  2234388
370
    25
100
AcDbVertex
100
AcDb2dVertex
 10
101.8583718458209
 20
-133.5415582999478
 30
0.0
  0
VERTEX
  5
79
330
77
100
AcDbEntity
  8
_U+30EC_U+30A4_U+30E4_U+30FC 1
 62
   179
420
  2234388
370
    25
100
AcDbVertex
100
AcDb2dVertex
 10
104.5179987224126
 20
-133.5415582999478
 30
0.0
  0
SEQEND
  5
7A
330
77
100
AcDbEntity
  8
_U+30EC_U+30A4_U+30E4_U+30FC 1
 62
   179
420
  2234388
370
    25
  0
POLYLINE
  5
7B
330
1F
100
AcDbEntity
  8
_U+30EC_U+30A4_U+30E4_U+30FC 1
 62
   179
420
  2234388
370
    25
100
AcDb2dPolyline
 66
     1
 10
0.0
 20
0.0
 30
0.0
  0
VERTEX
  5
7C
330
7B
100
AcDbEntity
  8
_U+30EC_U+30A4_U+30E4_U+30FC 1
 62
   179
420
  2234388
370
    25
100
AcDbVertex
100
AcDb2dVertex
 10
103.6780701327298
 20
-134.3814516330715
 30
0.0
  0
VERTEX
  5
7D
330
7B
100
AcDbEntity
  8
_U+30EC_U+30A4_U+30E4_U+30FC 1
 62
   179
420
  2234388
370
    25
100
AcDbVertex
100
AcDb2dVertex
 10
103.6780701327298
 20
-143.2016016308666
 30
0.0
  0
SEQEND
  5
7E
330
7B
100
AcDbEntity
  8
_U+30EC_U+30A4_U+30E4_U+30FC 1
 62
   179
420
  2234388
370
    25
  0
POLYLINE
  5
7F
330
1F
100
AcDbEntity
  8
_U+30EC_U+30A4_U+30E4_U+30FC 1
 62
   179
420
  2234388
370
    25
100
AcDb2dPolyline
 66
     1
 10
0.0
 20
0.0
 30
0.0
  0
VERTEX
  5
80
330
7F
100
AcDbEntity
  8
_U+30EC_U+30A4_U+30E4_U+30FC 1
 62
   179
420
  2234388
370
    25
100
AcDbVertex
100
AcDb2dVertex
 10
101.8583718458209
 20
-134.3814516330715
 30
0.0
  0
VERTEX
  5
81
330
7F
100
AcDbEntity
  8
_U+30EC_U+30A4_U+30E4_U+30FC 1
 62
   179
420
  2234388
370
    25
100
AcDbVertex
100
AcDb2dVertex
 10
103.6780701327298
 20
-134.3814516330715
 30
0.0
  0
SEQEND
  5
82
330
7F
100
AcDbEntity
  8
_U+30EC_U+30A4_U+30E4_U+30FC 1
 62
   179
420
  2234388
370
    25
  0
POLYLINE
  5
83
330
1F
100
AcDbEntity
  8
_U+30EC_U+30A4_U+30E4_U+30FC 1
 62
   179
420
  2234388
370
    25
100
AcDb2dPolyline
 66
     1
 10
0.0
 20
0.0
 30
0.0
  0
VERTEX
  5
84
330
83
100
AcDbEntity
  8
_U+30EC_U+30A4_U+30E4_U+30FC 1
 62
   179
420
  2234388
370
    25
100
AcDbVertex
100
AcDb2dVertex
 10
91.63815293989373
 20
-143.2016016308666
 30
0.0
  0
VERTEX
  5
85
330
83
100
AcDbEntity
  8
_U+30EC_U+30A4_U+30E4_U+30FC 1
 62
   179
420
  2234388
370
    25
100
AcDbVertex
100
AcDb2dVertex
 10
103.6780701327298
 20
-143.2016016308666
 30
0.0
  0
SEQEND
  5
86
330
83
100
AcDbEntity
  8
_U+30EC_U+30A4_U+30E4_U+30FC 1
 62
   179
420
  2234388
370
    25
  0
POLYLINE
  5
87
330
1F
100
AcDbEntity
  8
_U+30EC_U+30A4_U+30E4_U+30FC 1
 62
   179
420
  2234388
370
    25
100
AcDb2dPolyline
 66
     1
 10
0.0
 20
0.0
 30
0.0
  0
VERTEX
  5
88
330
87
100
AcDbEntity
  8
_U+30EC_U+30A4_U+30E4_U+30FC 1
 62
   179
420
  2234388
370
    25
100
AcDbVertex
100
AcDb2dVertex
 10
90.79825962798786
 20
-116.0416638598784
 30
0.0
  0
VERTEX
  5
89
330
87
100
AcDbEntity
  8
_U+30EC_U+30A4_U+30E4_U+30FC 1
 62
   179
420
  2234388
370
    25
100
AcDbVertex
100
AcDb2dVertex
 10
91.63815293989373
 20
-116.0416638598784
 30
0.0
  0
SEQEND
  5
8A
330
87
100
AcDbEntity
  8
_U+30EC_U+30A4_U+30E4_U+30FC 1
 62
   179
420
  2234388
370
    25
  0
SPLINE
  5
8B
330
1F
100
AcDbEntity
  8
_U+30EC_U+30A4_U+30E4_U+30FC 1
 62
   179
420
  2234388
370
     9
100
AcDbSpline
210
0.0
220
0.0
230
1.0
 70
    11
 71
     3
 72
    17
 73
    13
 74
     0
 42
0.0000000001
 43
0.0000000001
 12
1.0
 22
0.0
 32
0.0
 13
1.0
 23
0.0
 33
0.0
 40
0.0
 40
0.0
 40
0.0
 40
0.0
 40
1.0
 40
1.0
 40
1.0
 40
2.0
 40
2.0
 40
2.0
 40
3.0
 40
3.0
 40
3.0
 40
4.0
 40
4.0
 40
4.0
 40
4.0
 10
77.5682113544034
 20
-116.0416638598784
 30
0.0
 10
77.5682113544034
 20
-116.0028935821105
 30
0.0
 10
77.53688468853593
 20
-115.9717433043404
 30
0.0
 10
77.49829080063166
 20
-115.9717433043404
 30
0.0
 10
77.45969691272738
 20
-115.9717433043404
 30
0.0
 10
77.42833496908305
 20
-116.0028935821105
 30
0.0
 10
77.42833496908305
 20
-116.0416638598784
 30
0.0
 10
77.42833496908305
 20
-116.0804341376467
 30
0.0
 10
77.45969691272738
 20
-116.1117608043053
 30
0.0
 10
77.49829080063166
 20
-116.1117608043053
 30
0.0
 10
77.53688468853593
 20
-116.1117608043053
 30
0.0
 10
77.5682113544034
 20
-116.0804341376467
 30
0.0
 10
77.5682113544034
 20
-116.0416638598784
 30
0.0
  0
SPLINE
  5
8C
330
1F
100
AcDbEntity
  8
_U+30EC_U+30A4_U+30E4_U+30FC 1
 62
   179
420
  2234388
370
     9
100
AcDbSpline
210
0.0
220
0.0
230
1.0
 70
    11
 71
     3
 72
    17
 73
    13
 74
     0
 42
0.0000000001
 43
0.0000000001
 12
1.0
 22
0.0
 32
0.0
 13
1.0
 23
0.0
 33
0.0
 40
0.0
 40
0.0
 40
0.0
 40
0.0
 40
1.0
 40
1.0
 40
1.0
 40
2.0
 40
2.0
 40
2.0
 40
3.0
 40
3.0
 40
3.0
 40
4.0
 40
4.0
 40
4.0
 40
4.0
 10
77.5682113544034
 20
-144.0414949639896
 30
0.0
 10
77.5682113544034
 20
-144.0029363528881
 30
0.0
 10
77.53688468853593
 20
-143.971927186229
 30
0.0
 10
77.49829080063166
 20
-143.971927186229
 30
0.0
 10
77.45969691272738
 20
-143.971927186229
 30
0.0
 10
77.42833496908305
 20
-144.0029363528881
 30
0.0
 10
77.42833496908305
 20
-144.0414949639896
 30
0.0
 10
77.42833496908305
 20
-144.0800888528686
 30
0.0
 10
77.45969691272738
 20
-144.1118035750832
 30
0.0
 10
77.49829080063166
 20
-144.1118035750832
 30
0.0
 10
77.53688468853593
 20
-144.1118035750832
 30
0.0
 10
77.5682113544034
 20
-144.0800888528686
 30
0.0
 10
77.5682113544034
 20
-144.0414949639896
 30
0.0
  0
SPLINE
  5
8D
330
1F
100
AcDbEntity
  8
_U+30EC_U+30A4_U+30E4_U+30FC 1
 62
   179
420
  2234388
370
     9
100
AcDbSpline
210
0.0
220
0.0
230
1.0
 70
    11
 71
     3
 72
    17
 73
    13
 74
     0
 42
0.0000000001
 43
0.0000000001
 12
1.0
 22
0.0
 32
0.0
 13
1.0
 23
0.0
 33
0.0
 40
0.0
 40
0.0
 40
0.0
 40
0.0
 40
1.0
 40
1.0
 40
1.0
 40
2.0
 40
2.0
 40
2.0
 40
3.0
 40
3.0
 40
3.0
 40
4.0
 40
4.0
 40
4.0
 40
4.0
 10
80.36820850519175
 20
-141.3819032979876
 30
0.0
 10
80.36820850519175
 20
-141.3429566313308
 30
0.0
 10
80.33705822820868
 20
-141.3116299646721
 30
0.0
 10
80.29828795142001
 20
-141.3116299646721
 30
0.0
 10
80.25951767463134
 20
-141.3116299646721
 30
0.0
 10
80.22819100876389
 20
-141.3429566313308
 30
0.0
 10
80.22819100876389
 20
-141.3819032979876
 30
0.0
 10
80.22819100876389
 20
-141.4204971868672
 30
0.0
 10
80.25951767463134
 20
-141.4514710757481
 30
0.0
 10
80.29828795142001
 20
-141.4514710757481
 30
0.0
 10
80.33705822820868
 20
-141.4514710757481
 30
0.0
 10
80.36820850519175
 20
-141.4204971868672
 30
0.0
 10
80.36820850519175
 20
-141.3819032979876
 30
0.0
  0
SPLINE
  5
8E
330
1F
100
AcDbEntity
  8
_U+30EC_U+30A4_U+30E4_U+30FC 1
 62
   179
420
  2234388
370
     9
100
AcDbSpline
210
0.0
220
0.0
230
1.0
 70
    11
 71
     3
 72
    17
 73
    13
 74
     0
 42
0.0000000001
 43
0.0000000001
 12
1.0
 22
0.0
 32
0.0
 13
1.0
 23
0.0
 33
0.0
 40
0.0
 40
0.0
 40
0.0
 40
0.0
 40
1.0
 40
1.0
 40
1.0
 40
2.0
 40
2.0
 40
2.0
 40
3.0
 40
3.0
 40
3.0
 40
4.0
 40
4.0
 40
4.0
 40
4.0
 10
80.36820850519175
 20
-144.0414949639896
 30
0.0
 10
80.36820850519175
 20
-144.0029363528881
 30
0.0
 10
80.33705822820868
 20
-143.971927186229
 30
0.0
 10
80.29828795142001
 20
-143.971927186229
 30
0.0
 10
80.25951767463134
 20
-143.971927186229
 30
0.0
 10
80.22819100876389
 20
-144.0029363528881
 30
0.0
 10
80.22819100876389
 20
-144.0414949639896
 30
0.0
 10
80.22819100876389
 20
-144.0800888528686
 30
0.0
 10
80.25951767463134
 20
-144.1118035750832
 30
0.0
 10
80.29828795142001
 20
-144.1118035750832
 30
0.0
 10
80.33705822820868
 20
-144.1118035750832
 30
0.0
 10
80.36820850519175
 20
-144.0800888528686
 30
0.0
 10
80.36820850519175
 20
-144.0414949639896
 30
0.0
  0
SPLINE
  5
8F
330
1F
100
AcDbEntity
  8
_U+30EC_U+30A4_U+30E4_U+30FC 1
 62
   179
420
  2234388
370
     9
100
AcDbSpline
210
0.0
220
0.0
230
1.0
 70
    11
 71
     3
 72
    17
 73
    13
 74
     0
 42
0.0000000001
 43
0.0000000001
 12
1.0
 22
0.0
 32
0.0
 13
1.0
 23
0.0
 33
0.0
 40
0.0
 40
0.0
 40
0.0
 40
0.0
 40
1.0
 40
1.0
 40
1.0
 40
2.0
 40
2.0
 40
2.0
 40
3.0
 40
3.0
 40
3.0
 40
4.0
 40
4.0
 40
4.0
 40
4.0
 10
83.16820565598009
 20
-146.8416685744007
 30
0.0
 10
83.16820565598009
 20
-146.8031099632992
 30
0.0
 10
83.13687899011262
 20
-146.7717480188623
 30
0.0
 10
83.09828510220835
 20
-146.7717480188623
 30
0.0
 10
83.05969121430407
 20
-146.7717480188623
 30
0.0
 10
83.0283666459095
 20
-146.8031099632992
 30
0.0
 10
83.0283666459095
 20
-146.8416685744007
 30
0.0
 10
83.0283666459095
 20
-146.8802624632797
 30
0.0
 10
83.05969121430407
 20
-146.9116244077165
 30
0.0
 10
83.09828510220835
 20
-146.9116244077165
 30
0.0
 10
83.13687899011262
 20
-146.9116244077165
 30
0.0
 10
83.16820565598009
 20
-146.8802624632797
 30
0.0
 10
83.16820565598009
 20
-146.8416685744007
 30
0.0
  0
SPLINE
  5
90
330
1F
100
AcDbEntity
  8
_U+30EC_U+30A4_U+30E4_U+30FC 1
 62
   179
420
  2234388
370
     9
100
AcDbSpline
210
0.0
220
0.0
230
1.0
 70
    11
 71
     3
 72
    17
 73
    13
 74
     0
 42
0.0000000001
 43
0.0000000001
 12
1.0
 22
0.0
 32
0.0
 13
1.0
 23
0.0
 33
0.0
 40
0.0
 40
0.0
 40
0.0
 40
0.0
 40
1.0
 40
1.0
 40
1.0
 40
2.0
 40
2.0
 40
2.0
 40
3.0
 40
3.0
 40
3.0
 40
4.0
 40
4.0
 40
4.0
 40
4.0
 10
104.5882720539531
 20
-146.8416685744007
 30
0.0
 10
104.5882720539531
 20
-146.8031099632992
 30
0.0
 10
104.5565926103169
 20
-146.7717480188623
 30
0.0
 10
104.5179987224126
 20
-146.7717480188623
 30
0.0
 10
104.4794048345083
 20
-146.7717480188623
 30
0.0
 10
104.4483956686328
 20
-146.8031099632992
 30
0.0
 10
104.4483956686328
 20
-146.8416685744007
 30
0.0
 10
104.4483956686328
 20
-146.8802624632797
 30
0.0
 10
104.4794048345083
 20
-146.9116244077165
 30
0.0
 10
104.5179987224126
 20
-146.9116244077165
 30
0.0
 10
104.5565926103169
 20
-146.9116244077165
 30
0.0
 10
104.5882720539531
 20
-146.8802624632797
 30
0.0
 10
104.5882720539531
 20
-146.8416685744007
 30
0.0
  0
SPLINE
  5
91
330
1F
100
AcDbEntity
  8
_U+30EC_U+30A4_U+30E4_U+30FC 1
 62
   179
420
  2234388
370
     9
100
AcDbSpline
210
0.0
220
0.0
230
1.0
 70
    11
 71
     3
 72
    17
 73
    13
 74
     0
 42
0.0000000001
 43
0.0000000001
 12
1.0
 22
0.0
 32
0.0
 13
1.0
 23
0.0
 33
0.0
 40
0.0
 40
0.0
 40
0.0
 40
0.0
 40
1.0
 40
1.0
 40
1.0
 40
2.0
 40
2.0
 40
2.0
 40
3.0
 40
3.0
 40
3.0
 40
4.0
 40
4.0
 40
4.0
 40
4.0
 10
107.3884455936258
 20
-144.0414949639896
 30
0.0
 10
107.3884455936258
 20
-144.0029363528881
 30
0.0
 10
107.3567661499896
 20
-143.971927186229
 30
0.0
 10
107.3181749731707
 20
-143.971927186229
 30
0.0
 10
107.2795783741811
 20
-143.971927186229
 30
0.0
 10
107.2478989305448
 20
-144.0029363528881
 30
0.0
 10
107.2478989305448
 20
-144.0414949639896
 30
0.0
 10
107.2478989305448
 20
-144.0800888528686
 30
0.0
 10
107.2795783741811
 20
-144.1118035750832
 30
0.0
 10
107.3181749731707
 20
-144.1118035750832
 30
0.0
 10
107.3567661499896
 20
-144.1118035750832
 30
0.0
 10
107.3884455936258
 20
-144.0800888528686
 30
0.0
 10
107.3884455936258
 20
-144.0414949639896
 30
0.0
  0
SPLINE
  5
92
330
1F
100
AcDbEntity
  8
_U+30EC_U+30A4_U+30E4_U+30FC 1
 62
   179
420
  2234388
370
     9
100
AcDbSpline
210
0.0
220
0.0
230
1.0
 70
    11
 71
     3
 72
    17
 73
    13
 74
     0
 42
0.0000000001
 43
0.0000000001
 12
1.0
 22
0.0
 32
0.0
 13
1.0
 23
0.0
 33
0.0
 40
0.0
 40
0.0
 40
0.0
 40
0.0
 40
1.0
 40
1.0
 40
1.0
 40
2.0
 40
2.0
 40
2.0
 40
3.0
 40
3.0
 40
3.0
 40
4.0
 40
4.0
 40
4.0
 40
4.0
 10
107.3884455936258
 20
-133.5415582999478
 30
0.0
 10
107.3884455936258
 20
-133.5029644110688
 30
0.0
 10
107.3567661499896
 20
-133.471602466632
 30
0.0
 10
107.3181749731707
 20
-133.471602466632
 30
0.0
 10
107.2795783741811
 20
-133.471602466632
 30
0.0
 10
107.2478989305448
 20
-133.5029644110688
 30
0.0
 10
107.2478989305448
 20
-133.5415582999478
 30
0.0
 10
107.2478989305448
 20
-133.5804696888271
 30
0.0
 10
107.2795783741811
 20
-133.6118316332639
 30
0.0
 10
107.3181749731707
 20
-133.6118316332639
 30
0.0
 10
107.3567661499896
 20
-133.6118316332639
 30
0.0
 10
107.3884455936258
 20
-133.5804696888271
 30
0.0
 10
107.3884455936258
 20
-133.5415582999478
 30
0.0
  0
SPLINE
  5
93
330
1F
100
AcDbEntity
  8
_U+30EC_U+30A4_U+30E4_U+30FC 1
 62
   179
420
  2234388
370
     9
100
AcDbSpline
210
0.0
220
0.0
230
1.0
 70
    11
 71
     3
 72
    17
 73
    13
 74
     0
 42
0.0000000001
 43
0.0000000001
 12
1.0
 22
0.0
 32
0.0
 13
1.0
 23
0.0
 33
0.0
 40
0.0
 40
0.0
 40
0.0
 40
0.0
 40
1.0
 40
1.0
 40
1.0
 40
2.0
 40
2.0
 40
2.0
 40
3.0
 40
3.0
 40
3.0
 40
4.0
 40
4.0
 40
4.0
 40
4.0
 10
104.5882720539531
 20
-130.7413846895368
 30
0.0
 10
104.5882720539531
 20
-130.7027908006577
 30
0.0
 10
104.5565926103169
 20
-130.6717816339987
 30
0.0
 10
104.5179987224126
 20
-130.6717816339987
 30
0.0
 10
104.4794048345083
 20
-130.6717816339987
 30
0.0
 10
104.4483956686328
 20
-130.7027908006577
 30
0.0
 10
104.4483956686328
 20
-130.7413846895368
 30
0.0
 10
104.4483956686328
 20
-130.780296078416
 30
0.0
 10
104.4794048345083
 20
-130.8116580228529
 30
0.0
 10
104.5179987224126
 20
-130.8116580228529
 30
0.0
 10
104.5565926103169
 20
-130.8116580228529
 30
0.0
 10
104.5882720539531
 20
-130.780296078416
 30
0.0
 10
104.5882720539531
 20
-130.7413846895368
 30
0.0
  0
SPLINE
  5
94
330
1F
100
AcDbEntity
  8
_U+30EC_U+30A4_U+30E4_U+30FC 1
 62
   179
420
  2234388
370
     9
100
AcDbSpline
210
0.0
220
0.0
230
1.0
 70
    11
 71
     3
 72
    17
 73
    13
 74
     0
 42
0.0000000001
 43
0.0000000001
 12
1.0
 22
0.0
 32
0.0
 13
1.0
 23
0.0
 33
0.0
 40
0.0
 40
0.0
 40
0.0
 40
0.0
 40
1.0
 40
1.0
 40
1.0
 40
2.0
 40
2.0
 40
2.0
 40
3.0
 40
3.0
 40
3.0
 40
4.0
 40
4.0
 40
4.0
 40
4.0
 10
101.9279748996007
 20
-130.7413846895368
 30
0.0
 10
101.9279748996007
 20
-130.7027908006577
 30
0.0
 10
101.8969657337252
 20
-130.6717816339987
 30
0.0
 10
101.8583718458209
 20
-130.6717816339987
 30
0.0
 10
101.8197805301005
 20
-130.6717816339987
 30
0.0
 10
101.7880985142804
 20
-130.7027908006577
 30
0.0
 10
101.7880985142804
 20
-130.7413846895368
 30
0.0
 10
101.7880985142804
 20
-130.780296078416
 30
0.0
 10
101.8197805301005
 20
-130.8116580228529
 30
0.0
 10
101.8583718458209
 20
-130.8116580228529
 30
0.0
 10
101.8969657337252
 20
-130.8116580228529
 30
0.0
 10
101.9279748996007
 20
-130.780296078416
 30
0.0
 10
101.9279748996007
 20
-130.7413846895368
 30
0.0
  0
SPLINE
  5
95
330
1F
100
AcDbEntity
  8
_U+30EC_U+30A4_U+30E4_U+30FC 1
 62
   179
420
  2234388
370
     9
100
AcDbSpline
210
0.0
220
0.0
230
1.0
 70
    11
 71
     3
 72
    17
 73
    13
 74
     0
 42
0.0000000001
 43
0.0000000001
 12
1.0
 22
0.0
 32
0.0
 13
1.0
 23
0.0
 33
0.0
 40
0.0
 40
0.0
 40
0.0
 40
0.0
 40
1.0
 40
1.0
 40
1.0
 40
2.0
 40
2.0
 40
2.0
 40
3.0
 40
3.0
 40
3.0
 40
4.0
 40
4.0
 40
4.0
 40
4.0
 10
84.00831063454721
 20
-113.2416666383563
 30
0.0
 10
84.00831063454721
 20
-113.2030727494769
 30
0.0
 10
83.97694869090289
 20
-113.1717460828182
 30
0.0
 10
83.9383548029986
 20
-113.1717460828182
 30
0.0
 10
83.89961980398682
 20
-113.1717460828182
 30
0.0
 10
83.86825786034248
 20
-113.2030727494769
 30
0.0
 10
83.86825786034248
 20
-113.2416666383563
 30
0.0
 10
83.86825786034248
 20
-113.2802605272356
 30
0.0
 10
83.89961980398682
 20
-113.3115871938943
 30
0.0
 10
83.9383548029986
 20
-113.3115871938943
 30
0.0
 10
83.97694869090289
 20
-113.3115871938943
 30
0.0
 10
84.00831063454721
 20
-113.2802605272356
 30
0.0
 10
84.00831063454721
 20
-113.2416666383563
 30
0.0
  0
SPLINE
  5
96
330
1F
100
AcDbEntity
  8
_U+30EC_U+30A4_U+30E4_U+30FC 1
 62
   179
420
  2234388
370
     9
100
AcDbSpline
210
0.0
220
0.0
230
1.0
 70
    11
 71
     3
 72
    17
 73
    13
 74
     0
 42
0.0000000001
 43
0.0000000001
 12
1.0
 22
0.0
 32
0.0
 13
1.0
 23
0.0
 33
0.0
 40
0.0
 40
0.0
 40
0.0
 40
0.0
 40
1.0
 40
1.0
 40
1.0
 40
2.0
 40
2.0
 40
2.0
 40
3.0
 40
3.0
 40
3.0
 40
4.0
 40
4.0
 40
4.0
 40
4.0
 10
90.86835657064398
 20
-113.2416666383563
 30
0.0
 10
90.86835657064398
 20
-113.2030727494769
 30
0.0
 10
90.83699462699964
 20
-113.1717460828182
 30
0.0
 10
90.79825962798786
 20
-113.1717460828182
 30
0.0
 10
90.75966574008358
 20
-113.1717460828182
 30
0.0
 10
90.72830379643925
 20
-113.2030727494769
 30
0.0
 10
90.72830379643925
 20
-113.2416666383563
 30
0.0
 10
90.72830379643925
 20
-113.2802605272356
 30
0.0
 10
90.75966574008358
 20
-113.3115871938943
 30
0.0
 10
90.79825962798786
 20
-113.3115871938943
 30
0.0
 10
90.83699462699964
 20
-113.3115871938943
 30
0.0
 10
90.86835657064398
 20
-113.2802605272356
 30
0.0
 10
90.86835657064398
 20
-113.2416666383563
 30
0.0
  0
SPLINE
  5
97
330
1F
100
AcDbEntity
  8
_U+30EC_U+30A4_U+30E4_U+30FC 1
 62
   179
420
  2234388
370
     9
100
AcDbSpline
210
0.0
220
0.0
230
1.0
 70
    11
 71
     3
 72
    17
 73
    13
 74
     0
 42
0.0000000001
 43
0.0000000001
 12
1.0
 22
0.0
 32
0.0
 13
1.0
 23
0.0
 33
0.0
 40
0.0
 40
0.0
 40
0.0
 40
0.0
 40
1.0
 40
1.0
 40
1.0
 40
2.0
 40
2.0
 40
2.0
 40
3.0
 40
3.0
 40
3.0
 40
4.0
 40
4.0
 40
4.0
 40
4.0
 10
91.70842627143423
 20
-113.2416666383563
 30
0.0
 10
91.70842627143423
 20
-113.2030727494769
 30
0.0
 10
91.676746827798
 20
-113.1717460828182
 30
0.0
 10
91.63815293989373
 20
-113.1717460828182
 30
0.0
 10
91.59955905198944
 20
-113.1717460828182
 30
0.0
 10
91.56858516389077
 20
-113.2030727494769
 30
0.0
 10
91.56858516389077
 20
-113.2416666383563
 30
0.0
 10
91.56858516389077
 20
-113.2802605272356
 30
0.0
 10
91.59955905198944
 20
-113.3115871938943
 30
0.0
 10
91.63815293989373
 20
-113.3115871938943
 30
0.0
 10
91.676746827798
 20
-113.3115871938943
 30
0.0
 10
91.70842627143423
 20
-113.2802605272356
 30
0.0
 10
91.70842627143423
 20
-113.2416666383563
 30
0.0
  0
SPLINE
  5
98
330
1F
100
AcDbEntity
  8
_U+30EC_U+30A4_U+30E4_U+30FC 1
 62
   179
420
  2234388
370
     9
100
AcDbSpline
210
0.0
220
0.0
230
1.0
 70
    11
 71
     3
 72
    17
 73
    13
 74
     0
 42
0.0000000001
 43
0.0000000001
 12
1.0
 22
0.0
 32
0.0
 13
1.0
 23
0.0
 33
0.0
 40
0.0
 40
0.0
 40
0.0
 40
0.0
 40
1.0
 40
1.0
 40
1.0
 40
2.0
 40
2.0
 40
2.0
 40
3.0
 40
3.0
 40
3.0
 40
4.0
 40
4.0
 40
4.0
 40
4.0
 10
101.9279748996007
 20
-113.2416666383563
 30
0.0
 10
101.9279748996007
 20
-113.2030727494769
 30
0.0
 10
101.8969657337252
 20
-113.1717460828182
 30
0.0
 10
101.8583718458209
 20
-113.1717460828182
 30
0.0
 10
101.8197805301005
 20
-113.1717460828182
 30
0.0
 10
101.7880985142804
 20
-113.2030727494769
 30
0.0
 10
101.7880985142804
 20
-113.2416666383563
 30
0.0
 10
101.7880985142804
 20
-113.2802605272356
 30
0.0
 10
101.8197805301005
 20
-113.3115871938943
 30
0.0
 10
101.8583718458209
 20
-113.3115871938943
 30
0.0
 10
101.8969657337252
 20
-113.3115871938943
 30
0.0
 10
101.9279748996007
 20
-113.2802605272356
 30
0.0
 10
101.9279748996007
 20
-113.2416666383563
 30
0.0
  0
POLYLINE
  5
99
330
1F
100
AcDbEntity
  8
_U+30EC_U+30A4_U+30E4_U+30FC 1
 62
   179
420
  2234388
370
     9
100
AcDb2dPolyline
 66
     1
 10
0.0
 20
0.0
 30
0.0
  0
VERTEX
  5
9A
330
99
100
AcDbEntity
  8
_U+30EC_U+30A4_U+30E4_U+30FC 1
 62
   179
420
  2234388
370
     9
100
AcDbVertex
100
AcDb2dVertex
 10
90.79825962798786
 20
-113.2416666383563
 30
0.0
  0
VERTEX
  5
9B
330
99
100
AcDbEntity
  8
_U+30EC_U+30A4_U+30E4_U+30FC 1
 62
   179
420
  2234388
370
     9
100
AcDbVertex
100
AcDb2dVertex
 10
83.9383548029986
 20
-113.2416666383563
 30
0.0
  0
SEQEND
  5
9C
330
99
100
AcDbEntity
  8
_U+30EC_U+30A4_U+30E4_U+30FC 1
 62
   179
420
  2234388
370
     9
  0
POLYLINE
  5
9D
330
1F
100
AcDbEntity
  8
_U+30EC_U+30A4_U+30E4_U+30FC 1
 62
   179
420
  2234388
370
     9
100
AcDb2dPolyline
 66
     1
 10
0.0
 20
0.0
 30
0.0
  0
VERTEX
  5
9E
330
9D
100
AcDbEntity
  8
_U+30EC_U+30A4_U+30E4_U+30FC 1
 62
   179
420
  2234388
370
     9
100
AcDbVertex
100
AcDb2dVertex
 10
90.79825962798786
 20
-114.2636638603229
 30
0.0
  0
VERTEX
  5
9F
330
9D
100
AcDbEntity
  8
_U+30EC_U+30A4_U+30E4_U+30FC 1
 62
   179
420
  2234388
370
     9
100
AcDbVertex
100
AcDb2dVertex
 10
90.79825962798786
 20
-112.5416144163089
 30
0.0
  0
SEQEND
  5
A0
330
9D
100
AcDbEntity
  8
_U+30EC_U+30A4_U+30E4_U+30FC 1
 62
   179
420
  2234388
370
     9
  0
POLYLINE
  5
A1
330
1F
100
AcDbEntity
  8
_U+30EC_U+30A4_U+30E4_U+30FC 1
 62
   179
420
  2234388
370
     9
100
AcDb2dPolyline
 66
     1
 10
0.0
 20
0.0
 30
0.0
  0
VERTEX
  5
A2
330
A1
100
AcDbEntity
  8
_U+30EC_U+30A4_U+30E4_U+30FC 1
 62
   179
420
  2234388
370
     9
100
AcDbVertex
100
AcDb2dVertex
 10
83.9383548029986
 20
-139.6035505206547
 30
0.0
  0
VERTEX
  5
A3
330
A1
100
AcDbEntity
  8
_U+30EC_U+30A4_U+30E4_U+30FC 1
 62
   179
420
  2234388
370
     9
100
AcDbVertex
100
AcDb2dVertex
 10
83.9383548029986
 20
-112.5416144163089
 30
0.0
  0
SEQEND
  5
A4
330
A1
100
AcDbEntity
  8
_U+30EC_U+30A4_U+30E4_U+30FC 1
 62
   179
420
  2234388
370
     9
  0
INSERT
  5
A6
330
1F
100
AcDbEntity
  8
_U+30EC_U+30A4_U+30E4_U+30FC 1
100
AcDbBlockReference
  2
block 2
 10
0.0
 20
0.0
 30
0.0
  0
POLYLINE
  5
B8
330
1F
100
AcDbEntity
  8
_U+30EC_U+30A4_U+30E4_U+30FC 1
 62
   179
420
  2234388
370
     9
100
AcDb2dPolyline
 66
     1
 10
0.0
 20
0.0
 30
0.0
  0
VERTEX
  5
B9
330
B8
100
AcDbEntity
  8
_U+30EC_U+30A4_U+30E4_U+30FC 1
 62
   179
420
  2234388
370
     9
100
AcDbVertex
100
AcDb2dVertex
 10
91.63815293989373
 20
-113.2416666383563
 30
0.0
  0
VERTEX
  5
BA
330
B8
100
AcDbEntity
  8
_U+30EC_U+30A4_U+30E4_U+30FC 1
 62
   179
420
  2234388
370
     9
100
AcDbVertex
100
AcDb2dVertex
 10
101.8583718458209
 20
-113.2416666383563
 30
0.0
  0
SEQEND
  5
BB
330
B8
100
AcDbEntity
  8
_U+30EC_U+30A4_U+30E4_U+30FC 1
 62
   179
420
  2234388
370
     9
  0
POLYLINE
  5
BC
330
1F
100
AcDbEntity
  8
_U+30EC_U+30A4_U+30E4_U+30FC 1
 62
   179
420
  2234388
370
     9
100
AcDb2dPolyline
 66
     1
 10
0.0
 20
0.0
 30
0.0
  0
VERTEX
  5
BD
330
BC
100
AcDbEntity
  8
_U+30EC_U+30A4_U+30E4_U+30FC 1
 62
   179
420
  2234388
370
     9
100
AcDbVertex
100
AcDb2dVertex
 10
91.63815293989373
 20
-114.2636638603229
 30
0.0
  0
VERTEX
  5
BE
330
BC
100
AcDbEntity
  8
_U+30EC_U+30A4_U+30E4_U+30FC 1
 62
   179
420
  2234388
370
     9
100
AcDbVertex
100
AcDb2dVertex
 10
91.63815293989373
 20
-112.5416144163089
 30
0.0
  0
SEQEND
  5
BF
330
BC
100
AcDbEntity
  8
_U+30EC_U+30A4_U+30E4_U+30FC 1
 62
   179
420
  2234388
370
     9
  0
POLYLINE
  5
C0
330
1F
100
AcDbEntity
  8
_U+30EC_U+30A4_U+30E4_U+30FC 1
 62
   179
420
  2234388
370
     9
100
AcDb2dPolyline
 66
     1
 10
0.0
 20
0.0
 30
0.0
  0
VERTEX
  5
C1
330
C0
100
AcDbEntity
  8
_U+30EC_U+30A4_U+30E4_U+30FC 1
 62
   179
420
  2234388
370
     9
100
AcDbVertex
100
AcDb2dVertex
 10
101.8583718458209
 20
-131.7638758003923
 30
0.0
  0
VERTEX
  5
C2
330
C0
100
AcDbEntity
  8
_U+30EC_U+30A4_U+30E4_U+30FC 1
 62
   179
420
  2234388
370
     9
100
AcDbVertex
100
AcDb2dVertex
 10
101.8583718458209
 20
-112.5416144163089
 30
0.0
  0
SEQEND
  5
C3
330
C0
100
AcDbEntity
  8
_U+30EC_U+30A4_U+30E4_U+30FC 1
 62
   179
420
  2234388
370
     9
  0
INSERT
  5
C5
330
1F
100
AcDbEntity
  8
_U+30EC_U+30A4_U+30E4_U+30FC 1
100
AcDbBlockReference
  2
block 3
 10
0.0
 20
0.0
 30
0.0
  0
POLYLINE
  5
EA
330
1F
100
AcDbEntity
  8
_U+30EC_U+30A4_U+30E4_U+30FC 1
 62
   179
420
  2234388
370
     9
100
AcDb2dPolyline
 66
     1
 10
0.0
 20
0.0
 30
0.0
  0
VERTEX
  5
EB
330
EA
100
AcDbEntity
  8
_U+30EC_U+30A4_U+30E4_U+30FC 1
 62
   179
420
  2234388
370
     9
100
AcDbVertex
100
AcDb2dVertex
 10
101.8583718458209
 20
-130.7413846895368
 30
0.0
  0
VERTEX
  5
EC
330
EA
100
AcDbEntity
  8
_U+30EC_U+30A4_U+30E4_U+30FC 1
 62
   179
420
  2234388
370
     9
100
AcDbVertex
100
AcDb2dVertex
 10
98.17762971750221
 20
-130.7413846895368
 30
0.0
  0
SEQEND
  5
ED
330
EA
100
AcDbEntity
  8
_U+30EC_U+30A4_U+30E4_U+30FC 1
 62
   179
420
  2234388
370
     9
  0
POLYLINE
  5
EE
330
1F
100
AcDbEntity
  8
_U+30EC_U+30A4_U+30E4_U+30FC 1
 62
   179
420
  2234388
370
     9
100
AcDb2dPolyline
 66
     1
 10
0.0
 20
0.0
 30
0.0
  0
VERTEX
  5
EF
330
EE
100
AcDbEntity
  8
_U+30EC_U+30A4_U+30E4_U+30FC 1
 62
   179
420
  2234388
370
     9
100
AcDbVertex
100
AcDb2dVertex
 10
101.8583718458209
 20
-130.7413846895368
 30
0.0
  0
VERTEX
  5
F0
330
EE
100
AcDbEntity
  8
_U+30EC_U+30A4_U+30E4_U+30FC 1
 62
   179
420
  2234388
370
     9
100
AcDbVertex
100
AcDb2dVertex
 10
104.5179987224126
 20
-130.7413846895368
 30
0.0
  0
SEQEND
  5
F1
330
EE
100
AcDbEntity
  8
_U+30EC_U+30A4_U+30E4_U+30FC 1
 62
   179
420
  2234388
370
     9
  0
POLYLINE
  5
F2
330
1F
100
AcDbEntity
  8
_U+30EC_U+30A4_U+30E4_U+30FC 1
 62
   179
420
  2234388
370
     9
100
AcDb2dPolyline
 66
     1
 10
0.0
 20
0.0
 30
0.0
  0
VERTEX
  5
F3
330
F2
100
AcDbEntity
  8
_U+30EC_U+30A4_U+30E4_U+30FC 1
 62
   179
420
  2234388
370
     9
100
AcDbVertex
100
AcDb2dVertex
 10
101.8583718458209
 20
-131.7638758003923
 30
0.0
  0
VERTEX
  5
F4
330
F2
100
AcDbEntity
  8
_U+30EC_U+30A4_U+30E4_U+30FC 1
 62
   179
420
  2234388
370
     9
100
AcDbVertex
100
AcDb2dVertex
 10
101.8583718458209
 20
-130.0416852452675
 30
0.0
  0
SEQEND
  5
F5
330
F2
100
AcDbEntity
  8
_U+30EC_U+30A4_U+30E4_U+30FC 1
 62
   179
420
  2234388
370
     9
  0
POLYLINE
  5
F6
330
1F
100
AcDbEntity
  8
_U+30EC_U+30A4_U+30E4_U+30FC 1
 62
   179
420
  2234388
370
     9
100
AcDb2dPolyline
 66
     1
 10
0.0
 20
0.0
 30
0.0
  0
VERTEX
  5
F7
330
F6
100
AcDbEntity
  8
_U+30EC_U+30A4_U+30E4_U+30FC 1
 62
   179
420
  2234388
370
     9
100
AcDbVertex
100
AcDb2dVertex
 10
104.5179987224126
 20
-131.7638758003923
 30
0.0
  0
VERTEX
  5
F8
330
F6
100
AcDbEntity
  8
_U+30EC_U+30A4_U+30E4_U+30FC 1
 62
   179
420
  2234388
370
     9
100
AcDbVertex
100
AcDb2dVertex
 10
104.5179987224126
 20
-130.0416852452675
 30
0.0
  0
SEQEND
  5
F9
330
F6
100
AcDbEntity
  8
_U+30EC_U+30A4_U+30E4_U+30FC 1
 62
   179
420
  2234388
370
     9
  0
INSERT
  5
FB
330
1F
100
AcDbEntity
  8
_U+30EC_U+30A4_U+30E4_U+30FC 1
100
AcDbBlockReference
  2
block 4
 10
0.0
 20
0.0
 30
0.0
  0
POLYLINE
  5
10C
330
1F
100
AcDbEntity
  8
_U+30EC_U+30A4_U+30E4_U+30FC 1
 62
   179
420
  2234388
370
     9
100
AcDb2dPolyline
 66
     1
 10
0.0
 20
0.0
 30
0.0
  0
VERTEX
  5
10D
330
10C
100
AcDbEntity
  8
_U+30EC_U+30A4_U+30E4_U+30FC 1
 62
   179
420
  2234388
370
     9
100
AcDbVertex
100
AcDb2dVertex
 10
107.3181749731707
 20
-133.5415582999478
 30
0.0
  0
VERTEX
  5
10E
330
10C
100
AcDbEntity
  8
_U+30EC_U+30A4_U+30E4_U+30FC 1
 62
   179
420
  2234388
370
     9
100
AcDbVertex
100
AcDb2dVertex
 10
107.3181749731707
 20
-144.0414949639896
 30
0.0
  0
SEQEND
  5
10F
330
10C
100
AcDbEntity
  8
_U+30EC_U+30A4_U+30E4_U+30FC 1
 62
   179
420
  2234388
370
     9
  0
POLYLINE
  5
110
330
1F
100
AcDbEntity
  8
_U+30EC_U+30A4_U+30E4_U+30FC 1
 62
   179
420
  2234388
370
     9
100
AcDb2dPolyline
 66
     1
 10
0.0
 20
0.0
 30
0.0
  0
VERTEX
  5
111
330
110
100
AcDbEntity
  8
_U+30EC_U+30A4_U+30E4_U+30FC 1
 62
   179
420
  2234388
370
     9
100
AcDbVertex
100
AcDb2dVertex
 10
106.2963514548208
 20
-133.5415582999478
 30
0.0
  0
VERTEX
  5
112
330
110
100
AcDbEntity
  8
_U+30EC_U+30A4_U+30E4_U+30FC 1
 62
   179
420
  2234388
370
     9
100
AcDbVertex
100
AcDb2dVertex
 10
108.0182244664477
 20
-133.5415582999478
 30
0.0
  0
SEQEND
  5
113
330
110
100
AcDbEntity
  8
_U+30EC_U+30A4_U+30E4_U+30FC 1
 62
   179
420
  2234388
370
     9
  0
POLYLINE
  5
114
330
1F
100
AcDbEntity
  8
_U+30EC_U+30A4_U+30E4_U+30FC 1
 62
   179
420
  2234388
370
     9
100
AcDb2dPolyline
 66
     1
 10
0.0
 20
0.0
 30
0.0
  0
VERTEX
  5
115
330
114
100
AcDbEntity
  8
_U+30EC_U+30A4_U+30E4_U+30FC 1
 62
   179
420
  2234388
370
     9
100
AcDbVertex
100
AcDb2dVertex
 10
106.2963514548208
 20
-144.0414949639896
 30
0.0
  0
VERTEX
  5
116
330
114
100
AcDbEntity
  8
_U+30EC_U+30A4_U+30E4_U+30FC 1
 62
   179
420
  2234388
370
     9
100
AcDbVertex
100
AcDb2dVertex
 10
108.0182244664477
 20
-144.0414949639896
 30
0.0
  0
SEQEND
  5
117
330
114
100
AcDbEntity
  8
_U+30EC_U+30A4_U+30E4_U+30FC 1
 62
   179
420
  2234388
370
     9
  0
INSERT
  5
119
330
1F
100
AcDbEntity
  8
_U+30EC_U+30A4_U+30E4_U+30FC 1
100
AcDbBlockReference
  2
block 5
 10
0.0
 20
0.0
 30
0.0
  0
POLYLINE
  5
120
330
1F
100
AcDbEntity
  8
_U+30EC_U+30A4_U+30E4_U+30FC 1
 62
   179
420
  2234388
370
     9
100
AcDb2dPolyline
 66
     1
 10
0.0
 20
0.0
 30
0.0
  0
VERTEX
  5
121
330
120
100
AcDbEntity
  8
_U+30EC_U+30A4_U+30E4_U+30FC 1
 62
   179
420
  2234388
370
     9
100
AcDbVertex
100
AcDb2dVertex
 10
80.29828795142001
 20
-141.3819032979876
 30
0.0
  0
VERTEX
  5
122
330
120
100
AcDbEntity
  8
_U+30EC_U+30A4_U+30E4_U+30FC 1
 62
   179
420
  2234388
370
     9
100
AcDbVertex
100
AcDb2dVertex
 10
80.29828795142001
 20
-137.7011610766861
 30
0.0
  0
SEQEND
  5
123
330
120
100
AcDbEntity
  8
_U+30EC_U+30A4_U+30E4_U+30FC 1
 62
   179
420
  2234388
370
     9
  0
POLYLINE
  5
124
330
1F
100
AcDbEntity
  8
_U+30EC_U+30A4_U+30E4_U+30FC 1
 62
   179
420
  2234388
370
     9
100
AcDb2dPolyline
 66
     1
 10
0.0
 20
0.0
 30
0.0
  0
VERTEX
  5
125
330
124
100
AcDbEntity
  8
_U+30EC_U+30A4_U+30E4_U+30FC 1
 62
   179
420
  2234388
370
     9
100
AcDbVertex
100
AcDb2dVertex
 10
80.29828795142001
 20
-141.3819032979876
 30
0.0
  0
VERTEX
  5
126
330
124
100
AcDbEntity
  8
_U+30EC_U+30A4_U+30E4_U+30FC 1
 62
   179
420
  2234388
370
     9
100
AcDbVertex
100
AcDb2dVertex
 10
80.29828795142001
 20
-144.0414949639896
 30
0.0
  0
SEQEND
  5
127
330
124
100
AcDbEntity
  8
_U+30EC_U+30A4_U+30E4_U+30FC 1
 62
   179
420
  2234388
370
     9
  0
POLYLINE
  5
128
330
1F
100
AcDbEntity
  8
_U+30EC_U+30A4_U+30E4_U+30FC 1
 62
   179
420
  2234388
370
     9
100
AcDb2dPolyline
 66
     1
 10
0.0
 20
0.0
 30
0.0
  0
VERTEX
  5
129
330
128
100
AcDbEntity
  8
_U+30EC_U+30A4_U+30E4_U+30FC 1
 62
   179
420
  2234388
370
     9
100
AcDbVertex
100
AcDb2dVertex
 10
81.32028514756891
 20
-141.3819032979876
 30
0.0
  0
VERTEX
  5
12A
330
128
100
AcDbEntity
  8
_U+30EC_U+30A4_U+30E4_U+30FC 1
 62
   179
420
  2234388
370
     9
100
AcDbVertex
100
AcDb2dVertex
 10
79.5982357470576
 20
-141.3819032979876
 30
0.0
  0
SEQEND
  5
12B
330
128
100
AcDbEntity
  8
_U+30EC_U+30A4_U+30E4_U+30FC 1
 62
   179
420
  2234388
370
     9
  0
POLYLINE
  5
12C
330
1F
100
AcDbEntity
  8
_U+30EC_U+30A4_U+30E4_U+30FC 1
 62
   179
420
  2234388
370
     9
100
AcDb2dPolyline
 66
     1
 10
0.0
 20
0.0
 30
0.0
  0
VERTEX
  5
12D
330
12C
100
AcDbEntity
  8
_U+30EC_U+30A4_U+30E4_U+30FC 1
 62
   179
420
  2234388
370
     9
100
AcDbVertex
100
AcDb2dVertex
 10
81.32028514756891
 20
-144.0414949639896
 30
0.0
  0
VERTEX
  5
12E
330
12C
100
AcDbEntity
  8
_U+30EC_U+30A4_U+30E4_U+30FC 1
 62
   179
420
  2234388
370
     9
100
AcDbVertex
100
AcDb2dVertex
 10
79.5982357470576
 20
-144.0414949639896
 30
0.0
  0
SEQEND
  5
12F
330
12C
100
AcDbEntity
  8
_U+30EC_U+30A4_U+30E4_U+30FC 1
 62
   179
420
  2234388
370
     9
  0
INSERT
  5
131
330
1F
100
AcDbEntity
  8
_U+30EC_U+30A4_U+30E4_U+30FC 1
100
AcDbBlockReference
  2
block 6
 10
0.0
 20
0.0
 30
0.0
  0
POLYLINE
  5
142
330
1F
100
AcDbEntity
  8
_U+30EC_U+30A4_U+30E4_U+30FC 1
 62
   179
420
  2234388
370
     9
100
AcDb2dPolyline
 66
     1
 10
0.0
 20
0.0
 30
0.0
  0
VERTEX
  5
143
330
142
100
AcDbEntity
  8
_U+30EC_U+30A4_U+30E4_U+30FC 1
 62
   179
420
  2234388
370
     9
100
AcDbVertex
100
AcDb2dVertex
 10
77.49829080063166
 20
-144.0414949639896
 30
0.0
  0
VERTEX
  5
144
330
142
100
AcDbEntity
  8
_U+30EC_U+30A4_U+30E4_U+30FC 1
 62
   179
420
  2234388
370
     9
100
AcDbVertex
100
AcDb2dVertex
 10
77.49829080063166
 20
-116.0416638598784
 30
0.0
  0
SEQEND
  5
145
330
142
100
AcDbEntity
  8
_U+30EC_U+30A4_U+30E4_U+30FC 1
 62
   179
420
  2234388
370
     9
  0
POLYLINE
  5
146
330
1F
100
AcDbEntity
  8
_U+30EC_U+30A4_U+30E4_U+30FC 1
 62
   179
420
  2234388
370
     9
100
AcDb2dPolyline
 66
     1
 10
0.0
 20
0.0
 30
0.0
  0
VERTEX
  5
147
330
146
100
AcDbEntity
  8
_U+30EC_U+30A4_U+30E4_U+30FC 1
 62
   179
420
  2234388
370
     9
100
AcDbVertex
100
AcDb2dVertex
 10
81.32028514756891
 20
-144.0414949639896
 30
0.0
  0
VERTEX
  5
148
330
146
100
AcDbEntity
  8
_U+30EC_U+30A4_U+30E4_U+30FC 1
 62
   179
420
  2234388
370
     9
100
AcDbVertex
100
AcDb2dVertex
 10
76.79823859626926
 20
-144.0414949639896
 30
0.0
  0
SEQEND
  5
149
330
146
100
AcDbEntity
  8
_U+30EC_U+30A4_U+30E4_U+30FC 1
 62
   179
420
  2234388
370
     9
  0
POLYLINE
  5
14A
330
1F
100
AcDbEntity
  8
_U+30EC_U+30A4_U+30E4_U+30FC 1
 62
   179
420
  2234388
370
     9
100
AcDb2dPolyline
 66
     1
 10
0.0
 20
0.0
 30
0.0
  0
VERTEX
  5
14B
330
14A
100
AcDbEntity
  8
_U+30EC_U+30A4_U+30E4_U+30FC 1
 62
   179
420
  2234388
370
     9
100
AcDbVertex
100
AcDb2dVertex
 10
89.02022439557153
 20
-116.0416638598784
 30
0.0
  0
VERTEX
  5
14C
330
14A
100
AcDbEntity
  8
_U+30EC_U+30A4_U+30E4_U+30FC 1
 62
   179
420
  2234388
370
     9
100
AcDbVertex
100
AcDb2dVertex
 10
76.79823859626926
 20
-116.0416638598784
 30
0.0
  0
SEQEND
  5
14D
330
14A
100
AcDbEntity
  8
_U+30EC_U+30A4_U+30E4_U+30FC 1
 62
   179
420
  2234388
370
     9
  0
INSERT
  5
14F
330
1F
100
AcDbEntity
  8
_U+30EC_U+30A4_U+30E4_U+30FC 1
100
AcDbBlockReference
  2
block 7
 10
0.0
 20
0.0
 30
0.0
  0
POLYLINE
  5
16A
330
1F
100
AcDbEntity
  8
_U+30EC_U+30A4_U+30E4_U+30FC 1
 62
   179
420
  2234388
370
     9
100
AcDb2dPolyline
 66
     1
 10
0.0
 20
0.0
 30
0.0
  0
VERTEX
  5
16B
330
16A
100
AcDbEntity
  8
_U+30EC_U+30A4_U+30E4_U+30FC 1
 62
   179
420
  2234388
370
     9
100
AcDbVertex
100
AcDb2dVertex
 10
83.09828510220835
 20
-146.8416685744007
 30
0.0
  0
VERTEX
  5
16C
330
16A
100
AcDbEntity
  8
_U+30EC_U+30A4_U+30E4_U+30FC 1
 62
   179
420
  2234388
370
     9
100
AcDbVertex
100
AcDb2dVertex
 10
104.5179987224126
 20
-146.8416685744007
 30
0.0
  0
SEQEND
  5
16D
330
16A
100
AcDbEntity
  8
_U+30EC_U+30A4_U+30E4_U+30FC 1
 62
   179
420
  2234388
370
     9
  0
POLYLINE
  5
16E
330
1F
100
AcDbEntity
  8
_U+30EC_U+30A4_U+30E4_U+30FC 1
 62
   179
420
  2234388
370
     9
100
AcDb2dPolyline
 66
     1
 10
0.0
 20
0.0
 30
0.0
  0
VERTEX
  5
16F
330
16E
100
AcDbEntity
  8
_U+30EC_U+30A4_U+30E4_U+30FC 1
 62
   179
420
  2234388
370
     9
100
AcDbVertex
100
AcDb2dVertex
 10
83.09828510220835
 20
-145.8198830191007
 30
0.0
  0
VERTEX
  5
170
330
16E
100
AcDbEntity
  8
_U+30EC_U+30A4_U+30E4_U+30FC 1
 62
   179
420
  2234388
370
     9
100
AcDbVertex
100
AcDb2dVertex
 10
83.09828510220835
 20
-147.5417207964476
 30
0.0
  0
SEQEND
  5
171
330
16E
100
AcDbEntity
  8
_U+30EC_U+30A4_U+30E4_U+30FC 1
 62
   179
420
  2234388
370
     9
  0
POLYLINE
  5
172
330
1F
100
AcDbEntity
  8
_U+30EC_U+30A4_U+30E4_U+30FC 1
 62
   179
420
  2234388
370
     9
100
AcDb2dPolyline
 66
     1
 10
0.0
 20
0.0
 30
0.0
  0
VERTEX
  5
173
330
172
100
AcDbEntity
  8
_U+30EC_U+30A4_U+30E4_U+30FC 1
 62
   179
420
  2234388
370
     9
100
AcDbVertex
100
AcDb2dVertex
 10
104.5179987224126
 20
-145.8198830191007
 30
0.0
  0
VERTEX
  5
174
330
172
100
AcDbEntity
  8
_U+30EC_U+30A4_U+30E4_U+30FC 1
 62
   179
420
  2234388
370
     9
100
AcDbVertex
100
AcDb2dVertex
 10
104.5179987224126
 20
-147.5417207964476
 30
0.0
  0
SEQEND
  5
175
330
172
100
AcDbEntity
  8
_U+30EC_U+30A4_U+30E4_U+30FC 1
 62
   179
420
  2234388
370
     9
  0
INSERT
  5
177
330
1F
100
AcDbEntity
  8
_U+30EC_U+30A4_U+30E4_U+30FC 1
100
AcDbBlockReference
  2
block 8
 10
0.0
 20
0.0
 30
0.0
  0
SPLINE
  5
18B
330
1F
100
AcDbEntity
  8
_U+30EC_U+30A4_U+30E4_U+30FC 1
 62
   179
420
  2234388
370
     9
100
AcDbSpline
210
0.0
220
0.0
230
1.0
 70
    11
 71
     3
 72
    17
 73
    13
 74
     0
 42
0.0000000001
 43
0.0000000001
 12
1.0
 22
0.0
 32
0.0
 13
1.0
 23
0.0
 33
0.0
 40
0.0
 40
0.0
 40
0.0
 40
0.0
 40
1.0
 40
1.0
 40
1.0
 40
2.0
 40
2.0
 40
2.0
 40
3.0
 40
3.0
 40
3.0
 40
4.0
 40
4.0
 40
4.0
 40
4.0
 10
83.09846149109273
 20
-113.3369166383326
 30
0.0
 10
83.1535653785758
 20
-113.3369166383326
 30
0.0
 10
83.19836815521057
 20
-113.2921491383437
 30
0.0
 10
83.19836815521057
 20
-113.2370099716906
 30
0.0
 10
83.19836815521057
 20
-113.1819060828157
 30
0.0
 10
83.1535653785758
 20
-113.137103305049
 30
0.0
 10
83.09846149109273
 20
-113.137103305049
 30
0.0
 10
83.0431459369484
 20
-113.137103305049
 30
0.0
 10
82.99838053480588
 20
-113.1819060828157
 30
0.0
 10
82.99838053480588
 20
-113.2370099716906
 30
0.0
 10
82.99838053480588
 20
-113.2921491383437
 30
0.0
 10
83.0431459369484
 20
-113.3369166383326
 30
0.0
 10
83.09846149109273
 20
-113.3369166383326
 30
0.0
  0
POLYLINE
  5
18C
330
1F
100
AcDbEntity
  8
_U+30EC_U+30A4_U+30E4_U+30FC 1
 62
   179
420
  2234388
370
     9
100
AcDb2dPolyline
 66
     1
 10
0.0
 20
0.0
 30
0.0
  0
VERTEX
  5
18D
330
18C
100
AcDbEntity
  8
_U+30EC_U+30A4_U+30E4_U+30FC 1
 62
   179
420
  2234388
370
     9
100
AcDbVertex
100
AcDb2dVertex
 10
83.09846149109273
 20
-112.5416144163089
 30
0.0
  0
VERTEX
  5
18E
330
18C
100
AcDbEntity
  8
_U+30EC_U+30A4_U+30E4_U+30FC 1
 62
   179
420
  2234388
370
     9
100
AcDbVertex
100
AcDb2dVertex
 10
83.09846149109273
 20
-114.2636638603229
 30
0.0
  0
SEQEND
  5
18F
330
18C
100
AcDbEntity
  8
_U+30EC_U+30A4_U+30E4_U+30FC 1
 62
   179
420
  2234388
370
     9
  0
POLYLINE
  5
190
330
1F
100
AcDbEntity
  8
_U+30EC_U+30A4_U+30E4_U+30FC 1
 62
   179
420
  2234388
370
     9
100
AcDb2dPolyline
 66
     1
 10
0.0
 20
0.0
 30
0.0
  0
VERTEX
  5
191
330
190
100
AcDbEntity
  8
_U+30EC_U+30A4_U+30E4_U+30FC 1
 62
   179
420
  2234388
370
     9
100
AcDbVertex
100
AcDb2dVertex
 10
77.3668458039851
 20
-113.2416666383563
 30
0.0
  0
VERTEX
  5
192
330
190
100
AcDbEntity
  8
_U+30EC_U+30A4_U+30E4_U+30FC 1
 62
   179
420
  2234388
370
     9
100
AcDbVertex
100
AcDb2dVertex
 10
83.9383548029986
 20
-113.2416666383563
 30
0.0
  0
SEQEND
  5
193
330
190
100
AcDbEntity
  8
_U+30EC_U+30A4_U+30E4_U+30FC 1
 62
   179
420
  2234388
370
     9
  0
INSERT
  5
195
330
1F
100
AcDbEntity
  8
_U+30EC_U+30A4_U+30E4_U+30FC 1
100
AcDbBlockReference
  2
block 9
 10
0.0
 20
0.0
 30
0.0
  0
ENDSEC
  0
SECTION
  2
OBJECTS
  0
DICTIONARY
  5
C
330
0
100
AcDbDictionary
281
     1
  3
ACAD_GROUP
350
D
  3
ACAD_LAYOUT
350
1A
  3
ACAD_MATERIAL
350
3B
  3
ACAD_MLEADERSTYLE
350
1A5
  3
ACAD_MLINESTYLE
350
17
  3
ACAD_PLOTSETTINGS
350
19
  3
ACAD_PLOTSTYLENAME
350
E
  3
ACAD_TABLESTYLE
350
1A4
  3
ACAD_VISUALSTYLE
350
2A
  0
SUN
  5
3F
330
29
100
AcDbSun
 90
        1
290
     0
 63
     7
421
 16777215
 40
1.0
291
     1
 91
  2455826
 92
 54000000
292
     0
 70
     2
 71
   256
280
     1
  0
DICTIONARY
  5
D
102
{ACAD_REACTORS
330
C
102
}
330
C
100
AcDbDictionary
281
     1
  0
DICTIONARY
  5
1A
102
{ACAD_REACTORS
330
C
102
}
330
C
100
AcDbDictionary
281
     1
  3
Layout1
350
1E
  3
Layout2
350
26
  3
Model
350
22
  0
DICTIONARY
  5
3B
102
{ACAD_REACTORS
330
C
102
}
330
C
100
AcDbDictionary
281
     1
  3
ByBlock
350
3D
  3
ByLayer
350
3C
  3
Global
350
3E
  0
DICTIONARY
  5
1A5
102
{ACAD_REACTORS
330
C
102
}
330
C
100
AcDbDictionary
281
     1
  0
DICTIONARY
  5
17
102
{ACAD_REACTORS
330
C
102
}
330
C
100
AcDbDictionary
281
     1
  3
Standard
350
18
  0
DICTIONARY
  5
19
102
{ACAD_REACTORS
330
C
102
}
330
C
100
AcDbDictionary
281
     1
  0
ACDBDICTIONARYWDFLT
  5
E
102
{ACAD_REACTORS
330
C
102
}
330
C
100
AcDbDictionary
281
     1
  3
Normal
350
F
100
AcDbDictionaryWithDefault
340
F
  0
DICTIONARY
  5
1A4
102
{ACAD_REACTORS
330
C
102
}
330
C
100
AcDbDictionary
281
     1
  0
DICTIONARY
  5
2A
102
{ACAD_REACTORS
330
C
102
}
330
C
100
AcDbDictionary
281
     1
  3
2dWireframe
350
2F
  3
3D Hidden
350
31
  3
3dWireframe
350
30
  3
Basic
350
32
  3
Brighten
350
36
  3
ColorChange
350
3A
  3
Conceptual
350
34
  3
Dim
350
35
  3
Facepattern
350
39
  3
Flat
350
2B
  3
FlatWithEdges
350
2C
  3
Gouraud
350
2D
  3
GouraudWithEdges
350
2E
  3
Linepattern
350
38
  3
Realistic
350
33
  3
Thicken
350
37
  0
LAYOUT
  5
1E
102
{ACAD_REACTORS
330
1A
102
}
330
1A
100
AcDbPlotSettings
  1

  2
none_device
  4

  6

 40
0.0
 41
0.0
 42
0.0
 43
0.0
 44
0.0
 45
0.0
 46
0.0
 47
0.0
 48
0.0
 49
0.0
140
0.0
141
0.0
142
1.0
143
1.0
 70
   688
 72
     0
 73
     0
 74
     5
  7

 75
    16
 76
     0
 77
     2
 78
   300
147
1.0
148
0.0
149
0.0
100
AcDbLayout
  1
Layout1
 70
     1
 71
     1
 10
0.0
 20
0.0
 11
12.0
 21
9.0
 12
0.0
 22
0.0
 32
0.0
 14
1.000000000000000E+20
 24
1.000000000000000E+20
 34
1.000000000000000E+20
 15
-1.000000000000000E+20
 25
-1.000000000000000E+20
 35
-1.000000000000000E+20
146
0.0
 13
0.0
 23
0.0
 33
0.0
 16
1.0
 26
0.0
 36
0.0
 17
0.0
 27
1.0
 37
0.0
 76
     0
330
1B
  0
LAYOUT
  5
26
102
{ACAD_REACTORS
330
1A
102
}
330
1A
100
AcDbPlotSettings
  1

  2
none_device
  4

  6

 40
0.0
 41
0.0
 42
0.0
 43
0.0
 44
0.0
 45
0.0
 46
0.0
 47
0.0
 48
0.0
 49
0.0
140
0.0
141
0.0
142
1.0
143
1.0
 70
   688
 72
     0
 73
     0
 74
     5
  7

 75
    16
 76
     0
 77
     2
 78
   300
147
1.0
148
0.0
149
0.0
100
AcDbLayout
  1
Layout2
 70
     1
 71
     2
 10
0.0
 20
0.0
 11
0.0
 21
0.0
 12
0.0
 22
0.0
 32
0.0
 14
0.0
 24
0.0
 34
0.0
 15
0.0
 25
0.0
 35
0.0
146
0.0
 13
0.0
 23
0.0
 33
0.0
 16
1.0
 26
0.0
 36
0.0
 17
0.0
 27
1.0
 37
0.0
 76
     0
330
23
  0
LAYOUT
  5
22
102
{ACAD_REACTORS
330
1A
102
}
330
1A
100
AcDbPlotSettings
  1

  2
none_device
  4

  6

 40
0.0
 41
0.0
 42
0.0
 43
0.0
 44
0.0
 45
0.0
 46
0.0
 47
0.0
 48
0.0
 49
0.0
140
0.0
141
0.0
142
1.0
143
1.0
 70
  1712
 72
     0
 73
     0
 74
     0
  7

 75
     0
 76
     0
 77
     2
 78
   300
147
1.0
148
0.0
149
0.0
100
AcDbLayout
  1
Model
 70
     1
 71
     0
 10
0.0
 20
0.0
 11
12.0
 21
9.0
 12
0.0
 22
0.0
 32
0.0
 14
1.000000000000000E+20
 24
1.000000000000000E+20
 34
1.000000000000000E+20
 15
-1.000000000000000E+20
 25
-1.000000000000000E+20
 35
-1.000000000000000E+20
146
0.0
 13
0.0
 23
0.0
 33
0.0
 16
1.0
 26
0.0
 36
0.0
 17
0.0
 27
1.0
 37
0.0
 76
     0
330
1F
331
29
  0
MATERIAL
  5
3D
102
{ACAD_REACTORS
330
3B
102
}
330
3B
100
AcDbMaterial
  1
ByBlock
 72
     1
 94
      127
  0
MATERIAL
  5
3C
102
{ACAD_REACTORS
330
3B
102
}
330
3B
100
AcDbMaterial
  1
ByLayer
 72
     1
 94
      127
  0
MATERIAL
  5
3E
102
{ACAD_REACTORS
330
3B
102
}
330
3B
100
AcDbMaterial
  1
Global
 72
     1
 94
      127
  0
MLINESTYLE
  5
18
102
{ACAD_REACTORS
330
17
102
}
330
17
100
AcDbMlineStyle
  2
Standard
 70
     0
  3

 62
   256
 51
90.0
 52
90.0
 71
     2
 49
0.5
 62
   256
  6
BYLAYER
 49
-0.5
 62
   256
  6
BYLAYER
  0
ACDBPLACEHOLDER
  5
F
102
{ACAD_REACTORS
330
E
102
}
330
E
  0
VISUALSTYLE
  5
2F
102
{ACAD_REACTORS
330
2A
102
}
330
2A
100
AcDbVisualStyle
  2
2dWireframe
 70
     4
177
     2
291
     0
 71
     0
176
     1
 72
     2
176
     1
 73
     0
176
     1
 90
        0
176
     1
 40
-0.6
176
     1
 41
-30.0
176
     1
 62
     5
 63
     7
421
 16777215
176
     1
 74
     1
176
     1
 91
        4
176
     1
 64
     7
176
     1
 65
   257
176
     1
 75
     1
176
     1
175
     1
176
     1
 42
1.0
176
     1
 92
        0
176
     1
 66
   257
176
     1
 43
1.0
176
     1
 76
     1
176
     1
 77
     6
176
     1
 78
     2
176
     1
 67
     7
176
     1
 79
     5
176
     1
170
     0
176
     1
171
     0
176
     1
290
     0
176
     1
 93
        1
176
     1
 44
0.0
176
     1
173
     0
176
     1
  0
VISUALSTYLE
  5
31
102
{ACAD_REACTORS
330
2A
102
}
330
2A
100
AcDbVisualStyle
  2
3D Hidden
 70
     6
177
     2
291
     0
 71
     1
176
     1
 72
     2
176
     1
 73
     2
176
     1
 90
        0
176
     1
 40
-0.6
176
     1
 41
-30.0
176
     1
 62
     5
 63
     7
421
 16777215
176
     1
 74
     2
176
     1
 91
        2
176
     1
 64
     7
176
     1
 65
   257
176
     1
 75
     2
176
     1
175
     1
176
     1
 42
40.0
176
     1
 92
        0
176
     1
 66
   257
176
     1
 43
1.0
176
     1
 76
     1
176
     1
 77
     6
176
     1
 78
     2
176
     1
 67
     7
176
     1
 79
     3
176
     1
170
     0
176
     1
171
     0
176
     1
290
     0
176
     1
 93
        1
176
     1
 44
0.0
176
     1
173
     0
176
     1
  0
VISUALSTYLE
  5
30
102
{ACAD_REACTORS
330
2A
102
}
330
2A
100
AcDbVisualStyle
  2
3dWireframe
 70
     5
177
     2
291
     0
 71
     0
176
     1
 72
     2
176
     1
 73
     0
176
     1
 90
        0
176
     1
 40
-0.6
176
     1
 41
-30.0
176
     1
 62
     5
 63
     7
421
 16777215
176
     1
 74
     1
176
     1
 91
        4
176
     1
 64
     7
176
     1
 65
   257
176
     1
 75
     1
176
     1
175
     1
176
     1
 42
1.0
176
     1
 92
        0
176
     1
 66
   257
176
     1
 43
1.0
176
     1
 76
     1
176
     1
 77
     6
176
     1
 78
     2
176
     1
 67
     7
176
     1
 79
     5
176
     1
170
     0
176
     1
171
     0
176
     1
290
     0
176
     1
 93
        1
176
     1
 44
0.0
176
     1
173
     0
176
     1
  0
VISUALSTYLE
  5
32
102
{ACAD_REACTORS
330
2A
102
}
330
2A
100
AcDbVisualStyle
  2
Basic
 70
     7
177
     2
291
     1
 71
     1
176
     1
 72
     0
176
     1
 73
     1
176
     1
 90
        0
176
     1
 40
-0.6
176
     1
 41
-30.0
176
     1
 62
     5
 63
     7
421
 16777215
176
     1
 74
     0
176
     1
 91
        4
176
     1
 64
     7
176
     1
 65
   257
176
     1
 75
     1
176
     1
175
     1
176
     1
 42
1.0
176
     1
 92
        8
176
     1
 66
     7
176
     1
 43
1.0
176
     1
 76
     1
176
     1
 77
     6
176
     1
 78
     2
176
     1
 67
     7
176
     1
 79
     5
176
     1
170
     0
176
     1
171
     0
176
     1
290
     0
176
     1
 93
        1
176
     1
 44
0.0
176
     1
173
     0
176
     1
  0
VISUALSTYLE
  5
36
102
{ACAD_REACTORS
330
2A
102
}
330
2A
100
AcDbVisualStyle
  2
Brighten
 70
    12
177
     2
291
     1
 71
     2
176
     1
 72
     2
176
     1
 73
     0
176
     1
 90
        0
176
     1
 40
-0.6
176
     1
 41
-30.0
176
     1
 62
     5
 63
     7
421
 16777215
176
     1
 74
     1
176
     1
 91
        4
176
     1
 64
     7
176
     1
 65
   257
176
     1
 75
     1
176
     1
175
     1
176
     1
 42
1.0
176
     1
 92
        8
176
     1
 66
     7
176
     1
 43
1.0
176
     1
 76
     1
176
     1
 77
     6
176
     1
 78
     2
176
     1
 67
     7
176
     1
 79
     5
176
     1
170
     0
176
     1
171
     0
176
     1
290
     0
176
     1
 93
        1
176
     1
 44
50.0
176
     1
173
     0
176
     1
  0
VISUALSTYLE
  5
3A
102
{ACAD_REACTORS
330
2A
102
}
330
2A
100
AcDbVisualStyle
  2
ColorChange
 70
    16
177
     2
291
     1
 71
     2
176
     1
 72
     2
176
     1
 73
     3
176
     1
 90
        0
176
     1
 40
-0.6
176
     1
 41
-30.0
176
     1
 62
     5
 63
     8
421
  8421504
176
     1
 74
     1
176
     1
 91
        4
176
     1
 64
     7
176
     1
 65
   257
176
     1
 75
     1
176
     1
175
     1
176
     1
 42
1.0
176
     1
 92
        8
176
     1
 66
     8
424
  8421504
176
     1
 43
1.0
176
     1
 76
     1
176
     1
 77
     6
176
     1
 78
     2
176
     1
 67
     7
176
     1
 79
     5
176
     1
170
     0
176
     1
171
     0
176
     1
290
     0
176
     1
 93
        1
176
     1
 44
0.0
176
     1
173
     0
176
     1
  0
VISUALSTYLE
  5
34
102
{ACAD_REACTORS
330
2A
102
}
330
2A
100
AcDbVisualStyle
  2
Conceptual
 70
     9
177
     2
291
     0
 71
     3
176
     1
 72
     2
176
     1
 73
     0
176
     1
 90
        0
176
     1
 40
-0.6
176
     1
 41
-30.0
176
     1
 62
     5
 63
     7
421
 16777215
176
     1
 74
     2
176
     1
 91
        2
176
     1
 64
     7
176
     1
 65
   257
176
     1
 75
     1
176
     1
175
     1
176
     1
 42
40.0
176
     1
 92
        8
176
     1
 66
     7
176
     1
 43
1.0
176
     1
 76
     1
176
     1
 77
     6
176
     1
 78
     2
176
     1
 67
     7
176
     1
 79
     3
176
     1
170
     0
176
     1
171
     0
176
     1
290
     0
176
     1
 93
        1
176
     1
 44
0.0
176
     1
173
     0
176
     1
  0
VISUALSTYLE
  5
35
102
{ACAD_REACTORS
330
2A
102
}
330
2A
100
AcDbVisualStyle
  2
Dim
 70
    11
177
     2
291
     1
 71
     2
176
     1
 72
     2
176
     1
 73
     0
176
     1
 90
        0
176
     1
 40
-0.6
176
     1
 41
-30.0
176
     1
 62
     5
 63
     7
421
 16777215
176
     1
 74
     1
176
     1
 91
        4
176
     1
 64
     7
176
     1
 65
   257
176
     1
 75
     1
176
     1
175
     1
176
     1
 42
1.0
176
     1
 92
        8
176
     1
 66
     7
176
     1
 43
1.0
176
     1
 76
     1
176
     1
 77
     6
176
     1
 78
     2
176
     1
 67
     7
176
     1
 79
     5
176
     1
170
     0
176
     1
171
     0
176
     1
290
     0
176
     1
 93
        1
176
     1
 44
-50.0
176
     1
173
     0
176
     1
  0
VISUALSTYLE
  5
39
102
{ACAD_REACTORS
330
2A
102
}
330
2A
100
AcDbVisualStyle
  2
Facepattern
 70
    15
177
     2
291
     1
 71
     2
176
     1
 72
     2
176
     1
 73
     0
176
     1
 90
        0
176
     1
 40
-0.6
176
     1
 41
-30.0
176
     1
 62
     5
 63
     7
421
 16777215
176
     1
 74
     1
176
     1
 91
        4
176
     1
 64
     7
176
     1
 65
   257
176
     1
 75
     1
176
     1
175
     1
176
     1
 42
1.0
176
     1
 92
        8
176
     1
 66
     7
176
     1
 43
1.0
176
     1
 76
     1
176
     1
 77
     6
176
     1
 78
     2
176
     1
 67
     7
176
     1
 79
     5
176
     1
170
     0
176
     1
171
     0
176
     1
290
     0
176
     1
 93
        1
176
     1
 44
0.0
176
     1
173
     0
176
     1
  0
VISUALSTYLE
  5
2B
102
{ACAD_REACTORS
330
2A
102
}
330
2A
100
AcDbVisualStyle
  2
Flat
 70
     0
177
     2
291
     1
 71
     2
176
     1
 72
     1
176
     1
 73
     1
176
     1
 90
        2
176
     1
 40
-0.6
176
     1
 41
30.0
176
     1
 62
     5
 63
     7
421
 16777215
176
     1
 74
     0
176
     1
 91
        4
176
     1
 64
     7
176
     1
 65
   257
176
     1
 75
     1
176
     1
175
     1
176
     1
 42
1.0
176
     1
 92
        8
176
     1
 66
     7
176
     1
 43
1.0
176
     1
 76
     1
176
     1
 77
     6
176
     1
 78
     2
176
     1
 67
     7
176
     1
 79
     5
176
     1
170
     0
176
     1
171
     0
176
     1
290
     0
176
     1
 93
       13
176
     1
 44
0.0
176
     1
173
     0
176
     1
  0
VISUALSTYLE
  5
2C
102
{ACAD_REACTORS
330
2A
102
}
330
2A
100
AcDbVisualStyle
  2
FlatWithEdges
 70
     1
177
     2
291
     1
 71
     2
176
     1
 72
     1
176
     1
 73
     1
176
     1
 90
        2
176
     1
 40
-0.6
176
     1
 41
30.0
176
     1
 62
     5
 63
     7
421
 16777215
176
     1
 74
     1
176
     1
 91
        4
176
     1
 64
     7
176
     1
 65
   257
176
     1
 75
     1
176
     1
175
     1
176
     1
 42
1.0
176
     1
 92
        0
176
     1
 66
   257
176
     1
 43
1.0
176
     1
 76
     1
176
     1
 77
     6
176
     1
 78
     2
176
     1
 67
     7
176
     1
 79
     5
176
     1
170
     0
176
     1
171
     0
176
     1
290
     0
176
     1
 93
       13
176
     1
 44
0.0
176
     1
173
     0
176
     1
  0
VISUALSTYLE
  5
2D
102
{ACAD_REACTORS
330
2A
102
}
330
2A
100
AcDbVisualStyle
  2
Gouraud
 70
     2
177
     2
291
     1
 71
     2
176
     1
 72
     2
176
     1
 73
     1
176
     1
 90
        2
176
     1
 40
-0.6
176
     1
 41
30.0
176
     1
 62
     5
 63
     7
421
 16777215
176
     1
 74
     0
176
     1
 91
        4
176
     1
 64
     7
176
     1
 65
   257
176
     1
 75
     1
176
     1
175
     1
176
     1
 42
1.0
176
     1
 92
        0
176
     1
 66
     7
176
     1
 43
1.0
176
     1
 76
     1
176
     1
 77
     6
176
     1
 78
     2
176
     1
 67
     7
176
     1
 79
     5
176
     1
170
     0
176
     1
171
     0
176
     1
290
     0
176
     1
 93
       13
176
     1
 44
0.0
176
     1
173
     0
176
     1
  0
VISUALSTYLE
  5
2E
102
{ACAD_REACTORS
330
2A
102
}
330
2A
100
AcDbVisualStyle
  2
GouraudWithEdges
 70
     3
177
     2
291
     1
 71
     2
176
     1
 72
     2
176
     1
 73
     1
176
     1
 90
        2
176
     1
 40
-0.6
176
     1
 41
30.0
176
     1
 62
     5
 63
     7
421
 16777215
176
     1
 74
     1
176
     1
 91
        4
176
     1
 64
     7
176
     1
 65
   257
176
     1
 75
     1
176
     1
175
     1
176
     1
 42
1.0
176
     1
 92
        0
176
     1
 66
   257
176
     1
 43
1.0
176
     1
 76
     1
176
     1
 77
     6
176
     1
 78
     2
176
     1
 67
     7
176
     1
 79
     5
176
     1
170
     0
176
     1
171
     0
176
     1
290
     0
176
     1
 93
       13
176
     1
 44
0.0
176
     1
173
     0
176
     1
  0
VISUALSTYLE
  5
38
102
{ACAD_REACTORS
330
2A
102
}
330
2A
100
AcDbVisualStyle
  2
Linepattern
 70
    14
177
     2
291
     1
 71
     2
176
     1
 72
     2
176
     1
 73
     0
176
     1
 90
        0
176
     1
 40
-0.6
176
     1
 41
-30.0
176
     1
 62
     5
 63
     7
421
 16777215
176
     1
 74
     1
176
     1
 91
        4
176
     1
 64
     7
176
     1
 65
   257
176
     1
 75
     7
176
     1
175
     7
176
     1
 42
1.0
176
     1
 92
        8
176
     1
 66
     7
176
     1
 43
1.0
176
     1
 76
     1
176
     1
 77
     6
176
     1
 78
     2
176
     1
 67
     7
176
     1
 79
     5
176
     1
170
     0
176
     1
171
     0
176
     1
290
     0
176
     1
 93
        1
176
     1
 44
0.0
176
     1
173
     0
176
     1
  0
VISUALSTYLE
  5
33
102
{ACAD_REACTORS
330
2A
102
}
330
2A
100
AcDbVisualStyle
  2
Realistic
 70
     8
177
     2
291
     0
 71
     2
176
     1
 72
     2
176
     1
 73
     0
176
     1
 90
        0
176
     1
 40
-0.6
176
     1
 41
-30.0
176
     1
 62
     5
 63
     7
421
 16777215
176
     1
 74
     1
176
     1
 91
        0
176
     1
 64
     7
176
     1
 65
   257
176
     1
 75
     1
176
     1
175
     1
176
     1
 42
1.0
176
     1
 92
        8
176
     1
 66
     8
424
  7895160
176
     1
 43
1.0
176
     1
 76
     1
176
     1
 77
     6
176
     1
 78
     2
176
     1
 67
     7
176
     1
 79
     5
176
     1
170
     0
176
     1
171
     0
176
     1
290
     0
176
     1
 93
       13
176
     1
 44
0.0
176
     1
173
     0
176
     1
  0
VISUALSTYLE
  5
37
102
{ACAD_REACTORS
330
2A
102
}
330
2A
100
AcDbVisualStyle
  2
Thicken
 70
    13
177
     2
291
     1
 71
     2
176
     1
 72
     2
176
     1
 73
     0
176
     1
 90
        0
176
     1
 40
-0.6
176
     1
 41
-30.0
176
     1
 62
     5
 63
     7
421
 16777215
176
     1
 74
     1
176
     1
 91
        4
176
     1
 64
     7
176
     1
 65
   257
176
     1
 75
     1
176
     1
175
     1
176
     1
 42
1.0
176
     1
 92
       12
176
     1
 66
     7
176
     1
 43
1.0
176
     1
 76
     1
176
     1
 77
     6
176
     1
 78
     2
176
     1
 67
     7
176
     1
 79
     5
176
     1
170
     0
176
     1
171
     0
176
     1
290
     0
176
     1
 93
        1
176
     1
 44
0.0
176
     1
173
     0
176
     1
  0
ENDSEC
  0
EOF
