  0
SECTION
  2
HEADER
  9
$ACADVER
  1
AC1024
  9
$ACADMAINTVER
 70
     6
  9
$DWGCODEPAGE
  3
UNDEFINED
  9
$INSBASE
 10
0.0
 20
0.0
 30
0.0
  9
$EXTMIN
 10
1.000000000000000E+20
 20
1.000000000000000E+20
 30
1.000000000000000E+20
  9
$EXTMAX
 10
-1.000000000000000E+20
 20
-1.000000000000000E+20
 30
-1.000000000000000E+20
  9
$LIMMIN
 10
0.0
 20
0.0
  9
$LIMMAX
 10
12.0
 20
9.0
  9
$ORTHOMODE
 70
     0
  9
$REGENMODE
 70
     1
  9
$FILLMODE
 70
     1
  9
$QTEXTMODE
 70
     0
  9
$MIRRTEXT
 70
     1
  9
$LTSCALE
 40
1.0
  9
$ATTMODE
 70
     1
  9
$TEXTSIZE
 40
0.2
  9
$TRACEWID
 40
0.05
  9
$TEXTSTYLE
  7
Standard
  9
$CLAYER
  8
0
  9
$CELTYPE
  6
ByLayer
  9
$CECOLOR
 62
   256
  9
$CELTSCALE
 40
1.0
  9
$DISPSILH
 70
     0
  9
$DIMSCALE
 40
1.0
  9
$DIMASZ
 40
0.18
  9
$DIMEXO
 40
0.0625
  9
$DIMDLI
 40
0.38
  9
$DIMRND
 40
0.0
  9
$DIMDLE
 40
0.0
  9
$DIMEXE
 40
0.18
  9
$DIMTP
 40
0.0
  9
$DIMTM
 40
0.0
  9
$DIMTXT
 40
0.18
  9
$DIMCEN
 40
0.09
  9
$DIMTSZ
 40
0.0
  9
$DIMTOL
 70
     0
  9
$DIMLIM
 70
     0
  9
$DIMTIH
 70
     1
  9
$DIMTOH
 70
     1
  9
$DIMSE1
 70
     0
  9
$DIMSE2
 70
     0
  9
$DIMTAD
 70
     0
  9
$DIMZIN
 70
     0
  9
$DIMBLK
  1

  9
$DIMASO
 70
     1
  9
$DIMSHO
 70
     1
  9
$DIMPOST
  1

  9
$DIMAPOST
  1

  9
$DIMALT
 70
     0
  9
$DIMALTD
 70
     2
  9
$DIMALTF
 40
25.4
  9
$DIMLFAC
 40
1.0
  9
$DIMTOFL
 70
     0
  9
$DIMTVP
 40
0.0
  9
$DIMTIX
 70
     0
  9
$DIMSOXD
 70
     0
  9
$DIMSAH
 70
     0
  9
$DIMBLK1
  1

  9
$DIMBLK2
  1

  9
$DIMSTYLE
  2
Standard
  9
$DIMCLRD
 70
     0
  9
$DIMCLRE
 70
     0
  9
$DIMCLRT
 70
     0
  9
$DIMTFAC
 40
1.0
  9
$DIMGAP
 40
0.09
  9
$DIMJUST
 70
     0
  9
$DIMSD1
 70
     0
  9
$DIMSD2
 70
     0
  9
$DIMTOLJ
 70
     1
  9
$DIMTZIN
 70
     0
  9
$DIMALTZ
 70
     0
  9
$DIMALTTZ
 70
     0
  9
$DIMUPT
 70
     0
  9
$DIMDEC
 70
     4
  9
$DIMTDEC
 70
     4
  9
$DIMALTU
 70
     2
  9
$DIMALTTD
 70
     2
  9
$DIMTXSTY
  7
Standard
  9
$DIMAUNIT
 70
     0
  9
$DIMADEC
 70
     0
  9
$DIMALTRND
 40
0.0
  9
$DIMAZIN
 70
     0
  9
$DIMDSEP
 70
    46
  9
$DIMATFIT
 70
     3
  9
$DIMFRAC
 70
     0
  9
$DIMLDRBLK
  1

  9
$DIMLUNIT
 70
     2
  9
$DIMLWD
 70
    -2
  9
$DIMLWE
 70
    -2
  9
$DIMTMOVE
 70
     0
  9
$DIMFXL
 40
1.0
  9
$DIMFXLON
 70
     0
  9
$DIMJOGANG
 40
0.7853981633974483
  9
$DIMTFILL
 70
     0
  9
$DIMTFILLCLR
 70
     0
  9
$DIMARCSYM
 70
     0
  9
$DIMLTYPE
  6

  9
$DIMLTEX1
  6

  9
$DIMLTEX2
  6

  9
$DIMTXTDIRECTION
 70
     0
  9
$LUNITS
 70
     2
  9
$LUPREC
 70
     4
  9
$SKETCHINC
 40
0.1
  9
$FILLETRAD
 40
0.5
  9
$AUNITS
 70
     0
  9
$AUPREC
 70
     0
  9
$MENU
  1
.
  9
$ELEVATION
 40
0.0
  9
$PELEVATION
 40
0.0
  9
$THICKNESS
 40
0.0
  9
$LIMCHECK
 70
     0
  9
$CHAMFERA
 40
0.5
  9
$CHAMFERB
 40
0.5
  9
$CHAMFERC
 40
1.0
  9
$CHAMFERD
 40
0.0
  9
$SKPOLY
 70
     0
  9
$TDCREATE
 40
2457917.627094896
  9
$TDUCREATE
 40
2457917.252094907
  9
$TDUPDATE
 40
2457917.627094896
  9
$TDUUPDATE
 40
2457917.252094907
  9
$TDINDWG
 40
0.0000000116
  9
$TDUSRTIMER
 40
0.0000000116
  9
$USRTIMER
 70
     1
  9
$ANGBASE
 50
0.0
  9
$ANGDIR
 70
     0
  9
$PDMODE
 70
     0
  9
$PDSIZE
 40
0.0
  9
$PLINEWID
 40
0.0
  9
$SPLFRAME
 70
     0
  9
$SPLINETYPE
 70
     6
  9
$SPLINESEGS
 70
     8
  9
$HANDSEED
  5
16E
  9
$SURFTAB1
 70
     6
  9
$SURFTAB2
 70
     6
  9
$SURFTYPE
 70
     6
  9
$SURFU
 70
     6
  9
$SURFV
 70
     6
  9
$UCSBASE
  2

  9
$UCSNAME
  2

  9
$UCSORG
 10
0.0
 20
0.0
 30
0.0
  9
$UCSXDIR
 10
1.0
 20
0.0
 30
0.0
  9
$UCSYDIR
 10
0.0
 20
1.0
 30
0.0
  9
$UCSORTHOREF
  2

  9
$UCSORTHOVIEW
 70
     0
  9
$UCSORGTOP
 10
0.0
 20
0.0
 30
0.0
  9
$UCSORGBOTTOM
 10
0.0
 20
0.0
 30
0.0
  9
$UCSORGLEFT
 10
0.0
 20
0.0
 30
0.0
  9
$UCSORGRIGHT
 10
0.0
 20
0.0
 30
0.0
  9
$UCSORGFRONT
 10
0.0
 20
0.0
 30
0.0
  9
$UCSORGBACK
 10
0.0
 20
0.0
 30
0.0
  9
$PUCSBASE
  2

  9
$PUCSNAME
  2

  9
$PUCSORG
 10
0.0
 20
0.0
 30
0.0
  9
$PUCSXDIR
 10
1.0
 20
0.0
 30
0.0
  9
$PUCSYDIR
 10
0.0
 20
1.0
 30
0.0
  9
$PUCSORTHOREF
  2

  9
$PUCSORTHOVIEW
 70
     0
  9
$PUCSORGTOP
 10
0.0
 20
0.0
 30
0.0
  9
$PUCSORGBOTTOM
 10
0.0
 20
0.0
 30
0.0
  9
$PUCSORGLEFT
 10
0.0
 20
0.0
 30
0.0
  9
$PUCSORGRIGHT
 10
0.0
 20
0.0
 30
0.0
  9
$PUCSORGFRONT
 10
0.0
 20
0.0
 30
0.0
  9
$PUCSORGBACK
 10
0.0
 20
0.0
 30
0.0
  9
$USERI1
 70
     0
  9
$USERI2
 70
     0
  9
$USERI3
 70
     0
  9
$USERI4
 70
     0
  9
$USERI5
 70
     0
  9
$USERR1
 40
0.0
  9
$USERR2
 40
0.0
  9
$USERR3
 40
0.0
  9
$USERR4
 40
0.0
  9
$USERR5
 40
0.0
  9
$WORLDVIEW
 70
     1
  9
$SHADEDGE
 70
     3
  9
$SHADEDIF
 70
    70
  9
$TILEMODE
 70
     1
  9
$MAXACTVP
 70
    64
  9
$PINSBASE
 10
0.0
 20
0.0
 30
0.0
  9
$PLIMCHECK
 70
     0
  9
$PEXTMIN
 10
1.000000000000000E+20
 20
1.000000000000000E+20
 30
1.000000000000000E+20
  9
$PEXTMAX
 10
-1.000000000000000E+20
 20
-1.000000000000000E+20
 30
-1.000000000000000E+20
  9
$PLIMMIN
 10
0.0
 20
0.0
  9
$PLIMMAX
 10
12.0
 20
9.0
  9
$UNITMODE
 70
     0
  9
$VISRETAIN
 70
     1
  9
$PLINEGEN
 70
     0
  9
$PSLTSCALE
 70
     1
  9
$TREEDEPTH
 70
  3020
  9
$CMLSTYLE
  2
Standard
  9
$CMLJUST
 70
     0
  9
$CMLSCALE
 40
1.0
  9
$PROXYGRAPHICS
 70
     1
  9
$MEASUREMENT
 70
     0
  9
$CELWEIGHT
370
    -1
  9
$ENDCAPS
280
     0
  9
$JOINSTYLE
280
     0
  9
$LWDISPLAY
290
     1
  9
$INSUNITS
 70
     1
  9
$HYPERLINKBASE
  1

  9
$STYLESHEET
  1

  9
$XEDIT
290
     1
  9
$CEPSNTYPE
380
     0
  9
$PSTYLEMODE
290
     1
  9
$FINGERPRINTGUID
  2
{940E0AA0-43F2-9DD5-FC22-757784D7FB25}
  9
$VERSIONGUID
  2
{FAEB1C32-E019-11D5-929B-00C0DF256EC4}
  9
$EXTNAMES
290
     1
  9
$PSVPSCALE
 40
0.0
  9
$OLESTARTUP
290
     0
  9
$SORTENTS
280
   127
  9
$INDEXCTL
280
     0
  9
$HIDETEXT
280
     1
  9
$XCLIPFRAME
280
     2
  9
$HALOGAP
280
     0
  9
$OBSCOLOR
 70
   257
  9
$OBSLTYPE
280
     0
  9
$INTERSECTIONDISPLAY
280
     0
  9
$INTERSECTIONCOLOR
 70
   257
  9
$DIMASSOC
280
     2
  9
$PROJECTNAME
  1

  9
$CAMERADISPLAY
290
     0
  9
$LENSLENGTH
 40
50.0
  9
$CAMERAHEIGHT
 40
0.0
  9
$STEPSPERSEC
 40
2.0
  9
$STEPSIZE
 40
6.0
  9
$3DDWFPREC
 40
2.0
  9
$PSOLWIDTH
 40
0.25
  9
$PSOLHEIGHT
 40
4.0
  9
$LOFTANG1
 40
1.570796326794897
  9
$LOFTANG2
 40
1.570796326794897
  9
$LOFTMAG1
 40
0.0
  9
$LOFTMAG2
 40
0.0
  9
$LOFTPARAM
 70
     7
  9
$LOFTNORMALS
280
     1
  9
$LATITUDE
 40
37.795
  9
$LONGITUDE
 40
-122.394
  9
$NORTHDIRECTION
 40
0.0
  9
$TIMEZONE
 70
 -8000
  9
$LIGHTGLYPHDISPLAY
280
     1
  9
$TILEMODELIGHTSYNCH
280
     1
  9
$CMATERIAL
347
3C
  9
$SOLIDHIST
280
     1
  9
$SHOWHIST
280
     1
  9
$DWFFRAME
280
     2
  9
$DGNFRAME
280
     2
  9
$REALWORLDSCALE
290
     1
  9
$INTERFERECOLOR
 62
   256
  9
$CSHADOW
280
     0
  9
$SHADOWPLANELOCATION
 40
0.0
  0
ENDSEC
  0
SECTION
  2
CLASSES
  0
CLASS
  1
ACDBDICTIONARYWDFLT
  2
AcDbDictionaryWithDefault
  3
ObjectDBX Classes
 90
        0
 91
        4
280
     0
281
     0
  0
CLASS
  1
VISUALSTYLE
  2
AcDbVisualStyle
  3
ObjectDBX Classes
 90
     4095
 91
        4
280
     0
281
     0
  0
CLASS
  1
MATERIAL
  2
AcDbMaterial
  3
ObjectDBX Classes
 90
     1153
 91
        4
280
     0
281
     0
  0
CLASS
  1
SUN
  2
AcDbSun
  3
SCENEOE
 90
     1024
 91
        4
280
     0
281
     0
  0
ENDSEC
  0
SECTION
  2
TABLES
  0
TABLE
  2
VPORT
  5
8
330
0
100
AcDbSymbolTable
 70
     1
  0
VPORT
  5
29
330
8
100
AcDbSymbolTableRecord
100
AcDbViewportTableRecord
  2
*Active
 70
     0
 10
0.0
 20
0.0
 11
1.0
 21
1.0
 12
0.0
 22
0.0
 13
0.0
 23
0.0
 14
0.5
 24
0.5
 15
0.5
 25
0.5
 16
0.0
 26
0.0
 36
1.0
 17
91.00082462281999
 27
-128.4993055234307
 37
0.0
 40
256.9986110468615
 41
0.7081814508812795
 42
50.0
 43
0.0
 44
0.0
 50
0.0
 51
0.0
 71
     0
 72
   100
 73
     1
 74
     3
 75
     0
 76
     0
 77
     0
 78
     0
281
     0
 65
     1
110
0.0
120
0.0
130
0.0
111
1.0
121
0.0
131
0.0
112
0.0
122
1.0
132
0.0
 79
     0
146
0.0
 60
     3
 61
     5
292
     1
282
     1
141
0.0
142
0.0
 63
   250
361
3F
  0
ENDTAB
  0
TABLE
  2
LTYPE
  5
5
330
0
100
AcDbSymbolTable
 70
     1
  0
LTYPE
  5
14
330
5
100
AcDbSymbolTableRecord
100
AcDbLinetypeTableRecord
  2
ByBlock
 70
     0
  3

 72
    65
 73
     0
 40
0.0
  0
LTYPE
  5
15
330
5
100
AcDbSymbolTableRecord
100
AcDbLinetypeTableRecord
  2
ByLayer
 70
     0
  3

 72
    65
 73
     0
 40
0.0
  0
LTYPE
  5
16
330
5
100
AcDbSymbolTableRecord
100
AcDbLinetypeTableRecord
  2
Continuous
 70
     0
  3
Solid line
 72
    65
 73
     0
 40
0.0
  0
ENDTAB
  0
TABLE
  2
LAYER
  5
2
330
0
100
AcDbSymbolTable
 70
     2
  0
LAYER
  5
10
330
2
100
AcDbSymbolTableRecord
100
AcDbLayerTableRecord
  2
0
 70
     0
 62
     7
  6
Continuous
370
    -3
390
F
347
3E
  0
LAYER
  5
40
330
2
100
AcDbSymbolTableRecord
100
AcDbLayerTableRecord
  2
_U+30EC_U+30A4_U+30E4_U+30FC 1
 70
     0
 62
     7
  6
Continuous
370
    -3
390
F
347
3E
  0
ENDTAB
  0
TABLE
  2
STYLE
  5
3
330
0
100
AcDbSymbolTable
 70
     1
  0
STYLE
  5
11
330
3
100
AcDbSymbolTableRecord
100
AcDbTextStyleTableRecord
  2
Standard
 70
     0
 40
0.0
 41
1.0
 50
0.0
 71
     0
 42
0.2
  3
txt
  4

  0
ENDTAB
  0
TABLE
  2
VIEW
  5
6
330
0
100
AcDbSymbolTable
 70
     0
  0
ENDTAB
  0
TABLE
  2
UCS
  5
7
330
0
100
AcDbSymbolTable
 70
     0
  0
ENDTAB
  0
TABLE
  2
APPID
  5
9
330
0
100
AcDbSymbolTable
 70
     1
  0
APPID
  5
12
330
9
100
AcDbSymbolTableRecord
100
AcDbRegAppTableRecord
  2
ACAD
 70
     0
  0
ENDTAB
  0
TABLE
  2
DIMSTYLE
  5
A
330
0
100
AcDbSymbolTable
 70
     1
100
AcDbDimStyleTable
  0
DIMSTYLE
105
27
330
A
100
AcDbSymbolTableRecord
100
AcDbDimStyleTableRecord
  2
Standard
 70
     0
178
     0
340
11
  0
ENDTAB
  0
TABLE
  2
BLOCK_RECORD
  5
1
330
0
100
AcDbSymbolTable
 70
     7
  0
BLOCK_RECORD
  5
1F
330
1
100
AcDbSymbolTableRecord
100
AcDbBlockTableRecord
  2
*Model_Space
340
22
 70
     0
280
     1
281
     0
  0
BLOCK_RECORD
  5
1B
330
1
100
AcDbSymbolTableRecord
100
AcDbBlockTableRecord
  2
*Paper_Space
340
1E
 70
     0
280
     1
281
     0
  0
BLOCK_RECORD
  5
23
330
1
100
AcDbSymbolTableRecord
100
AcDbBlockTableRecord
  2
*Paper_Space0
340
26
 70
     0
280
     1
281
     0
  0
BLOCK_RECORD
  5
AB
330
1
100
AcDbSymbolTableRecord
100
AcDbBlockTableRecord
  2
block 2
340
0
102
{BLKREFS
331
AC
102
}
 70
     0
280
     1
281
     0
  0
BLOCK_RECORD
  5
C0
330
1
100
AcDbSymbolTableRecord
100
AcDbBlockTableRecord
  2
block 3
340
0
102
{BLKREFS
331
C1
102
}
 70
     0
280
     1
281
     0
  0
BLOCK_RECORD
  5
EC
330
1
100
AcDbSymbolTableRecord
100
AcDbBlockTableRecord
  2
block 4
340
0
102
{BLKREFS
331
ED
102
}
 70
     0
280
     1
281
     0
  0
BLOCK_RECORD
  5
104
330
1
100
AcDbSymbolTableRecord
100
AcDbBlockTableRecord
  2
block 5
340
0
102
{BLKREFS
331
105
102
}
 70
     0
280
     1
281
     0
  0
BLOCK_RECORD
  5
132
330
1
100
AcDbSymbolTableRecord
100
AcDbBlockTableRecord
  2
block 6
340
0
102
{BLKREFS
331
133
102
}
 70
     0
280
     1
281
     0
  0
BLOCK_RECORD
  5
157
330
1
100
AcDbSymbolTableRecord
100
AcDbBlockTableRecord
  2
block 7
340
0
102
{BLKREFS
331
158
102
}
 70
     0
280
     1
281
     0
  0
ENDTAB
  0
ENDSEC
  0
SECTION
  2
BLOCKS
  0
BLOCK
  5
20
330
1F
100
AcDbEntity
  8
0
100
AcDbBlockBegin
  2
*Model_Space
 70
     0
 10
0.0
 20
0.0
 30
0.0
  3
*Model_Space
  1

  0
ENDBLK
  5
21
330
1F
100
AcDbEntity
  8
0
100
AcDbBlockEnd
  0
BLOCK
  5
1C
330
1B
100
AcDbEntity
 67
     1
  8
0
100
AcDbBlockBegin
  2
*Paper_Space
 70
     0
 10
0.0
 20
0.0
 30
0.0
  3
*Paper_Space
  1

  0
ENDBLK
  5
1D
330
1B
100
AcDbEntity
 67
     1
  8
0
100
AcDbBlockEnd
  0
BLOCK
  5
24
330
23
100
AcDbEntity
  8
0
100
AcDbBlockBegin
  2
*Paper_Space0
 70
     0
 10
0.0
 20
0.0
 30
0.0
  3
*Paper_Space0
  1

  0
ENDBLK
  5
25
330
23
100
AcDbEntity
  8
0
100
AcDbBlockEnd
  0
BLOCK
  5
AD
330
AB
100
AcDbEntity
  8
0
100
AcDbBlockBegin
  2
block 2
 70
     0
 10
0.0
 20
0.0
 30
0.0
  3
block 2
  1

  0
SPLINE
  5
AF
330
AB
100
AcDbEntity
  8
_U+30EC_U+30A4_U+30E4_U+30FC 1
370
     0
100
AcDbSpline
210
0.0
220
0.0
230
1.0
 70
    11
 71
     3
 72
    44
 73
    40
 74
     0
 42
0.0000000001
 43
0.0000000001
 12
1.0
 22
0.0
 32
0.0
 13
1.0
 23
0.0
 33
0.0
 40
0.0
 40
0.0
 40
0.0
 40
0.0
 40
1.0
 40
1.0
 40
1.0
 40
2.0
 40
2.0
 40
2.0
 40
3.0
 40
3.0
 40
3.0
 40
4.0
 40
4.0
 40
4.0
 40
5.0
 40
5.0
 40
5.0
 40
6.0
 40
6.0
 40
6.0
 40
7.0
 40
7.0
 40
7.0
 40
8.0
 40
8.0
 40
8.0
 40
9.0
 40
9.0
 40
9.0
 40
10.0
 40
10.0
 40
10.0
 40
11.0
 40
11.0
 40
11.0
 40
12.0
 40
12.0
 40
12.0
 40
13.0
 40
13.0
 40
13.0
 40
13.0
 10
96.89399954174873
 20
-143.1919487489242
 30
0.0
 10
96.6673122588193
 20
-143.3631699945412
 30
0.0
 10
96.57016056613524
 20
-143.443096209799
 30
0.0
 10
96.51951766250207
 20
-143.5981255066352
 30
0.0
 10
96.51951766250207
 20
-143.5981255066352
 30
0.0
 10
97.32980412063283
 20
-143.5981255066352
 30
0.0
 10
97.32980412063283
 20
-143.5981255066352
 30
0.0
 10
97.32980412063283
 20
-143.5981255066352
 30
0.0
 10
97.32980412063283
 20
-143.8196451463368
 30
0.0
 10
97.32980412063283
 20
-143.8196451463368
 30
0.0
 10
97.32980412063283
 20
-143.8196451463368
 30
0.0
 10
96.25975746291424
 20
-143.8196451463368
 30
0.0
 10
96.25975746291424
 20
-143.8196451463368
 30
0.0
 10
96.29283037957264
 20
-143.4337944519888
 30
0.0
 10
96.36104327018057
 20
-143.3493896126002
 30
0.0
 10
96.76170787511514
 20
-143.0276176942778
 30
0.0
 10
97.02835826567348
 20
-142.8129882455468
 30
0.0
 10
97.09657115628141
 20
-142.7399522212595
 30
0.0
 10
97.09657115628141
 20
-142.5918131153937
 30
0.0
 10
97.09657115628141
 20
-142.4640000728909
 30
0.0
 10
97.02146807470297
 20
-142.3224066484472
 30
0.0
 10
96.81682940287914
 20
-142.3224066484472
 30
0.0
 10
96.5460448977385
 20
-142.3224066484472
 30
0.0
 10
96.53708764947685
 20
-142.5711425424822
 30
0.0
 10
96.53295353489455
 20
-142.6965440181453
 30
0.0
 10
96.53295353489455
 20
-142.6965440181453
 30
0.0
 10
96.2993760609946
 20
-142.6965440181453
 30
0.0
 10
96.2993760609946
 20
-142.6965440181453
 30
0.0
 10
96.30833330925626
 20
-142.5597737273809
 30
0.0
 10
96.31935761480905
 20
-142.4388508758486
 30
0.0
 10
96.40307343510062
 20
-142.3110378333459
 30
0.0
 10
96.51745060521093
 20
-142.1377495304378
 30
0.0
 10
96.71106497148196
 20
-142.1012315182942
 30
0.0
 10
96.83233233256276
 20
-142.1012315182942
 30
0.0
 10
97.12068682467816
 20
-142.1012315182942
 30
0.0
 10
97.33634980205481
 20
-142.2996690182445
 30
0.0
 10
97.33634980205481
 20
-142.5938801726849
 30
0.0
 10
97.33634980205481
 20
-142.8405490094288
 30
0.0
 10
97.21542695052254
 20
-142.94769147902
 30
0.0
 10
96.89399954174873
 20
-143.1919487489242
 30
0.0
  0
HATCH
  5
B0
330
AB
100
AcDbEntity
  8
_U+30EC_U+30A4_U+30E4_U+30FC 1
 62
   179
420
  2234388
100
AcDbHatch
 10
0.0
 20
0.0
 30
0.0
210
0.0
220
0.0
230
1.0
  2
SOLID
 70
     1
 71
     0
 91
        1
 92
        1
 93
        1
 72
     4
 94
        3
 73
     0
 74
     1
 95
       44
 96
       40
 40
0.0
 40
0.0
 40
0.0
 40
0.0
 40
1.0
 40
1.0
 40
1.0
 40
2.0
 40
2.0
 40
2.0
 40
3.0
 40
3.0
 40
3.0
 40
4.0
 40
4.0
 40
4.0
 40
5.0
 40
5.0
 40
5.0
 40
6.0
 40
6.0
 40
6.0
 40
7.0
 40
7.0
 40
7.0
 40
8.0
 40
8.0
 40
8.0
 40
9.0
 40
9.0
 40
9.0
 40
10.0
 40
10.0
 40
10.0
 40
11.0
 40
11.0
 40
11.0
 40
12.0
 40
12.0
 40
12.0
 40
13.0
 40
13.0
 40
13.0
 40
13.0
 10
96.89399954174873
 20
-143.1919487489242
 10
96.6673122588193
 20
-143.3631699945412
 10
96.57016056613524
 20
-143.443096209799
 10
96.51951766250207
 20
-143.5981255066352
 10
96.51951766250207
 20
-143.5981255066352
 10
97.32980412063283
 20
-143.5981255066352
 10
97.32980412063283
 20
-143.5981255066352
 10
97.32980412063283
 20
-143.5981255066352
 10
97.32980412063283
 20
-143.8196451463368
 10
97.32980412063283
 20
-143.8196451463368
 10
97.32980412063283
 20
-143.8196451463368
 10
96.25975746291424
 20
-143.8196451463368
 10
96.25975746291424
 20
-143.8196451463368
 10
96.29283037957264
 20
-143.4337944519888
 10
96.36104327018057
 20
-143.3493896126002
 10
96.76170787511514
 20
-143.0276176942778
 10
97.02835826567348
 20
-142.8129882455468
 10
97.09657115628141
 20
-142.7399522212595
 10
97.09657115628141
 20
-142.5918131153937
 10
97.09657115628141
 20
-142.4640000728909
 10
97.02146807470297
 20
-142.3224066484472
 10
96.81682940287914
 20
-142.3224066484472
 10
96.5460448977385
 20
-142.3224066484472
 10
96.53708764947685
 20
-142.5711425424822
 10
96.53295353489455
 20
-142.6965440181453
 10
96.53295353489455
 20
-142.6965440181453
 10
96.2993760609946
 20
-142.6965440181453
 10
96.2993760609946
 20
-142.6965440181453
 10
96.30833330925626
 20
-142.5597737273809
 10
96.31935761480905
 20
-142.4388508758486
 10
96.40307343510062
 20
-142.3110378333459
 10
96.51745060521093
 20
-142.1377495304378
 10
96.71106497148196
 20
-142.1012315182942
 10
96.83233233256276
 20
-142.1012315182942
 10
97.12068682467816
 20
-142.1012315182942
 10
97.33634980205481
 20
-142.2996690182445
 10
97.33634980205481
 20
-142.5938801726849
 10
97.33634980205481
 20
-142.8405490094288
 10
97.21542695052254
 20
-142.94769147902
 10
96.89399954174873
 20
-143.1919487489242
 97
        0
 97
        0
 75
     2
 76
     1
 98
        0
  0
SPLINE
  5
B1
330
AB
100
AcDbEntity
  8
_U+30EC_U+30A4_U+30E4_U+30FC 1
370
     0
100
AcDbSpline
210
0.0
220
0.0
230
1.0
 70
    11
 71
     3
 72
    29
 73
    25
 74
     0
 42
0.0000000001
 43
0.0000000001
 12
1.0
 22
0.0
 32
0.0
 13
1.0
 23
0.0
 33
0.0
 40
0.0
 40
0.0
 40
0.0
 40
0.0
 40
1.0
 40
1.0
 40
1.0
 40
2.0
 40
2.0
 40
2.0
 40
3.0
 40
3.0
 40
3.0
 40
4.0
 40
4.0
 40
4.0
 40
5.0
 40
5.0
 40
5.0
 40
6.0
 40
6.0
 40
6.0
 40
7.0
 40
7.0
 40
7.0
 40
8.0
 40
8.0
 40
8.0
 40
8.0
 10
98.43430173320392
 20
-143.6280978373569
 30
0.0
 10
98.32199162038478
 20
-143.8537515916407
 30
0.0
 10
98.1414686169577
 20
-143.8744221645522
 30
0.0
 10
98.02054576542542
 20
-143.8744221645522
 30
0.0
 10
97.85311412484228
 20
-143.8744221645522
 30
0.0
 10
97.70566403807359
 20
-143.8241237704676
 30
0.0
 10
97.6064452880984
 20
-143.6280978373569
 30
0.0
 10
97.49861379941008
 20
-143.4179470127566
 30
0.0
 10
97.47897675514415
 20
-143.1623209277511
 30
0.0
 10
97.47897675514415
 20
-142.9866210580034
 30
0.0
 10
97.47897675514415
 20
-142.8312472516186
 30
0.0
 10
97.49654674211892
 20
-142.5597737273809
 30
0.0
 10
97.6064452880984
 20
-142.3451442786498
 30
0.0
 10
97.71875540091754
 20
-142.126036205788
 30
0.0
 10
97.88618704150068
 20
-142.1012315182942
 30
0.0
 10
98.02054576542542
 20
-142.1012315182942
 30
0.0
 10
98.18556583916889
 20
-142.1012315182942
 30
0.0
 10
98.33508298322873
 20
-142.1487738359906
 30
0.0
 10
98.43430173320392
 20
-142.3451442786498
 30
0.0
 10
98.53765459776142
 20
-142.5528835364104
 30
0.0
 10
98.5621147757067
 20
-142.7995523731543
 30
0.0
 10
98.5621147757067
 20
-142.9866210580034
 30
0.0
 10
98.5621147757067
 20
-143.1712781760127
 30
0.0
 10
98.5400661646011
 20
-143.4203585795963
 30
0.0
 10
98.43430173320392
 20
-143.6280978373569
 30
0.0
  0
SPLINE
  5
B2
330
AB
100
AcDbEntity
  8
_U+30EC_U+30A4_U+30E4_U+30FC 1
370
     0
100
AcDbSpline
210
0.0
220
0.0
230
1.0
 70
    11
 71
     3
 72
    17
 73
    13
 74
     0
 42
0.0000000001
 43
0.0000000001
 12
1.0
 22
0.0
 32
0.0
 13
1.0
 23
0.0
 33
0.0
 40
0.0
 40
0.0
 40
0.0
 40
0.0
 40
1.0
 40
1.0
 40
1.0
 40
2.0
 40
2.0
 40
2.0
 40
3.0
 40
3.0
 40
3.0
 40
4.0
 40
4.0
 40
4.0
 40
4.0
 10
98.02054576542542
 20
-142.3086262665062
 30
0.0
 10
97.76078556583758
 20
-142.3086262665062
 30
0.0
 10
97.71220971949556
 20
-142.6145507455964
 30
0.0
 10
97.71220971949556
 20
-142.9866210580034
 30
0.0
 10
97.71220971949556
 20
-143.3311306065283
 30
0.0
 10
97.74976126028479
 20
-143.6646158495005
 30
0.0
 10
98.02054576542542
 20
-143.6646158495005
 30
0.0
 10
98.27789439817359
 20
-143.6646158495005
 30
0.0
 10
98.32853730180676
 20
-143.3607584277015
 30
0.0
 10
98.32853730180676
 20
-142.9866210580034
 30
0.0
 10
98.32853730180676
 20
-142.6421115094784
 30
0.0
 10
98.28891870372638
 20
-142.3086262665062
 30
0.0
 10
98.02054576542542
 20
-142.3086262665062
 30
0.0
  0
HATCH
  5
B3
330
AB
100
AcDbEntity
  8
_U+30EC_U+30A4_U+30E4_U+30FC 1
 62
   179
420
  2234388
100
AcDbHatch
 10
0.0
 20
0.0
 30
0.0
210
0.0
220
0.0
230
1.0
  2
SOLID
 70
     1
 71
     0
 91
        2
 92
        1
 93
        1
 72
     4
 94
        3
 73
     0
 74
     1
 95
       29
 96
       25
 40
0.0
 40
0.0
 40
0.0
 40
0.0
 40
1.0
 40
1.0
 40
1.0
 40
2.0
 40
2.0
 40
2.0
 40
3.0
 40
3.0
 40
3.0
 40
4.0
 40
4.0
 40
4.0
 40
5.0
 40
5.0
 40
5.0
 40
6.0
 40
6.0
 40
6.0
 40
7.0
 40
7.0
 40
7.0
 40
8.0
 40
8.0
 40
8.0
 40
8.0
 10
98.43430173320392
 20
-143.6280978373569
 10
98.32199162038478
 20
-143.8537515916407
 10
98.1414686169577
 20
-143.8744221645522
 10
98.02054576542542
 20
-143.8744221645522
 10
97.85311412484228
 20
-143.8744221645522
 10
97.70566403807359
 20
-143.8241237704676
 10
97.6064452880984
 20
-143.6280978373569
 10
97.49861379941008
 20
-143.4179470127566
 10
97.47897675514415
 20
-143.1623209277511
 10
97.47897675514415
 20
-142.9866210580034
 10
97.47897675514415
 20
-142.8312472516186
 10
97.49654674211892
 20
-142.5597737273809
 10
97.6064452880984
 20
-142.3451442786498
 10
97.71875540091754
 20
-142.126036205788
 10
97.88618704150068
 20
-142.1012315182942
 10
98.02054576542542
 20
-142.1012315182942
 10
98.18556583916889
 20
-142.1012315182942
 10
98.33508298322873
 20
-142.1487738359906
 10
98.43430173320392
 20
-142.3451442786498
 10
98.53765459776142
 20
-142.5528835364104
 10
98.5621147757067
 20
-142.7995523731543
 10
98.5621147757067
 20
-142.9866210580034
 10
98.5621147757067
 20
-143.1712781760127
 10
98.5400661646011
 20
-143.4203585795963
 10
98.43430173320392
 20
-143.6280978373569
 97
        0
 97
        0
 92
        1
 93
        1
 72
     4
 94
        3
 73
     0
 74
     1
 95
       17
 96
       13
 40
0.0
 40
0.0
 40
0.0
 40
0.0
 40
1.0
 40
1.0
 40
1.0
 40
2.0
 40
2.0
 40
2.0
 40
3.0
 40
3.0
 40
3.0
 40
4.0
 40
4.0
 40
4.0
 40
4.0
 10
98.02054576542542
 20
-142.3086262665062
 10
97.76078556583758
 20
-142.3086262665062
 10
97.71220971949556
 20
-142.6145507455964
 10
97.71220971949556
 20
-142.9866210580034
 10
97.71220971949556
 20
-143.3311306065283
 10
97.74976126028479
 20
-143.6646158495005
 10
98.02054576542542
 20
-143.6646158495005
 10
98.27789439817359
 20
-143.6646158495005
 10
98.32853730180676
 20
-143.3607584277015
 10
98.32853730180676
 20
-142.9866210580034
 10
98.32853730180676
 20
-142.6421115094784
 10
98.28891870372638
 20
-142.3086262665062
 10
98.02054576542542
 20
-142.3086262665062
 97
        0
 97
        0
 75
     2
 76
     1
 98
        0
  0
ENDBLK
  5
AE
330
AB
100
AcDbEntity
  8
0
100
AcDbBlockEnd
  0
BLOCK
  5
C2
330
C0
100
AcDbEntity
  8
0
100
AcDbBlockBegin
  2
block 3
 70
     0
 10
0.0
 20
0.0
 30
0.0
  3
block 3
  1

  0
POLYLINE
  5
C4
330
C0
100
AcDbEntity
  8
_U+30EC_U+30A4_U+30E4_U+30FC 1
370
     0
100
AcDb2dPolyline
 66
     1
 10
0.0
 20
0.0
 30
0.0
  0
VERTEX
  5
C5
330
C4
100
AcDbEntity
  8
_U+30EC_U+30A4_U+30E4_U+30FC 1
370
     0
100
AcDbVertex
100
AcDb2dVertex
 10
97.14273543578376
 20
-114.4105875365015
 30
0.0
  0
VERTEX
  5
C6
330
C4
100
AcDbEntity
  8
_U+30EC_U+30A4_U+30E4_U+30FC 1
370
     0
100
AcDbVertex
100
AcDb2dVertex
 10
97.14273543578376
 20
-114.7848971609739
 30
0.0
  0
VERTEX
  5
C7
330
C4
100
AcDbEntity
  8
_U+30EC_U+30A4_U+30E4_U+30FC 1
370
     0
100
AcDbVertex
100
AcDb2dVertex
 10
96.91604815285433
 20
-114.7848971609739
 30
0.0
  0
VERTEX
  5
C8
330
C4
100
AcDbEntity
  8
_U+30EC_U+30A4_U+30E4_U+30FC 1
370
     0
100
AcDbVertex
100
AcDb2dVertex
 10
96.91604815285433
 20
-114.4105875365015
 30
0.0
  0
VERTEX
  5
C9
330
C4
100
AcDbEntity
  8
_U+30EC_U+30A4_U+30E4_U+30FC 1
370
     0
100
AcDbVertex
100
AcDb2dVertex
 10
96.23357473722633
 20
-114.4105875365015
 30
0.0
  0
VERTEX
  5
CA
330
C4
100
AcDbEntity
  8
_U+30EC_U+30A4_U+30E4_U+30FC 1
370
     0
100
AcDbVertex
100
AcDb2dVertex
 10
96.23357473722633
 20
-114.168741833437
 30
0.0
  0
VERTEX
  5
CB
330
C4
100
AcDbEntity
  8
_U+30EC_U+30A4_U+30E4_U+30FC 1
370
     0
100
AcDbVertex
100
AcDb2dVertex
 10
96.94016382125108
 20
-113.1186767295328
 30
0.0
  0
VERTEX
  5
CC
330
C4
100
AcDbEntity
  8
_U+30EC_U+30A4_U+30E4_U+30FC 1
370
     0
100
AcDbVertex
100
AcDb2dVertex
 10
97.14273543578376
 20
-113.1186767295328
 30
0.0
  0
VERTEX
  5
CD
330
C4
100
AcDbEntity
  8
_U+30EC_U+30A4_U+30E4_U+30FC 1
370
     0
100
AcDbVertex
100
AcDb2dVertex
 10
97.14273543578376
 20
-114.1959580877705
 30
0.0
  0
VERTEX
  5
CE
330
C4
100
AcDbEntity
  8
_U+30EC_U+30A4_U+30E4_U+30FC 1
370
     0
100
AcDbVertex
100
AcDb2dVertex
 10
97.3583984131604
 20
-114.1959580877705
 30
0.0
  0
VERTEX
  5
CF
330
C4
100
AcDbEntity
  8
_U+30EC_U+30A4_U+30E4_U+30FC 1
370
     0
100
AcDbVertex
100
AcDb2dVertex
 10
97.3583984131604
 20
-114.4105875365015
 30
0.0
  0
VERTEX
  5
D0
330
C4
100
AcDbEntity
  8
_U+30EC_U+30A4_U+30E4_U+30FC 1
370
     0
100
AcDbVertex
100
AcDb2dVertex
 10
97.14273543578376
 20
-114.4105875365015
 30
0.0
  0
SEQEND
  5
D1
330
C4
100
AcDbEntity
  8
_U+30EC_U+30A4_U+30E4_U+30FC 1
370
     0
  0
POLYLINE
  5
D2
330
C0
100
AcDbEntity
  8
_U+30EC_U+30A4_U+30E4_U+30FC 1
370
     0
100
AcDb2dPolyline
 66
     1
 10
0.0
 20
0.0
 30
0.0
  0
VERTEX
  5
D3
330
D2
100
AcDbEntity
  8
_U+30EC_U+30A4_U+30E4_U+30FC 1
370
     0
100
AcDbVertex
100
AcDb2dVertex
 10
96.91604815285433
 20
-113.4885077298744
 30
0.0
  0
VERTEX
  5
D4
330
D2
100
AcDbEntity
  8
_U+30EC_U+30A4_U+30E4_U+30FC 1
370
     0
100
AcDbVertex
100
AcDb2dVertex
 10
96.44028046634132
 20
-114.1959580877705
 30
0.0
  0
VERTEX
  5
D5
330
D2
100
AcDbEntity
  8
_U+30EC_U+30A4_U+30E4_U+30FC 1
370
     0
100
AcDbVertex
100
AcDb2dVertex
 10
96.91604815285433
 20
-114.1959580877705
 30
0.0
  0
VERTEX
  5
D6
330
D2
100
AcDbEntity
  8
_U+30EC_U+30A4_U+30E4_U+30FC 1
370
     0
100
AcDbVertex
100
AcDb2dVertex
 10
96.91604815285433
 20
-113.4885077298744
 30
0.0
  0
SEQEND
  5
D7
330
D2
100
AcDbEntity
  8
_U+30EC_U+30A4_U+30E4_U+30FC 1
370
     0
  0
HATCH
  5
D8
330
C0
100
AcDbEntity
  8
_U+30EC_U+30A4_U+30E4_U+30FC 1
 62
   179
420
  2234388
100
AcDbHatch
 10
0.0
 20
0.0
 30
0.0
210
0.0
220
0.0
230
1.0
  2
SOLID
 70
     1
 71
     0
 91
        2
 92
        1
 93
       11
 72
     1
 10
97.14273543578376
 20
-114.4105875365015
 11
97.14273543578376
 21
-114.7848971609739
 72
     1
 10
97.14273543578376
 20
-114.7848971609739
 11
96.91604815285433
 21
-114.7848971609739
 72
     1
 10
96.91604815285433
 20
-114.7848971609739
 11
96.91604815285433
 21
-114.4105875365015
 72
     1
 10
96.91604815285433
 20
-114.4105875365015
 11
96.23357473722633
 21
-114.4105875365015
 72
     1
 10
96.23357473722633
 20
-114.4105875365015
 11
96.23357473722633
 21
-114.168741833437
 72
     1
 10
96.23357473722633
 20
-114.168741833437
 11
96.94016382125108
 21
-113.1186767295328
 72
     1
 10
96.94016382125108
 20
-113.1186767295328
 11
97.14273543578376
 21
-113.1186767295328
 72
     1
 10
97.14273543578376
 20
-113.1186767295328
 11
97.14273543578376
 21
-114.1959580877705
 72
     1
 10
97.14273543578376
 20
-114.1959580877705
 11
97.3583984131604
 21
-114.1959580877705
 72
     1
 10
97.3583984131604
 20
-114.1959580877705
 11
97.3583984131604
 21
-114.4105875365015
 72
     1
 10
97.3583984131604
 20
-114.4105875365015
 11
97.14273543578376
 21
-114.4105875365015
 97
        0
 92
        1
 93
        3
 72
     1
 10
96.91604815285433
 20
-113.4885077298744
 11
96.44028046634132
 21
-114.1959580877705
 72
     1
 10
96.44028046634132
 20
-114.1959580877705
 11
96.91604815285433
 21
-114.1959580877705
 72
     1
 10
96.91604815285433
 20
-114.1959580877705
 11
96.91604815285433
 21
-113.4885077298744
 97
        0
 75
     2
 76
     1
 98
        0
  0
SPLINE
  5
D9
330
C0
100
AcDbEntity
  8
_U+30EC_U+30A4_U+30E4_U+30FC 1
370
     0
100
AcDbSpline
210
0.0
220
0.0
230
1.0
 70
    11
 71
     3
 72
    29
 73
    25
 74
     0
 42
0.0000000001
 43
0.0000000001
 12
1.0
 22
0.0
 32
0.0
 13
1.0
 23
0.0
 33
0.0
 40
0.0
 40
0.0
 40
0.0
 40
0.0
 40
1.0
 40
1.0
 40
1.0
 40
2.0
 40
2.0
 40
2.0
 40
3.0
 40
3.0
 40
3.0
 40
4.0
 40
4.0
 40
4.0
 40
5.0
 40
5.0
 40
5.0
 40
6.0
 40
6.0
 40
6.0
 40
7.0
 40
7.0
 40
7.0
 40
8.0
 40
8.0
 40
8.0
 40
8.0
 10
98.43430173320392
 20
-114.5931775972198
 30
0.0
 10
98.32199162038478
 20
-114.8191758610522
 30
0.0
 10
98.1414686169577
 20
-114.8396741791894
 30
0.0
 10
98.02054576542542
 20
-114.8396741791894
 30
0.0
 10
97.85311412484228
 20
-114.8396741791894
 30
0.0
 10
97.70566403807359
 20
-114.789548039879
 30
0.0
 10
97.6064452880984
 20
-114.5931775972198
 30
0.0
 10
97.49861379941008
 20
-114.3831990273938
 30
0.0
 10
97.47897675514415
 20
-114.1275729423883
 30
0.0
 10
97.47897675514415
 20
-113.9518730726405
 30
0.0
 10
97.47897675514415
 20
-113.79667152103
 30
0.0
 10
97.49654674211892
 20
-113.5250257420181
 30
0.0
 10
97.6064452880984
 20
-113.3105685480613
 30
0.0
 10
97.71875540091754
 20
-113.0914604751994
 30
0.0
 10
97.88618704150068
 20
-113.066311278157
 30
0.0
 10
98.02054576542542
 20
-113.066311278157
 30
0.0
 10
98.18556583916889
 20
-113.066311278157
 30
0.0
 10
98.33508298322873
 20
-113.114198105402
 30
0.0
 10
98.43430173320392
 20
-113.3105685480613
 30
0.0
 10
98.53765459776142
 20
-113.5181355510475
 30
0.0
 10
98.5621147757067
 20
-113.7646321330172
 30
0.0
 10
98.5621147757067
 20
-113.9518730726405
 30
0.0
 10
98.5621147757067
 20
-114.1367024454242
 30
0.0
 10
98.5400661646011
 20
-114.3854383394592
 30
0.0
 10
98.43430173320392
 20
-114.5931775972198
 30
0.0
  0
SPLINE
  5
DA
330
C0
100
AcDbEntity
  8
_U+30EC_U+30A4_U+30E4_U+30FC 1
370
     0
100
AcDbSpline
210
0.0
220
0.0
230
1.0
 70
    11
 71
     3
 72
    17
 73
    13
 74
     0
 42
0.0000000001
 43
0.0000000001
 12
1.0
 22
0.0
 32
0.0
 13
1.0
 23
0.0
 33
0.0
 40
0.0
 40
0.0
 40
0.0
 40
0.0
 40
1.0
 40
1.0
 40
1.0
 40
2.0
 40
2.0
 40
2.0
 40
3.0
 40
3.0
 40
3.0
 40
4.0
 40
4.0
 40
4.0
 40
4.0
 10
98.02054576542542
 20
-113.2740505359176
 30
0.0
 10
97.76078556583758
 20
-113.2740505359176
 30
0.0
 10
97.71220971949556
 20
-113.5798027602335
 30
0.0
 10
97.71220971949556
 20
-113.9518730726405
 30
0.0
 10
97.71220971949556
 20
-114.2965548759398
 30
0.0
 10
97.74976126028479
 20
-114.6296956093634
 30
0.0
 10
98.02054576542542
 20
-114.6296956093634
 30
0.0
 10
98.27789439817359
 20
-114.6296956093634
 30
0.0
 10
98.32853730180676
 20
-114.3261826971129
 30
0.0
 10
98.32853730180676
 20
-113.9518730726405
 30
0.0
 10
98.32853730180676
 20
-113.6071912693413
 30
0.0
 10
98.28891870372638
 20
-113.2740505359176
 30
0.0
 10
98.02054576542542
 20
-113.2740505359176
 30
0.0
  0
HATCH
  5
DB
330
C0
100
AcDbEntity
  8
_U+30EC_U+30A4_U+30E4_U+30FC 1
 62
   179
420
  2234388
100
AcDbHatch
 10
0.0
 20
0.0
 30
0.0
210
0.0
220
0.0
230
1.0
  2
SOLID
 70
     1
 71
     0
 91
        2
 92
        1
 93
        1
 72
     4
 94
        3
 73
     0
 74
     1
 95
       29
 96
       25
 40
0.0
 40
0.0
 40
0.0
 40
0.0
 40
1.0
 40
1.0
 40
1.0
 40
2.0
 40
2.0
 40
2.0
 40
3.0
 40
3.0
 40
3.0
 40
4.0
 40
4.0
 40
4.0
 40
5.0
 40
5.0
 40
5.0
 40
6.0
 40
6.0
 40
6.0
 40
7.0
 40
7.0
 40
7.0
 40
8.0
 40
8.0
 40
8.0
 40
8.0
 10
98.43430173320392
 20
-114.5931775972198
 10
98.32199162038478
 20
-114.8191758610522
 10
98.1414686169577
 20
-114.8396741791894
 10
98.02054576542542
 20
-114.8396741791894
 10
97.85311412484228
 20
-114.8396741791894
 10
97.70566403807359
 20
-114.789548039879
 10
97.6064452880984
 20
-114.5931775972198
 10
97.49861379941008
 20
-114.3831990273938
 10
97.47897675514415
 20
-114.1275729423883
 10
97.47897675514415
 20
-113.9518730726405
 10
97.47897675514415
 20
-113.79667152103
 10
97.49654674211892
 20
-113.5250257420181
 10
97.6064452880984
 20
-113.3105685480613
 10
97.71875540091754
 20
-113.0914604751994
 10
97.88618704150068
 20
-113.066311278157
 10
98.02054576542542
 20
-113.066311278157
 10
98.18556583916889
 20
-113.066311278157
 10
98.33508298322873
 20
-113.114198105402
 10
98.43430173320392
 20
-113.3105685480613
 10
98.53765459776142
 20
-113.5181355510475
 10
98.5621147757067
 20
-113.7646321330172
 10
98.5621147757067
 20
-113.9518730726405
 10
98.5621147757067
 20
-114.1367024454242
 10
98.5400661646011
 20
-114.3854383394592
 10
98.43430173320392
 20
-114.5931775972198
 97
        0
 97
        0
 92
        1
 93
        1
 72
     4
 94
        3
 73
     0
 74
     1
 95
       17
 96
       13
 40
0.0
 40
0.0
 40
0.0
 40
0.0
 40
1.0
 40
1.0
 40
1.0
 40
2.0
 40
2.0
 40
2.0
 40
3.0
 40
3.0
 40
3.0
 40
4.0
 40
4.0
 40
4.0
 40
4.0
 10
98.02054576542542
 20
-113.2740505359176
 10
97.76078556583758
 20
-113.2740505359176
 10
97.71220971949556
 20
-113.5798027602335
 10
97.71220971949556
 20
-113.9518730726405
 10
97.71220971949556
 20
-114.2965548759398
 10
97.74976126028479
 20
-114.6296956093634
 10
98.02054576542542
 20
-114.6296956093634
 10
98.27789439817359
 20
-114.6296956093634
 10
98.32853730180676
 20
-114.3261826971129
 10
98.32853730180676
 20
-113.9518730726405
 10
98.32853730180676
 20
-113.6071912693413
 10
98.28891870372638
 20
-113.2740505359176
 10
98.02054576542542
 20
-113.2740505359176
 97
        0
 97
        0
 75
     2
 76
     1
 98
        0
  0
ENDBLK
  5
C3
330
C0
100
AcDbEntity
  8
0
100
AcDbBlockEnd
  0
BLOCK
  5
EE
330
EC
100
AcDbEntity
  8
0
100
AcDbBlockBegin
  2
block 4
 70
     0
 10
0.0
 20
0.0
 30
0.0
  3
block 4
  1

  0
SPLINE
  5
F0
330
EC
100
AcDbEntity
  8
_U+30EC_U+30A4_U+30E4_U+30FC 1
370
     0
100
AcDbSpline
210
0.0
220
0.0
230
1.0
 70
    11
 71
     3
 72
    26
 73
    22
 74
     0
 42
0.0000000001
 43
0.0000000001
 12
1.0
 22
0.0
 32
0.0
 13
1.0
 23
0.0
 33
0.0
 40
0.0
 40
0.0
 40
0.0
 40
0.0
 40
1.0
 40
1.0
 40
1.0
 40
2.0
 40
2.0
 40
2.0
 40
3.0
 40
3.0
 40
3.0
 40
4.0
 40
4.0
 40
4.0
 40
5.0
 40
5.0
 40
5.0
 40
6.0
 40
6.0
 40
6.0
 40
7.0
 40
7.0
 40
7.0
 40
7.0
 10
72.38145614509908
 20
-118.9937703153036
 30
0.0
 10
72.38145614509908
 20
-118.9937703153036
 30
0.0
 10
71.19014212629969
 20
-118.9937703153036
 30
0.0
 10
71.19014212629969
 20
-118.9937703153036
 30
0.0
 10
71.19014212629969
 20
-118.9937703153036
 30
0.0
 10
71.19014212629969
 20
-119.3372463351831
 30
0.0
 10
71.19014212629969
 20
-119.3372463351831
 30
0.0
 10
71.19014212629969
 20
-119.3372463351831
 30
0.0
 10
71.03028969578409
 20
-119.3372463351831
 30
0.0
 10
71.03028969578409
 20
-119.3372463351831
 30
0.0
 10
71.01444225655194
 20
-118.9915310032382
 30
0.0
 10
70.83874238680421
 20
-118.9431274116705
 30
0.0
 10
70.71540796843226
 20
-118.9122938070775
 30
0.0
 10
70.71540796843226
 20
-118.9122938070775
 30
0.0
 10
70.71540796843226
 20
-118.760365096178
 30
0.0
 10
70.71540796843226
 20
-118.760365096178
 30
0.0
 10
70.71540796843226
 20
-118.760365096178
 30
0.0
 10
72.38145614509908
 20
-118.760365096178
 30
0.0
 10
72.38145614509908
 20
-118.760365096178
 30
0.0
 10
72.38145614509908
 20
-118.760365096178
 30
0.0
 10
72.38145614509908
 20
-118.9937703153036
 30
0.0
 10
72.38145614509908
 20
-118.9937703153036
 30
0.0
  0
HATCH
  5
F1
330
EC
100
AcDbEntity
  8
_U+30EC_U+30A4_U+30E4_U+30FC 1
 62
   179
420
  2234388
100
AcDbHatch
 10
0.0
 20
0.0
 30
0.0
210
0.0
220
0.0
230
1.0
  2
SOLID
 70
     1
 71
     0
 91
        1
 92
        1
 93
        1
 72
     4
 94
        3
 73
     0
 74
     1
 95
       26
 96
       22
 40
0.0
 40
0.0
 40
0.0
 40
0.0
 40
1.0
 40
1.0
 40
1.0
 40
2.0
 40
2.0
 40
2.0
 40
3.0
 40
3.0
 40
3.0
 40
4.0
 40
4.0
 40
4.0
 40
5.0
 40
5.0
 40
5.0
 40
6.0
 40
6.0
 40
6.0
 40
7.0
 40
7.0
 40
7.0
 40
7.0
 10
72.38145614509908
 20
-118.9937703153036
 10
72.38145614509908
 20
-118.9937703153036
 10
71.19014212629969
 20
-118.9937703153036
 10
71.19014212629969
 20
-118.9937703153036
 10
71.19014212629969
 20
-118.9937703153036
 10
71.19014212629969
 20
-119.3372463351831
 10
71.19014212629969
 20
-119.3372463351831
 10
71.19014212629969
 20
-119.3372463351831
 10
71.03028969578409
 20
-119.3372463351831
 10
71.03028969578409
 20
-119.3372463351831
 10
71.01444225655194
 20
-118.9915310032382
 10
70.83874238680421
 20
-118.9431274116705
 10
70.71540796843226
 20
-118.9122938070775
 10
70.71540796843226
 20
-118.9122938070775
 10
70.71540796843226
 20
-118.760365096178
 10
70.71540796843226
 20
-118.760365096178
 10
70.71540796843226
 20
-118.760365096178
 10
72.38145614509908
 20
-118.760365096178
 10
72.38145614509908
 20
-118.760365096178
 10
72.38145614509908
 20
-118.760365096178
 10
72.38145614509908
 20
-118.9937703153036
 10
72.38145614509908
 20
-118.9937703153036
 97
        0
 97
        0
 75
     2
 76
     1
 98
        0
  0
POLYLINE
  5
F2
330
EC
100
AcDbEntity
  8
_U+30EC_U+30A4_U+30E4_U+30FC 1
370
     0
100
AcDb2dPolyline
 66
     1
 10
0.0
 20
0.0
 30
0.0
  0
VERTEX
  5
F3
330
F2
100
AcDbEntity
  8
_U+30EC_U+30A4_U+30E4_U+30FC 1
370
     0
100
AcDbVertex
100
AcDb2dVertex
 10
72.38145614509908
 20
-118.177627194848
 30
0.0
  0
VERTEX
  5
F4
330
F2
100
AcDbEntity
  8
_U+30EC_U+30A4_U+30E4_U+30FC 1
370
     0
100
AcDbVertex
100
AcDb2dVertex
 10
72.1099826208614
 20
-118.177627194848
 30
0.0
  0
VERTEX
  5
F5
330
F2
100
AcDbEntity
  8
_U+30EC_U+30A4_U+30E4_U+30FC 1
370
     0
100
AcDbVertex
100
AcDb2dVertex
 10
72.1099826208614
 20
-117.9156276831947
 30
0.0
  0
VERTEX
  5
F6
330
F2
100
AcDbEntity
  8
_U+30EC_U+30A4_U+30E4_U+30FC 1
370
     0
100
AcDbVertex
100
AcDb2dVertex
 10
72.38145614509908
 20
-117.9156276831947
 30
0.0
  0
VERTEX
  5
F7
330
F2
100
AcDbEntity
  8
_U+30EC_U+30A4_U+30E4_U+30FC 1
370
     0
100
AcDbVertex
100
AcDb2dVertex
 10
72.38145614509908
 20
-118.177627194848
 30
0.0
  0
SEQEND
  5
F8
330
F2
100
AcDbEntity
  8
_U+30EC_U+30A4_U+30E4_U+30FC 1
370
     0
  0
HATCH
  5
F9
330
EC
100
AcDbEntity
  8
_U+30EC_U+30A4_U+30E4_U+30FC 1
 62
   179
420
  2234388
100
AcDbHatch
 10
0.0
 20
0.0
 30
0.0
210
0.0
220
0.0
230
1.0
  2
SOLID
 70
     1
 71
     0
 91
        1
 92
        1
 93
        4
 72
     1
 10
72.38145614509908
 20
-118.177627194848
 11
72.1099826208614
 21
-118.177627194848
 72
     1
 10
72.1099826208614
 20
-118.177627194848
 11
72.1099826208614
 21
-117.9156276831947
 72
     1
 10
72.1099826208614
 20
-117.9156276831947
 11
72.38145614509908
 21
-117.9156276831947
 72
     1
 10
72.38145614509908
 20
-117.9156276831947
 11
72.38145614509908
 21
-118.177627194848
 97
        0
 75
     2
 76
     1
 98
        0
  0
SPLINE
  5
FA
330
EC
100
AcDbEntity
  8
_U+30EC_U+30A4_U+30E4_U+30FC 1
370
     0
100
AcDbSpline
210
0.0
220
0.0
230
1.0
 70
    11
 71
     3
 72
    44
 73
    40
 74
     0
 42
0.0000000001
 43
0.0000000001
 12
1.0
 22
0.0
 32
0.0
 13
1.0
 23
0.0
 33
0.0
 40
0.0
 40
0.0
 40
0.0
 40
0.0
 40
1.0
 40
1.0
 40
1.0
 40
2.0
 40
2.0
 40
2.0
 40
3.0
 40
3.0
 40
3.0
 40
4.0
 40
4.0
 40
4.0
 40
5.0
 40
5.0
 40
5.0
 40
6.0
 40
6.0
 40
6.0
 40
7.0
 40
7.0
 40
7.0
 40
8.0
 40
8.0
 40
8.0
 40
9.0
 40
9.0
 40
9.0
 40
10.0
 40
10.0
 40
10.0
 40
11.0
 40
11.0
 40
11.0
 40
12.0
 40
12.0
 40
12.0
 40
13.0
 40
13.0
 40
13.0
 40
13.0
 10
71.75375974768656
 20
-117.0529757736881
 30
0.0
 10
71.92498099330348
 20
-117.2798353113918
 30
0.0
 10
72.00490720856128
 20
-117.3766424945274
 30
0.0
 10
72.15993650539752
 20
-117.4272853981605
 30
0.0
 10
72.15993650539752
 20
-117.4272853981605
 30
0.0
 10
72.15993650539752
 20
-116.617171194804
 30
0.0
 10
72.15993650539752
 20
-116.617171194804
 30
0.0
 10
72.15993650539752
 20
-116.617171194804
 30
0.0
 10
72.38145614509908
 20
-116.617171194804
 30
0.0
 10
72.38145614509908
 20
-116.617171194804
 30
0.0
 10
72.38145614509908
 20
-116.617171194804
 30
0.0
 10
72.38145614509908
 20
-117.6870455977484
 30
0.0
 10
72.38145614509908
 20
-117.6870455977484
 30
0.0
 10
71.9956054507511
 20
-117.6541449358643
 30
0.0
 10
71.91120061136247
 20
-117.5859320452563
 30
0.0
 10
71.58942869304015
 20
-117.1850951855475
 30
0.0
 10
71.37479924430909
 20
-116.9187893045377
 30
0.0
 10
71.30176322002178
 20
-116.8505764139297
 30
0.0
 10
71.15362411415605
 20
-116.8505764139297
 30
0.0
 10
71.02581107165328
 20
-116.8505764139297
 30
0.0
 10
70.88421764720951
 20
-116.9253349859596
 30
0.0
 10
70.88421764720951
 20
-117.1301459125578
 30
0.0
 10
70.88421764720951
 20
-117.4009304176984
 30
0.0
 10
71.13295354124455
 20
-117.4097154111858
 30
0.0
 10
71.25835501690764
 20
-117.4141940353166
 30
0.0
 10
71.25835501690764
 20
-117.4141940353166
 30
0.0
 10
71.25835501690764
 20
-117.647426999668
 30
0.0
 10
71.25835501690764
 20
-117.647426999668
 30
0.0
 10
71.12158472614321
 20
-117.6386420061806
 30
0.0
 10
71.00066187461096
 20
-117.6276177006278
 30
0.0
 10
70.87284883210818
 20
-117.5440741351105
 30
0.0
 10
70.69921601965159
 20
-117.429524710226
 30
0.0
 10
70.66269800750794
 20
-117.2357380891807
 30
0.0
 10
70.66269800750794
 20
-117.1146429828741
 30
0.0
 10
70.66269800750794
 20
-116.8262884907587
 30
0.0
 10
70.86148001700685
 20
-116.6104532586078
 30
0.0
 10
71.15569117144719
 20
-116.6104532586078
 30
0.0
 10
71.40236000819108
 20
-116.6104532586078
 30
0.0
 10
71.50950247778235
 20
-116.7315483649143
 30
0.0
 10
71.75375974768656
 20
-117.0529757736881
 30
0.0
  0
HATCH
  5
FB
330
EC
100
AcDbEntity
  8
_U+30EC_U+30A4_U+30E4_U+30FC 1
 62
   179
420
  2234388
100
AcDbHatch
 10
0.0
 20
0.0
 30
0.0
210
0.0
220
0.0
230
1.0
  2
SOLID
 70
     1
 71
     0
 91
        1
 92
        1
 93
        1
 72
     4
 94
        3
 73
     0
 74
     1
 95
       44
 96
       40
 40
0.0
 40
0.0
 40
0.0
 40
0.0
 40
1.0
 40
1.0
 40
1.0
 40
2.0
 40
2.0
 40
2.0
 40
3.0
 40
3.0
 40
3.0
 40
4.0
 40
4.0
 40
4.0
 40
5.0
 40
5.0
 40
5.0
 40
6.0
 40
6.0
 40
6.0
 40
7.0
 40
7.0
 40
7.0
 40
8.0
 40
8.0
 40
8.0
 40
9.0
 40
9.0
 40
9.0
 40
10.0
 40
10.0
 40
10.0
 40
11.0
 40
11.0
 40
11.0
 40
12.0
 40
12.0
 40
12.0
 40
13.0
 40
13.0
 40
13.0
 40
13.0
 10
71.75375974768656
 20
-117.0529757736881
 10
71.92498099330348
 20
-117.2798353113918
 10
72.00490720856128
 20
-117.3766424945274
 10
72.15993650539752
 20
-117.4272853981605
 10
72.15993650539752
 20
-117.4272853981605
 10
72.15993650539752
 20
-116.617171194804
 10
72.15993650539752
 20
-116.617171194804
 10
72.15993650539752
 20
-116.617171194804
 10
72.38145614509908
 20
-116.617171194804
 10
72.38145614509908
 20
-116.617171194804
 10
72.38145614509908
 20
-116.617171194804
 10
72.38145614509908
 20
-117.6870455977484
 10
72.38145614509908
 20
-117.6870455977484
 10
71.9956054507511
 20
-117.6541449358643
 10
71.91120061136247
 20
-117.5859320452563
 10
71.58942869304015
 20
-117.1850951855475
 10
71.37479924430909
 20
-116.9187893045377
 10
71.30176322002178
 20
-116.8505764139297
 10
71.15362411415605
 20
-116.8505764139297
 10
71.02581107165328
 20
-116.8505764139297
 10
70.88421764720951
 20
-116.9253349859596
 10
70.88421764720951
 20
-117.1301459125578
 10
70.88421764720951
 20
-117.4009304176984
 10
71.13295354124455
 20
-117.4097154111858
 10
71.25835501690764
 20
-117.4141940353166
 10
71.25835501690764
 20
-117.4141940353166
 10
71.25835501690764
 20
-117.647426999668
 10
71.25835501690764
 20
-117.647426999668
 10
71.12158472614321
 20
-117.6386420061806
 10
71.00066187461096
 20
-117.6276177006278
 10
70.87284883210818
 20
-117.5440741351105
 10
70.69921601965159
 20
-117.429524710226
 10
70.66269800750794
 20
-117.2357380891807
 10
70.66269800750794
 20
-117.1146429828741
 10
70.66269800750794
 20
-116.8262884907587
 10
70.86148001700685
 20
-116.6104532586078
 10
71.15569117144719
 20
-116.6104532586078
 10
71.40236000819108
 20
-116.6104532586078
 10
71.50950247778235
 20
-116.7315483649143
 10
71.75375974768656
 20
-117.0529757736881
 97
        0
 97
        0
 75
     2
 76
     1
 98
        0
  0
ENDBLK
  5
EF
330
EC
100
AcDbEntity
  8
0
100
AcDbBlockEnd
  0
BLOCK
  5
106
330
104
100
AcDbEntity
  8
0
100
AcDbBlockBegin
  2
block 5
 70
     0
 10
0.0
 20
0.0
 30
0.0
  3
block 5
  1

  0
SPLINE
  5
108
330
104
100
AcDbEntity
  8
_U+30EC_U+30A4_U+30E4_U+30FC 1
370
     0
100
AcDbSpline
210
0.0
220
0.0
230
1.0
 70
    11
 71
     3
 72
    26
 73
    22
 74
     0
 42
0.0000000001
 43
0.0000000001
 12
1.0
 22
0.0
 32
0.0
 13
1.0
 23
0.0
 33
0.0
 40
0.0
 40
0.0
 40
0.0
 40
0.0
 40
1.0
 40
1.0
 40
1.0
 40
2.0
 40
2.0
 40
2.0
 40
3.0
 40
3.0
 40
3.0
 40
4.0
 40
4.0
 40
4.0
 40
5.0
 40
5.0
 40
5.0
 40
6.0
 40
6.0
 40
6.0
 40
7.0
 40
7.0
 40
7.0
 40
7.0
 10
72.38145614509908
 20
-131.1055202580222
 30
0.0
 10
72.38145614509908
 20
-131.1055202580222
 30
0.0
 10
71.19014212629969
 20
-131.1055202580222
 30
0.0
 10
71.19014212629969
 20
-131.1055202580222
 30
0.0
 10
71.19014212629969
 20
-131.1055202580222
 30
0.0
 10
71.19014212629969
 20
-131.4489962779016
 30
0.0
 10
71.19014212629969
 20
-131.4489962779016
 30
0.0
 10
71.19014212629969
 20
-131.4489962779016
 30
0.0
 10
71.03028969578409
 20
-131.4489962779016
 30
0.0
 10
71.03028969578409
 20
-131.4489962779016
 30
0.0
 10
71.01444225655194
 20
-131.1031086911826
 30
0.0
 10
70.83874238680421
 20
-131.0548773543891
 30
0.0
 10
70.71540796843226
 20
-131.0238714950218
 30
0.0
 10
70.71540796843226
 20
-131.0238714950218
 30
0.0
 10
70.71540796843226
 20
-130.8722872936708
 30
0.0
 10
70.71540796843226
 20
-130.8722872936708
 30
0.0
 10
70.71540796843226
 20
-130.8722872936708
 30
0.0
 10
72.38145614509908
 20
-130.8722872936708
 30
0.0
 10
72.38145614509908
 20
-130.8722872936708
 30
0.0
 10
72.38145614509908
 20
-130.8722872936708
 30
0.0
 10
72.38145614509908
 20
-131.1055202580222
 30
0.0
 10
72.38145614509908
 20
-131.1055202580222
 30
0.0
  0
HATCH
  5
109
330
104
100
AcDbEntity
  8
_U+30EC_U+30A4_U+30E4_U+30FC 1
 62
   179
420
  2234388
100
AcDbHatch
 10
0.0
 20
0.0
 30
0.0
210
0.0
220
0.0
230
1.0
  2
SOLID
 70
     1
 71
     0
 91
        1
 92
        1
 93
        1
 72
     4
 94
        3
 73
     0
 74
     1
 95
       26
 96
       22
 40
0.0
 40
0.0
 40
0.0
 40
0.0
 40
1.0
 40
1.0
 40
1.0
 40
2.0
 40
2.0
 40
2.0
 40
3.0
 40
3.0
 40
3.0
 40
4.0
 40
4.0
 40
4.0
 40
5.0
 40
5.0
 40
5.0
 40
6.0
 40
6.0
 40
6.0
 40
7.0
 40
7.0
 40
7.0
 40
7.0
 10
72.38145614509908
 20
-131.1055202580222
 10
72.38145614509908
 20
-131.1055202580222
 10
71.19014212629969
 20
-131.1055202580222
 10
71.19014212629969
 20
-131.1055202580222
 10
71.19014212629969
 20
-131.1055202580222
 10
71.19014212629969
 20
-131.4489962779016
 10
71.19014212629969
 20
-131.4489962779016
 10
71.19014212629969
 20
-131.4489962779016
 10
71.03028969578409
 20
-131.4489962779016
 10
71.03028969578409
 20
-131.4489962779016
 10
71.01444225655194
 20
-131.1031086911826
 10
70.83874238680421
 20
-131.0548773543891
 10
70.71540796843226
 20
-131.0238714950218
 10
70.71540796843226
 20
-131.0238714950218
 10
70.71540796843226
 20
-130.8722872936708
 10
70.71540796843226
 20
-130.8722872936708
 10
70.71540796843226
 20
-130.8722872936708
 10
72.38145614509908
 20
-130.8722872936708
 10
72.38145614509908
 20
-130.8722872936708
 10
72.38145614509908
 20
-130.8722872936708
 10
72.38145614509908
 20
-131.1055202580222
 10
72.38145614509908
 20
-131.1055202580222
 97
        0
 97
        0
 75
     2
 76
     1
 98
        0
  0
POLYLINE
  5
10A
330
104
100
AcDbEntity
  8
_U+30EC_U+30A4_U+30E4_U+30FC 1
370
     0
100
AcDb2dPolyline
 66
     1
 10
0.0
 20
0.0
 30
0.0
  0
VERTEX
  5
10B
330
10A
100
AcDbEntity
  8
_U+30EC_U+30A4_U+30E4_U+30FC 1
370
     0
100
AcDbVertex
100
AcDb2dVertex
 10
72.00731877540095
 20
-129.4859808704063
 30
0.0
  0
VERTEX
  5
10C
330
10A
100
AcDbEntity
  8
_U+30EC_U+30A4_U+30E4_U+30FC 1
370
     0
100
AcDbVertex
100
AcDb2dVertex
 10
72.38145614509908
 20
-129.4859808704063
 30
0.0
  0
VERTEX
  5
10D
330
10A
100
AcDbEntity
  8
_U+30EC_U+30A4_U+30E4_U+30FC 1
370
     0
100
AcDbVertex
100
AcDb2dVertex
 10
72.38145614509908
 20
-129.7126681533357
 30
0.0
  0
VERTEX
  5
10E
330
10A
100
AcDbEntity
  8
_U+30EC_U+30A4_U+30E4_U+30FC 1
370
     0
100
AcDbVertex
100
AcDb2dVertex
 10
72.00731877540095
 20
-129.7126681533357
 30
0.0
  0
VERTEX
  5
10F
330
10A
100
AcDbEntity
  8
_U+30EC_U+30A4_U+30E4_U+30FC 1
370
     0
100
AcDbVertex
100
AcDb2dVertex
 10
72.00731877540095
 20
-130.3951415689637
 30
0.0
  0
VERTEX
  5
110
330
10A
100
AcDbEntity
  8
_U+30EC_U+30A4_U+30E4_U+30FC 1
370
     0
100
AcDbVertex
100
AcDb2dVertex
 10
71.7651285627879
 20
-130.3951415689637
 30
0.0
  0
VERTEX
  5
111
330
10A
100
AcDbEntity
  8
_U+30EC_U+30A4_U+30E4_U+30FC 1
370
     0
100
AcDbVertex
100
AcDb2dVertex
 10
70.71540796843226
 20
-129.688552484939
 30
0.0
  0
VERTEX
  5
112
330
10A
100
AcDbEntity
  8
_U+30EC_U+30A4_U+30E4_U+30FC 1
370
     0
100
AcDbVertex
100
AcDb2dVertex
 10
70.71540796843226
 20
-129.4859808704063
 30
0.0
  0
VERTEX
  5
113
330
10A
100
AcDbEntity
  8
_U+30EC_U+30A4_U+30E4_U+30FC 1
370
     0
100
AcDbVertex
100
AcDb2dVertex
 10
71.79268932666989
 20
-129.4859808704063
 30
0.0
  0
VERTEX
  5
114
330
10A
100
AcDbEntity
  8
_U+30EC_U+30A4_U+30E4_U+30FC 1
370
     0
100
AcDbVertex
100
AcDb2dVertex
 10
71.79268932666989
 20
-129.2703178930296
 30
0.0
  0
VERTEX
  5
115
330
10A
100
AcDbEntity
  8
_U+30EC_U+30A4_U+30E4_U+30FC 1
370
     0
100
AcDbVertex
100
AcDb2dVertex
 10
72.00731877540095
 20
-129.2703178930296
 30
0.0
  0
VERTEX
  5
116
330
10A
100
AcDbEntity
  8
_U+30EC_U+30A4_U+30E4_U+30FC 1
370
     0
100
AcDbVertex
100
AcDb2dVertex
 10
72.00731877540095
 20
-129.4859808704063
 30
0.0
  0
SEQEND
  5
117
330
10A
100
AcDbEntity
  8
_U+30EC_U+30A4_U+30E4_U+30FC 1
370
     0
  0
POLYLINE
  5
118
330
104
100
AcDbEntity
  8
_U+30EC_U+30A4_U+30E4_U+30FC 1
370
     0
100
AcDb2dPolyline
 66
     1
 10
0.0
 20
0.0
 30
0.0
  0
VERTEX
  5
119
330
118
100
AcDbEntity
  8
_U+30EC_U+30A4_U+30E4_U+30FC 1
370
     0
100
AcDbVertex
100
AcDb2dVertex
 10
71.08506671399957
 20
-129.7126681533357
 30
0.0
  0
VERTEX
  5
11A
330
118
100
AcDbEntity
  8
_U+30EC_U+30A4_U+30E4_U+30FC 1
370
     0
100
AcDbVertex
100
AcDb2dVertex
 10
71.79268932666989
 20
-130.1880913303002
 30
0.0
  0
VERTEX
  5
11B
330
118
100
AcDbEntity
  8
_U+30EC_U+30A4_U+30E4_U+30FC 1
370
     0
100
AcDbVertex
100
AcDb2dVertex
 10
71.79268932666989
 20
-129.7126681533357
 30
0.0
  0
VERTEX
  5
11C
330
118
100
AcDbEntity
  8
_U+30EC_U+30A4_U+30E4_U+30FC 1
370
     0
100
AcDbVertex
100
AcDb2dVertex
 10
71.08506671399957
 20
-129.7126681533357
 30
0.0
  0
SEQEND
  5
11D
330
118
100
AcDbEntity
  8
_U+30EC_U+30A4_U+30E4_U+30FC 1
370
     0
  0
HATCH
  5
11E
330
104
100
AcDbEntity
  8
_U+30EC_U+30A4_U+30E4_U+30FC 1
 62
   179
420
  2234388
100
AcDbHatch
 10
0.0
 20
0.0
 30
0.0
210
0.0
220
0.0
230
1.0
  2
SOLID
 70
     1
 71
     0
 91
        2
 92
        1
 93
       11
 72
     1
 10
72.00731877540095
 20
-129.4859808704063
 11
72.38145614509908
 21
-129.4859808704063
 72
     1
 10
72.38145614509908
 20
-129.4859808704063
 11
72.38145614509908
 21
-129.7126681533357
 72
     1
 10
72.38145614509908
 20
-129.7126681533357
 11
72.00731877540095
 21
-129.7126681533357
 72
     1
 10
72.00731877540095
 20
-129.7126681533357
 11
72.00731877540095
 21
-130.3951415689637
 72
     1
 10
72.00731877540095
 20
-130.3951415689637
 11
71.7651285627879
 21
-130.3951415689637
 72
     1
 10
71.7651285627879
 20
-130.3951415689637
 11
70.71540796843226
 21
-129.688552484939
 72
     1
 10
70.71540796843226
 20
-129.688552484939
 11
70.71540796843226
 21
-129.4859808704063
 72
     1
 10
70.71540796843226
 20
-129.4859808704063
 11
71.79268932666989
 21
-129.4859808704063
 72
     1
 10
71.79268932666989
 20
-129.4859808704063
 11
71.79268932666989
 21
-129.2703178930296
 72
     1
 10
71.79268932666989
 20
-129.2703178930296
 11
72.00731877540095
 21
-129.2703178930296
 72
     1
 10
72.00731877540095
 20
-129.2703178930296
 11
72.00731877540095
 21
-129.4859808704063
 97
        0
 92
        1
 93
        3
 72
     1
 10
71.08506671399957
 20
-129.7126681533357
 11
71.79268932666989
 21
-130.1880913303002
 72
     1
 10
71.79268932666989
 20
-130.1880913303002
 11
71.79268932666989
 21
-129.7126681533357
 72
     1
 10
71.79268932666989
 20
-129.7126681533357
 11
71.08506671399957
 21
-129.7126681533357
 97
        0
 75
     2
 76
     1
 98
        0
  0
POLYLINE
  5
11F
330
104
100
AcDbEntity
  8
_U+30EC_U+30A4_U+30E4_U+30FC 1
370
     0
100
AcDb2dPolyline
 66
     1
 10
0.0
 20
0.0
 30
0.0
  0
VERTEX
  5
120
330
11F
100
AcDbEntity
  8
_U+30EC_U+30A4_U+30E4_U+30FC 1
370
     0
100
AcDbVertex
100
AcDb2dVertex
 10
72.38145614509908
 20
-129.0660237307543
 30
0.0
  0
VERTEX
  5
121
330
11F
100
AcDbEntity
  8
_U+30EC_U+30A4_U+30E4_U+30FC 1
370
     0
100
AcDbVertex
100
AcDb2dVertex
 10
72.1099826208614
 20
-129.0660237307543
 30
0.0
  0
VERTEX
  5
122
330
11F
100
AcDbEntity
  8
_U+30EC_U+30A4_U+30E4_U+30FC 1
370
     0
100
AcDbVertex
100
AcDb2dVertex
 10
72.1099826208614
 20
-128.8038519643268
 30
0.0
  0
VERTEX
  5
123
330
11F
100
AcDbEntity
  8
_U+30EC_U+30A4_U+30E4_U+30FC 1
370
     0
100
AcDbVertex
100
AcDb2dVertex
 10
72.38145614509908
 20
-128.8038519643268
 30
0.0
  0
VERTEX
  5
124
330
11F
100
AcDbEntity
  8
_U+30EC_U+30A4_U+30E4_U+30FC 1
370
     0
100
AcDbVertex
100
AcDb2dVertex
 10
72.38145614509908
 20
-129.0660237307543
 30
0.0
  0
SEQEND
  5
125
330
11F
100
AcDbEntity
  8
_U+30EC_U+30A4_U+30E4_U+30FC 1
370
     0
  0
HATCH
  5
126
330
104
100
AcDbEntity
  8
_U+30EC_U+30A4_U+30E4_U+30FC 1
 62
   179
420
  2234388
100
AcDbHatch
 10
0.0
 20
0.0
 30
0.0
210
0.0
220
0.0
230
1.0
  2
SOLID
 70
     1
 71
     0
 91
        1
 92
        1
 93
        4
 72
     1
 10
72.38145614509908
 20
-129.0660237307543
 11
72.1099826208614
 21
-129.0660237307543
 72
     1
 10
72.1099826208614
 20
-129.0660237307543
 11
72.1099826208614
 21
-128.8038519643268
 72
     1
 10
72.1099826208614
 20
-128.8038519643268
 11
72.38145614509908
 21
-128.8038519643268
 72
     1
 10
72.38145614509908
 20
-128.8038519643268
 11
72.38145614509908
 21
-129.0660237307543
 97
        0
 75
     2
 76
     1
 98
        0
  0
SPLINE
  5
127
330
104
100
AcDbEntity
  8
_U+30EC_U+30A4_U+30E4_U+30FC 1
370
     0
100
AcDbSpline
210
0.0
220
0.0
230
1.0
 70
    11
 71
     3
 72
    32
 73
    28
 74
     0
 42
0.0000000001
 43
0.0000000001
 12
1.0
 22
0.0
 32
0.0
 13
1.0
 23
0.0
 33
0.0
 40
0.0
 40
0.0
 40
0.0
 40
0.0
 40
1.0
 40
1.0
 40
1.0
 40
2.0
 40
2.0
 40
2.0
 40
3.0
 40
3.0
 40
3.0
 40
4.0
 40
4.0
 40
4.0
 40
5.0
 40
5.0
 40
5.0
 40
6.0
 40
6.0
 40
6.0
 40
7.0
 40
7.0
 40
7.0
 40
8.0
 40
8.0
 40
8.0
 40
9.0
 40
9.0
 40
9.0
 40
9.0
 10
72.43623316331455
 20
-128.0338731233735
 30
0.0
 10
72.43623316331455
 20
-128.5711357642982
 30
0.0
 10
71.83816458707518
 20
-128.5799207577856
 30
0.0
 10
71.60768769911196
 20
-128.5799207577856
 30
0.0
 10
71.35895180507693
 20
-128.5799207577856
 30
0.0
 10
70.66063095021678
 20
-128.5601114587454
 30
0.0
 10
70.66063095021678
 20
-127.9942545252931
 30
0.0
 10
70.66063095021678
 20
-127.813731521866
 30
0.0
 10
70.73573403179523
 20
-127.558449946409
 30
0.0
 10
71.09436847180974
 20
-127.5186590935544
 30
0.0
 10
71.09436847180974
 20
-127.5186590935544
 30
0.0
 10
71.09436847180974
 20
-127.7410400071272
 30
0.0
 10
71.09436847180974
 20
-127.7410400071272
 30
0.0
 10
71.03270126262377
 20
-127.75206431268
 30
0.0
 10
70.87284883210818
 20
-127.7851372293384
 30
0.0
 10
70.87284883210818
 20
-127.9964938373585
 30
0.0
 10
70.87284883210818
 20
-128.3003512591576
 30
0.0
 10
71.22666013844334
 20
-128.3422091693033
 30
0.0
 10
71.44783526859638
 20
-128.3553005321473
 30
0.0
 10
71.36343042920775
 20
-128.2584933490118
 30
0.0
 10
71.29969616273064
 20
-128.1880411463384
 30
0.0
 10
71.29969616273064
 20
-127.9987331494239
 30
0.0
 10
71.29969616273064
 20
-127.8114922098006
 30
0.0
 10
71.41614039013209
 20
-127.496782737223
 30
0.0
 10
71.85435653585586
 20
-127.496782737223
 30
0.0
 10
72.19886608438084
 20
-127.496782737223
 30
0.0
 10
72.43623316331455
 20
-127.7036607211123
 30
0.0
 10
72.43623316331455
 20
-128.0338731233735
 30
0.0
  0
SPLINE
  5
128
330
104
100
AcDbEntity
  8
_U+30EC_U+30A4_U+30E4_U+30FC 1
370
     0
100
AcDbSpline
210
0.0
220
0.0
230
1.0
 70
    11
 71
     3
 72
    17
 73
    13
 74
     0
 42
0.0000000001
 43
0.0000000001
 12
1.0
 22
0.0
 32
0.0
 13
1.0
 23
0.0
 33
0.0
 40
0.0
 40
0.0
 40
0.0
 40
0.0
 40
1.0
 40
1.0
 40
1.0
 40
2.0
 40
2.0
 40
2.0
 40
3.0
 40
3.0
 40
3.0
 40
4.0
 40
4.0
 40
4.0
 40
4.0
 10
71.50950247778235
 20
-128.0163031363987
 30
0.0
 10
71.50950247778235
 20
-128.2893269536048
 30
0.0
 10
71.73791230845441
 20
-128.3289455516851
 30
0.0
 10
71.86331378411751
 20
-128.3289455516851
 30
0.0
 10
72.05279403580624
 20
-128.3289455516851
 30
0.0
 10
72.22849390555399
 20
-128.2298990564842
 30
0.0
 10
72.22849390555399
 20
-128.0383517475043
 30
0.0
 10
72.22849390555399
 20
-127.912778017067
 30
0.0
 10
72.16475963907686
 20
-127.7300157015744
 30
0.0
 10
71.85642359314701
 20
-127.7300157015744
 30
0.0
 10
71.61457789008247
 20
-127.7300157015744
 30
0.0
 10
71.50950247778235
 20
-127.875398731052
 30
0.0
 10
71.50950247778235
 20
-128.0163031363987
 30
0.0
  0
HATCH
  5
129
330
104
100
AcDbEntity
  8
_U+30EC_U+30A4_U+30E4_U+30FC 1
 62
   179
420
  2234388
100
AcDbHatch
 10
0.0
 20
0.0
 30
0.0
210
0.0
220
0.0
230
1.0
  2
SOLID
 70
     1
 71
     0
 91
        2
 92
        1
 93
        1
 72
     4
 94
        3
 73
     0
 74
     1
 95
       32
 96
       28
 40
0.0
 40
0.0
 40
0.0
 40
0.0
 40
1.0
 40
1.0
 40
1.0
 40
2.0
 40
2.0
 40
2.0
 40
3.0
 40
3.0
 40
3.0
 40
4.0
 40
4.0
 40
4.0
 40
5.0
 40
5.0
 40
5.0
 40
6.0
 40
6.0
 40
6.0
 40
7.0
 40
7.0
 40
7.0
 40
8.0
 40
8.0
 40
8.0
 40
9.0
 40
9.0
 40
9.0
 40
9.0
 10
72.43623316331455
 20
-128.0338731233735
 10
72.43623316331455
 20
-128.5711357642982
 10
71.83816458707518
 20
-128.5799207577856
 10
71.60768769911196
 20
-128.5799207577856
 10
71.35895180507693
 20
-128.5799207577856
 10
70.66063095021678
 20
-128.5601114587454
 10
70.66063095021678
 20
-127.9942545252931
 10
70.66063095021678
 20
-127.813731521866
 10
70.73573403179523
 20
-127.558449946409
 10
71.09436847180974
 20
-127.5186590935544
 10
71.09436847180974
 20
-127.5186590935544
 10
71.09436847180974
 20
-127.7410400071272
 10
71.09436847180974
 20
-127.7410400071272
 10
71.03270126262377
 20
-127.75206431268
 10
70.87284883210818
 20
-127.7851372293384
 10
70.87284883210818
 20
-127.9964938373585
 10
70.87284883210818
 20
-128.3003512591576
 10
71.22666013844334
 20
-128.3422091693033
 10
71.44783526859638
 20
-128.3553005321473
 10
71.36343042920775
 20
-128.2584933490118
 10
71.29969616273064
 20
-128.1880411463384
 10
71.29969616273064
 20
-127.9987331494239
 10
71.29969616273064
 20
-127.8114922098006
 10
71.41614039013209
 20
-127.496782737223
 10
71.85435653585586
 20
-127.496782737223
 10
72.19886608438084
 20
-127.496782737223
 10
72.43623316331455
 20
-127.7036607211123
 10
72.43623316331455
 20
-128.0338731233735
 97
        0
 97
        0
 92
        1
 93
        1
 72
     4
 94
        3
 73
     0
 74
     1
 95
       17
 96
       13
 40
0.0
 40
0.0
 40
0.0
 40
0.0
 40
1.0
 40
1.0
 40
1.0
 40
2.0
 40
2.0
 40
2.0
 40
3.0
 40
3.0
 40
3.0
 40
4.0
 40
4.0
 40
4.0
 40
4.0
 10
71.50950247778235
 20
-128.0163031363987
 10
71.50950247778235
 20
-128.2893269536048
 10
71.73791230845441
 20
-128.3289455516851
 10
71.86331378411751
 20
-128.3289455516851
 10
72.05279403580624
 20
-128.3289455516851
 10
72.22849390555399
 20
-128.2298990564842
 10
72.22849390555399
 20
-128.0383517475043
 10
72.22849390555399
 20
-127.912778017067
 10
72.16475963907686
 20
-127.7300157015744
 10
71.85642359314701
 20
-127.7300157015744
 10
71.61457789008247
 20
-127.7300157015744
 10
71.50950247778235
 20
-127.875398731052
 10
71.50950247778235
 20
-128.0163031363987
 97
        0
 97
        0
 75
     2
 76
     1
 98
        0
  0
ENDBLK
  5
107
330
104
100
AcDbEntity
  8
0
100
AcDbBlockEnd
  0
BLOCK
  5
134
330
132
100
AcDbEntity
  8
0
100
AcDbBlockBegin
  2
block 6
 70
     0
 10
0.0
 20
0.0
 30
0.0
  3
block 6
  1

  0
POLYLINE
  5
136
330
132
100
AcDbEntity
  8
_U+30EC_U+30A4_U+30E4_U+30FC 1
370
     0
100
AcDb2dPolyline
 66
     1
 10
0.0
 20
0.0
 30
0.0
  0
VERTEX
  5
137
330
136
100
AcDbEntity
  8
_U+30EC_U+30A4_U+30E4_U+30FC 1
370
     0
100
AcDbVertex
100
AcDb2dVertex
 10
72.0066297563039
 20
-138.5007622266595
 30
0.0
  0
VERTEX
  5
138
330
136
100
AcDbEntity
  8
_U+30EC_U+30A4_U+30E4_U+30FC 1
370
     0
100
AcDbVertex
100
AcDb2dVertex
 10
72.38111163555055
 20
-138.5007622266595
 30
0.0
  0
VERTEX
  5
139
330
136
100
AcDbEntity
  8
_U+30EC_U+30A4_U+30E4_U+30FC 1
370
     0
100
AcDbVertex
100
AcDb2dVertex
 10
72.38111163555055
 20
-138.7277940191375
 30
0.0
  0
VERTEX
  5
13A
330
136
100
AcDbEntity
  8
_U+30EC_U+30A4_U+30E4_U+30FC 1
370
     0
100
AcDbVertex
100
AcDb2dVertex
 10
72.0066297563039
 20
-138.7277940191375
 30
0.0
  0
VERTEX
  5
13B
330
136
100
AcDbEntity
  8
_U+30EC_U+30A4_U+30E4_U+30FC 1
370
     0
100
AcDbVertex
100
AcDb2dVertex
 10
72.0066297563039
 20
-139.409922925217
 30
0.0
  0
VERTEX
  5
13C
330
136
100
AcDbEntity
  8
_U+30EC_U+30A4_U+30E4_U+30FC 1
370
     0
100
AcDbVertex
100
AcDb2dVertex
 10
71.76478405323937
 20
-139.409922925217
 30
0.0
  0
VERTEX
  5
13D
330
136
100
AcDbEntity
  8
_U+30EC_U+30A4_U+30E4_U+30FC 1
370
     0
100
AcDbVertex
100
AcDb2dVertex
 10
70.71506345888373
 20
-138.7033338411922
 30
0.0
  0
VERTEX
  5
13E
330
136
100
AcDbEntity
  8
_U+30EC_U+30A4_U+30E4_U+30FC 1
370
     0
100
AcDbVertex
100
AcDb2dVertex
 10
70.71506345888373
 20
-138.5007622266595
 30
0.0
  0
VERTEX
  5
13F
330
136
100
AcDbEntity
  8
_U+30EC_U+30A4_U+30E4_U+30FC 1
370
     0
100
AcDbVertex
100
AcDb2dVertex
 10
71.79234481712136
 20
-138.5007622266595
 30
0.0
  0
VERTEX
  5
140
330
136
100
AcDbEntity
  8
_U+30EC_U+30A4_U+30E4_U+30FC 1
370
     0
100
AcDbVertex
100
AcDb2dVertex
 10
71.79234481712136
 20
-138.2850992492829
 30
0.0
  0
VERTEX
  5
141
330
136
100
AcDbEntity
  8
_U+30EC_U+30A4_U+30E4_U+30FC 1
370
     0
100
AcDbVertex
100
AcDb2dVertex
 10
72.0066297563039
 20
-138.2850992492829
 30
0.0
  0
VERTEX
  5
142
330
136
100
AcDbEntity
  8
_U+30EC_U+30A4_U+30E4_U+30FC 1
370
     0
100
AcDbVertex
100
AcDb2dVertex
 10
72.0066297563039
 20
-138.5007622266595
 30
0.0
  0
SEQEND
  5
143
330
136
100
AcDbEntity
  8
_U+30EC_U+30A4_U+30E4_U+30FC 1
370
     0
  0
POLYLINE
  5
144
330
132
100
AcDbEntity
  8
_U+30EC_U+30A4_U+30E4_U+30FC 1
370
     0
100
AcDb2dPolyline
 66
     1
 10
0.0
 20
0.0
 30
0.0
  0
VERTEX
  5
145
330
144
100
AcDbEntity
  8
_U+30EC_U+30A4_U+30E4_U+30FC 1
370
     0
100
AcDbVertex
100
AcDb2dVertex
 10
71.08472220445104
 20
-138.7277940191375
 30
0.0
  0
VERTEX
  5
146
330
144
100
AcDbEntity
  8
_U+30EC_U+30A4_U+30E4_U+30FC 1
370
     0
100
AcDbVertex
100
AcDb2dVertex
 10
71.79234481712136
 20
-139.203217196102
 30
0.0
  0
VERTEX
  5
147
330
144
100
AcDbEntity
  8
_U+30EC_U+30A4_U+30E4_U+30FC 1
370
     0
100
AcDbVertex
100
AcDb2dVertex
 10
71.79234481712136
 20
-138.7277940191375
 30
0.0
  0
VERTEX
  5
148
330
144
100
AcDbEntity
  8
_U+30EC_U+30A4_U+30E4_U+30FC 1
370
     0
100
AcDbVertex
100
AcDb2dVertex
 10
71.08472220445104
 20
-138.7277940191375
 30
0.0
  0
SEQEND
  5
149
330
144
100
AcDbEntity
  8
_U+30EC_U+30A4_U+30E4_U+30FC 1
370
     0
  0
HATCH
  5
14A
330
132
100
AcDbEntity
  8
_U+30EC_U+30A4_U+30E4_U+30FC 1
 62
   179
420
  2234388
100
AcDbHatch
 10
0.0
 20
0.0
 30
0.0
210
0.0
220
0.0
230
1.0
  2
SOLID
 70
     1
 71
     0
 91
        2
 92
        1
 93
       11
 72
     1
 10
72.0066297563039
 20
-138.5007622266595
 11
72.38111163555055
 21
-138.5007622266595
 72
     1
 10
72.38111163555055
 20
-138.5007622266595
 11
72.38111163555055
 21
-138.7277940191375
 72
     1
 10
72.38111163555055
 20
-138.7277940191375
 11
72.0066297563039
 21
-138.7277940191375
 72
     1
 10
72.0066297563039
 20
-138.7277940191375
 11
72.0066297563039
 21
-139.409922925217
 72
     1
 10
72.0066297563039
 20
-139.409922925217
 11
71.76478405323937
 21
-139.409922925217
 72
     1
 10
71.76478405323937
 20
-139.409922925217
 11
70.71506345888373
 21
-138.7033338411922
 72
     1
 10
70.71506345888373
 20
-138.7033338411922
 11
70.71506345888373
 21
-138.5007622266595
 72
     1
 10
70.71506345888373
 20
-138.5007622266595
 11
71.79234481712136
 21
-138.5007622266595
 72
     1
 10
71.79234481712136
 20
-138.5007622266595
 11
71.79234481712136
 21
-138.2850992492829
 72
     1
 10
71.79234481712136
 20
-138.2850992492829
 11
72.0066297563039
 21
-138.2850992492829
 72
     1
 10
72.0066297563039
 20
-138.2850992492829
 11
72.0066297563039
 21
-138.5007622266595
 97
        0
 92
        1
 93
        3
 72
     1
 10
71.08472220445104
 20
-138.7277940191375
 11
71.79234481712136
 21
-139.203217196102
 72
     1
 10
71.79234481712136
 20
-139.203217196102
 11
71.79234481712136
 21
-138.7277940191375
 72
     1
 10
71.79234481712136
 20
-138.7277940191375
 11
71.08472220445104
 21
-138.7277940191375
 97
        0
 75
     2
 76
     1
 98
        0
  0
ENDBLK
  5
135
330
132
100
AcDbEntity
  8
0
100
AcDbBlockEnd
  0
BLOCK
  5
159
330
157
100
AcDbEntity
  8
0
100
AcDbBlockBegin
  2
block 7
 70
     0
 10
0.0
 20
0.0
 30
0.0
  3
block 7
  1

  0
SPLINE
  5
15B
330
157
100
AcDbEntity
  8
_U+30EC_U+30A4_U+30E4_U+30FC 1
370
     0
100
AcDbSpline
210
0.0
220
0.0
230
1.0
 70
    11
 71
     3
 72
    26
 73
    22
 74
     0
 42
0.0000000001
 43
0.0000000001
 12
1.0
 22
0.0
 32
0.0
 13
1.0
 23
0.0
 33
0.0
 40
0.0
 40
0.0
 40
0.0
 40
0.0
 40
1.0
 40
1.0
 40
1.0
 40
2.0
 40
2.0
 40
2.0
 40
3.0
 40
3.0
 40
3.0
 40
4.0
 40
4.0
 40
4.0
 40
5.0
 40
5.0
 40
5.0
 40
6.0
 40
6.0
 40
6.0
 40
7.0
 40
7.0
 40
7.0
 40
7.0
 10
68.2049668883307
 20
-132.5056070632278
 30
0.0
 10
68.2049668883307
 20
-132.5056070632278
 30
0.0
 10
67.01365286953131
 20
-132.5056070632278
 30
0.0
 10
67.01365286953131
 20
-132.5056070632278
 30
0.0
 10
67.01365286953131
 20
-132.5056070632278
 30
0.0
 10
67.01365286953131
 20
-132.8490830831072
 30
0.0
 10
67.01365286953131
 20
-132.8490830831072
 30
0.0
 10
67.01365286953131
 20
-132.8490830831072
 30
0.0
 10
66.85380043901571
 20
-132.8490830831072
 30
0.0
 10
66.85380043901571
 20
-132.8490830831072
 30
0.0
 10
66.83795299978357
 20
-132.5031954963881
 30
0.0
 10
66.66190862048731
 20
-132.4549641595946
 30
0.0
 10
66.53891871166388
 20
-132.4239583002274
 30
0.0
 10
66.53891871166388
 20
-132.4239583002274
 30
0.0
 10
66.53891871166388
 20
-132.2723740988764
 30
0.0
 10
66.53891871166388
 20
-132.2723740988764
 30
0.0
 10
66.53891871166388
 20
-132.2723740988764
 30
0.0
 10
68.2049668883307
 20
-132.2723740988764
 30
0.0
 10
68.2049668883307
 20
-132.2723740988764
 30
0.0
 10
68.2049668883307
 20
-132.2723740988764
 30
0.0
 10
68.2049668883307
 20
-132.5056070632278
 30
0.0
 10
68.2049668883307
 20
-132.5056070632278
 30
0.0
  0
HATCH
  5
15C
330
157
100
AcDbEntity
  8
_U+30EC_U+30A4_U+30E4_U+30FC 1
 62
   179
420
  2234388
100
AcDbHatch
 10
0.0
 20
0.0
 30
0.0
210
0.0
220
0.0
230
1.0
  2
SOLID
 70
     1
 71
     0
 91
        1
 92
        1
 93
        1
 72
     4
 94
        3
 73
     0
 74
     1
 95
       26
 96
       22
 40
0.0
 40
0.0
 40
0.0
 40
0.0
 40
1.0
 40
1.0
 40
1.0
 40
2.0
 40
2.0
 40
2.0
 40
3.0
 40
3.0
 40
3.0
 40
4.0
 40
4.0
 40
4.0
 40
5.0
 40
5.0
 40
5.0
 40
6.0
 40
6.0
 40
6.0
 40
7.0
 40
7.0
 40
7.0
 40
7.0
 10
68.2049668883307
 20
-132.5056070632278
 10
68.2049668883307
 20
-132.5056070632278
 10
67.01365286953131
 20
-132.5056070632278
 10
67.01365286953131
 20
-132.5056070632278
 10
67.01365286953131
 20
-132.5056070632278
 10
67.01365286953131
 20
-132.8490830831072
 10
67.01365286953131
 20
-132.8490830831072
 10
67.01365286953131
 20
-132.8490830831072
 10
66.85380043901571
 20
-132.8490830831072
 10
66.85380043901571
 20
-132.8490830831072
 10
66.83795299978357
 20
-132.5031954963881
 10
66.66190862048731
 20
-132.4549641595946
 10
66.53891871166388
 20
-132.4239583002274
 10
66.53891871166388
 20
-132.4239583002274
 10
66.53891871166388
 20
-132.2723740988764
 10
66.53891871166388
 20
-132.2723740988764
 10
66.53891871166388
 20
-132.2723740988764
 10
68.2049668883307
 20
-132.2723740988764
 10
68.2049668883307
 20
-132.2723740988764
 10
68.2049668883307
 20
-132.2723740988764
 10
68.2049668883307
 20
-132.5056070632278
 10
68.2049668883307
 20
-132.5056070632278
 97
        0
 97
        0
 75
     2
 76
     1
 98
        0
  0
SPLINE
  5
15D
330
157
100
AcDbEntity
  8
_U+30EC_U+30A4_U+30E4_U+30FC 1
370
     0
100
AcDbSpline
210
0.0
220
0.0
230
1.0
 70
    11
 71
     3
 72
    32
 73
    28
 74
     0
 42
0.0000000001
 43
0.0000000001
 12
1.0
 22
0.0
 32
0.0
 13
1.0
 23
0.0
 33
0.0
 40
0.0
 40
0.0
 40
0.0
 40
0.0
 40
1.0
 40
1.0
 40
1.0
 40
2.0
 40
2.0
 40
2.0
 40
3.0
 40
3.0
 40
3.0
 40
4.0
 40
4.0
 40
4.0
 40
5.0
 40
5.0
 40
5.0
 40
6.0
 40
6.0
 40
6.0
 40
7.0
 40
7.0
 40
7.0
 40
8.0
 40
8.0
 40
8.0
 40
9.0
 40
9.0
 40
9.0
 40
9.0
 10
68.25974390654618
 20
-131.2753634654451
 30
0.0
 10
68.25974390654618
 20
-131.4562309784207
 30
0.0
 10
68.1842963154192
 20
-131.7115125538777
 30
0.0
 10
67.82600638495322
 20
-131.751131151958
 30
0.0
 10
67.82600638495322
 20
-131.751131151958
 30
0.0
 10
67.82600638495322
 20
-131.5289224931595
 30
0.0
 10
67.82600638495322
 20
-131.5289224931595
 30
0.0
 10
67.89008516097887
 20
-131.5178981876066
 30
0.0
 10
68.04959308194594
 20
-131.4848252709482
 30
0.0
 10
68.04959308194594
 20
-131.2732964081539
 30
0.0
 10
68.04959308194594
 20
-130.9694389863549
 30
0.0
 10
67.69371471831963
 20
-130.930164897823
 30
0.0
 10
67.47219507861807
 20
-130.9167290254306
 30
0.0
 10
67.55901148484637
 20
-131.0114691512749
 30
0.0
 10
67.62067869403234
 20
-131.081749099174
 30
0.0
 10
67.62067869403234
 20
-131.2712293508628
 30
0.0
 10
67.62067869403234
 20
-131.4582980357118
 30
0.0
 10
67.50664603347056
 20
-131.7731797630637
 30
0.0
 10
67.06842988774679
 20
-131.7731797630637
 30
0.0
 10
66.72357582967328
 20
-131.7731797630637
 30
0.0
 10
66.48620875073956
 20
-131.5661295244001
 30
0.0
 10
66.48620875073956
 20
-131.2360893769132
 30
0.0
 10
66.48620875073956
 20
-130.7010660480539
 30
0.0
 10
67.08427732697893
 20
-130.6900417425011
 30
0.0
 10
67.31475421494214
 20
-130.6900417425011
 30
0.0
 10
67.56349010897719
 20
-130.6900417425011
 30
0.0
 10
68.25974390654618
 20
-130.709678786767
 30
0.0
 10
68.25974390654618
 20
-131.2753634654451
 30
0.0
  0
SPLINE
  5
15E
330
157
100
AcDbEntity
  8
_U+30EC_U+30A4_U+30E4_U+30FC 1
370
     0
100
AcDbSpline
210
0.0
220
0.0
230
1.0
 70
    11
 71
     3
 72
    17
 73
    13
 74
     0
 42
0.0000000001
 43
0.0000000001
 12
1.0
 22
0.0
 32
0.0
 13
1.0
 23
0.0
 33
0.0
 40
0.0
 40
0.0
 40
0.0
 40
0.0
 40
1.0
 40
1.0
 40
1.0
 40
2.0
 40
2.0
 40
2.0
 40
3.0
 40
3.0
 40
3.0
 40
4.0
 40
4.0
 40
4.0
 40
4.0
 10
66.69394800850013
 20
-131.2340223196221
 30
0.0
 10
66.69394800850013
 20
-131.3570122284455
 30
0.0
 10
66.7556152176861
 20
-131.5399467987122
 30
0.0
 10
67.06360675406744
 20
-131.5399467987122
 30
0.0
 10
67.30786402397165
 20
-131.5399467987122
 30
0.0
 10
67.41087237898061
 20
-131.3945637692347
 30
0.0
 10
67.41087237898061
 20
-131.253659363888
 30
0.0
 10
67.41087237898061
 20
-130.9804632919077
 30
0.0
 10
67.18487411514823
 20
-130.9411892033758
 30
0.0
 10
67.05912812993661
 20
-130.9411892033758
 30
0.0
 10
66.86964787824787
 20
-130.9411892033758
 30
0.0
 10
66.69394800850013
 20
-131.0400634438025
 30
0.0
 10
66.69394800850013
 20
-131.2340223196221
 30
0.0
  0
HATCH
  5
15F
330
157
100
AcDbEntity
  8
_U+30EC_U+30A4_U+30E4_U+30FC 1
 62
   179
420
  2234388
100
AcDbHatch
 10
0.0
 20
0.0
 30
0.0
210
0.0
220
0.0
230
1.0
  2
SOLID
 70
     1
 71
     0
 91
        2
 92
        1
 93
        1
 72
     4
 94
        3
 73
     0
 74
     1
 95
       32
 96
       28
 40
0.0
 40
0.0
 40
0.0
 40
0.0
 40
1.0
 40
1.0
 40
1.0
 40
2.0
 40
2.0
 40
2.0
 40
3.0
 40
3.0
 40
3.0
 40
4.0
 40
4.0
 40
4.0
 40
5.0
 40
5.0
 40
5.0
 40
6.0
 40
6.0
 40
6.0
 40
7.0
 40
7.0
 40
7.0
 40
8.0
 40
8.0
 40
8.0
 40
9.0
 40
9.0
 40
9.0
 40
9.0
 10
68.25974390654618
 20
-131.2753634654451
 10
68.25974390654618
 20
-131.4562309784207
 10
68.1842963154192
 20
-131.7115125538777
 10
67.82600638495322
 20
-131.751131151958
 10
67.82600638495322
 20
-131.751131151958
 10
67.82600638495322
 20
-131.5289224931595
 10
67.82600638495322
 20
-131.5289224931595
 10
67.89008516097887
 20
-131.5178981876066
 10
68.04959308194594
 20
-131.4848252709482
 10
68.04959308194594
 20
-131.2732964081539
 10
68.04959308194594
 20
-130.9694389863549
 10
67.69371471831963
 20
-130.930164897823
 10
67.47219507861807
 20
-130.9167290254306
 10
67.55901148484637
 20
-131.0114691512749
 10
67.62067869403234
 20
-131.081749099174
 10
67.62067869403234
 20
-131.2712293508628
 10
67.62067869403234
 20
-131.4582980357118
 10
67.50664603347056
 20
-131.7731797630637
 10
67.06842988774679
 20
-131.7731797630637
 10
66.72357582967328
 20
-131.7731797630637
 10
66.48620875073956
 20
-131.5661295244001
 10
66.48620875073956
 20
-131.2360893769132
 10
66.48620875073956
 20
-130.7010660480539
 10
67.08427732697893
 20
-130.6900417425011
 10
67.31475421494214
 20
-130.6900417425011
 10
67.56349010897719
 20
-130.6900417425011
 10
68.25974390654618
 20
-130.709678786767
 10
68.25974390654618
 20
-131.2753634654451
 97
        0
 97
        0
 92
        1
 93
        1
 72
     4
 94
        3
 73
     0
 74
     1
 95
       17
 96
       13
 40
0.0
 40
0.0
 40
0.0
 40
0.0
 40
1.0
 40
1.0
 40
1.0
 40
2.0
 40
2.0
 40
2.0
 40
3.0
 40
3.0
 40
3.0
 40
4.0
 40
4.0
 40
4.0
 40
4.0
 10
66.69394800850013
 20
-131.2340223196221
 10
66.69394800850013
 20
-131.3570122284455
 10
66.7556152176861
 20
-131.5399467987122
 10
67.06360675406744
 20
-131.5399467987122
 10
67.30786402397165
 20
-131.5399467987122
 10
67.41087237898061
 20
-131.3945637692347
 10
67.41087237898061
 20
-131.253659363888
 10
67.41087237898061
 20
-130.9804632919077
 10
67.18487411514823
 20
-130.9411892033758
 10
67.05912812993661
 20
-130.9411892033758
 10
66.86964787824787
 20
-130.9411892033758
 10
66.69394800850013
 20
-131.0400634438025
 10
66.69394800850013
 20
-131.2340223196221
 97
        0
 97
        0
 75
     2
 76
     1
 98
        0
  0
POLYLINE
  5
160
330
157
100
AcDbEntity
  8
_U+30EC_U+30A4_U+30E4_U+30FC 1
370
     0
100
AcDb2dPolyline
 66
     1
 10
0.0
 20
0.0
 30
0.0
  0
VERTEX
  5
161
330
160
100
AcDbEntity
  8
_U+30EC_U+30A4_U+30E4_U+30FC 1
370
     0
100
AcDbVertex
100
AcDb2dVertex
 10
68.2049668883307
 20
-130.4661105359599
 30
0.0
  0
VERTEX
  5
162
330
160
100
AcDbEntity
  8
_U+30EC_U+30A4_U+30E4_U+30FC 1
370
     0
100
AcDbVertex
100
AcDb2dVertex
 10
67.93349336409302
 20
-130.4661105359599
 30
0.0
  0
VERTEX
  5
163
330
160
100
AcDbEntity
  8
_U+30EC_U+30A4_U+30E4_U+30FC 1
370
     0
100
AcDbVertex
100
AcDb2dVertex
 10
67.93349336409302
 20
-130.2039387695324
 30
0.0
  0
VERTEX
  5
164
330
160
100
AcDbEntity
  8
_U+30EC_U+30A4_U+30E4_U+30FC 1
370
     0
100
AcDbVertex
100
AcDb2dVertex
 10
68.2049668883307
 20
-130.2039387695324
 30
0.0
  0
VERTEX
  5
165
330
160
100
AcDbEntity
  8
_U+30EC_U+30A4_U+30E4_U+30FC 1
370
     0
100
AcDbVertex
100
AcDb2dVertex
 10
68.2049668883307
 20
-130.4661105359599
 30
0.0
  0
SEQEND
  5
166
330
160
100
AcDbEntity
  8
_U+30EC_U+30A4_U+30E4_U+30FC 1
370
     0
  0
HATCH
  5
167
330
157
100
AcDbEntity
  8
_U+30EC_U+30A4_U+30E4_U+30FC 1
 62
   179
420
  2234388
100
AcDbHatch
 10
0.0
 20
0.0
 30
0.0
210
0.0
220
0.0
230
1.0
  2
SOLID
 70
     1
 71
     0
 91
        1
 92
        1
 93
        4
 72
     1
 10
68.2049668883307
 20
-130.4661105359599
 11
67.93349336409302
 21
-130.4661105359599
 72
     1
 10
67.93349336409302
 20
-130.4661105359599
 11
67.93349336409302
 21
-130.2039387695324
 72
     1
 10
67.93349336409302
 20
-130.2039387695324
 11
68.2049668883307
 21
-130.2039387695324
 72
     1
 10
68.2049668883307
 20
-130.2039387695324
 11
68.2049668883307
 21
-130.4661105359599
 97
        0
 75
     2
 76
     1
 98
        0
  0
SPLINE
  5
168
330
157
100
AcDbEntity
  8
_U+30EC_U+30A4_U+30E4_U+30FC 1
370
     0
100
AcDbSpline
210
0.0
220
0.0
230
1.0
 70
    11
 71
     3
 72
    29
 73
    25
 74
     0
 42
0.0000000001
 43
0.0000000001
 12
1.0
 22
0.0
 32
0.0
 13
1.0
 23
0.0
 33
0.0
 40
0.0
 40
0.0
 40
0.0
 40
0.0
 40
1.0
 40
1.0
 40
1.0
 40
2.0
 40
2.0
 40
2.0
 40
3.0
 40
3.0
 40
3.0
 40
4.0
 40
4.0
 40
4.0
 40
5.0
 40
5.0
 40
5.0
 40
6.0
 40
6.0
 40
6.0
 40
7.0
 40
7.0
 40
7.0
 40
8.0
 40
8.0
 40
8.0
 40
8.0
 10
68.25974390654618
 20
-129.4384385527098
 30
0.0
 10
68.25974390654618
 20
-129.7157687392724
 30
0.0
 10
68.11126029113191
 20
-129.9800075629911
 30
0.0
 10
67.7347113545941
 20
-129.9800075629911
 30
0.0
 10
67.4587592062256
 20
-129.9800075629911
 30
0.0
 10
67.35575085121663
 20
-129.8325574762224
 30
0.0
 10
67.28960501789983
 20
-129.7223144206944
 30
0.0
 10
67.2258707514227
 20
-129.8525390300369
 30
0.0
 10
67.10253633305076
 20
-129.9317762261976
 30
0.0
 10
66.92924803014269
 20
-129.9317762261976
 30
0.0
 10
66.63228079931416
 20
-129.9317762261976
 30
0.0
 10
66.48620875073956
 20
-129.7243814779856
 30
0.0
 10
66.48620875073956
 20
-129.4384385527098
 30
0.0
 10
66.48620875073956
 20
-129.1435383791724
 30
0.0
 10
66.64158255712432
 20
-128.9451008792221
 30
0.0
 10
66.92924803014269
 20
-128.9451008792221
 30
0.0
 10
67.10253633305076
 20
-128.9451008792221
 30
0.0
 10
67.2258707514227
 20
-129.0267496422225
 30
0.0
 10
67.28960501789983
 20
-129.1566297420164
 30
0.0
 10
67.34438203611529
 20
-129.0643011830117
 30
0.0
 10
67.44739039112427
 20
-128.8989365997197
 30
0.0
 10
67.73023273046327
 20
-128.8989365997197
 30
0.0
 10
68.13434243088308
 20
-128.8989365997197
 30
0.0
 10
68.25974390654618
 20
-129.1897026586748
 30
0.0
 10
68.25974390654618
 20
-129.4384385527098
 30
0.0
  0
SPLINE
  5
169
330
157
100
AcDbEntity
  8
_U+30EC_U+30A4_U+30E4_U+30FC 1
370
     0
100
AcDbSpline
210
0.0
220
0.0
230
1.0
 70
    11
 71
     3
 72
    17
 73
    13
 74
     0
 42
0.0000000001
 43
0.0000000001
 12
1.0
 22
0.0
 32
0.0
 13
1.0
 23
0.0
 33
0.0
 40
0.0
 40
0.0
 40
0.0
 40
0.0
 40
1.0
 40
1.0
 40
1.0
 40
2.0
 40
2.0
 40
2.0
 40
3.0
 40
3.0
 40
3.0
 40
4.0
 40
4.0
 40
4.0
 40
4.0
 10
66.69394800850013
 20
-129.4384385527098
 30
0.0
 10
66.69394800850013
 20
-129.6100043078753
 30
0.0
 10
66.79661185396057
 20
-129.6981987522977
 30
0.0
 10
66.94268390253517
 20
-129.6981987522977
 30
0.0
 10
67.07532007871728
 20
-129.6981987522977
 30
0.0
 10
67.20313312122005
 20
-129.6230956707192
 30
0.0
 10
67.20313312122005
 20
-129.4384385527098
 30
0.0
 10
67.20313312122005
 20
-129.2534369251519
 30
0.0
 10
67.07532007871728
 20
-129.178678353122
 30
0.0
 10
66.94268390253517
 20
-129.178678353122
 30
0.0
 10
66.79661185396057
 20
-129.178678353122
 30
0.0
 10
66.69394800850013
 20
-129.2689398548355
 30
0.0
 10
66.69394800850013
 20
-129.4384385527098
 30
0.0
  0
SPLINE
  5
16A
330
157
100
AcDbEntity
  8
_U+30EC_U+30A4_U+30E4_U+30FC 1
370
     0
100
AcDbSpline
210
0.0
220
0.0
230
1.0
 70
    11
 71
     3
 72
    17
 73
    13
 74
     0
 42
0.0000000001
 43
0.0000000001
 12
1.0
 22
0.0
 32
0.0
 13
1.0
 23
0.0
 33
0.0
 40
0.0
 40
0.0
 40
0.0
 40
0.0
 40
1.0
 40
1.0
 40
1.0
 40
2.0
 40
2.0
 40
2.0
 40
3.0
 40
3.0
 40
3.0
 40
4.0
 40
4.0
 40
4.0
 40
4.0
 10
67.40604924530128
 20
-129.4384385527098
 30
0.0
 10
67.40604924530128
 20
-129.5879556967697
 30
0.0
 10
67.49975584250006
 20
-129.7464300890912
 30
0.0
 10
67.71886391536195
 20
-129.7464300890912
 30
0.0
 10
67.940039045515
 20
-129.7464300890912
 30
0.0
 10
68.04959308194594
 20
-129.6144829320061
 30
0.0
 10
68.04959308194594
 20
-129.4384385527098
 30
0.0
 10
68.04959308194594
 20
-129.2448241864388
 30
0.0
 10
67.91730141531234
 20
-129.13010250678
 30
0.0
 10
67.72575410633246
 20
-129.13010250678
 30
0.0
 10
67.48597546055906
 20
-129.13010250678
 30
0.0
 10
67.40604924530128
 20
-129.2999457142028
 30
0.0
 10
67.40604924530128
 20
-129.4384385527098
 30
0.0
  0
HATCH
  5
16B
330
157
100
AcDbEntity
  8
_U+30EC_U+30A4_U+30E4_U+30FC 1
 62
   179
420
  2234388
100
AcDbHatch
 10
0.0
 20
0.0
 30
0.0
210
0.0
220
0.0
230
1.0
  2
SOLID
 70
     1
 71
     0
 91
        3
 92
        1
 93
        1
 72
     4
 94
        3
 73
     0
 74
     1
 95
       29
 96
       25
 40
0.0
 40
0.0
 40
0.0
 40
0.0
 40
1.0
 40
1.0
 40
1.0
 40
2.0
 40
2.0
 40
2.0
 40
3.0
 40
3.0
 40
3.0
 40
4.0
 40
4.0
 40
4.0
 40
5.0
 40
5.0
 40
5.0
 40
6.0
 40
6.0
 40
6.0
 40
7.0
 40
7.0
 40
7.0
 40
8.0
 40
8.0
 40
8.0
 40
8.0
 10
68.25974390654618
 20
-129.4384385527098
 10
68.25974390654618
 20
-129.7157687392724
 10
68.11126029113191
 20
-129.9800075629911
 10
67.7347113545941
 20
-129.9800075629911
 10
67.4587592062256
 20
-129.9800075629911
 10
67.35575085121663
 20
-129.8325574762224
 10
67.28960501789983
 20
-129.7223144206944
 10
67.2258707514227
 20
-129.8525390300369
 10
67.10253633305076
 20
-129.9317762261976
 10
66.92924803014269
 20
-129.9317762261976
 10
66.63228079931416
 20
-129.9317762261976
 10
66.48620875073956
 20
-129.7243814779856
 10
66.48620875073956
 20
-129.4384385527098
 10
66.48620875073956
 20
-129.1435383791724
 10
66.64158255712432
 20
-128.9451008792221
 10
66.92924803014269
 20
-128.9451008792221
 10
67.10253633305076
 20
-128.9451008792221
 10
67.2258707514227
 20
-129.0267496422225
 10
67.28960501789983
 20
-129.1566297420164
 10
67.34438203611529
 20
-129.0643011830117
 10
67.44739039112427
 20
-128.8989365997197
 10
67.73023273046327
 20
-128.8989365997197
 10
68.13434243088308
 20
-128.8989365997197
 10
68.25974390654618
 20
-129.1897026586748
 10
68.25974390654618
 20
-129.4384385527098
 97
        0
 97
        0
 92
        1
 93
        1
 72
     4
 94
        3
 73
     0
 74
     1
 95
       17
 96
       13
 40
0.0
 40
0.0
 40
0.0
 40
0.0
 40
1.0
 40
1.0
 40
1.0
 40
2.0
 40
2.0
 40
2.0
 40
3.0
 40
3.0
 40
3.0
 40
4.0
 40
4.0
 40
4.0
 40
4.0
 10
66.69394800850013
 20
-129.4384385527098
 10
66.69394800850013
 20
-129.6100043078753
 10
66.79661185396057
 20
-129.6981987522977
 10
66.94268390253517
 20
-129.6981987522977
 10
67.07532007871728
 20
-129.6981987522977
 10
67.20313312122005
 20
-129.6230956707192
 10
67.20313312122005
 20
-129.4384385527098
 10
67.20313312122005
 20
-129.2534369251519
 10
67.07532007871728
 20
-129.178678353122
 10
66.94268390253517
 20
-129.178678353122
 10
66.79661185396057
 20
-129.178678353122
 10
66.69394800850013
 20
-129.2689398548355
 10
66.69394800850013
 20
-129.4384385527098
 97
        0
 97
        0
 92
        1
 93
        1
 72
     4
 94
        3
 73
     0
 74
     1
 95
       17
 96
       13
 40
0.0
 40
0.0
 40
0.0
 40
0.0
 40
1.0
 40
1.0
 40
1.0
 40
2.0
 40
2.0
 40
2.0
 40
3.0
 40
3.0
 40
3.0
 40
4.0
 40
4.0
 40
4.0
 40
4.0
 10
67.40604924530128
 20
-129.4384385527098
 10
67.40604924530128
 20
-129.5879556967697
 10
67.49975584250006
 20
-129.7464300890912
 10
67.71886391536195
 20
-129.7464300890912
 10
67.940039045515
 20
-129.7464300890912
 10
68.04959308194594
 20
-129.6144829320061
 10
68.04959308194594
 20
-129.4384385527098
 10
68.04959308194594
 20
-129.2448241864388
 10
67.91730141531234
 20
-129.13010250678
 10
67.72575410633246
 20
-129.13010250678
 10
67.48597546055906
 20
-129.13010250678
 10
67.40604924530128
 20
-129.2999457142028
 10
67.40604924530128
 20
-129.4384385527098
 97
        0
 97
        0
 75
     2
 76
     1
 98
        0
  0
ENDBLK
  5
15A
330
157
100
AcDbEntity
  8
0
100
AcDbBlockEnd
  0
ENDSEC
  0
SECTION
  2
ENTITIES
  0
POLYLINE
  5
41
330
1F
100
AcDbEntity
  8
_U+30EC_U+30A4_U+30E4_U+30FC 1
370
     0
100
AcDb2dPolyline
 66
     1
 10
0.0
 20
0.0
 30
0.0
  0
VERTEX
  5
42
330
41
100
AcDbEntity
  8
_U+30EC_U+30A4_U+30E4_U+30FC 1
370
     0
100
AcDbVertex
100
AcDb2dVertex
 10
77.49363609173784
 20
-121.0027777475271
 30
0.0
  0
VERTEX
  5
43
330
41
100
AcDbEntity
  8
_U+30EC_U+30A4_U+30E4_U+30FC 1
370
     0
100
AcDbVertex
100
AcDb2dVertex
 10
117.3575249706604
 20
-121.0027777475271
 30
0.0
  0
VERTEX
  5
44
330
41
100
AcDbEntity
  8
_U+30EC_U+30A4_U+30E4_U+30FC 1
370
     0
100
AcDbVertex
100
AcDb2dVertex
 10
117.3575249706604
 20
-122.1787624694552
 30
0.0
  0
VERTEX
  5
45
330
41
100
AcDbEntity
  8
_U+30EC_U+30A4_U+30E4_U+30FC 1
370
     0
100
AcDbVertex
100
AcDb2dVertex
 10
98.07222219770416
 20
-122.1787624694552
 30
0.0
  0
VERTEX
  5
46
330
41
100
AcDbEntity
  8
_U+30EC_U+30A4_U+30E4_U+30FC 1
370
     0
100
AcDbVertex
100
AcDb2dVertex
 10
98.07222219770416
 20
-139.5825249651042
 30
0.0
  0
VERTEX
  5
47
330
41
100
AcDbEntity
  8
_U+30EC_U+30A4_U+30E4_U+30FC 1
370
     0
100
AcDbVertex
100
AcDb2dVertex
 10
106.1861110845646
 20
-139.5825249651042
 30
0.0
  0
VERTEX
  5
48
330
41
100
AcDbEntity
  8
_U+30EC_U+30A4_U+30E4_U+30FC 1
370
     0
100
AcDbVertex
100
AcDb2dVertex
 10
106.1861110845646
 20
-136.8777777435583
 30
0.0
  0
VERTEX
  5
49
330
41
100
AcDbEntity
  8
_U+30EC_U+30A4_U+30E4_U+30FC 1
370
     0
100
AcDbVertex
100
AcDb2dVertex
 10
107.3622721953819
 20
-136.8777777435583
 30
0.0
  0
VERTEX
  5
4A
330
41
100
AcDbEntity
  8
_U+30EC_U+30A4_U+30E4_U+30FC 1
370
     0
100
AcDbVertex
100
AcDb2dVertex
 10
107.3622721953819
 20
-140.7583332981438
 30
0.0
  0
VERTEX
  5
4B
330
41
100
AcDbEntity
  8
_U+30EC_U+30A4_U+30E4_U+30FC 1
370
     0
100
AcDbVertex
100
AcDb2dVertex
 10
87.48888886701667
 20
-140.7583332981438
 30
0.0
  0
VERTEX
  5
4C
330
41
100
AcDbEntity
  8
_U+30EC_U+30A4_U+30E4_U+30FC 1
370
     0
100
AcDbVertex
100
AcDb2dVertex
 10
87.48888886701667
 20
-136.7603027435875
 30
0.0
  0
VERTEX
  5
4D
330
41
100
AcDbEntity
  8
_U+30EC_U+30A4_U+30E4_U+30FC 1
370
     0
100
AcDbVertex
100
AcDb2dVertex
 10
88.54722220008541
 20
-136.7603027435875
 30
0.0
  0
VERTEX
  5
4E
330
41
100
AcDbEntity
  8
_U+30EC_U+30A4_U+30E4_U+30FC 1
370
     0
100
AcDbVertex
100
AcDb2dVertex
 10
88.54722220008541
 20
-139.465049965134
 30
0.0
  0
VERTEX
  5
4F
330
41
100
AcDbEntity
  8
_U+30EC_U+30A4_U+30E4_U+30FC 1
370
     0
100
AcDbVertex
100
AcDb2dVertex
 10
96.8964138646646
 20
-139.465049965134
 30
0.0
  0
VERTEX
  5
50
330
41
100
AcDbEntity
  8
_U+30EC_U+30A4_U+30E4_U+30FC 1
370
     0
100
AcDbVertex
100
AcDb2dVertex
 10
96.8964138646646
 20
-122.4138888582854
 30
0.0
  0
VERTEX
  5
51
330
41
100
AcDbEntity
  8
_U+30EC_U+30A4_U+30E4_U+30FC 1
370
     0
100
AcDbVertex
100
AcDb2dVertex
 10
77.49363609173784
 20
-122.4138888582854
 30
0.0
  0
VERTEX
  5
52
330
41
100
AcDbEntity
  8
_U+30EC_U+30A4_U+30E4_U+30FC 1
370
     0
100
AcDbVertex
100
AcDb2dVertex
 10
77.49363609173784
 20
-121.0027777475271
 30
0.0
  0
SEQEND
  5
54
330
41
100
AcDbEntity
  8
_U+30EC_U+30A4_U+30E4_U+30FC 1
370
     0
  0
HATCH
  5
53
330
1F
100
AcDbEntity
  8
_U+30EC_U+30A4_U+30E4_U+30FC 1
 62
   253
420
 10066329
100
AcDbHatch
 10
0.0
 20
0.0
 30
0.0
210
0.0
220
0.0
230
1.0
  2
SOLID
 70
     1
 71
     0
 91
        1
 92
        1
 93
       16
 72
     1
 10
77.49363609173784
 20
-121.0027777475271
 11
117.3575249706604
 21
-121.0027777475271
 72
     1
 10
117.3575249706604
 20
-121.0027777475271
 11
117.3575249706604
 21
-122.1787624694552
 72
     1
 10
117.3575249706604
 20
-122.1787624694552
 11
98.07222219770416
 21
-122.1787624694552
 72
     1
 10
98.07222219770416
 20
-122.1787624694552
 11
98.07222219770416
 21
-139.5825249651042
 72
     1
 10
98.07222219770416
 20
-139.5825249651042
 11
106.1861110845646
 21
-139.5825249651042
 72
     1
 10
106.1861110845646
 20
-139.5825249651042
 11
106.1861110845646
 21
-136.8777777435583
 72
     1
 10
106.1861110845646
 20
-136.8777777435583
 11
107.3622721953819
 21
-136.8777777435583
 72
     1
 10
107.3622721953819
 20
-136.8777777435583
 11
107.3622721953819
 21
-140.7583332981438
 72
     1
 10
107.3622721953819
 20
-140.7583332981438
 11
87.48888886701667
 21
-140.7583332981438
 72
     1
 10
87.48888886701667
 20
-140.7583332981438
 11
87.48888886701667
 21
-136.7603027435875
 72
     1
 10
87.48888886701667
 20
-136.7603027435875
 11
88.54722220008541
 21
-136.7603027435875
 72
     1
 10
88.54722220008541
 20
-136.7603027435875
 11
88.54722220008541
 21
-139.465049965134
 72
     1
 10
88.54722220008541
 20
-139.465049965134
 11
96.8964138646646
 21
-139.465049965134
 72
     1
 10
96.8964138646646
 20
-139.465049965134
 11
96.8964138646646
 21
-122.4138888582854
 72
     1
 10
96.8964138646646
 20
-122.4138888582854
 11
77.49363609173784
 21
-122.4138888582854
 72
     1
 10
77.49363609173784
 20
-122.4138888582854
 11
77.49363609173784
 21
-121.0027777475271
 97
        0
 75
     2
 76
     1
 98
        0
  0
POLYLINE
  5
55
330
1F
100
AcDbEntity
  8
_U+30EC_U+30A4_U+30E4_U+30FC 1
 62
   179
420
  2234388
370
    25
100
AcDb2dPolyline
 66
     1
 10
0.0
 20
0.0
 30
0.0
  0
VERTEX
  5
56
330
55
100
AcDbEntity
  8
_U+30EC_U+30A4_U+30E4_U+30FC 1
 62
   179
420
  2234388
370
    25
100
AcDbVertex
100
AcDb2dVertex
 10
87.40827693669574
 20
-140.8468805203439
 30
0.0
  0
VERTEX
  5
57
330
55
100
AcDbEntity
  8
_U+30EC_U+30A4_U+30E4_U+30FC 1
 62
   179
420
  2234388
370
    25
100
AcDbVertex
100
AcDb2dVertex
 10
107.4084128153387
 20
-140.8468805203439
 30
0.0
  0
SEQEND
  5
58
330
55
100
AcDbEntity
  8
_U+30EC_U+30A4_U+30E4_U+30FC 1
 62
   179
420
  2234388
370
    25
  0
POLYLINE
  5
59
330
1F
100
AcDbEntity
  8
_U+30EC_U+30A4_U+30E4_U+30FC 1
 62
   179
420
  2234388
370
    25
100
AcDb2dPolyline
 66
     1
 10
0.0
 20
0.0
 30
0.0
  0
VERTEX
  5
5A
330
59
100
AcDbEntity
  8
_U+30EC_U+30A4_U+30E4_U+30FC 1
 62
   179
420
  2234388
370
    25
100
AcDbVertex
100
AcDb2dVertex
 10
77.40854413625462
 20
-121.0468749697383
 30
0.0
  0
VERTEX
  5
5B
330
59
100
AcDbEntity
  8
_U+30EC_U+30A4_U+30E4_U+30FC 1
 62
   179
420
  2234388
370
    25
100
AcDbVertex
100
AcDb2dVertex
 10
117.4084983935486
 20
-121.0468749697383
 30
0.0
  0
SEQEND
  5
5C
330
59
100
AcDbEntity
  8
_U+30EC_U+30A4_U+30E4_U+30FC 1
 62
   179
420
  2234388
370
    25
  0
POLYLINE
  5
5D
330
1F
100
AcDbEntity
  8
_U+30EC_U+30A4_U+30E4_U+30FC 1
 62
   179
420
  2234388
370
    25
100
AcDb2dPolyline
 66
     1
 10
0.0
 20
0.0
 30
0.0
  0
VERTEX
  5
5E
330
5D
100
AcDbEntity
  8
_U+30EC_U+30A4_U+30E4_U+30FC 1
 62
   179
420
  2234388
370
    25
100
AcDbVertex
100
AcDb2dVertex
 10
107.4084128153387
 20
-136.8467685768993
 30
0.0
  0
VERTEX
  5
5F
330
5D
100
AcDbEntity
  8
_U+30EC_U+30A4_U+30E4_U+30FC 1
 62
   179
420
  2234388
370
    25
100
AcDbVertex
100
AcDb2dVertex
 10
107.4084128153387
 20
-140.8468805203439
 30
0.0
  0
SEQEND
  5
60
330
5D
100
AcDbEntity
  8
_U+30EC_U+30A4_U+30E4_U+30FC 1
 62
   179
420
  2234388
370
    25
  0
POLYLINE
  5
61
330
1F
100
AcDbEntity
  8
_U+30EC_U+30A4_U+30E4_U+30FC 1
 62
   179
420
  2234388
370
    25
100
AcDb2dPolyline
 66
     1
 10
0.0
 20
0.0
 30
0.0
  0
VERTEX
  5
62
330
61
100
AcDbEntity
  8
_U+30EC_U+30A4_U+30E4_U+30FC 1
 62
   179
420
  2234388
370
    25
100
AcDbVertex
100
AcDb2dVertex
 10
106.2085097903952
 20
-136.8467685768993
 30
0.0
  0
VERTEX
  5
63
330
61
100
AcDbEntity
  8
_U+30EC_U+30A4_U+30E4_U+30FC 1
 62
   179
420
  2234388
370
    25
100
AcDbVertex
100
AcDb2dVertex
 10
107.4084128153387
 20
-136.8467685768993
 30
0.0
  0
SEQEND
  5
64
330
61
100
AcDbEntity
  8
_U+30EC_U+30A4_U+30E4_U+30FC 1
 62
   179
420
  2234388
370
    25
  0
POLYLINE
  5
65
330
1F
100
AcDbEntity
  8
_U+30EC_U+30A4_U+30E4_U+30FC 1
 62
   179
420
  2234388
370
    25
100
AcDb2dPolyline
 66
     1
 10
0.0
 20
0.0
 30
0.0
  0
VERTEX
  5
66
330
65
100
AcDbEntity
  8
_U+30EC_U+30A4_U+30E4_U+30FC 1
 62
   179
420
  2234388
370
    25
100
AcDbVertex
100
AcDb2dVertex
 10
77.40854413625462
 20
-122.2468133027715
 30
0.0
  0
VERTEX
  5
67
330
65
100
AcDbEntity
  8
_U+30EC_U+30A4_U+30E4_U+30FC 1
 62
   179
420
  2234388
370
    25
100
AcDbVertex
100
AcDb2dVertex
 10
96.80821942024221
 20
-122.2468133027715
 30
0.0
  0
SEQEND
  5
68
330
65
100
AcDbEntity
  8
_U+30EC_U+30A4_U+30E4_U+30FC 1
 62
   179
420
  2234388
370
    25
  0
POLYLINE
  5
69
330
1F
100
AcDbEntity
  8
_U+30EC_U+30A4_U+30E4_U+30FC 1
 62
   179
420
  2234388
370
    25
100
AcDb2dPolyline
 66
     1
 10
0.0
 20
0.0
 30
0.0
  0
VERTEX
  5
6A
330
69
100
AcDbEntity
  8
_U+30EC_U+30A4_U+30E4_U+30FC 1
 62
   179
420
  2234388
370
    25
100
AcDbVertex
100
AcDb2dVertex
 10
88.60853273940799
 20
-139.6469421873103
 30
0.0
  0
VERTEX
  5
6B
330
69
100
AcDbEntity
  8
_U+30EC_U+30A4_U+30E4_U+30FC 1
 62
   179
420
  2234388
370
    25
100
AcDbVertex
100
AcDb2dVertex
 10
96.80821942024221
 20
-139.6469421873103
 30
0.0
  0
SEQEND
  5
6C
330
69
100
AcDbEntity
  8
_U+30EC_U+30A4_U+30E4_U+30FC 1
 62
   179
420
  2234388
370
    25
  0
POLYLINE
  5
6D
330
1F
100
AcDbEntity
  8
_U+30EC_U+30A4_U+30E4_U+30FC 1
 62
   179
420
  2234388
370
    25
100
AcDb2dPolyline
 66
     1
 10
0.0
 20
0.0
 30
0.0
  0
VERTEX
  5
6E
330
6D
100
AcDbEntity
  8
_U+30EC_U+30A4_U+30E4_U+30FC 1
 62
   179
420
  2234388
370
    25
100
AcDbVertex
100
AcDb2dVertex
 10
106.2085097903952
 20
-136.8467685768993
 30
0.0
  0
VERTEX
  5
6F
330
6D
100
AcDbEntity
  8
_U+30EC_U+30A4_U+30E4_U+30FC 1
 62
   179
420
  2234388
370
    25
100
AcDbVertex
100
AcDb2dVertex
 10
106.2085097903952
 20
-139.6469421873103
 30
0.0
  0
SEQEND
  5
70
330
6D
100
AcDbEntity
  8
_U+30EC_U+30A4_U+30E4_U+30FC 1
 62
   179
420
  2234388
370
    25
  0
POLYLINE
  5
71
330
1F
100
AcDbEntity
  8
_U+30EC_U+30A4_U+30E4_U+30FC 1
 62
   179
420
  2234388
370
    25
100
AcDb2dPolyline
 66
     1
 10
0.0
 20
0.0
 30
0.0
  0
VERTEX
  5
72
330
71
100
AcDbEntity
  8
_U+30EC_U+30A4_U+30E4_U+30FC 1
 62
   179
420
  2234388
370
    25
100
AcDbVertex
100
AcDb2dVertex
 10
117.4084983935486
 20
-121.0468749697383
 30
0.0
  0
VERTEX
  5
73
330
71
100
AcDbEntity
  8
_U+30EC_U+30A4_U+30E4_U+30FC 1
 62
   179
420
  2234388
370
    25
100
AcDbVertex
100
AcDb2dVertex
 10
117.4084983935486
 20
-122.2468133027715
 30
0.0
  0
SEQEND
  5
74
330
71
100
AcDbEntity
  8
_U+30EC_U+30A4_U+30E4_U+30FC 1
 62
   179
420
  2234388
370
    25
  0
POLYLINE
  5
75
330
1F
100
AcDbEntity
  8
_U+30EC_U+30A4_U+30E4_U+30FC 1
 62
   179
420
  2234388
370
    25
100
AcDb2dPolyline
 66
     1
 10
0.0
 20
0.0
 30
0.0
  0
VERTEX
  5
76
330
75
100
AcDbEntity
  8
_U+30EC_U+30A4_U+30E4_U+30FC 1
 62
   179
420
  2234388
370
    25
100
AcDbVertex
100
AcDb2dVertex
 10
77.40854413625462
 20
-121.0468749697383
 30
0.0
  0
VERTEX
  5
77
330
75
100
AcDbEntity
  8
_U+30EC_U+30A4_U+30E4_U+30FC 1
 62
   179
420
  2234388
370
    25
100
AcDbVertex
100
AcDb2dVertex
 10
77.40854413625462
 20
-122.2468133027715
 30
0.0
  0
SEQEND
  5
78
330
75
100
AcDbEntity
  8
_U+30EC_U+30A4_U+30E4_U+30FC 1
 62
   179
420
  2234388
370
    25
  0
POLYLINE
  5
79
330
1F
100
AcDbEntity
  8
_U+30EC_U+30A4_U+30E4_U+30FC 1
 62
   179
420
  2234388
370
    25
100
AcDb2dPolyline
 66
     1
 10
0.0
 20
0.0
 30
0.0
  0
VERTEX
  5
7A
330
79
100
AcDbEntity
  8
_U+30EC_U+30A4_U+30E4_U+30FC 1
 62
   179
420
  2234388
370
    25
100
AcDbVertex
100
AcDb2dVertex
 10
88.60853273940799
 20
-136.8467685768993
 30
0.0
  0
VERTEX
  5
7B
330
79
100
AcDbEntity
  8
_U+30EC_U+30A4_U+30E4_U+30FC 1
 62
   179
420
  2234388
370
    25
100
AcDbVertex
100
AcDb2dVertex
 10
88.60853273940799
 20
-139.6469421873103
 30
0.0
  0
SEQEND
  5
7C
330
79
100
AcDbEntity
  8
_U+30EC_U+30A4_U+30E4_U+30FC 1
 62
   179
420
  2234388
370
    25
  0
POLYLINE
  5
7D
330
1F
100
AcDbEntity
  8
_U+30EC_U+30A4_U+30E4_U+30FC 1
 62
   179
420
  2234388
370
    25
100
AcDb2dPolyline
 66
     1
 10
0.0
 20
0.0
 30
0.0
  0
VERTEX
  5
7E
330
7D
100
AcDbEntity
  8
_U+30EC_U+30A4_U+30E4_U+30FC 1
 62
   179
420
  2234388
370
    25
100
AcDbVertex
100
AcDb2dVertex
 10
88.60853273940799
 20
-136.8467685768993
 30
0.0
  0
VERTEX
  5
7F
330
7D
100
AcDbEntity
  8
_U+30EC_U+30A4_U+30E4_U+30FC 1
 62
   179
420
  2234388
370
    25
100
AcDbVertex
100
AcDb2dVertex
 10
87.40827693669574
 20
-136.8467685768993
 30
0.0
  0
SEQEND
  5
80
330
7D
100
AcDbEntity
  8
_U+30EC_U+30A4_U+30E4_U+30FC 1
 62
   179
420
  2234388
370
    25
  0
POLYLINE
  5
81
330
1F
100
AcDbEntity
  8
_U+30EC_U+30A4_U+30E4_U+30FC 1
 62
   179
420
  2234388
370
    25
100
AcDb2dPolyline
 66
     1
 10
0.0
 20
0.0
 30
0.0
  0
VERTEX
  5
82
330
81
100
AcDbEntity
  8
_U+30EC_U+30A4_U+30E4_U+30FC 1
 62
   179
420
  2234388
370
    25
100
AcDbVertex
100
AcDb2dVertex
 10
87.40827693669574
 20
-136.8467685768993
 30
0.0
  0
VERTEX
  5
83
330
81
100
AcDbEntity
  8
_U+30EC_U+30A4_U+30E4_U+30FC 1
 62
   179
420
  2234388
370
    25
100
AcDbVertex
100
AcDb2dVertex
 10
87.40827693669574
 20
-140.8468805203439
 30
0.0
  0
SEQEND
  5
84
330
81
100
AcDbEntity
  8
_U+30EC_U+30A4_U+30E4_U+30FC 1
 62
   179
420
  2234388
370
    25
  0
POLYLINE
  5
85
330
1F
100
AcDbEntity
  8
_U+30EC_U+30A4_U+30E4_U+30FC 1
 62
   179
420
  2234388
370
    25
100
AcDb2dPolyline
 66
     1
 10
0.0
 20
0.0
 30
0.0
  0
VERTEX
  5
86
330
85
100
AcDbEntity
  8
_U+30EC_U+30A4_U+30E4_U+30FC 1
 62
   179
420
  2234388
370
    25
100
AcDbVertex
100
AcDb2dVertex
 10
96.80821942024221
 20
-122.2468133027715
 30
0.0
  0
VERTEX
  5
87
330
85
100
AcDbEntity
  8
_U+30EC_U+30A4_U+30E4_U+30FC 1
 62
   179
420
  2234388
370
    25
100
AcDbVertex
100
AcDb2dVertex
 10
96.80821942024221
 20
-139.6469421873103
 30
0.0
  0
SEQEND
  5
88
330
85
100
AcDbEntity
  8
_U+30EC_U+30A4_U+30E4_U+30FC 1
 62
   179
420
  2234388
370
    25
  0
POLYLINE
  5
89
330
1F
100
AcDbEntity
  8
_U+30EC_U+30A4_U+30E4_U+30FC 1
 62
   179
420
  2234388
370
    25
100
AcDb2dPolyline
 66
     1
 10
0.0
 20
0.0
 30
0.0
  0
VERTEX
  5
8A
330
89
100
AcDbEntity
  8
_U+30EC_U+30A4_U+30E4_U+30FC 1
 62
   179
420
  2234388
370
    25
100
AcDbVertex
100
AcDb2dVertex
 10
98.00847277737333
 20
-122.2468133027715
 30
0.0
  0
VERTEX
  5
8B
330
89
100
AcDbEntity
  8
_U+30EC_U+30A4_U+30E4_U+30FC 1
 62
   179
420
  2234388
370
    25
100
AcDbVertex
100
AcDb2dVertex
 10
98.00847277737333
 20
-139.6469421873103
 30
0.0
  0
SEQEND
  5
8C
330
89
100
AcDbEntity
  8
_U+30EC_U+30A4_U+30E4_U+30FC 1
 62
   179
420
  2234388
370
    25
  0
POLYLINE
  5
8D
330
1F
100
AcDbEntity
  8
_U+30EC_U+30A4_U+30E4_U+30FC 1
 62
   179
420
  2234388
370
    25
100
AcDb2dPolyline
 66
     1
 10
0.0
 20
0.0
 30
0.0
  0
VERTEX
  5
8E
330
8D
100
AcDbEntity
  8
_U+30EC_U+30A4_U+30E4_U+30FC 1
 62
   179
420
  2234388
370
    25
100
AcDbVertex
100
AcDb2dVertex
 10
98.00847277737333
 20
-122.2468133027715
 30
0.0
  0
VERTEX
  5
8F
330
8D
100
AcDbEntity
  8
_U+30EC_U+30A4_U+30E4_U+30FC 1
 62
   179
420
  2234388
370
    25
100
AcDbVertex
100
AcDb2dVertex
 10
117.4084983935486
 20
-122.2468133027715
 30
0.0
  0
SEQEND
  5
90
330
8D
100
AcDbEntity
  8
_U+30EC_U+30A4_U+30E4_U+30FC 1
 62
   179
420
  2234388
370
    25
  0
POLYLINE
  5
91
330
1F
100
AcDbEntity
  8
_U+30EC_U+30A4_U+30E4_U+30FC 1
 62
   179
420
  2234388
370
    25
100
AcDb2dPolyline
 66
     1
 10
0.0
 20
0.0
 30
0.0
  0
VERTEX
  5
92
330
91
100
AcDbEntity
  8
_U+30EC_U+30A4_U+30E4_U+30FC 1
 62
   179
420
  2234388
370
    25
100
AcDbVertex
100
AcDb2dVertex
 10
98.00847277737333
 20
-139.6469421873103
 30
0.0
  0
VERTEX
  5
93
330
91
100
AcDbEntity
  8
_U+30EC_U+30A4_U+30E4_U+30FC 1
 62
   179
420
  2234388
370
    25
100
AcDbVertex
100
AcDb2dVertex
 10
106.2085097903952
 20
-139.6469421873103
 30
0.0
  0
SEQEND
  5
94
330
91
100
AcDbEntity
  8
_U+30EC_U+30A4_U+30E4_U+30FC 1
 62
   179
420
  2234388
370
    25
  0
SPLINE
  5
95
330
1F
100
AcDbEntity
  8
_U+30EC_U+30A4_U+30E4_U+30FC 1
 62
   179
420
  2234388
370
     9
100
AcDbSpline
210
0.0
220
0.0
230
1.0
 70
    11
 71
     3
 72
    17
 73
    13
 74
     0
 42
0.0000000001
 43
0.0000000001
 12
1.0
 22
0.0
 32
0.0
 13
1.0
 23
0.0
 33
0.0
 40
0.0
 40
0.0
 40
0.0
 40
0.0
 40
1.0
 40
1.0
 40
1.0
 40
2.0
 40
2.0
 40
2.0
 40
3.0
 40
3.0
 40
3.0
 40
4.0
 40
4.0
 40
4.0
 40
4.0
 10
69.50826239336315
 20
-121.0468749697383
 30
0.0
 10
69.50826239336315
 20
-120.9915946919745
 30
0.0
 10
69.4634596167284
 20
-120.9467919142078
 30
0.0
 10
69.40832220487
 20
-120.9467919142078
 30
0.0
 10
69.35321656398537
 20
-120.9467919142078
 30
0.0
 10
69.3084137873506
 20
-120.9915946919745
 30
0.0
 10
69.3084137873506
 20
-121.0468749697383
 30
0.0
 10
69.3084137873506
 20
-121.102014136391
 30
0.0
 10
69.35321656398537
 20
-121.1467816363799
 30
0.0
 10
69.40832220487
 20
-121.1467816363799
 30
0.0
 10
69.4634596167284
 20
-121.1467816363799
 30
0.0
 10
69.50826239336315
 20
-121.102014136391
 30
0.0
 10
69.50826239336315
 20
-121.0468749697383
 30
0.0
  0
SPLINE
  5
96
330
1F
100
AcDbEntity
  8
_U+30EC_U+30A4_U+30E4_U+30FC 1
 62
   179
420
  2234388
370
     9
100
AcDbSpline
210
0.0
220
0.0
230
1.0
 70
    11
 71
     3
 72
    17
 73
    13
 74
     0
 42
0.0000000001
 43
0.0000000001
 12
1.0
 22
0.0
 32
0.0
 13
1.0
 23
0.0
 33
0.0
 40
0.0
 40
0.0
 40
0.0
 40
0.0
 40
1.0
 40
1.0
 40
1.0
 40
2.0
 40
2.0
 40
2.0
 40
3.0
 40
3.0
 40
3.0
 40
4.0
 40
4.0
 40
4.0
 40
4.0
 10
73.50833895797938
 20
-121.0468749697383
 30
0.0
 10
73.50833895797938
 20
-120.9915946919745
 30
0.0
 10
73.46357145912148
 20
-120.9467919142078
 30
0.0
 10
73.40807951609276
 20
-120.9467919142078
 30
0.0
 10
73.35297562860968
 20
-120.9467919142078
 30
0.0
 10
73.30817285197492
 20
-120.9915946919745
 30
0.0
 10
73.30817285197492
 20
-121.0468749697383
 30
0.0
 10
73.30817285197492
 20
-121.102014136391
 30
0.0
 10
73.35297562860968
 20
-121.1467816363799
 30
0.0
 10
73.40807951609276
 20
-121.1467816363799
 30
0.0
 10
73.46357145912148
 20
-121.1467816363799
 30
0.0
 10
73.50833895797938
 20
-121.102014136391
 30
0.0
 10
73.50833895797938
 20
-121.0468749697383
 30
0.0
  0
SPLINE
  5
97
330
1F
100
AcDbEntity
  8
_U+30EC_U+30A4_U+30E4_U+30FC 1
 62
   179
420
  2234388
370
     9
100
AcDbSpline
210
0.0
220
0.0
230
1.0
 70
    11
 71
     3
 72
    17
 73
    13
 74
     0
 42
0.0000000001
 43
0.0000000001
 12
1.0
 22
0.0
 32
0.0
 13
1.0
 23
0.0
 33
0.0
 40
0.0
 40
0.0
 40
0.0
 40
0.0
 40
1.0
 40
1.0
 40
1.0
 40
2.0
 40
2.0
 40
2.0
 40
3.0
 40
3.0
 40
3.0
 40
4.0
 40
4.0
 40
4.0
 40
4.0
 10
73.50833895797938
 20
-122.2468133027715
 30
0.0
 10
73.50833895797938
 20
-122.1916741361188
 30
0.0
 10
73.46357145912148
 20
-122.1469066361299
 30
0.0
 10
73.40807951609276
 20
-122.1469066361299
 30
0.0
 10
73.35297562860968
 20
-122.1469066361299
 30
0.0
 10
73.30817285197492
 20
-122.1916741361188
 30
0.0
 10
73.30817285197492
 20
-122.2468133027715
 30
0.0
 10
73.30817285197492
 20
-122.3020935805357
 30
0.0
 10
73.35297562860968
 20
-122.3468963583021
 30
0.0
 10
73.40807951609276
 20
-122.3468963583021
 30
0.0
 10
73.46357145912148
 20
-122.3468963583021
 30
0.0
 10
73.50833895797938
 20
-122.3020935805357
 30
0.0
 10
73.50833895797938
 20
-122.2468133027715
 30
0.0
  0
SPLINE
  5
98
330
1F
100
AcDbEntity
  8
_U+30EC_U+30A4_U+30E4_U+30FC 1
 62
   179
420
  2234388
370
     9
100
AcDbSpline
210
0.0
220
0.0
230
1.0
 70
    11
 71
     3
 72
    17
 73
    13
 74
     0
 42
0.0000000001
 43
0.0000000001
 12
1.0
 22
0.0
 32
0.0
 13
1.0
 23
0.0
 33
0.0
 40
0.0
 40
0.0
 40
0.0
 40
0.0
 40
1.0
 40
1.0
 40
1.0
 40
2.0
 40
2.0
 40
2.0
 40
3.0
 40
3.0
 40
3.0
 40
4.0
 40
4.0
 40
4.0
 40
4.0
 10
73.50833895797938
 20
-140.8468805203439
 30
0.0
 10
73.50833895797938
 20
-140.7914238536912
 30
0.0
 10
73.46357145912148
 20
-140.7466210759245
 30
0.0
 10
73.40807951609276
 20
-140.7466210759245
 30
0.0
 10
73.35297562860968
 20
-140.7466210759245
 30
0.0
 10
73.30817285197492
 20
-140.7914238536912
 30
0.0
 10
73.30817285197492
 20
-140.8468805203439
 30
0.0
 10
73.30817285197492
 20
-140.9019844092188
 30
0.0
 10
73.35297562860968
 20
-140.9467871869855
 30
0.0
 10
73.40807951609276
 20
-140.9467871869855
 30
0.0
 10
73.46357145912148
 20
-140.9467871869855
 30
0.0
 10
73.50833895797938
 20
-140.9019844092188
 30
0.0
 10
73.50833895797938
 20
-140.8468805203439
 30
0.0
  0
SPLINE
  5
99
330
1F
100
AcDbEntity
  8
_U+30EC_U+30A4_U+30E4_U+30FC 1
 62
   179
420
  2234388
370
     9
100
AcDbSpline
210
0.0
220
0.0
230
1.0
 70
    11
 71
     3
 72
    17
 73
    13
 74
     0
 42
0.0000000001
 43
0.0000000001
 12
1.0
 22
0.0
 32
0.0
 13
1.0
 23
0.0
 33
0.0
 40
0.0
 40
0.0
 40
0.0
 40
0.0
 40
1.0
 40
1.0
 40
1.0
 40
2.0
 40
2.0
 40
2.0
 40
3.0
 40
3.0
 40
3.0
 40
4.0
 40
4.0
 40
4.0
 40
4.0
 10
73.50833895797938
 20
-136.8467685768993
 30
0.0
 10
73.50833895797938
 20
-136.7916646880244
 30
0.0
 10
73.46357145912148
 20
-136.7468619102576
 30
0.0
 10
73.40807951609276
 20
-136.7468619102576
 30
0.0
 10
73.35297562860968
 20
-136.7468619102576
 30
0.0
 10
73.30817285197492
 20
-136.7916646880244
 30
0.0
 10
73.30817285197492
 20
-136.8467685768993
 30
0.0
 10
73.30817285197492
 20
-136.9019077435524
 30
0.0
 10
73.35297562860968
 20
-136.9466752435409
 30
0.0
 10
73.40807951609276
 20
-136.9466752435409
 30
0.0
 10
73.46357145912148
 20
-136.9466752435409
 30
0.0
 10
73.50833895797938
 20
-136.9019077435524
 30
0.0
 10
73.50833895797938
 20
-136.8467685768993
 30
0.0
  0
SPLINE
  5
9A
330
1F
100
AcDbEntity
  8
_U+30EC_U+30A4_U+30E4_U+30FC 1
 62
   179
420
  2234388
370
     9
100
AcDbSpline
210
0.0
220
0.0
230
1.0
 70
    11
 71
     3
 72
    17
 73
    13
 74
     0
 42
0.0000000001
 43
0.0000000001
 12
1.0
 22
0.0
 32
0.0
 13
1.0
 23
0.0
 33
0.0
 40
0.0
 40
0.0
 40
0.0
 40
0.0
 40
1.0
 40
1.0
 40
1.0
 40
2.0
 40
2.0
 40
2.0
 40
3.0
 40
3.0
 40
3.0
 40
4.0
 40
4.0
 40
4.0
 40
4.0
 10
69.50826239336315
 20
-140.8468805203439
 30
0.0
 10
69.50826239336315
 20
-140.7914238536912
 30
0.0
 10
69.4634596167284
 20
-140.7466210759245
 30
0.0
 10
69.40832220487
 20
-140.7466210759245
 30
0.0
 10
69.35321656398537
 20
-140.7466210759245
 30
0.0
 10
69.3084137873506
 20
-140.7914238536912
 30
0.0
 10
69.3084137873506
 20
-140.8468805203439
 30
0.0
 10
69.3084137873506
 20
-140.9019844092188
 30
0.0
 10
69.35321656398537
 20
-140.9467871869855
 30
0.0
 10
69.40832220487
 20
-140.9467871869855
 30
0.0
 10
69.4634596167284
 20
-140.9467871869855
 30
0.0
 10
69.50826239336315
 20
-140.9019844092188
 30
0.0
 10
69.50826239336315
 20
-140.8468805203439
 30
0.0
  0
SPLINE
  5
9B
330
1F
100
AcDbEntity
  8
_U+30EC_U+30A4_U+30E4_U+30FC 1
 62
   179
420
  2234388
370
     9
100
AcDbSpline
210
0.0
220
0.0
230
1.0
 70
    11
 71
     3
 72
    17
 73
    13
 74
     0
 42
0.0000000001
 43
0.0000000001
 12
1.0
 22
0.0
 32
0.0
 13
1.0
 23
0.0
 33
0.0
 40
0.0
 40
0.0
 40
0.0
 40
0.0
 40
1.0
 40
1.0
 40
1.0
 40
2.0
 40
2.0
 40
2.0
 40
3.0
 40
3.0
 40
3.0
 40
4.0
 40
4.0
 40
4.0
 40
4.0
 10
107.508322195345
 20
-144.8469571860104
 30
0.0
 10
107.508322195345
 20
-144.7915005193577
 30
0.0
 10
107.4635519805986
 20
-144.7467330193692
 30
0.0
 10
107.4084128153387
 20
-144.7467330193692
 30
0.0
 10
107.3529561500868
 20
-144.7467330193692
 30
0.0
 10
107.3081886512289
 20
-144.7915005193577
 30
0.0
 10
107.3081886512289
 20
-144.8469571860104
 30
0.0
 10
107.3081886512289
 20
-144.9020963526635
 30
0.0
 10
107.3529561500868
 20
-144.946863852652
 30
0.0
 10
107.4084128153387
 20
-144.946863852652
 30
0.0
 10
107.4635519805986
 20
-144.946863852652
 30
0.0
 10
107.508322195345
 20
-144.9020963526635
 30
0.0
 10
107.508322195345
 20
-144.8469571860104
 30
0.0
  0
SPLINE
  5
9C
330
1F
100
AcDbEntity
  8
_U+30EC_U+30A4_U+30E4_U+30FC 1
 62
   179
420
  2234388
370
     9
100
AcDbSpline
210
0.0
220
0.0
230
1.0
 70
    11
 71
     3
 72
    17
 73
    13
 74
     0
 42
0.0000000001
 43
0.0000000001
 12
1.0
 22
0.0
 32
0.0
 13
1.0
 23
0.0
 33
0.0
 40
0.0
 40
0.0
 40
0.0
 40
0.0
 40
1.0
 40
1.0
 40
1.0
 40
2.0
 40
2.0
 40
2.0
 40
3.0
 40
3.0
 40
3.0
 40
4.0
 40
4.0
 40
4.0
 40
4.0
 10
87.50818360081358
 20
-144.8469571860104
 30
0.0
 10
87.50818360081358
 20
-144.7915005193577
 30
0.0
 10
87.46338082417881
 20
-144.7467330193692
 30
0.0
 10
87.40827693669574
 20
-144.7467330193692
 30
0.0
 10
87.3531377714358
 20
-144.7467330193692
 30
0.0
 10
87.3083702725779
 20
-144.7915005193577
 30
0.0
 10
87.3083702725779
 20
-144.8469571860104
 30
0.0
 10
87.3083702725779
 20
-144.9020963526635
 30
0.0
 10
87.3531377714358
 20
-144.946863852652
 30
0.0
 10
87.40827693669574
 20
-144.946863852652
 30
0.0
 10
87.46338082417881
 20
-144.946863852652
 30
0.0
 10
87.50818360081358
 20
-144.9020963526635
 30
0.0
 10
87.50818360081358
 20
-144.8469571860104
 30
0.0
  0
SPLINE
  5
9D
330
1F
100
AcDbEntity
  8
_U+30EC_U+30A4_U+30E4_U+30FC 1
 62
   179
420
  2234388
370
     9
100
AcDbSpline
210
0.0
220
0.0
230
1.0
 70
    11
 71
     3
 72
    17
 73
    13
 74
     0
 42
0.0000000001
 43
0.0000000001
 12
1.0
 22
0.0
 32
0.0
 13
1.0
 23
0.0
 33
0.0
 40
0.0
 40
0.0
 40
0.0
 40
0.0
 40
1.0
 40
1.0
 40
1.0
 40
2.0
 40
2.0
 40
2.0
 40
3.0
 40
3.0
 40
3.0
 40
4.0
 40
4.0
 40
4.0
 40
4.0
 10
117.5084050576664
 20
-117.046763026294
 30
0.0
 10
117.5084050576664
 20
-116.9916591374187
 30
0.0
 10
117.4636375588085
 20
-116.9468563596523
 30
0.0
 10
117.4084983935486
 20
-116.9468563596523
 30
0.0
 10
117.3530417282967
 20
-116.9468563596523
 30
0.0
 10
117.3082389516619
 20
-116.9916591374187
 30
0.0
 10
117.3082389516619
 20
-117.046763026294
 30
0.0
 10
117.3082389516619
 20
-117.1020785818356
 30
0.0
 10
117.3530417282967
 20
-117.1468460818245
 30
0.0
 10
117.4084983935486
 20
-117.1468460818245
 30
0.0
 10
117.4636375588085
 20
-117.1468460818245
 30
0.0
 10
117.5084050576664
 20
-117.1020785818356
 30
0.0
 10
117.5084050576664
 20
-117.046763026294
 30
0.0
  0
SPLINE
  5
9E
330
1F
100
AcDbEntity
  8
_U+30EC_U+30A4_U+30E4_U+30FC 1
 62
   179
420
  2234388
370
     9
100
AcDbSpline
210
0.0
220
0.0
230
1.0
 70
    11
 71
     3
 72
    17
 73
    13
 74
     0
 42
0.0000000001
 43
0.0000000001
 12
1.0
 22
0.0
 32
0.0
 13
1.0
 23
0.0
 33
0.0
 40
0.0
 40
0.0
 40
0.0
 40
0.0
 40
1.0
 40
1.0
 40
1.0
 40
2.0
 40
2.0
 40
2.0
 40
3.0
 40
3.0
 40
3.0
 40
4.0
 40
4.0
 40
4.0
 40
4.0
 10
77.50845275840061
 20
-117.046763026294
 30
0.0
 10
77.50845275840061
 20
-116.9916591374187
 30
0.0
 10
77.46364998063422
 20
-116.9468563596523
 30
0.0
 10
77.40854413625462
 20
-116.9468563596523
 30
0.0
 10
77.35308747100278
 20
-116.9468563596523
 30
0.0
 10
77.30828469436801
 20
-116.9916591374187
 30
0.0
 10
77.30828469436801
 20
-117.046763026294
 30
0.0
 10
77.30828469436801
 20
-117.1020785818356
 30
0.0
 10
77.35308747100278
 20
-117.1468460818245
 30
0.0
 10
77.40854413625462
 20
-117.1468460818245
 30
0.0
 10
77.46364998063422
 20
-117.1468460818245
 30
0.0
 10
77.50845275840061
 20
-117.1020785818356
 30
0.0
 10
77.50845275840061
 20
-117.046763026294
 30
0.0
  0
POLYLINE
  5
9F
330
1F
100
AcDbEntity
  8
_U+30EC_U+30A4_U+30E4_U+30FC 1
 62
   179
420
  2234388
370
     9
100
AcDb2dPolyline
 66
     1
 10
0.0
 20
0.0
 30
0.0
  0
VERTEX
  5
A0
330
9F
100
AcDbEntity
  8
_U+30EC_U+30A4_U+30E4_U+30FC 1
 62
   179
420
  2234388
370
     9
100
AcDbVertex
100
AcDb2dVertex
 10
87.40827693669574
 20
-144.8469571860104
 30
0.0
  0
VERTEX
  5
A1
330
9F
100
AcDbEntity
  8
_U+30EC_U+30A4_U+30E4_U+30FC 1
 62
   179
420
  2234388
370
     9
100
AcDbVertex
100
AcDb2dVertex
 10
107.4084128153387
 20
-144.8469571860104
 30
0.0
  0
SEQEND
  5
A2
330
9F
100
AcDbEntity
  8
_U+30EC_U+30A4_U+30E4_U+30FC 1
 62
   179
420
  2234388
370
     9
  0
POLYLINE
  5
A3
330
1F
100
AcDbEntity
  8
_U+30EC_U+30A4_U+30E4_U+30FC 1
 62
   179
420
  2234388
370
     9
100
AcDb2dPolyline
 66
     1
 10
0.0
 20
0.0
 30
0.0
  0
VERTEX
  5
A4
330
A3
100
AcDbEntity
  8
_U+30EC_U+30A4_U+30E4_U+30FC 1
 62
   179
420
  2234388
370
     9
100
AcDbVertex
100
AcDb2dVertex
 10
87.40827693669574
 20
-143.3869510752642
 30
0.0
  0
VERTEX
  5
A5
330
A3
100
AcDbEntity
  8
_U+30EC_U+30A4_U+30E4_U+30FC 1
 62
   179
420
  2234388
370
     9
100
AcDbVertex
100
AcDb2dVertex
 10
87.40827693669574
 20
-145.8467294079829
 30
0.0
  0
SEQEND
  5
A6
330
A3
100
AcDbEntity
  8
_U+30EC_U+30A4_U+30E4_U+30FC 1
 62
   179
420
  2234388
370
     9
  0
POLYLINE
  5
A7
330
1F
100
AcDbEntity
  8
_U+30EC_U+30A4_U+30E4_U+30FC 1
 62
   179
420
  2234388
370
     9
100
AcDb2dPolyline
 66
     1
 10
0.0
 20
0.0
 30
0.0
  0
VERTEX
  5
A8
330
A7
100
AcDbEntity
  8
_U+30EC_U+30A4_U+30E4_U+30FC 1
 62
   179
420
  2234388
370
     9
100
AcDbVertex
100
AcDb2dVertex
 10
107.4084128153387
 20
-143.3869510752642
 30
0.0
  0
VERTEX
  5
A9
330
A7
100
AcDbEntity
  8
_U+30EC_U+30A4_U+30E4_U+30FC 1
 62
   179
420
  2234388
370
     9
100
AcDbVertex
100
AcDb2dVertex
 10
107.4084128153387
 20
-145.8467294079829
 30
0.0
  0
SEQEND
  5
AA
330
A7
100
AcDbEntity
  8
_U+30EC_U+30A4_U+30E4_U+30FC 1
 62
   179
420
  2234388
370
     9
  0
INSERT
  5
AC
330
1F
100
AcDbEntity
  8
_U+30EC_U+30A4_U+30E4_U+30FC 1
100
AcDbBlockReference
  2
block 2
 10
0.0
 20
0.0
 30
0.0
  0
POLYLINE
  5
B4
330
1F
100
AcDbEntity
  8
_U+30EC_U+30A4_U+30E4_U+30FC 1
 62
   179
420
  2234388
370
     9
100
AcDb2dPolyline
 66
     1
 10
0.0
 20
0.0
 30
0.0
  0
VERTEX
  5
B5
330
B4
100
AcDbEntity
  8
_U+30EC_U+30A4_U+30E4_U+30FC 1
 62
   179
420
  2234388
370
     9
100
AcDbVertex
100
AcDb2dVertex
 10
77.40854413625462
 20
-117.046763026294
 30
0.0
  0
VERTEX
  5
B6
330
B4
100
AcDbEntity
  8
_U+30EC_U+30A4_U+30E4_U+30FC 1
 62
   179
420
  2234388
370
     9
100
AcDbVertex
100
AcDb2dVertex
 10
117.4084983935486
 20
-117.046763026294
 30
0.0
  0
SEQEND
  5
B7
330
B4
100
AcDbEntity
  8
_U+30EC_U+30A4_U+30E4_U+30FC 1
 62
   179
420
  2234388
370
     9
  0
POLYLINE
  5
B8
330
1F
100
AcDbEntity
  8
_U+30EC_U+30A4_U+30E4_U+30FC 1
 62
   179
420
  2234388
370
     9
100
AcDb2dPolyline
 66
     1
 10
0.0
 20
0.0
 30
0.0
  0
VERTEX
  5
B9
330
B8
100
AcDbEntity
  8
_U+30EC_U+30A4_U+30E4_U+30FC 1
 62
   179
420
  2234388
370
     9
100
AcDbVertex
100
AcDb2dVertex
 10
77.40854413625462
 20
-118.5068044148177
 30
0.0
  0
VERTEX
  5
BA
330
B8
100
AcDbEntity
  8
_U+30EC_U+30A4_U+30E4_U+30FC 1
 62
   179
420
  2234388
370
     9
100
AcDbVertex
100
AcDb2dVertex
 10
77.40854413625462
 20
-116.0468496932104
 30
0.0
  0
SEQEND
  5
BB
330
B8
100
AcDbEntity
  8
_U+30EC_U+30A4_U+30E4_U+30FC 1
 62
   179
420
  2234388
370
     9
  0
POLYLINE
  5
BC
330
1F
100
AcDbEntity
  8
_U+30EC_U+30A4_U+30E4_U+30FC 1
 62
   179
420
  2234388
370
     9
100
AcDb2dPolyline
 66
     1
 10
0.0
 20
0.0
 30
0.0
  0
VERTEX
  5
BD
330
BC
100
AcDbEntity
  8
_U+30EC_U+30A4_U+30E4_U+30FC 1
 62
   179
420
  2234388
370
     9
100
AcDbVertex
100
AcDb2dVertex
 10
117.4084983935486
 20
-118.5068044148177
 30
0.0
  0
VERTEX
  5
BE
330
BC
100
AcDbEntity
  8
_U+30EC_U+30A4_U+30E4_U+30FC 1
 62
   179
420
  2234388
370
     9
100
AcDbVertex
100
AcDb2dVertex
 10
117.4084983935486
 20
-116.0468496932104
 30
0.0
  0
SEQEND
  5
BF
330
BC
100
AcDbEntity
  8
_U+30EC_U+30A4_U+30E4_U+30FC 1
 62
   179
420
  2234388
370
     9
  0
INSERT
  5
C1
330
1F
100
AcDbEntity
  8
_U+30EC_U+30A4_U+30E4_U+30FC 1
100
AcDbBlockReference
  2
block 3
 10
0.0
 20
0.0
 30
0.0
  0
POLYLINE
  5
DC
330
1F
100
AcDbEntity
  8
_U+30EC_U+30A4_U+30E4_U+30FC 1
 62
   179
420
  2234388
370
     9
100
AcDb2dPolyline
 66
     1
 10
0.0
 20
0.0
 30
0.0
  0
VERTEX
  5
DD
330
DC
100
AcDbEntity
  8
_U+30EC_U+30A4_U+30E4_U+30FC 1
 62
   179
420
  2234388
370
     9
100
AcDbVertex
100
AcDb2dVertex
 10
73.40807951609276
 20
-121.0468749697383
 30
0.0
  0
VERTEX
  5
DE
330
DC
100
AcDbEntity
  8
_U+30EC_U+30A4_U+30E4_U+30FC 1
 62
   179
420
  2234388
370
     9
100
AcDbVertex
100
AcDb2dVertex
 10
73.40807951609276
 20
-115.7889691377194
 30
0.0
  0
SEQEND
  5
DF
330
DC
100
AcDbEntity
  8
_U+30EC_U+30A4_U+30E4_U+30FC 1
 62
   179
420
  2234388
370
     9
  0
POLYLINE
  5
E0
330
1F
100
AcDbEntity
  8
_U+30EC_U+30A4_U+30E4_U+30FC 1
 62
   179
420
  2234388
370
     9
100
AcDb2dPolyline
 66
     1
 10
0.0
 20
0.0
 30
0.0
  0
VERTEX
  5
E1
330
E0
100
AcDbEntity
  8
_U+30EC_U+30A4_U+30E4_U+30FC 1
 62
   179
420
  2234388
370
     9
100
AcDbVertex
100
AcDb2dVertex
 10
73.40807951609276
 20
-122.2468133027715
 30
0.0
  0
VERTEX
  5
E2
330
E0
100
AcDbEntity
  8
_U+30EC_U+30A4_U+30E4_U+30FC 1
 62
   179
420
  2234388
370
     9
100
AcDbVertex
100
AcDb2dVertex
 10
73.40807951609276
 20
-121.0468749697383
 30
0.0
  0
SEQEND
  5
E3
330
E0
100
AcDbEntity
  8
_U+30EC_U+30A4_U+30E4_U+30FC 1
 62
   179
420
  2234388
370
     9
  0
POLYLINE
  5
E4
330
1F
100
AcDbEntity
  8
_U+30EC_U+30A4_U+30E4_U+30FC 1
 62
   179
420
  2234388
370
     9
100
AcDb2dPolyline
 66
     1
 10
0.0
 20
0.0
 30
0.0
  0
VERTEX
  5
E5
330
E4
100
AcDbEntity
  8
_U+30EC_U+30A4_U+30E4_U+30FC 1
 62
   179
420
  2234388
370
     9
100
AcDbVertex
100
AcDb2dVertex
 10
74.86812086773288
 20
-122.2468133027715
 30
0.0
  0
VERTEX
  5
E6
330
E4
100
AcDbEntity
  8
_U+30EC_U+30A4_U+30E4_U+30FC 1
 62
   179
420
  2234388
370
     9
100
AcDbVertex
100
AcDb2dVertex
 10
72.40834442634251
 20
-122.2468133027715
 30
0.0
  0
SEQEND
  5
E7
330
E4
100
AcDbEntity
  8
_U+30EC_U+30A4_U+30E4_U+30FC 1
 62
   179
420
  2234388
370
     9
  0
POLYLINE
  5
E8
330
1F
100
AcDbEntity
  8
_U+30EC_U+30A4_U+30E4_U+30FC 1
 62
   179
420
  2234388
370
     9
100
AcDb2dPolyline
 66
     1
 10
0.0
 20
0.0
 30
0.0
  0
VERTEX
  5
E9
330
E8
100
AcDbEntity
  8
_U+30EC_U+30A4_U+30E4_U+30FC 1
 62
   179
420
  2234388
370
     9
100
AcDbVertex
100
AcDb2dVertex
 10
74.86812086773288
 20
-121.0468749697383
 30
0.0
  0
VERTEX
  5
EA
330
E8
100
AcDbEntity
  8
_U+30EC_U+30A4_U+30E4_U+30FC 1
 62
   179
420
  2234388
370
     9
100
AcDbVertex
100
AcDb2dVertex
 10
72.40834442634251
 20
-121.0468749697383
 30
0.0
  0
SEQEND
  5
EB
330
E8
100
AcDbEntity
  8
_U+30EC_U+30A4_U+30E4_U+30FC 1
 62
   179
420
  2234388
370
     9
  0
INSERT
  5
ED
330
1F
100
AcDbEntity
  8
_U+30EC_U+30A4_U+30E4_U+30FC 1
100
AcDbBlockReference
  2
block 4
 10
0.0
 20
0.0
 30
0.0
  0
POLYLINE
  5
FC
330
1F
100
AcDbEntity
  8
_U+30EC_U+30A4_U+30E4_U+30FC 1
 62
   179
420
  2234388
370
     9
100
AcDb2dPolyline
 66
     1
 10
0.0
 20
0.0
 30
0.0
  0
VERTEX
  5
FD
330
FC
100
AcDbEntity
  8
_U+30EC_U+30A4_U+30E4_U+30FC 1
 62
   179
420
  2234388
370
     9
100
AcDbVertex
100
AcDb2dVertex
 10
73.40807951609276
 20
-122.2468133027715
 30
0.0
  0
VERTEX
  5
FE
330
FC
100
AcDbEntity
  8
_U+30EC_U+30A4_U+30E4_U+30FC 1
 62
   179
420
  2234388
370
     9
100
AcDbVertex
100
AcDb2dVertex
 10
73.40807951609276
 20
-136.8467685768993
 30
0.0
  0
SEQEND
  5
FF
330
FC
100
AcDbEntity
  8
_U+30EC_U+30A4_U+30E4_U+30FC 1
 62
   179
420
  2234388
370
     9
  0
POLYLINE
  5
100
330
1F
100
AcDbEntity
  8
_U+30EC_U+30A4_U+30E4_U+30FC 1
 62
   179
420
  2234388
370
     9
100
AcDb2dPolyline
 66
     1
 10
0.0
 20
0.0
 30
0.0
  0
VERTEX
  5
101
330
100
100
AcDbEntity
  8
_U+30EC_U+30A4_U+30E4_U+30FC 1
 62
   179
420
  2234388
370
     9
100
AcDbVertex
100
AcDb2dVertex
 10
84.86855922371156
 20
-136.8467685768993
 30
0.0
  0
VERTEX
  5
102
330
100
100
AcDbEntity
  8
_U+30EC_U+30A4_U+30E4_U+30FC 1
 62
   179
420
  2234388
370
     9
100
AcDbVertex
100
AcDb2dVertex
 10
72.40834442634251
 20
-136.8467685768993
 30
0.0
  0
SEQEND
  5
103
330
100
100
AcDbEntity
  8
_U+30EC_U+30A4_U+30E4_U+30FC 1
 62
   179
420
  2234388
370
     9
  0
INSERT
  5
105
330
1F
100
AcDbEntity
  8
_U+30EC_U+30A4_U+30E4_U+30FC 1
100
AcDbBlockReference
  2
block 5
 10
0.0
 20
0.0
 30
0.0
  0
POLYLINE
  5
12A
330
1F
100
AcDbEntity
  8
_U+30EC_U+30A4_U+30E4_U+30FC 1
 62
   179
420
  2234388
370
     9
100
AcDb2dPolyline
 66
     1
 10
0.0
 20
0.0
 30
0.0
  0
VERTEX
  5
12B
330
12A
100
AcDbEntity
  8
_U+30EC_U+30A4_U+30E4_U+30FC 1
 62
   179
420
  2234388
370
     9
100
AcDbVertex
100
AcDb2dVertex
 10
73.40807951609276
 20
-136.8467685768993
 30
0.0
  0
VERTEX
  5
12C
330
12A
100
AcDbEntity
  8
_U+30EC_U+30A4_U+30E4_U+30FC 1
 62
   179
420
  2234388
370
     9
100
AcDbVertex
100
AcDb2dVertex
 10
73.40807951609276
 20
-140.8468805203439
 30
0.0
  0
SEQEND
  5
12D
330
12A
100
AcDbEntity
  8
_U+30EC_U+30A4_U+30E4_U+30FC 1
 62
   179
420
  2234388
370
     9
  0
POLYLINE
  5
12E
330
1F
100
AcDbEntity
  8
_U+30EC_U+30A4_U+30E4_U+30FC 1
 62
   179
420
  2234388
370
     9
100
AcDb2dPolyline
 66
     1
 10
0.0
 20
0.0
 30
0.0
  0
VERTEX
  5
12F
330
12E
100
AcDbEntity
  8
_U+30EC_U+30A4_U+30E4_U+30FC 1
 62
   179
420
  2234388
370
     9
100
AcDbVertex
100
AcDb2dVertex
 10
84.86855922371156
 20
-140.8468805203439
 30
0.0
  0
VERTEX
  5
130
330
12E
100
AcDbEntity
  8
_U+30EC_U+30A4_U+30E4_U+30FC 1
 62
   179
420
  2234388
370
     9
100
AcDbVertex
100
AcDb2dVertex
 10
72.40834442634251
 20
-140.8468805203439
 30
0.0
  0
SEQEND
  5
131
330
12E
100
AcDbEntity
  8
_U+30EC_U+30A4_U+30E4_U+30FC 1
 62
   179
420
  2234388
370
     9
  0
INSERT
  5
133
330
1F
100
AcDbEntity
  8
_U+30EC_U+30A4_U+30E4_U+30FC 1
100
AcDbBlockReference
  2
block 6
 10
0.0
 20
0.0
 30
0.0
  0
POLYLINE
  5
14B
330
1F
100
AcDbEntity
  8
_U+30EC_U+30A4_U+30E4_U+30FC 1
 62
   179
420
  2234388
370
     9
100
AcDb2dPolyline
 66
     1
 10
0.0
 20
0.0
 30
0.0
  0
VERTEX
  5
14C
330
14B
100
AcDbEntity
  8
_U+30EC_U+30A4_U+30E4_U+30FC 1
 62
   179
420
  2234388
370
     9
100
AcDbVertex
100
AcDb2dVertex
 10
69.40832220487
 20
-121.0468749697383
 30
0.0
  0
VERTEX
  5
14D
330
14B
100
AcDbEntity
  8
_U+30EC_U+30A4_U+30E4_U+30FC 1
 62
   179
420
  2234388
370
     9
100
AcDbVertex
100
AcDb2dVertex
 10
69.40832220487
 20
-140.8468805203439
 30
0.0
  0
SEQEND
  5
14E
330
14B
100
AcDbEntity
  8
_U+30EC_U+30A4_U+30E4_U+30FC 1
 62
   179
420
  2234388
370
     9
  0
POLYLINE
  5
14F
330
1F
100
AcDbEntity
  8
_U+30EC_U+30A4_U+30E4_U+30FC 1
 62
   179
420
  2234388
370
     9
100
AcDb2dPolyline
 66
     1
 10
0.0
 20
0.0
 30
0.0
  0
VERTEX
  5
150
330
14F
100
AcDbEntity
  8
_U+30EC_U+30A4_U+30E4_U+30FC 1
 62
   179
420
  2234388
370
     9
100
AcDbVertex
100
AcDb2dVertex
 10
74.86812086773288
 20
-121.0468749697383
 30
0.0
  0
VERTEX
  5
151
330
14F
100
AcDbEntity
  8
_U+30EC_U+30A4_U+30E4_U+30FC 1
 62
   179
420
  2234388
370
     9
100
AcDbVertex
100
AcDb2dVertex
 10
68.40858353252942
 20
-121.0468749697383
 30
0.0
  0
SEQEND
  5
152
330
14F
100
AcDbEntity
  8
_U+30EC_U+30A4_U+30E4_U+30FC 1
 62
   179
420
  2234388
370
     9
  0
POLYLINE
  5
153
330
1F
100
AcDbEntity
  8
_U+30EC_U+30A4_U+30E4_U+30FC 1
 62
   179
420
  2234388
370
     9
100
AcDb2dPolyline
 66
     1
 10
0.0
 20
0.0
 30
0.0
  0
VERTEX
  5
154
330
153
100
AcDbEntity
  8
_U+30EC_U+30A4_U+30E4_U+30FC 1
 62
   179
420
  2234388
370
     9
100
AcDbVertex
100
AcDb2dVertex
 10
84.86855922371156
 20
-140.8468805203439
 30
0.0
  0
VERTEX
  5
155
330
153
100
AcDbEntity
  8
_U+30EC_U+30A4_U+30E4_U+30FC 1
 62
   179
420
  2234388
370
     9
100
AcDbVertex
100
AcDb2dVertex
 10
68.40858353252942
 20
-140.8468805203439
 30
0.0
  0
SEQEND
  5
156
330
153
100
AcDbEntity
  8
_U+30EC_U+30A4_U+30E4_U+30FC 1
 62
   179
420
  2234388
370
     9
  0
INSERT
  5
158
330
1F
100
AcDbEntity
  8
_U+30EC_U+30A4_U+30E4_U+30FC 1
100
AcDbBlockReference
  2
block 7
 10
0.0
 20
0.0
 30
0.0
  0
ENDSEC
  0
SECTION
  2
OBJECTS
  0
DICTIONARY
  5
C
330
0
100
AcDbDictionary
281
     1
  3
ACAD_GROUP
350
D
  3
ACAD_LAYOUT
350
1A
  3
ACAD_MATERIAL
350
3B
  3
ACAD_MLEADERSTYLE
350
16D
  3
ACAD_MLINESTYLE
350
17
  3
ACAD_PLOTSETTINGS
350
19
  3
ACAD_PLOTSTYLENAME
350
E
  3
ACAD_TABLESTYLE
350
16C
  3
ACAD_VISUALSTYLE
350
2A
  0
SUN
  5
3F
330
29
100
AcDbSun
 90
        1
290
     0
 63
     7
421
 16777215
 40
1.0
291
     1
 91
  2455826
 92
 54000000
292
     0
 70
     2
 71
   256
280
     1
  0
DICTIONARY
  5
D
102
{ACAD_REACTORS
330
C
102
}
330
C
100
AcDbDictionary
281
     1
  0
DICTIONARY
  5
1A
102
{ACAD_REACTORS
330
C
102
}
330
C
100
AcDbDictionary
281
     1
  3
Layout1
350
1E
  3
Layout2
350
26
  3
Model
350
22
  0
DICTIONARY
  5
3B
102
{ACAD_REACTORS
330
C
102
}
330
C
100
AcDbDictionary
281
     1
  3
ByBlock
350
3D
  3
ByLayer
350
3C
  3
Global
350
3E
  0
DICTIONARY
  5
16D
102
{ACAD_REACTORS
330
C
102
}
330
C
100
AcDbDictionary
281
     1
  0
DICTIONARY
  5
17
102
{ACAD_REACTORS
330
C
102
}
330
C
100
AcDbDictionary
281
     1
  3
Standard
350
18
  0
DICTIONARY
  5
19
102
{ACAD_REACTORS
330
C
102
}
330
C
100
AcDbDictionary
281
     1
  0
ACDBDICTIONARYWDFLT
  5
E
102
{ACAD_REACTORS
330
C
102
}
330
C
100
AcDbDictionary
281
     1
  3
Normal
350
F
100
AcDbDictionaryWithDefault
340
F
  0
DICTIONARY
  5
16C
102
{ACAD_REACTORS
330
C
102
}
330
C
100
AcDbDictionary
281
     1
  0
DICTIONARY
  5
2A
102
{ACAD_REACTORS
330
C
102
}
330
C
100
AcDbDictionary
281
     1
  3
2dWireframe
350
2F
  3
3D Hidden
350
31
  3
3dWireframe
350
30
  3
Basic
350
32
  3
Brighten
350
36
  3
ColorChange
350
3A
  3
Conceptual
350
34
  3
Dim
350
35
  3
Facepattern
350
39
  3
Flat
350
2B
  3
FlatWithEdges
350
2C
  3
Gouraud
350
2D
  3
GouraudWithEdges
350
2E
  3
Linepattern
350
38
  3
Realistic
350
33
  3
Thicken
350
37
  0
LAYOUT
  5
1E
102
{ACAD_REACTORS
330
1A
102
}
330
1A
100
AcDbPlotSettings
  1

  2
none_device
  4

  6

 40
0.0
 41
0.0
 42
0.0
 43
0.0
 44
0.0
 45
0.0
 46
0.0
 47
0.0
 48
0.0
 49
0.0
140
0.0
141
0.0
142
1.0
143
1.0
 70
   688
 72
     0
 73
     0
 74
     5
  7

 75
    16
 76
     0
 77
     2
 78
   300
147
1.0
148
0.0
149
0.0
100
AcDbLayout
  1
Layout1
 70
     1
 71
     1
 10
0.0
 20
0.0
 11
12.0
 21
9.0
 12
0.0
 22
0.0
 32
0.0
 14
1.000000000000000E+20
 24
1.000000000000000E+20
 34
1.000000000000000E+20
 15
-1.000000000000000E+20
 25
-1.000000000000000E+20
 35
-1.000000000000000E+20
146
0.0
 13
0.0
 23
0.0
 33
0.0
 16
1.0
 26
0.0
 36
0.0
 17
0.0
 27
1.0
 37
0.0
 76
     0
330
1B
  0
LAYOUT
  5
26
102
{ACAD_REACTORS
330
1A
102
}
330
1A
100
AcDbPlotSettings
  1

  2
none_device
  4

  6

 40
0.0
 41
0.0
 42
0.0
 43
0.0
 44
0.0
 45
0.0
 46
0.0
 47
0.0
 48
0.0
 49
0.0
140
0.0
141
0.0
142
1.0
143
1.0
 70
   688
 72
     0
 73
     0
 74
     5
  7

 75
    16
 76
     0
 77
     2
 78
   300
147
1.0
148
0.0
149
0.0
100
AcDbLayout
  1
Layout2
 70
     1
 71
     2
 10
0.0
 20
0.0
 11
0.0
 21
0.0
 12
0.0
 22
0.0
 32
0.0
 14
0.0
 24
0.0
 34
0.0
 15
0.0
 25
0.0
 35
0.0
146
0.0
 13
0.0
 23
0.0
 33
0.0
 16
1.0
 26
0.0
 36
0.0
 17
0.0
 27
1.0
 37
0.0
 76
     0
330
23
  0
LAYOUT
  5
22
102
{ACAD_REACTORS
330
1A
102
}
330
1A
100
AcDbPlotSettings
  1

  2
none_device
  4

  6

 40
0.0
 41
0.0
 42
0.0
 43
0.0
 44
0.0
 45
0.0
 46
0.0
 47
0.0
 48
0.0
 49
0.0
140
0.0
141
0.0
142
1.0
143
1.0
 70
  1712
 72
     0
 73
     0
 74
     0
  7

 75
     0
 76
     0
 77
     2
 78
   300
147
1.0
148
0.0
149
0.0
100
AcDbLayout
  1
Model
 70
     1
 71
     0
 10
0.0
 20
0.0
 11
12.0
 21
9.0
 12
0.0
 22
0.0
 32
0.0
 14
1.000000000000000E+20
 24
1.000000000000000E+20
 34
1.000000000000000E+20
 15
-1.000000000000000E+20
 25
-1.000000000000000E+20
 35
-1.000000000000000E+20
146
0.0
 13
0.0
 23
0.0
 33
0.0
 16
1.0
 26
0.0
 36
0.0
 17
0.0
 27
1.0
 37
0.0
 76
     0
330
1F
331
29
  0
MATERIAL
  5
3D
102
{ACAD_REACTORS
330
3B
102
}
330
3B
100
AcDbMaterial
  1
ByBlock
 72
     1
 94
      127
  0
MATERIAL
  5
3C
102
{ACAD_REACTORS
330
3B
102
}
330
3B
100
AcDbMaterial
  1
ByLayer
 72
     1
 94
      127
  0
MATERIAL
  5
3E
102
{ACAD_REACTORS
330
3B
102
}
330
3B
100
AcDbMaterial
  1
Global
 72
     1
 94
      127
  0
MLINESTYLE
  5
18
102
{ACAD_REACTORS
330
17
102
}
330
17
100
AcDbMlineStyle
  2
Standard
 70
     0
  3

 62
   256
 51
90.0
 52
90.0
 71
     2
 49
0.5
 62
   256
  6
BYLAYER
 49
-0.5
 62
   256
  6
BYLAYER
  0
ACDBPLACEHOLDER
  5
F
102
{ACAD_REACTORS
330
E
102
}
330
E
  0
VISUALSTYLE
  5
2F
102
{ACAD_REACTORS
330
2A
102
}
330
2A
100
AcDbVisualStyle
  2
2dWireframe
 70
     4
177
     2
291
     0
 71
     0
176
     1
 72
     2
176
     1
 73
     0
176
     1
 90
        0
176
     1
 40
-0.6
176
     1
 41
-30.0
176
     1
 62
     5
 63
     7
421
 16777215
176
     1
 74
     1
176
     1
 91
        4
176
     1
 64
     7
176
     1
 65
   257
176
     1
 75
     1
176
     1
175
     1
176
     1
 42
1.0
176
     1
 92
        0
176
     1
 66
   257
176
     1
 43
1.0
176
     1
 76
     1
176
     1
 77
     6
176
     1
 78
     2
176
     1
 67
     7
176
     1
 79
     5
176
     1
170
     0
176
     1
171
     0
176
     1
290
     0
176
     1
 93
        1
176
     1
 44
0.0
176
     1
173
     0
176
     1
  0
VISUALSTYLE
  5
31
102
{ACAD_REACTORS
330
2A
102
}
330
2A
100
AcDbVisualStyle
  2
3D Hidden
 70
     6
177
     2
291
     0
 71
     1
176
     1
 72
     2
176
     1
 73
     2
176
     1
 90
        0
176
     1
 40
-0.6
176
     1
 41
-30.0
176
     1
 62
     5
 63
     7
421
 16777215
176
     1
 74
     2
176
     1
 91
        2
176
     1
 64
     7
176
     1
 65
   257
176
     1
 75
     2
176
     1
175
     1
176
     1
 42
40.0
176
     1
 92
        0
176
     1
 66
   257
176
     1
 43
1.0
176
     1
 76
     1
176
     1
 77
     6
176
     1
 78
     2
176
     1
 67
     7
176
     1
 79
     3
176
     1
170
     0
176
     1
171
     0
176
     1
290
     0
176
     1
 93
        1
176
     1
 44
0.0
176
     1
173
     0
176
     1
  0
VISUALSTYLE
  5
30
102
{ACAD_REACTORS
330
2A
102
}
330
2A
100
AcDbVisualStyle
  2
3dWireframe
 70
     5
177
     2
291
     0
 71
     0
176
     1
 72
     2
176
     1
 73
     0
176
     1
 90
        0
176
     1
 40
-0.6
176
     1
 41
-30.0
176
     1
 62
     5
 63
     7
421
 16777215
176
     1
 74
     1
176
     1
 91
        4
176
     1
 64
     7
176
     1
 65
   257
176
     1
 75
     1
176
     1
175
     1
176
     1
 42
1.0
176
     1
 92
        0
176
     1
 66
   257
176
     1
 43
1.0
176
     1
 76
     1
176
     1
 77
     6
176
     1
 78
     2
176
     1
 67
     7
176
     1
 79
     5
176
     1
170
     0
176
     1
171
     0
176
     1
290
     0
176
     1
 93
        1
176
     1
 44
0.0
176
     1
173
     0
176
     1
  0
VISUALSTYLE
  5
32
102
{ACAD_REACTORS
330
2A
102
}
330
2A
100
AcDbVisualStyle
  2
Basic
 70
     7
177
     2
291
     1
 71
     1
176
     1
 72
     0
176
     1
 73
     1
176
     1
 90
        0
176
     1
 40
-0.6
176
     1
 41
-30.0
176
     1
 62
     5
 63
     7
421
 16777215
176
     1
 74
     0
176
     1
 91
        4
176
     1
 64
     7
176
     1
 65
   257
176
     1
 75
     1
176
     1
175
     1
176
     1
 42
1.0
176
     1
 92
        8
176
     1
 66
     7
176
     1
 43
1.0
176
     1
 76
     1
176
     1
 77
     6
176
     1
 78
     2
176
     1
 67
     7
176
     1
 79
     5
176
     1
170
     0
176
     1
171
     0
176
     1
290
     0
176
     1
 93
        1
176
     1
 44
0.0
176
     1
173
     0
176
     1
  0
VISUALSTYLE
  5
36
102
{ACAD_REACTORS
330
2A
102
}
330
2A
100
AcDbVisualStyle
  2
Brighten
 70
    12
177
     2
291
     1
 71
     2
176
     1
 72
     2
176
     1
 73
     0
176
     1
 90
        0
176
     1
 40
-0.6
176
     1
 41
-30.0
176
     1
 62
     5
 63
     7
421
 16777215
176
     1
 74
     1
176
     1
 91
        4
176
     1
 64
     7
176
     1
 65
   257
176
     1
 75
     1
176
     1
175
     1
176
     1
 42
1.0
176
     1
 92
        8
176
     1
 66
     7
176
     1
 43
1.0
176
     1
 76
     1
176
     1
 77
     6
176
     1
 78
     2
176
     1
 67
     7
176
     1
 79
     5
176
     1
170
     0
176
     1
171
     0
176
     1
290
     0
176
     1
 93
        1
176
     1
 44
50.0
176
     1
173
     0
176
     1
  0
VISUALSTYLE
  5
3A
102
{ACAD_REACTORS
330
2A
102
}
330
2A
100
AcDbVisualStyle
  2
ColorChange
 70
    16
177
     2
291
     1
 71
     2
176
     1
 72
     2
176
     1
 73
     3
176
     1
 90
        0
176
     1
 40
-0.6
176
     1
 41
-30.0
176
     1
 62
     5
 63
     8
421
  8421504
176
     1
 74
     1
176
     1
 91
        4
176
     1
 64
     7
176
     1
 65
   257
176
     1
 75
     1
176
     1
175
     1
176
     1
 42
1.0
176
     1
 92
        8
176
     1
 66
     8
424
  8421504
176
     1
 43
1.0
176
     1
 76
     1
176
     1
 77
     6
176
     1
 78
     2
176
     1
 67
     7
176
     1
 79
     5
176
     1
170
     0
176
     1
171
     0
176
     1
290
     0
176
     1
 93
        1
176
     1
 44
0.0
176
     1
173
     0
176
     1
  0
VISUALSTYLE
  5
34
102
{ACAD_REACTORS
330
2A
102
}
330
2A
100
AcDbVisualStyle
  2
Conceptual
 70
     9
177
     2
291
     0
 71
     3
176
     1
 72
     2
176
     1
 73
     0
176
     1
 90
        0
176
     1
 40
-0.6
176
     1
 41
-30.0
176
     1
 62
     5
 63
     7
421
 16777215
176
     1
 74
     2
176
     1
 91
        2
176
     1
 64
     7
176
     1
 65
   257
176
     1
 75
     1
176
     1
175
     1
176
     1
 42
40.0
176
     1
 92
        8
176
     1
 66
     7
176
     1
 43
1.0
176
     1
 76
     1
176
     1
 77
     6
176
     1
 78
     2
176
     1
 67
     7
176
     1
 79
     3
176
     1
170
     0
176
     1
171
     0
176
     1
290
     0
176
     1
 93
        1
176
     1
 44
0.0
176
     1
173
     0
176
     1
  0
VISUALSTYLE
  5
35
102
{ACAD_REACTORS
330
2A
102
}
330
2A
100
AcDbVisualStyle
  2
Dim
 70
    11
177
     2
291
     1
 71
     2
176
     1
 72
     2
176
     1
 73
     0
176
     1
 90
        0
176
     1
 40
-0.6
176
     1
 41
-30.0
176
     1
 62
     5
 63
     7
421
 16777215
176
     1
 74
     1
176
     1
 91
        4
176
     1
 64
     7
176
     1
 65
   257
176
     1
 75
     1
176
     1
175
     1
176
     1
 42
1.0
176
     1
 92
        8
176
     1
 66
     7
176
     1
 43
1.0
176
     1
 76
     1
176
     1
 77
     6
176
     1
 78
     2
176
     1
 67
     7
176
     1
 79
     5
176
     1
170
     0
176
     1
171
     0
176
     1
290
     0
176
     1
 93
        1
176
     1
 44
-50.0
176
     1
173
     0
176
     1
  0
VISUALSTYLE
  5
39
102
{ACAD_REACTORS
330
2A
102
}
330
2A
100
AcDbVisualStyle
  2
Facepattern
 70
    15
177
     2
291
     1
 71
     2
176
     1
 72
     2
176
     1
 73
     0
176
     1
 90
        0
176
     1
 40
-0.6
176
     1
 41
-30.0
176
     1
 62
     5
 63
     7
421
 16777215
176
     1
 74
     1
176
     1
 91
        4
176
     1
 64
     7
176
     1
 65
   257
176
     1
 75
     1
176
     1
175
     1
176
     1
 42
1.0
176
     1
 92
        8
176
     1
 66
     7
176
     1
 43
1.0
176
     1
 76
     1
176
     1
 77
     6
176
     1
 78
     2
176
     1
 67
     7
176
     1
 79
     5
176
     1
170
     0
176
     1
171
     0
176
     1
290
     0
176
     1
 93
        1
176
     1
 44
0.0
176
     1
173
     0
176
     1
  0
VISUALSTYLE
  5
2B
102
{ACAD_REACTORS
330
2A
102
}
330
2A
100
AcDbVisualStyle
  2
Flat
 70
     0
177
     2
291
     1
 71
     2
176
     1
 72
     1
176
     1
 73
     1
176
     1
 90
        2
176
     1
 40
-0.6
176
     1
 41
30.0
176
     1
 62
     5
 63
     7
421
 16777215
176
     1
 74
     0
176
     1
 91
        4
176
     1
 64
     7
176
     1
 65
   257
176
     1
 75
     1
176
     1
175
     1
176
     1
 42
1.0
176
     1
 92
        8
176
     1
 66
     7
176
     1
 43
1.0
176
     1
 76
     1
176
     1
 77
     6
176
     1
 78
     2
176
     1
 67
     7
176
     1
 79
     5
176
     1
170
     0
176
     1
171
     0
176
     1
290
     0
176
     1
 93
       13
176
     1
 44
0.0
176
     1
173
     0
176
     1
  0
VISUALSTYLE
  5
2C
102
{ACAD_REACTORS
330
2A
102
}
330
2A
100
AcDbVisualStyle
  2
FlatWithEdges
 70
     1
177
     2
291
     1
 71
     2
176
     1
 72
     1
176
     1
 73
     1
176
     1
 90
        2
176
     1
 40
-0.6
176
     1
 41
30.0
176
     1
 62
     5
 63
     7
421
 16777215
176
     1
 74
     1
176
     1
 91
        4
176
     1
 64
     7
176
     1
 65
   257
176
     1
 75
     1
176
     1
175
     1
176
     1
 42
1.0
176
     1
 92
        0
176
     1
 66
   257
176
     1
 43
1.0
176
     1
 76
     1
176
     1
 77
     6
176
     1
 78
     2
176
     1
 67
     7
176
     1
 79
     5
176
     1
170
     0
176
     1
171
     0
176
     1
290
     0
176
     1
 93
       13
176
     1
 44
0.0
176
     1
173
     0
176
     1
  0
VISUALSTYLE
  5
2D
102
{ACAD_REACTORS
330
2A
102
}
330
2A
100
AcDbVisualStyle
  2
Gouraud
 70
     2
177
     2
291
     1
 71
     2
176
     1
 72
     2
176
     1
 73
     1
176
     1
 90
        2
176
     1
 40
-0.6
176
     1
 41
30.0
176
     1
 62
     5
 63
     7
421
 16777215
176
     1
 74
     0
176
     1
 91
        4
176
     1
 64
     7
176
     1
 65
   257
176
     1
 75
     1
176
     1
175
     1
176
     1
 42
1.0
176
     1
 92
        0
176
     1
 66
     7
176
     1
 43
1.0
176
     1
 76
     1
176
     1
 77
     6
176
     1
 78
     2
176
     1
 67
     7
176
     1
 79
     5
176
     1
170
     0
176
     1
171
     0
176
     1
290
     0
176
     1
 93
       13
176
     1
 44
0.0
176
     1
173
     0
176
     1
  0
VISUALSTYLE
  5
2E
102
{ACAD_REACTORS
330
2A
102
}
330
2A
100
AcDbVisualStyle
  2
GouraudWithEdges
 70
     3
177
     2
291
     1
 71
     2
176
     1
 72
     2
176
     1
 73
     1
176
     1
 90
        2
176
     1
 40
-0.6
176
     1
 41
30.0
176
     1
 62
     5
 63
     7
421
 16777215
176
     1
 74
     1
176
     1
 91
        4
176
     1
 64
     7
176
     1
 65
   257
176
     1
 75
     1
176
     1
175
     1
176
     1
 42
1.0
176
     1
 92
        0
176
     1
 66
   257
176
     1
 43
1.0
176
     1
 76
     1
176
     1
 77
     6
176
     1
 78
     2
176
     1
 67
     7
176
     1
 79
     5
176
     1
170
     0
176
     1
171
     0
176
     1
290
     0
176
     1
 93
       13
176
     1
 44
0.0
176
     1
173
     0
176
     1
  0
VISUALSTYLE
  5
38
102
{ACAD_REACTORS
330
2A
102
}
330
2A
100
AcDbVisualStyle
  2
Linepattern
 70
    14
177
     2
291
     1
 71
     2
176
     1
 72
     2
176
     1
 73
     0
176
     1
 90
        0
176
     1
 40
-0.6
176
     1
 41
-30.0
176
     1
 62
     5
 63
     7
421
 16777215
176
     1
 74
     1
176
     1
 91
        4
176
     1
 64
     7
176
     1
 65
   257
176
     1
 75
     7
176
     1
175
     7
176
     1
 42
1.0
176
     1
 92
        8
176
     1
 66
     7
176
     1
 43
1.0
176
     1
 76
     1
176
     1
 77
     6
176
     1
 78
     2
176
     1
 67
     7
176
     1
 79
     5
176
     1
170
     0
176
     1
171
     0
176
     1
290
     0
176
     1
 93
        1
176
     1
 44
0.0
176
     1
173
     0
176
     1
  0
VISUALSTYLE
  5
33
102
{ACAD_REACTORS
330
2A
102
}
330
2A
100
AcDbVisualStyle
  2
Realistic
 70
     8
177
     2
291
     0
 71
     2
176
     1
 72
     2
176
     1
 73
     0
176
     1
 90
        0
176
     1
 40
-0.6
176
     1
 41
-30.0
176
     1
 62
     5
 63
     7
421
 16777215
176
     1
 74
     1
176
     1
 91
        0
176
     1
 64
     7
176
     1
 65
   257
176
     1
 75
     1
176
     1
175
     1
176
     1
 42
1.0
176
     1
 92
        8
176
     1
 66
     8
424
  7895160
176
     1
 43
1.0
176
     1
 76
     1
176
     1
 77
     6
176
     1
 78
     2
176
     1
 67
     7
176
     1
 79
     5
176
     1
170
     0
176
     1
171
     0
176
     1
290
     0
176
     1
 93
       13
176
     1
 44
0.0
176
     1
173
     0
176
     1
  0
VISUALSTYLE
  5
37
102
{ACAD_REACTORS
330
2A
102
}
330
2A
100
AcDbVisualStyle
  2
Thicken
 70
    13
177
     2
291
     1
 71
     2
176
     1
 72
     2
176
     1
 73
     0
176
     1
 90
        0
176
     1
 40
-0.6
176
     1
 41
-30.0
176
     1
 62
     5
 63
     7
421
 16777215
176
     1
 74
     1
176
     1
 91
        4
176
     1
 64
     7
176
     1
 65
   257
176
     1
 75
     1
176
     1
175
     1
176
     1
 42
1.0
176
     1
 92
       12
176
     1
 66
     7
176
     1
 43
1.0
176
     1
 76
     1
176
     1
 77
     6
176
     1
 78
     2
176
     1
 67
     7
176
     1
 79
     5
176
     1
170
     0
176
     1
171
     0
176
     1
290
     0
176
     1
 93
        1
176
     1
 44
0.0
176
     1
173
     0
176
     1
  0
ENDSEC
  0
EOF
