  0
SECTION
  2
HEADER
  9
$ACADVER
  1
AC1024
  9
$ACADMAINTVER
 70
     6
  9
$DWGCODEPAGE
  3
UNDEFINED
  9
$INSBASE
 10
0.0
 20
0.0
 30
0.0
  9
$EXTMIN
 10
1.000000000000000E+20
 20
1.000000000000000E+20
 30
1.000000000000000E+20
  9
$EXTMAX
 10
-1.000000000000000E+20
 20
-1.000000000000000E+20
 30
-1.000000000000000E+20
  9
$LIMMIN
 10
0.0
 20
0.0
  9
$LIMMAX
 10
12.0
 20
9.0
  9
$ORTHOMODE
 70
     0
  9
$REGENMODE
 70
     1
  9
$FILLMODE
 70
     1
  9
$QTEXTMODE
 70
     0
  9
$MIRRTEXT
 70
     1
  9
$LTSCALE
 40
1.0
  9
$ATTMODE
 70
     1
  9
$TEXTSIZE
 40
0.2
  9
$TRACEWID
 40
0.05
  9
$TEXTSTYLE
  7
Standard
  9
$CLAYER
  8
0
  9
$CELTYPE
  6
ByLayer
  9
$CECOLOR
 62
   256
  9
$CELTSCALE
 40
1.0
  9
$DISPSILH
 70
     0
  9
$DIMSCALE
 40
1.0
  9
$DIMASZ
 40
0.18
  9
$DIMEXO
 40
0.0625
  9
$DIMDLI
 40
0.38
  9
$DIMRND
 40
0.0
  9
$DIMDLE
 40
0.0
  9
$DIMEXE
 40
0.18
  9
$DIMTP
 40
0.0
  9
$DIMTM
 40
0.0
  9
$DIMTXT
 40
0.18
  9
$DIMCEN
 40
0.09
  9
$DIMTSZ
 40
0.0
  9
$DIMTOL
 70
     0
  9
$DIMLIM
 70
     0
  9
$DIMTIH
 70
     1
  9
$DIMTOH
 70
     1
  9
$DIMSE1
 70
     0
  9
$DIMSE2
 70
     0
  9
$DIMTAD
 70
     0
  9
$DIMZIN
 70
     0
  9
$DIMBLK
  1

  9
$DIMASO
 70
     1
  9
$DIMSHO
 70
     1
  9
$DIMPOST
  1

  9
$DIMAPOST
  1

  9
$DIMALT
 70
     0
  9
$DIMALTD
 70
     2
  9
$DIMALTF
 40
25.4
  9
$DIMLFAC
 40
1.0
  9
$DIMTOFL
 70
     0
  9
$DIMTVP
 40
0.0
  9
$DIMTIX
 70
     0
  9
$DIMSOXD
 70
     0
  9
$DIMSAH
 70
     0
  9
$DIMBLK1
  1

  9
$DIMBLK2
  1

  9
$DIMSTYLE
  2
Standard
  9
$DIMCLRD
 70
     0
  9
$DIMCLRE
 70
     0
  9
$DIMCLRT
 70
     0
  9
$DIMTFAC
 40
1.0
  9
$DIMGAP
 40
0.09
  9
$DIMJUST
 70
     0
  9
$DIMSD1
 70
     0
  9
$DIMSD2
 70
     0
  9
$DIMTOLJ
 70
     1
  9
$DIMTZIN
 70
     0
  9
$DIMALTZ
 70
     0
  9
$DIMALTTZ
 70
     0
  9
$DIMUPT
 70
     0
  9
$DIMDEC
 70
     4
  9
$DIMTDEC
 70
     4
  9
$DIMALTU
 70
     2
  9
$DIMALTTD
 70
     2
  9
$DIMTXSTY
  7
Standard
  9
$DIMAUNIT
 70
     0
  9
$DIMADEC
 70
     0
  9
$DIMALTRND
 40
0.0
  9
$DIMAZIN
 70
     0
  9
$DIMDSEP
 70
    46
  9
$DIMATFIT
 70
     3
  9
$DIMFRAC
 70
     0
  9
$DIMLDRBLK
  1

  9
$DIMLUNIT
 70
     2
  9
$DIMLWD
 70
    -2
  9
$DIMLWE
 70
    -2
  9
$DIMTMOVE
 70
     0
  9
$DIMFXL
 40
1.0
  9
$DIMFXLON
 70
     0
  9
$DIMJOGANG
 40
0.7853981633974483
  9
$DIMTFILL
 70
     0
  9
$DIMTFILLCLR
 70
     0
  9
$DIMARCSYM
 70
     0
  9
$DIMLTYPE
  6

  9
$DIMLTEX1
  6

  9
$DIMLTEX2
  6

  9
$DIMTXTDIRECTION
 70
     0
  9
$LUNITS
 70
     2
  9
$LUPREC
 70
     4
  9
$SKETCHINC
 40
0.1
  9
$FILLETRAD
 40
0.5
  9
$AUNITS
 70
     0
  9
$AUPREC
 70
     0
  9
$MENU
  1
.
  9
$ELEVATION
 40
0.0
  9
$PELEVATION
 40
0.0
  9
$THICKNESS
 40
0.0
  9
$LIMCHECK
 70
     0
  9
$CHAMFERA
 40
0.5
  9
$CHAMFERB
 40
0.5
  9
$CHAMFERC
 40
1.0
  9
$CHAMFERD
 40
0.0
  9
$SKPOLY
 70
     0
  9
$TDCREATE
 40
2457917.627002303
  9
$TDUCREATE
 40
2457917.252002315
  9
$TDUPDATE
 40
2457917.627002303
  9
$TDUUPDATE
 40
2457917.252002315
  9
$TDINDWG
 40
0.0000000116
  9
$TDUSRTIMER
 40
0.0000000116
  9
$USRTIMER
 70
     1
  9
$ANGBASE
 50
0.0
  9
$ANGDIR
 70
     0
  9
$PDMODE
 70
     0
  9
$PDSIZE
 40
0.0
  9
$PLINEWID
 40
0.0
  9
$SPLFRAME
 70
     0
  9
$SPLINETYPE
 70
     6
  9
$SPLINESEGS
 70
     8
  9
$HANDSEED
  5
C3
  9
$SURFTAB1
 70
     6
  9
$SURFTAB2
 70
     6
  9
$SURFTYPE
 70
     6
  9
$SURFU
 70
     6
  9
$SURFV
 70
     6
  9
$UCSBASE
  2

  9
$UCSNAME
  2

  9
$UCSORG
 10
0.0
 20
0.0
 30
0.0
  9
$UCSXDIR
 10
1.0
 20
0.0
 30
0.0
  9
$UCSYDIR
 10
0.0
 20
1.0
 30
0.0
  9
$UCSORTHOREF
  2

  9
$UCSORTHOVIEW
 70
     0
  9
$UCSORGTOP
 10
0.0
 20
0.0
 30
0.0
  9
$UCSORGBOTTOM
 10
0.0
 20
0.0
 30
0.0
  9
$UCSORGLEFT
 10
0.0
 20
0.0
 30
0.0
  9
$UCSORGRIGHT
 10
0.0
 20
0.0
 30
0.0
  9
$UCSORGFRONT
 10
0.0
 20
0.0
 30
0.0
  9
$UCSORGBACK
 10
0.0
 20
0.0
 30
0.0
  9
$PUCSBASE
  2

  9
$PUCSNAME
  2

  9
$PUCSORG
 10
0.0
 20
0.0
 30
0.0
  9
$PUCSXDIR
 10
1.0
 20
0.0
 30
0.0
  9
$PUCSYDIR
 10
0.0
 20
1.0
 30
0.0
  9
$PUCSORTHOREF
  2

  9
$PUCSORTHOVIEW
 70
     0
  9
$PUCSORGTOP
 10
0.0
 20
0.0
 30
0.0
  9
$PUCSORGBOTTOM
 10
0.0
 20
0.0
 30
0.0
  9
$PUCSORGLEFT
 10
0.0
 20
0.0
 30
0.0
  9
$PUCSORGRIGHT
 10
0.0
 20
0.0
 30
0.0
  9
$PUCSORGFRONT
 10
0.0
 20
0.0
 30
0.0
  9
$PUCSORGBACK
 10
0.0
 20
0.0
 30
0.0
  9
$USERI1
 70
     0
  9
$USERI2
 70
     0
  9
$USERI3
 70
     0
  9
$USERI4
 70
     0
  9
$USERI5
 70
     0
  9
$USERR1
 40
0.0
  9
$USERR2
 40
0.0
  9
$USERR3
 40
0.0
  9
$USERR4
 40
0.0
  9
$USERR5
 40
0.0
  9
$WORLDVIEW
 70
     1
  9
$SHADEDGE
 70
     3
  9
$SHADEDIF
 70
    70
  9
$TILEMODE
 70
     1
  9
$MAXACTVP
 70
    64
  9
$PINSBASE
 10
0.0
 20
0.0
 30
0.0
  9
$PLIMCHECK
 70
     0
  9
$PEXTMIN
 10
1.000000000000000E+20
 20
1.000000000000000E+20
 30
1.000000000000000E+20
  9
$PEXTMAX
 10
-1.000000000000000E+20
 20
-1.000000000000000E+20
 30
-1.000000000000000E+20
  9
$PLIMMIN
 10
0.0
 20
0.0
  9
$PLIMMAX
 10
12.0
 20
9.0
  9
$UNITMODE
 70
     0
  9
$VISRETAIN
 70
     1
  9
$PLINEGEN
 70
     0
  9
$PSLTSCALE
 70
     1
  9
$TREEDEPTH
 70
  3020
  9
$CMLSTYLE
  2
Standard
  9
$CMLJUST
 70
     0
  9
$CMLSCALE
 40
1.0
  9
$PROXYGRAPHICS
 70
     1
  9
$MEASUREMENT
 70
     0
  9
$CELWEIGHT
370
    -1
  9
$ENDCAPS
280
     0
  9
$JOINSTYLE
280
     0
  9
$LWDISPLAY
290
     1
  9
$INSUNITS
 70
     1
  9
$HYPERLINKBASE
  1

  9
$STYLESHEET
  1

  9
$XEDIT
290
     1
  9
$CEPSNTYPE
380
     0
  9
$PSTYLEMODE
290
     1
  9
$FINGERPRINTGUID
  2
{98FDAA6B-CA7B-E2CF-43F2-2996F3ADAE95}
  9
$VERSIONGUID
  2
{FAEB1C32-E019-11D5-929B-00C0DF256EC4}
  9
$EXTNAMES
290
     1
  9
$PSVPSCALE
 40
0.0
  9
$OLESTARTUP
290
     0
  9
$SORTENTS
280
   127
  9
$INDEXCTL
280
     0
  9
$HIDETEXT
280
     1
  9
$XCLIPFRAME
280
     2
  9
$HALOGAP
280
     0
  9
$OBSCOLOR
 70
   257
  9
$OBSLTYPE
280
     0
  9
$INTERSECTIONDISPLAY
280
     0
  9
$INTERSECTIONCOLOR
 70
   257
  9
$DIMASSOC
280
     2
  9
$PROJECTNAME
  1

  9
$CAMERADISPLAY
290
     0
  9
$LENSLENGTH
 40
50.0
  9
$CAMERAHEIGHT
 40
0.0
  9
$STEPSPERSEC
 40
2.0
  9
$STEPSIZE
 40
6.0
  9
$3DDWFPREC
 40
2.0
  9
$PSOLWIDTH
 40
0.25
  9
$PSOLHEIGHT
 40
4.0
  9
$LOFTANG1
 40
1.570796326794897
  9
$LOFTANG2
 40
1.570796326794897
  9
$LOFTMAG1
 40
0.0
  9
$LOFTMAG2
 40
0.0
  9
$LOFTPARAM
 70
     7
  9
$LOFTNORMALS
280
     1
  9
$LATITUDE
 40
37.795
  9
$LONGITUDE
 40
-122.394
  9
$NORTHDIRECTION
 40
0.0
  9
$TIMEZONE
 70
 -8000
  9
$LIGHTGLYPHDISPLAY
280
     1
  9
$TILEMODELIGHTSYNCH
280
     1
  9
$CMATERIAL
347
3C
  9
$SOLIDHIST
280
     1
  9
$SHOWHIST
280
     1
  9
$DWFFRAME
280
     2
  9
$DGNFRAME
280
     2
  9
$REALWORLDSCALE
290
     1
  9
$INTERFERECOLOR
 62
   256
  9
$CSHADOW
280
     0
  9
$SHADOWPLANELOCATION
 40
0.0
  0
ENDSEC
  0
SECTION
  2
CLASSES
  0
CLASS
  1
ACDBDICTIONARYWDFLT
  2
AcDbDictionaryWithDefault
  3
ObjectDBX Classes
 90
        0
 91
        4
280
     0
281
     0
  0
CLASS
  1
VISUALSTYLE
  2
AcDbVisualStyle
  3
ObjectDBX Classes
 90
     4095
 91
        4
280
     0
281
     0
  0
CLASS
  1
MATERIAL
  2
AcDbMaterial
  3
ObjectDBX Classes
 90
     1153
 91
        4
280
     0
281
     0
  0
CLASS
  1
SUN
  2
AcDbSun
  3
SCENEOE
 90
     1024
 91
        4
280
     0
281
     0
  0
ENDSEC
  0
SECTION
  2
TABLES
  0
TABLE
  2
VPORT
  5
8
330
0
100
AcDbSymbolTable
 70
     1
  0
VPORT
  5
29
330
8
100
AcDbSymbolTableRecord
100
AcDbViewportTableRecord
  2
*Active
 70
     0
 10
0.0
 20
0.0
 11
1.0
 21
1.0
 12
0.0
 22
0.0
 13
0.0
 23
0.0
 14
0.5
 24
0.5
 15
0.5
 25
0.5
 16
0.0
 26
0.0
 36
1.0
 17
91.00082462281999
 27
-128.4993055234307
 37
0.0
 40
256.9986110468615
 41
0.7081814508812795
 42
50.0
 43
0.0
 44
0.0
 50
0.0
 51
0.0
 71
     0
 72
   100
 73
     1
 74
     3
 75
     0
 76
     0
 77
     0
 78
     0
281
     0
 65
     1
110
0.0
120
0.0
130
0.0
111
1.0
121
0.0
131
0.0
112
0.0
122
1.0
132
0.0
 79
     0
146
0.0
 60
     3
 61
     5
292
     1
282
     1
141
0.0
142
0.0
 63
   250
361
3F
  0
ENDTAB
  0
TABLE
  2
LTYPE
  5
5
330
0
100
AcDbSymbolTable
 70
     1
  0
LTYPE
  5
14
330
5
100
AcDbSymbolTableRecord
100
AcDbLinetypeTableRecord
  2
ByBlock
 70
     0
  3

 72
    65
 73
     0
 40
0.0
  0
LTYPE
  5
15
330
5
100
AcDbSymbolTableRecord
100
AcDbLinetypeTableRecord
  2
ByLayer
 70
     0
  3

 72
    65
 73
     0
 40
0.0
  0
LTYPE
  5
16
330
5
100
AcDbSymbolTableRecord
100
AcDbLinetypeTableRecord
  2
Continuous
 70
     0
  3
Solid line
 72
    65
 73
     0
 40
0.0
  0
ENDTAB
  0
TABLE
  2
LAYER
  5
2
330
0
100
AcDbSymbolTable
 70
     2
  0
LAYER
  5
10
330
2
100
AcDbSymbolTableRecord
100
AcDbLayerTableRecord
  2
0
 70
     0
 62
     7
  6
Continuous
370
    -3
390
F
347
3E
  0
LAYER
  5
40
330
2
100
AcDbSymbolTableRecord
100
AcDbLayerTableRecord
  2
_U+30EC_U+30A4_U+30E4_U+30FC 1
 70
     0
 62
     7
  6
Continuous
370
    -3
390
F
347
3E
  0
ENDTAB
  0
TABLE
  2
STYLE
  5
3
330
0
100
AcDbSymbolTable
 70
     1
  0
STYLE
  5
11
330
3
100
AcDbSymbolTableRecord
100
AcDbTextStyleTableRecord
  2
Standard
 70
     0
 40
0.0
 41
1.0
 50
0.0
 71
     0
 42
0.2
  3
txt
  4

  0
ENDTAB
  0
TABLE
  2
VIEW
  5
6
330
0
100
AcDbSymbolTable
 70
     0
  0
ENDTAB
  0
TABLE
  2
UCS
  5
7
330
0
100
AcDbSymbolTable
 70
     0
  0
ENDTAB
  0
TABLE
  2
APPID
  5
9
330
0
100
AcDbSymbolTable
 70
     1
  0
APPID
  5
12
330
9
100
AcDbSymbolTableRecord
100
AcDbRegAppTableRecord
  2
ACAD
 70
     0
  0
ENDTAB
  0
TABLE
  2
DIMSTYLE
  5
A
330
0
100
AcDbSymbolTable
 70
     1
100
AcDbDimStyleTable
  0
DIMSTYLE
105
27
330
A
100
AcDbSymbolTableRecord
100
AcDbDimStyleTableRecord
  2
Standard
 70
     0
178
     0
340
11
  0
ENDTAB
  0
TABLE
  2
BLOCK_RECORD
  5
1
330
0
100
AcDbSymbolTable
 70
     7
  0
BLOCK_RECORD
  5
1F
330
1
100
AcDbSymbolTableRecord
100
AcDbBlockTableRecord
  2
*Model_Space
340
22
 70
     0
280
     1
281
     0
  0
BLOCK_RECORD
  5
1B
330
1
100
AcDbSymbolTableRecord
100
AcDbBlockTableRecord
  2
*Paper_Space
340
1E
 70
     0
280
     1
281
     0
  0
BLOCK_RECORD
  5
23
330
1
100
AcDbSymbolTableRecord
100
AcDbBlockTableRecord
  2
*Paper_Space0
340
26
 70
     0
280
     1
281
     0
  0
BLOCK_RECORD
  5
57
330
1
100
AcDbSymbolTableRecord
100
AcDbBlockTableRecord
  2
block 2
340
0
102
{BLKREFS
331
58
102
}
 70
     0
280
     1
281
     0
  0
BLOCK_RECORD
  5
6B
330
1
100
AcDbSymbolTableRecord
100
AcDbBlockTableRecord
  2
block 3
340
0
102
{BLKREFS
331
6C
102
}
 70
     0
280
     1
281
     0
  0
BLOCK_RECORD
  5
80
330
1
100
AcDbSymbolTableRecord
100
AcDbBlockTableRecord
  2
block 4
340
0
102
{BLKREFS
331
81
102
}
 70
     0
280
     1
281
     0
  0
BLOCK_RECORD
  5
95
330
1
100
AcDbSymbolTableRecord
100
AcDbBlockTableRecord
  2
block 5
340
0
102
{BLKREFS
331
96
102
}
 70
     0
280
     1
281
     0
  0
BLOCK_RECORD
  5
A5
330
1
100
AcDbSymbolTableRecord
100
AcDbBlockTableRecord
  2
block 6
340
0
102
{BLKREFS
331
A6
102
}
 70
     0
280
     1
281
     0
  0
BLOCK_RECORD
  5
B6
330
1
100
AcDbSymbolTableRecord
100
AcDbBlockTableRecord
  2
block 7
340
0
102
{BLKREFS
331
B7
102
}
 70
     0
280
     1
281
     0
  0
ENDTAB
  0
ENDSEC
  0
SECTION
  2
BLOCKS
  0
BLOCK
  5
20
330
1F
100
AcDbEntity
  8
0
100
AcDbBlockBegin
  2
*Model_Space
 70
     0
 10
0.0
 20
0.0
 30
0.0
  3
*Model_Space
  1

  0
ENDBLK
  5
21
330
1F
100
AcDbEntity
  8
0
100
AcDbBlockEnd
  0
BLOCK
  5
1C
330
1B
100
AcDbEntity
 67
     1
  8
0
100
AcDbBlockBegin
  2
*Paper_Space
 70
     0
 10
0.0
 20
0.0
 30
0.0
  3
*Paper_Space
  1

  0
ENDBLK
  5
1D
330
1B
100
AcDbEntity
 67
     1
  8
0
100
AcDbBlockEnd
  0
BLOCK
  5
24
330
23
100
AcDbEntity
  8
0
100
AcDbBlockBegin
  2
*Paper_Space0
 70
     0
 10
0.0
 20
0.0
 30
0.0
  3
*Paper_Space0
  1

  0
ENDBLK
  5
25
330
23
100
AcDbEntity
  8
0
100
AcDbBlockEnd
  0
BLOCK
  5
59
330
57
100
AcDbEntity
  8
0
100
AcDbBlockBegin
  2
block 2
 70
     0
 10
0.0
 20
0.0
 30
0.0
  3
block 2
  1

  0
SPLINE
  5
5B
330
57
100
AcDbEntity
  8
_U+30EC_U+30A4_U+30E4_U+30FC 1
370
     0
100
AcDbSpline
210
0.0
220
0.0
230
1.0
 70
    11
 71
     3
 72
    44
 73
    40
 74
     0
 42
0.0000000001
 43
0.0000000001
 12
1.0
 22
0.0
 32
0.0
 13
1.0
 23
0.0
 33
0.0
 40
0.0
 40
0.0
 40
0.0
 40
0.0
 40
1.0
 40
1.0
 40
1.0
 40
2.0
 40
2.0
 40
2.0
 40
3.0
 40
3.0
 40
3.0
 40
4.0
 40
4.0
 40
4.0
 40
5.0
 40
5.0
 40
5.0
 40
6.0
 40
6.0
 40
6.0
 40
7.0
 40
7.0
 40
7.0
 40
8.0
 40
8.0
 40
8.0
 40
9.0
 40
9.0
 40
9.0
 40
10.0
 40
10.0
 40
10.0
 40
11.0
 40
11.0
 40
11.0
 40
12.0
 40
12.0
 40
12.0
 40
13.0
 40
13.0
 40
13.0
 40
13.0
 10
71.53189559843648
 20
-117.6000569367458
 30
0.0
 10
71.70346135360191
 20
-117.8267442196753
 30
0.0
 10
71.78338756885971
 20
-117.9238959123593
 30
0.0
 10
71.93910588479301
 20
-117.9745388159925
 30
0.0
 10
71.93910588479301
 20
-117.9745388159925
 30
0.0
 10
71.93910588479301
 20
-117.1642523578617
 30
0.0
 10
71.93910588479301
 20
-117.1642523578617
 30
0.0
 10
71.93910588479301
 20
-117.1642523578617
 30
0.0
 10
72.16097003404309
 20
-117.1642523578617
 30
0.0
 10
72.16097003404309
 20
-117.1642523578617
 30
0.0
 10
72.16097003404309
 20
-117.1642523578617
 30
0.0
 10
72.16097003404309
 20
-118.2342990155803
 30
0.0
 10
72.16097003404309
 20
-118.2342990155803
 30
0.0
 10
71.77443032059806
 20
-118.2012260989219
 30
0.0
 10
71.68968097166092
 20
-118.133013208314
 30
0.0
 10
71.36722003424153
 20
-117.7323486033794
 30
0.0
 10
71.15190156641341
 20
-117.4656982128211
 30
0.0
 10
71.07886554212612
 20
-117.3974853222131
 30
0.0
 10
70.93003741716333
 20
-117.3974853222131
 30
0.0
 10
70.80187986511203
 20
-117.3974853222131
 30
0.0
 10
70.66028644066826
 20
-117.4725884037916
 30
0.0
 10
70.66028644066826
 20
-117.6772270756154
 30
0.0
 10
70.66028644066826
 20
-117.9480115807561
 30
0.0
 10
70.90971135380035
 20
-117.9566243194692
 30
0.0
 10
71.03545733901197
 20
-117.9611029436
 30
0.0
 10
71.03545733901197
 20
-117.9611029436
 30
0.0
 10
71.03545733901197
 20
-118.1946804175
 30
0.0
 10
71.03545733901197
 20
-118.1946804175
 30
0.0
 10
70.8979980291505
 20
-118.1857231692383
 30
0.0
 10
70.7767306680697
 20
-118.1746988636855
 30
0.0
 10
70.64891762556694
 20
-118.0909830433939
 30
0.0
 10
70.47494030356182
 20
-117.9766058732836
 30
0.0
 10
70.43842229141818
 20
-117.7829915070126
 30
0.0
 10
70.43842229141818
 20
-117.6617241459318
 30
0.0
 10
70.43842229141818
 20
-117.3733696538164
 30
0.0
 10
70.63720430091709
 20
-117.1577066764397
 30
0.0
 10
70.932448984003
 20
-117.1577066764397
 30
0.0
 10
71.17946233029542
 20
-117.1577066764397
 30
0.0
 10
71.28694930943522
 20
-117.278629527972
 30
0.0
 10
71.53189559843648
 20
-117.6000569367458
 30
0.0
  0
HATCH
  5
5C
330
57
100
AcDbEntity
  8
_U+30EC_U+30A4_U+30E4_U+30FC 1
 62
   179
420
  2234388
100
AcDbHatch
 10
0.0
 20
0.0
 30
0.0
210
0.0
220
0.0
230
1.0
  2
SOLID
 70
     1
 71
     0
 91
        1
 92
        1
 93
        1
 72
     4
 94
        3
 73
     0
 74
     1
 95
       44
 96
       40
 40
0.0
 40
0.0
 40
0.0
 40
0.0
 40
1.0
 40
1.0
 40
1.0
 40
2.0
 40
2.0
 40
2.0
 40
3.0
 40
3.0
 40
3.0
 40
4.0
 40
4.0
 40
4.0
 40
5.0
 40
5.0
 40
5.0
 40
6.0
 40
6.0
 40
6.0
 40
7.0
 40
7.0
 40
7.0
 40
8.0
 40
8.0
 40
8.0
 40
9.0
 40
9.0
 40
9.0
 40
10.0
 40
10.0
 40
10.0
 40
11.0
 40
11.0
 40
11.0
 40
12.0
 40
12.0
 40
12.0
 40
13.0
 40
13.0
 40
13.0
 40
13.0
 10
71.53189559843648
 20
-117.6000569367458
 10
71.70346135360191
 20
-117.8267442196753
 10
71.78338756885971
 20
-117.9238959123593
 10
71.93910588479301
 20
-117.9745388159925
 10
71.93910588479301
 20
-117.9745388159925
 10
71.93910588479301
 20
-117.1642523578617
 10
71.93910588479301
 20
-117.1642523578617
 10
71.93910588479301
 20
-117.1642523578617
 10
72.16097003404309
 20
-117.1642523578617
 10
72.16097003404309
 20
-117.1642523578617
 10
72.16097003404309
 20
-117.1642523578617
 10
72.16097003404309
 20
-118.2342990155803
 10
72.16097003404309
 20
-118.2342990155803
 10
71.77443032059806
 20
-118.2012260989219
 10
71.68968097166092
 20
-118.133013208314
 10
71.36722003424153
 20
-117.7323486033794
 10
71.15190156641341
 20
-117.4656982128211
 10
71.07886554212612
 20
-117.3974853222131
 10
70.93003741716333
 20
-117.3974853222131
 10
70.80187986511203
 20
-117.3974853222131
 10
70.66028644066826
 20
-117.4725884037916
 10
70.66028644066826
 20
-117.6772270756154
 10
70.66028644066826
 20
-117.9480115807561
 10
70.90971135380035
 20
-117.9566243194692
 10
71.03545733901197
 20
-117.9611029436
 10
71.03545733901197
 20
-117.9611029436
 10
71.03545733901197
 20
-118.1946804175
 10
71.03545733901197
 20
-118.1946804175
 10
70.8979980291505
 20
-118.1857231692383
 10
70.7767306680697
 20
-118.1746988636855
 10
70.64891762556694
 20
-118.0909830433939
 10
70.47494030356182
 20
-117.9766058732836
 10
70.43842229141818
 20
-117.7829915070126
 10
70.43842229141818
 20
-117.6617241459318
 10
70.43842229141818
 20
-117.3733696538164
 10
70.63720430091709
 20
-117.1577066764397
 10
70.932448984003
 20
-117.1577066764397
 10
71.17946233029542
 20
-117.1577066764397
 10
71.28694930943522
 20
-117.278629527972
 10
71.53189559843648
 20
-117.6000569367458
 97
        0
 97
        0
 75
     2
 76
     1
 98
        0
  0
SPLINE
  5
5D
330
57
100
AcDbEntity
  8
_U+30EC_U+30A4_U+30E4_U+30FC 1
370
     0
100
AcDbSpline
210
0.0
220
0.0
230
1.0
 70
    11
 71
     3
 72
    53
 73
    49
 74
     0
 42
0.0000000001
 43
0.0000000001
 12
1.0
 22
0.0
 32
0.0
 13
1.0
 23
0.0
 33
0.0
 40
0.0
 40
0.0
 40
0.0
 40
0.0
 40
1.0
 40
1.0
 40
1.0
 40
2.0
 40
2.0
 40
2.0
 40
3.0
 40
3.0
 40
3.0
 40
4.0
 40
4.0
 40
4.0
 40
5.0
 40
5.0
 40
5.0
 40
6.0
 40
6.0
 40
6.0
 40
7.0
 40
7.0
 40
7.0
 40
8.0
 40
8.0
 40
8.0
 40
9.0
 40
9.0
 40
9.0
 40
10.0
 40
10.0
 40
10.0
 40
11.0
 40
11.0
 40
11.0
 40
12.0
 40
12.0
 40
12.0
 40
13.0
 40
13.0
 40
13.0
 40
14.0
 40
14.0
 40
14.0
 40
15.0
 40
15.0
 40
15.0
 40
16.0
 40
16.0
 40
16.0
 40
16.0
 10
72.21574705225856
 20
-116.4928032477865
 30
0.0
 10
72.21574705225856
 20
-116.5741075012384
 30
0.0
 10
72.19748804618675
 20
-116.6798719326356
 30
0.0
 10
72.12893064603027
 20
-116.7856363640328
 30
0.0
 10
72.01007485178916
 20
-116.9661593674599
 30
0.0
 10
71.86813691779686
 20
-116.9882079785655
 30
0.0
 10
71.75134818084689
 20
-117.0078450228314
 30
0.0
 10
71.75134818084689
 20
-117.0078450228314
 30
0.0
 10
71.75134818084689
 20
-116.7766791157711
 30
0.0
 10
71.75134818084689
 20
-116.7766791157711
 30
0.0
 10
71.966666648675
 20
-116.719490530716
 30
0.0
 10
71.99870603668782
 20
-116.5875433736309
 30
0.0
 10
71.99870603668782
 20
-116.4907361904954
 30
0.0
 10
71.99870603668782
 20
-116.3453531610178
 30
0.0
 10
71.8908745479995
 20
-116.1868787686963
 30
0.0
 10
71.63938257757627
 20
-116.1868787686963
 30
0.0
 10
71.36239690056219
 20
-116.1868787686963
 30
0.0
 10
71.28694930943522
 20
-116.3739474535454
 30
0.0
 10
71.28694930943522
 20
-116.4993489292085
 30
0.0
 10
71.28694930943522
 20
-116.5324218458669
 30
0.0
 10
71.28694930943522
 20
-116.6798719326356
 30
0.0
 10
71.42647567658783
 20
-116.7725450011888
 30
0.0
 10
71.42647567658783
 20
-116.7725450011888
 30
0.0
 10
71.40614961322485
 20
-116.9551350619071
 30
0.0
 10
71.40614961322485
 20
-116.9551350619071
 30
0.0
 10
71.40614961322485
 20
-116.9551350619071
 30
0.0
 10
70.49078774279397
 20
-116.829733586244
 30
0.0
 10
70.49078774279397
 20
-116.829733586244
 30
0.0
 10
70.49078774279397
 20
-116.829733586244
 30
0.0
 10
70.49078774279397
 20
-116.0194471281132
 30
0.0
 10
70.49078774279397
 20
-116.0194471281132
 30
0.0
 10
70.49078774279397
 20
-116.0194471281132
 30
0.0
 10
70.70128307694274
 20
-116.0194471281132
 30
0.0
 10
70.70128307694274
 20
-116.0194471281132
 30
0.0
 10
70.70128307694274
 20
-116.0194471281132
 30
0.0
 10
70.70128307694274
 20
-116.6602348883697
 30
0.0
 10
70.70128307694274
 20
-116.6602348883697
 30
0.0
 10
70.70128307694274
 20
-116.6602348883697
 30
0.0
 10
71.15879175738392
 20
-116.7284477789776
 30
0.0
 10
71.15879175738392
 20
-116.7284477789776
 30
0.0
 10
71.12227374524026
 20
-116.664369002952
 30
0.0
 10
71.07886554212612
 20
-116.5785861253692
 30
0.0
 10
71.07886554212612
 20
-116.4552517069973
 30
0.0
 10
71.07886554212612
 20
-116.1910128832786
 30
0.0
 10
71.2800591184647
 20
-115.9446885560833
 30
0.0
 10
71.61871200466477
 20
-115.9446885560833
 30
0.0
 10
71.96184351499565
 20
-115.9446885560833
 30
0.0
 10
72.21574705225856
 20
-116.1779215204347
 30
0.0
 10
72.21574705225856
 20
-116.4928032477865
 30
0.0
  0
HATCH
  5
5E
330
57
100
AcDbEntity
  8
_U+30EC_U+30A4_U+30E4_U+30FC 1
 62
   179
420
  2234388
100
AcDbHatch
 10
0.0
 20
0.0
 30
0.0
210
0.0
220
0.0
230
1.0
  2
SOLID
 70
     1
 71
     0
 91
        1
 92
        1
 93
        1
 72
     4
 94
        3
 73
     0
 74
     1
 95
       53
 96
       49
 40
0.0
 40
0.0
 40
0.0
 40
0.0
 40
1.0
 40
1.0
 40
1.0
 40
2.0
 40
2.0
 40
2.0
 40
3.0
 40
3.0
 40
3.0
 40
4.0
 40
4.0
 40
4.0
 40
5.0
 40
5.0
 40
5.0
 40
6.0
 40
6.0
 40
6.0
 40
7.0
 40
7.0
 40
7.0
 40
8.0
 40
8.0
 40
8.0
 40
9.0
 40
9.0
 40
9.0
 40
10.0
 40
10.0
 40
10.0
 40
11.0
 40
11.0
 40
11.0
 40
12.0
 40
12.0
 40
12.0
 40
13.0
 40
13.0
 40
13.0
 40
14.0
 40
14.0
 40
14.0
 40
15.0
 40
15.0
 40
15.0
 40
16.0
 40
16.0
 40
16.0
 40
16.0
 10
72.21574705225856
 20
-116.4928032477865
 10
72.21574705225856
 20
-116.5741075012384
 10
72.19748804618675
 20
-116.6798719326356
 10
72.12893064603027
 20
-116.7856363640328
 10
72.01007485178916
 20
-116.9661593674599
 10
71.86813691779686
 20
-116.9882079785655
 10
71.75134818084689
 20
-117.0078450228314
 10
71.75134818084689
 20
-117.0078450228314
 10
71.75134818084689
 20
-116.7766791157711
 10
71.75134818084689
 20
-116.7766791157711
 10
71.966666648675
 20
-116.719490530716
 10
71.99870603668782
 20
-116.5875433736309
 10
71.99870603668782
 20
-116.4907361904954
 10
71.99870603668782
 20
-116.3453531610178
 10
71.8908745479995
 20
-116.1868787686963
 10
71.63938257757627
 20
-116.1868787686963
 10
71.36239690056219
 20
-116.1868787686963
 10
71.28694930943522
 20
-116.3739474535454
 10
71.28694930943522
 20
-116.4993489292085
 10
71.28694930943522
 20
-116.5324218458669
 10
71.28694930943522
 20
-116.6798719326356
 10
71.42647567658783
 20
-116.7725450011888
 10
71.42647567658783
 20
-116.7725450011888
 10
71.40614961322485
 20
-116.9551350619071
 10
71.40614961322485
 20
-116.9551350619071
 10
71.40614961322485
 20
-116.9551350619071
 10
70.49078774279397
 20
-116.829733586244
 10
70.49078774279397
 20
-116.829733586244
 10
70.49078774279397
 20
-116.829733586244
 10
70.49078774279397
 20
-116.0194471281132
 10
70.49078774279397
 20
-116.0194471281132
 10
70.49078774279397
 20
-116.0194471281132
 10
70.70128307694274
 20
-116.0194471281132
 10
70.70128307694274
 20
-116.0194471281132
 10
70.70128307694274
 20
-116.0194471281132
 10
70.70128307694274
 20
-116.6602348883697
 10
70.70128307694274
 20
-116.6602348883697
 10
70.70128307694274
 20
-116.6602348883697
 10
71.15879175738392
 20
-116.7284477789776
 10
71.15879175738392
 20
-116.7284477789776
 10
71.12227374524026
 20
-116.664369002952
 10
71.07886554212612
 20
-116.5785861253692
 10
71.07886554212612
 20
-116.4552517069973
 10
71.07886554212612
 20
-116.1910128832786
 10
71.2800591184647
 20
-115.9446885560833
 10
71.61871200466477
 20
-115.9446885560833
 10
71.96184351499565
 20
-115.9446885560833
 10
72.21574705225856
 20
-116.1779215204347
 10
72.21574705225856
 20
-116.4928032477865
 97
        0
 97
        0
 75
     2
 76
     1
 98
        0
  0
ENDBLK
  5
5A
330
57
100
AcDbEntity
  8
0
100
AcDbBlockEnd
  0
BLOCK
  5
6D
330
6B
100
AcDbEntity
  8
0
100
AcDbBlockBegin
  2
block 3
 70
     0
 10
0.0
 20
0.0
 30
0.0
  3
block 3
  1

  0
SPLINE
  5
6F
330
6B
100
AcDbEntity
  8
_U+30EC_U+30A4_U+30E4_U+30FC 1
370
     0
100
AcDbSpline
210
0.0
220
0.0
230
1.0
 70
    11
 71
     3
 72
    62
 73
    58
 74
     0
 42
0.0000000001
 43
0.0000000001
 12
1.0
 22
0.0
 32
0.0
 13
1.0
 23
0.0
 33
0.0
 40
0.0
 40
0.0
 40
0.0
 40
0.0
 40
1.0
 40
1.0
 40
1.0
 40
2.0
 40
2.0
 40
2.0
 40
3.0
 40
3.0
 40
3.0
 40
4.0
 40
4.0
 40
4.0
 40
5.0
 40
5.0
 40
5.0
 40
6.0
 40
6.0
 40
6.0
 40
7.0
 40
7.0
 40
7.0
 40
8.0
 40
8.0
 40
8.0
 40
9.0
 40
9.0
 40
9.0
 40
10.0
 40
10.0
 40
10.0
 40
11.0
 40
11.0
 40
11.0
 40
12.0
 40
12.0
 40
12.0
 40
13.0
 40
13.0
 40
13.0
 40
14.0
 40
14.0
 40
14.0
 40
15.0
 40
15.0
 40
15.0
 40
16.0
 40
16.0
 40
16.0
 40
17.0
 40
17.0
 40
17.0
 40
18.0
 40
18.0
 40
18.0
 40
19.0
 40
19.0
 40
19.0
 40
19.0
 10
72.21609156180709
 20
-134.2057616851986
 30
0.0
 10
72.21609156180709
 20
-134.3049804351738
 30
0.0
 10
72.19335393160445
 20
-134.5316677181032
 30
0.0
 10
71.99216035526585
 20
-134.6615478178971
 30
0.0
 10
71.87089299418506
 20
-134.7383734472182
 30
0.0
 10
71.76340601504526
 20
-134.742852071349
 30
0.0
 10
71.67176647513762
 20
-134.7473306954798
 30
0.0
 10
71.67176647513762
 20
-134.7473306954798
 30
0.0
 10
71.67176647513762
 20
-134.5182318457107
 30
0.0
 10
71.67176647513762
 20
-134.5182318457107
 30
0.0
 10
71.75169269039542
 20
-134.5161647884196
 30
0.0
 10
72.00559622765833
 20
-134.5051404828668
 30
0.0
 10
72.00559622765833
 20
-134.2102403093294
 30
0.0
 10
72.00559622765833
 20
-134.066924337143
 30
0.0
 10
71.93014863653136
 20
-133.9084499448215
 30
0.0
 10
71.68313529023894
 20
-133.9084499448215
 30
0.0
 10
71.55738930502733
 20
-133.9084499448215
 30
0.0
 10
71.504679344103
 20
-133.9480685429019
 30
0.0
 10
71.47057289879902
 20
-133.9811414595603
 30
0.0
 10
71.39030217399271
 20
-134.0583115984299
 30
0.0
 10
71.3765217920517
 20
-134.1792344499621
 30
0.0
 10
71.3765217920517
 20
-134.2364230350173
 30
0.0
 10
71.3765217920517
 20
-134.2564045888317
 30
0.0
 10
71.37893335889139
 20
-134.293956129621
 30
0.0
 10
71.3834119830222
 20
-134.3225504221485
 30
0.0
 10
71.3834119830222
 20
-134.3225504221485
 30
0.0
 10
71.17291664887344
 20
-134.3225504221485
 30
0.0
 10
71.17291664887344
 20
-134.3225504221485
 30
0.0
 10
71.17980683984393
 20
-134.2829318240682
 30
0.0
 10
71.18221840668362
 20
-134.238834601857
 30
0.0
 10
71.18221840668362
 20
-134.232288920435
 30
0.0
 10
71.18221840668362
 20
-134.164076029827
 30
0.0
 10
71.15913626693244
 20
-133.9570257911635
 30
0.0
 10
70.90316567237838
 20
-133.9570257911635
 30
0.0
 10
70.71092934430143
 20
-133.9570257911635
 30
0.0
 10
70.65132919240662
 20
-134.0934515723794
 30
0.0
 10
70.65132919240662
 20
-134.2078287424897
 30
0.0
 10
70.65132919240662
 20
-134.4830918717612
 30
0.0
 10
70.90316567237838
 20
-134.4920491200228
 30
0.0
 10
70.9806803207965
 20
-134.4965277441536
 30
0.0
 10
70.9806803207965
 20
-134.4965277441536
 30
0.0
 10
70.9806803207965
 20
-134.7077120973995
 30
0.0
 10
70.9806803207965
 20
-134.7077120973995
 30
0.0
 10
70.84597708732323
 20
-134.6987548491378
 30
0.0
 10
70.4387668009667
 20
-134.6701605566103
 30
0.0
 10
70.4387668009667
 20
-134.1947373796458
 30
0.0
 10
70.4387668009667
 20
-133.9615044152943
 30
0.0
 10
70.57588160127965
 20
-133.7103569544196
 30
0.0
 10
70.89627548140788
 20
-133.7103569544196
 30
0.0
 10
71.09746905774647
 20
-133.7103569544196
 30
0.0
 10
71.18669703081444
 20
-133.8095757043948
 30
0.0
 10
71.25318737367976
 20
-133.9129285689523
 30
0.0
 10
71.28281519485292
 20
-133.8491943024752
 30
0.0
 10
71.36963160108121
 20
-133.6597140507865
 30
0.0
 10
71.66935490829795
 20
-133.6597140507865
 30
0.0
 10
72.03556855838
 20
-133.6597140507865
 30
0.0
 10
72.21609156180709
 20
-133.9174071930832
 30
0.0
 10
72.21609156180709
 20
-134.2057616851986
 30
0.0
  0
HATCH
  5
70
330
6B
100
AcDbEntity
  8
_U+30EC_U+30A4_U+30E4_U+30FC 1
 62
   179
420
  2234388
100
AcDbHatch
 10
0.0
 20
0.0
 30
0.0
210
0.0
220
0.0
230
1.0
  2
SOLID
 70
     1
 71
     0
 91
        1
 92
        1
 93
        1
 72
     4
 94
        3
 73
     0
 74
     1
 95
       62
 96
       58
 40
0.0
 40
0.0
 40
0.0
 40
0.0
 40
1.0
 40
1.0
 40
1.0
 40
2.0
 40
2.0
 40
2.0
 40
3.0
 40
3.0
 40
3.0
 40
4.0
 40
4.0
 40
4.0
 40
5.0
 40
5.0
 40
5.0
 40
6.0
 40
6.0
 40
6.0
 40
7.0
 40
7.0
 40
7.0
 40
8.0
 40
8.0
 40
8.0
 40
9.0
 40
9.0
 40
9.0
 40
10.0
 40
10.0
 40
10.0
 40
11.0
 40
11.0
 40
11.0
 40
12.0
 40
12.0
 40
12.0
 40
13.0
 40
13.0
 40
13.0
 40
14.0
 40
14.0
 40
14.0
 40
15.0
 40
15.0
 40
15.0
 40
16.0
 40
16.0
 40
16.0
 40
17.0
 40
17.0
 40
17.0
 40
18.0
 40
18.0
 40
18.0
 40
19.0
 40
19.0
 40
19.0
 40
19.0
 10
72.21609156180709
 20
-134.2057616851986
 10
72.21609156180709
 20
-134.3049804351738
 10
72.19335393160445
 20
-134.5316677181032
 10
71.99216035526585
 20
-134.6615478178971
 10
71.87089299418506
 20
-134.7383734472182
 10
71.76340601504526
 20
-134.742852071349
 10
71.67176647513762
 20
-134.7473306954798
 10
71.67176647513762
 20
-134.7473306954798
 10
71.67176647513762
 20
-134.5182318457107
 10
71.67176647513762
 20
-134.5182318457107
 10
71.75169269039542
 20
-134.5161647884196
 10
72.00559622765833
 20
-134.5051404828668
 10
72.00559622765833
 20
-134.2102403093294
 10
72.00559622765833
 20
-134.066924337143
 10
71.93014863653136
 20
-133.9084499448215
 10
71.68313529023894
 20
-133.9084499448215
 10
71.55738930502733
 20
-133.9084499448215
 10
71.504679344103
 20
-133.9480685429019
 10
71.47057289879902
 20
-133.9811414595603
 10
71.39030217399271
 20
-134.0583115984299
 10
71.3765217920517
 20
-134.1792344499621
 10
71.3765217920517
 20
-134.2364230350173
 10
71.3765217920517
 20
-134.2564045888317
 10
71.37893335889139
 20
-134.293956129621
 10
71.3834119830222
 20
-134.3225504221485
 10
71.3834119830222
 20
-134.3225504221485
 10
71.17291664887344
 20
-134.3225504221485
 10
71.17291664887344
 20
-134.3225504221485
 10
71.17980683984393
 20
-134.2829318240682
 10
71.18221840668362
 20
-134.238834601857
 10
71.18221840668362
 20
-134.232288920435
 10
71.18221840668362
 20
-134.164076029827
 10
71.15913626693244
 20
-133.9570257911635
 10
70.90316567237838
 20
-133.9570257911635
 10
70.71092934430143
 20
-133.9570257911635
 10
70.65132919240662
 20
-134.0934515723794
 10
70.65132919240662
 20
-134.2078287424897
 10
70.65132919240662
 20
-134.4830918717612
 10
70.90316567237838
 20
-134.4920491200228
 10
70.9806803207965
 20
-134.4965277441536
 10
70.9806803207965
 20
-134.4965277441536
 10
70.9806803207965
 20
-134.7077120973995
 10
70.9806803207965
 20
-134.7077120973995
 10
70.84597708732323
 20
-134.6987548491378
 10
70.4387668009667
 20
-134.6701605566103
 10
70.4387668009667
 20
-134.1947373796458
 10
70.4387668009667
 20
-133.9615044152943
 10
70.57588160127965
 20
-133.7103569544196
 10
70.89627548140788
 20
-133.7103569544196
 10
71.09746905774647
 20
-133.7103569544196
 10
71.18669703081444
 20
-133.8095757043948
 10
71.25318737367976
 20
-133.9129285689523
 10
71.28281519485292
 20
-133.8491943024752
 10
71.36963160108121
 20
-133.6597140507865
 10
71.66935490829795
 20
-133.6597140507865
 10
72.03556855838
 20
-133.6597140507865
 10
72.21609156180709
 20
-133.9174071930832
 10
72.21609156180709
 20
-134.2057616851986
 97
        0
 97
        0
 75
     2
 76
     1
 98
        0
  0
SPLINE
  5
71
330
6B
100
AcDbEntity
  8
_U+30EC_U+30A4_U+30E4_U+30FC 1
370
     0
100
AcDbSpline
210
0.0
220
0.0
230
1.0
 70
    11
 71
     3
 72
    29
 73
    25
 74
     0
 42
0.0000000001
 43
0.0000000001
 12
1.0
 22
0.0
 32
0.0
 13
1.0
 23
0.0
 33
0.0
 40
0.0
 40
0.0
 40
0.0
 40
0.0
 40
1.0
 40
1.0
 40
1.0
 40
2.0
 40
2.0
 40
2.0
 40
3.0
 40
3.0
 40
3.0
 40
4.0
 40
4.0
 40
4.0
 40
5.0
 40
5.0
 40
5.0
 40
6.0
 40
6.0
 40
6.0
 40
7.0
 40
7.0
 40
7.0
 40
8.0
 40
8.0
 40
8.0
 40
8.0
 10
71.96907821551468
 20
-132.5590060432492
 30
0.0
 10
72.19576549844412
 20
-132.6713161560683
 30
0.0
 10
72.21609156180709
 20
-132.8518391594954
 30
0.0
 10
72.21609156180709
 20
-132.9727620110276
 30
0.0
 10
72.21609156180709
 20
-133.1401936516108
 30
0.0
 10
72.16579316772244
 20
-133.2876437383795
 30
0.0
 10
71.96907821551468
 20
-133.3868624883547
 30
0.0
 10
71.75858288136591
 20
-133.494693977043
 30
0.0
 10
71.50226777726333
 20
-133.5146755308575
 30
0.0
 10
71.32622339796706
 20
-133.5146755308575
 30
0.0
 10
71.1708495915823
 20
-133.5146755308575
 30
0.0
 10
70.89834253869903
 20
-133.4967610343342
 30
0.0
 10
70.68336858041944
 20
-133.3868624883547
 30
0.0
 10
70.46391599800903
 20
-133.2745523755355
 30
0.0
 10
70.4387668009667
 20
-133.1071207349524
 30
0.0
 10
70.4387668009667
 20
-132.9727620110276
 30
0.0
 10
70.4387668009667
 20
-132.8077419372842
 30
0.0
 10
70.48665362821167
 20
-132.6582247932243
 30
0.0
 10
70.68336858041944
 20
-132.5590060432492
 30
0.0
 10
70.89145234772853
 20
-132.4556531786916
 30
0.0
 10
71.13881020356946
 20
-132.4311930007464
 30
0.0
 10
71.32622339796706
 20
-132.4311930007464
 30
0.0
 10
71.5115695350735
 20
-132.4311930007464
 30
0.0
 10
71.7609944482056
 20
-132.453241611852
 30
0.0
 10
71.96907821551468
 20
-132.5590060432492
 30
0.0
  0
SPLINE
  5
72
330
6B
100
AcDbEntity
  8
_U+30EC_U+30A4_U+30E4_U+30FC 1
370
     0
100
AcDbSpline
210
0.0
220
0.0
230
1.0
 70
    11
 71
     3
 72
    17
 73
    13
 74
     0
 42
0.0000000001
 43
0.0000000001
 12
1.0
 22
0.0
 32
0.0
 13
1.0
 23
0.0
 33
0.0
 40
0.0
 40
0.0
 40
0.0
 40
0.0
 40
1.0
 40
1.0
 40
1.0
 40
2.0
 40
2.0
 40
2.0
 40
3.0
 40
3.0
 40
3.0
 40
4.0
 40
4.0
 40
4.0
 40
4.0
 10
70.6468505682758
 20
-132.9727620110276
 30
0.0
 10
70.6468505682758
 20
-133.232866720164
 30
0.0
 10
70.95346406646303
 20
-133.2810980569575
 30
0.0
 10
71.32622339796706
 20
-133.2810980569575
 30
0.0
 10
71.67176647513762
 20
-133.2810980569575
 30
0.0
 10
72.00559622765833
 20
-133.2435465161683
 30
0.0
 10
72.00559622765833
 20
-132.9727620110276
 30
0.0
 10
72.00559622765833
 20
-132.7154133782795
 30
0.0
 10
71.70139429631077
 20
-132.6647704746463
 30
0.0
 10
71.32622339796706
 20
-132.6647704746463
 30
0.0
 10
70.9806803207965
 20
-132.6647704746463
 30
0.0
 10
70.6468505682758
 20
-132.7043890727267
 30
0.0
 10
70.6468505682758
 20
-132.9727620110276
 30
0.0
  0
HATCH
  5
73
330
6B
100
AcDbEntity
  8
_U+30EC_U+30A4_U+30E4_U+30FC 1
 62
   179
420
  2234388
100
AcDbHatch
 10
0.0
 20
0.0
 30
0.0
210
0.0
220
0.0
230
1.0
  2
SOLID
 70
     1
 71
     0
 91
        2
 92
        1
 93
        1
 72
     4
 94
        3
 73
     0
 74
     1
 95
       29
 96
       25
 40
0.0
 40
0.0
 40
0.0
 40
0.0
 40
1.0
 40
1.0
 40
1.0
 40
2.0
 40
2.0
 40
2.0
 40
3.0
 40
3.0
 40
3.0
 40
4.0
 40
4.0
 40
4.0
 40
5.0
 40
5.0
 40
5.0
 40
6.0
 40
6.0
 40
6.0
 40
7.0
 40
7.0
 40
7.0
 40
8.0
 40
8.0
 40
8.0
 40
8.0
 10
71.96907821551468
 20
-132.5590060432492
 10
72.19576549844412
 20
-132.6713161560683
 10
72.21609156180709
 20
-132.8518391594954
 10
72.21609156180709
 20
-132.9727620110276
 10
72.21609156180709
 20
-133.1401936516108
 10
72.16579316772244
 20
-133.2876437383795
 10
71.96907821551468
 20
-133.3868624883547
 10
71.75858288136591
 20
-133.494693977043
 10
71.50226777726333
 20
-133.5146755308575
 10
71.32622339796706
 20
-133.5146755308575
 10
71.1708495915823
 20
-133.5146755308575
 10
70.89834253869903
 20
-133.4967610343342
 10
70.68336858041944
 20
-133.3868624883547
 10
70.46391599800903
 20
-133.2745523755355
 10
70.4387668009667
 20
-133.1071207349524
 10
70.4387668009667
 20
-132.9727620110276
 10
70.4387668009667
 20
-132.8077419372842
 10
70.48665362821167
 20
-132.6582247932243
 10
70.68336858041944
 20
-132.5590060432492
 10
70.89145234772853
 20
-132.4556531786916
 10
71.13881020356946
 20
-132.4311930007464
 10
71.32622339796706
 20
-132.4311930007464
 10
71.5115695350735
 20
-132.4311930007464
 10
71.7609944482056
 20
-132.453241611852
 10
71.96907821551468
 20
-132.5590060432492
 97
        0
 97
        0
 92
        1
 93
        1
 72
     4
 94
        3
 73
     0
 74
     1
 95
       17
 96
       13
 40
0.0
 40
0.0
 40
0.0
 40
0.0
 40
1.0
 40
1.0
 40
1.0
 40
2.0
 40
2.0
 40
2.0
 40
3.0
 40
3.0
 40
3.0
 40
4.0
 40
4.0
 40
4.0
 40
4.0
 10
70.6468505682758
 20
-132.9727620110276
 10
70.6468505682758
 20
-133.232866720164
 10
70.95346406646303
 20
-133.2810980569575
 10
71.32622339796706
 20
-133.2810980569575
 10
71.67176647513762
 20
-133.2810980569575
 10
72.00559622765833
 20
-133.2435465161683
 10
72.00559622765833
 20
-132.9727620110276
 10
72.00559622765833
 20
-132.7154133782795
 10
71.70139429631077
 20
-132.6647704746463
 10
71.32622339796706
 20
-132.6647704746463
 10
70.9806803207965
 20
-132.6647704746463
 10
70.6468505682758
 20
-132.7043890727267
 10
70.6468505682758
 20
-132.9727620110276
 97
        0
 97
        0
 75
     2
 76
     1
 98
        0
  0
ENDBLK
  5
6E
330
6B
100
AcDbEntity
  8
0
100
AcDbBlockEnd
  0
BLOCK
  5
82
330
80
100
AcDbEntity
  8
0
100
AcDbBlockBegin
  2
block 4
 70
     0
 10
0.0
 20
0.0
 30
0.0
  3
block 4
  1

  0
SPLINE
  5
84
330
80
100
AcDbEntity
  8
_U+30EC_U+30A4_U+30E4_U+30FC 1
370
     0
100
AcDbSpline
210
0.0
220
0.0
230
1.0
 70
    11
 71
     3
 72
    44
 73
    40
 74
     0
 42
0.0000000001
 43
0.0000000001
 12
1.0
 22
0.0
 32
0.0
 13
1.0
 23
0.0
 33
0.0
 40
0.0
 40
0.0
 40
0.0
 40
0.0
 40
1.0
 40
1.0
 40
1.0
 40
2.0
 40
2.0
 40
2.0
 40
3.0
 40
3.0
 40
3.0
 40
4.0
 40
4.0
 40
4.0
 40
5.0
 40
5.0
 40
5.0
 40
6.0
 40
6.0
 40
6.0
 40
7.0
 40
7.0
 40
7.0
 40
8.0
 40
8.0
 40
8.0
 40
9.0
 40
9.0
 40
9.0
 40
10.0
 40
10.0
 40
10.0
 40
11.0
 40
11.0
 40
11.0
 40
12.0
 40
12.0
 40
12.0
 40
13.0
 40
13.0
 40
13.0
 40
13.0
 10
110.2089490826908
 20
-137.3039360550837
 30
0.0
 10
110.3805148378563
 20
-137.5306233380132
 30
0.0
 10
110.4604410531141
 20
-137.6277750306972
 30
0.0
 10
110.6161593690474
 20
-137.6784179343304
 30
0.0
 10
110.6161593690474
 20
-137.6784179343304
 30
0.0
 10
110.6161593690474
 20
-136.8681314761996
 30
0.0
 10
110.6161593690474
 20
-136.8681314761996
 30
0.0
 10
110.6161593690474
 20
-136.8681314761996
 30
0.0
 10
110.8380235182974
 20
-136.8681314761996
 30
0.0
 10
110.8380235182974
 20
-136.8681314761996
 30
0.0
 10
110.8380235182974
 20
-136.8681314761996
 30
0.0
 10
110.8380235182974
 20
-137.9381781339182
 30
0.0
 10
110.8380235182974
 20
-137.9381781339182
 30
0.0
 10
110.4514838048524
 20
-137.9051052172598
 30
0.0
 10
110.3667344559153
 20
-137.8368923266519
 30
0.0
 10
110.0442735184959
 20
-137.4362277217173
 30
0.0
 10
109.8289550506678
 20
-137.169577331159
 30
0.0
 10
109.7559190263805
 20
-137.1013644405511
 30
0.0
 10
109.6070909014177
 20
-137.1013644405511
 30
0.0
 10
109.4789333493664
 20
-137.1013644405511
 30
0.0
 10
109.3373399249226
 20
-137.1764675221295
 30
0.0
 10
109.3373399249226
 20
-137.3811061939533
 30
0.0
 10
109.3373399249226
 20
-137.651890699094
 30
0.0
 10
109.5867648380547
 20
-137.6605034378071
 30
0.0
 10
109.7125108232663
 20
-137.6649820619379
 30
0.0
 10
109.7125108232663
 20
-137.6649820619379
 30
0.0
 10
109.7125108232663
 20
-137.8985595358379
 30
0.0
 10
109.7125108232663
 20
-137.8985595358379
 30
0.0
 10
109.5750515134049
 20
-137.8896022875762
 30
0.0
 10
109.4537841523241
 20
-137.8785779820234
 30
0.0
 10
109.3259711098213
 20
-137.7948621617319
 30
0.0
 10
109.1519937878162
 20
-137.6804849916215
 30
0.0
 10
109.1154757756725
 20
-137.4868706253505
 30
0.0
 10
109.1154757756725
 20
-137.3656032642697
 30
0.0
 10
109.1154757756725
 20
-137.0772487721543
 30
0.0
 10
109.3142577851714
 20
-136.8615857947777
 30
0.0
 10
109.6095024682573
 20
-136.8615857947777
 30
0.0
 10
109.8565158145498
 20
-136.8615857947777
 30
0.0
 10
109.9640027936896
 20
-136.9825086463099
 30
0.0
 10
110.2089490826908
 20
-137.3039360550837
 30
0.0
  0
HATCH
  5
85
330
80
100
AcDbEntity
  8
_U+30EC_U+30A4_U+30E4_U+30FC 1
 62
   179
420
  2234388
100
AcDbHatch
 10
0.0
 20
0.0
 30
0.0
210
0.0
220
0.0
230
1.0
  2
SOLID
 70
     1
 71
     0
 91
        1
 92
        1
 93
        1
 72
     4
 94
        3
 73
     0
 74
     1
 95
       44
 96
       40
 40
0.0
 40
0.0
 40
0.0
 40
0.0
 40
1.0
 40
1.0
 40
1.0
 40
2.0
 40
2.0
 40
2.0
 40
3.0
 40
3.0
 40
3.0
 40
4.0
 40
4.0
 40
4.0
 40
5.0
 40
5.0
 40
5.0
 40
6.0
 40
6.0
 40
6.0
 40
7.0
 40
7.0
 40
7.0
 40
8.0
 40
8.0
 40
8.0
 40
9.0
 40
9.0
 40
9.0
 40
10.0
 40
10.0
 40
10.0
 40
11.0
 40
11.0
 40
11.0
 40
12.0
 40
12.0
 40
12.0
 40
13.0
 40
13.0
 40
13.0
 40
13.0
 10
110.2089490826908
 20
-137.3039360550837
 10
110.3805148378563
 20
-137.5306233380132
 10
110.4604410531141
 20
-137.6277750306972
 10
110.6161593690474
 20
-137.6784179343304
 10
110.6161593690474
 20
-137.6784179343304
 10
110.6161593690474
 20
-136.8681314761996
 10
110.6161593690474
 20
-136.8681314761996
 10
110.6161593690474
 20
-136.8681314761996
 10
110.8380235182974
 20
-136.8681314761996
 10
110.8380235182974
 20
-136.8681314761996
 10
110.8380235182974
 20
-136.8681314761996
 10
110.8380235182974
 20
-137.9381781339182
 10
110.8380235182974
 20
-137.9381781339182
 10
110.4514838048524
 20
-137.9051052172598
 10
110.3667344559153
 20
-137.8368923266519
 10
110.0442735184959
 20
-137.4362277217173
 10
109.8289550506678
 20
-137.169577331159
 10
109.7559190263805
 20
-137.1013644405511
 10
109.6070909014177
 20
-137.1013644405511
 10
109.4789333493664
 20
-137.1013644405511
 10
109.3373399249226
 20
-137.1764675221295
 10
109.3373399249226
 20
-137.3811061939533
 10
109.3373399249226
 20
-137.651890699094
 10
109.5867648380547
 20
-137.6605034378071
 10
109.7125108232663
 20
-137.6649820619379
 10
109.7125108232663
 20
-137.6649820619379
 10
109.7125108232663
 20
-137.8985595358379
 10
109.7125108232663
 20
-137.8985595358379
 10
109.5750515134049
 20
-137.8896022875762
 10
109.4537841523241
 20
-137.8785779820234
 10
109.3259711098213
 20
-137.7948621617319
 10
109.1519937878162
 20
-137.6804849916215
 10
109.1154757756725
 20
-137.4868706253505
 10
109.1154757756725
 20
-137.3656032642697
 10
109.1154757756725
 20
-137.0772487721543
 10
109.3142577851714
 20
-136.8615857947777
 10
109.6095024682573
 20
-136.8615857947777
 10
109.8565158145498
 20
-136.8615857947777
 10
109.9640027936896
 20
-136.9825086463099
 10
110.2089490826908
 20
-137.3039360550837
 97
        0
 97
        0
 75
     2
 76
     1
 98
        0
  0
SPLINE
  5
86
330
80
100
AcDbEntity
  8
_U+30EC_U+30A4_U+30E4_U+30FC 1
370
     0
100
AcDbSpline
210
0.0
220
0.0
230
1.0
 70
    11
 71
     3
 72
    29
 73
    25
 74
     0
 42
0.0000000001
 43
0.0000000001
 12
1.0
 22
0.0
 32
0.0
 13
1.0
 23
0.0
 33
0.0
 40
0.0
 40
0.0
 40
0.0
 40
0.0
 40
1.0
 40
1.0
 40
1.0
 40
2.0
 40
2.0
 40
2.0
 40
3.0
 40
3.0
 40
3.0
 40
4.0
 40
4.0
 40
4.0
 40
5.0
 40
5.0
 40
5.0
 40
6.0
 40
6.0
 40
6.0
 40
7.0
 40
7.0
 40
7.0
 40
8.0
 40
8.0
 40
8.0
 40
8.0
 10
110.6457871902205
 20
-135.7629448445315
 30
0.0
 10
110.8724744731499
 20
-135.8752549573506
 30
0.0
 10
110.8928005365129
 20
-136.0557779607777
 30
0.0
 10
110.8928005365129
 20
-136.17670081231
 30
0.0
 10
110.8928005365129
 20
-136.3441324528931
 30
0.0
 10
110.8425021424283
 20
-136.4915825396618
 30
0.0
 10
110.6457871902205
 20
-136.590801289637
 30
0.0
 10
110.4352918560717
 20
-136.6986327783254
 30
0.0
 10
110.1793212615177
 20
-136.7186143321398
 30
0.0
 10
110.0029323726729
 20
-136.7186143321398
 30
0.0
 10
109.8475585662881
 20
-136.7186143321398
 30
0.0
 10
109.5750515134049
 20
-136.7006998356165
 30
0.0
 10
109.3600775551253
 20
-136.590801289637
 30
0.0
 10
109.1406249727148
 20
-136.4784911768179
 30
0.0
 10
109.1154757756725
 20
-136.3110595362348
 30
0.0
 10
109.1154757756725
 20
-136.17670081231
 30
0.0
 10
109.1154757756725
 20
-136.0116807385665
 30
0.0
 10
109.1633626029175
 20
-135.8621635945067
 30
0.0
 10
109.3600775551253
 20
-135.7629448445315
 30
0.0
 10
109.5681613224343
 20
-135.659591979974
 30
0.0
 10
109.8155191782753
 20
-135.6351318020287
 30
0.0
 10
110.0029323726729
 20
-135.6351318020287
 30
0.0
 10
110.1882785097793
 20
-135.6351318020287
 30
0.0
 10
110.4377034229114
 20
-135.6571804131343
 30
0.0
 10
110.6457871902205
 20
-135.7629448445315
 30
0.0
  0
SPLINE
  5
87
330
80
100
AcDbEntity
  8
_U+30EC_U+30A4_U+30E4_U+30FC 1
370
     0
100
AcDbSpline
210
0.0
220
0.0
230
1.0
 70
    11
 71
     3
 72
    17
 73
    13
 74
     0
 42
0.0000000001
 43
0.0000000001
 12
1.0
 22
0.0
 32
0.0
 13
1.0
 23
0.0
 33
0.0
 40
0.0
 40
0.0
 40
0.0
 40
0.0
 40
1.0
 40
1.0
 40
1.0
 40
2.0
 40
2.0
 40
2.0
 40
3.0
 40
3.0
 40
3.0
 40
4.0
 40
4.0
 40
4.0
 40
4.0
 10
109.3235595429816
 20
-136.17670081231
 30
0.0
 10
109.3235595429816
 20
-136.4368055214464
 30
0.0
 10
109.6301730411688
 20
-136.4850368582399
 30
0.0
 10
110.0029323726729
 20
-136.4850368582399
 30
0.0
 10
110.3484754498434
 20
-136.4850368582399
 30
0.0
 10
110.6823052023641
 20
-136.4474853174506
 30
0.0
 10
110.6823052023641
 20
-136.17670081231
 30
0.0
 10
110.6823052023641
 20
-135.9193521795618
 30
0.0
 10
110.3781032710166
 20
-135.8687092759287
 30
0.0
 10
110.0029323726729
 20
-135.8687092759287
 30
0.0
 10
109.6573892955023
 20
-135.8687092759287
 30
0.0
 10
109.3235595429816
 20
-135.908327874009
 30
0.0
 10
109.3235595429816
 20
-136.17670081231
 30
0.0
  0
HATCH
  5
88
330
80
100
AcDbEntity
  8
_U+30EC_U+30A4_U+30E4_U+30FC 1
 62
   179
420
  2234388
100
AcDbHatch
 10
0.0
 20
0.0
 30
0.0
210
0.0
220
0.0
230
1.0
  2
SOLID
 70
     1
 71
     0
 91
        2
 92
        1
 93
        1
 72
     4
 94
        3
 73
     0
 74
     1
 95
       29
 96
       25
 40
0.0
 40
0.0
 40
0.0
 40
0.0
 40
1.0
 40
1.0
 40
1.0
 40
2.0
 40
2.0
 40
2.0
 40
3.0
 40
3.0
 40
3.0
 40
4.0
 40
4.0
 40
4.0
 40
5.0
 40
5.0
 40
5.0
 40
6.0
 40
6.0
 40
6.0
 40
7.0
 40
7.0
 40
7.0
 40
8.0
 40
8.0
 40
8.0
 40
8.0
 10
110.6457871902205
 20
-135.7629448445315
 10
110.8724744731499
 20
-135.8752549573506
 10
110.8928005365129
 20
-136.0557779607777
 10
110.8928005365129
 20
-136.17670081231
 10
110.8928005365129
 20
-136.3441324528931
 10
110.8425021424283
 20
-136.4915825396618
 10
110.6457871902205
 20
-136.590801289637
 10
110.4352918560717
 20
-136.6986327783254
 10
110.1793212615177
 20
-136.7186143321398
 10
110.0029323726729
 20
-136.7186143321398
 10
109.8475585662881
 20
-136.7186143321398
 10
109.5750515134049
 20
-136.7006998356165
 10
109.3600775551253
 20
-136.590801289637
 10
109.1406249727148
 20
-136.4784911768179
 10
109.1154757756725
 20
-136.3110595362348
 10
109.1154757756725
 20
-136.17670081231
 10
109.1154757756725
 20
-136.0116807385665
 10
109.1633626029175
 20
-135.8621635945067
 10
109.3600775551253
 20
-135.7629448445315
 10
109.5681613224343
 20
-135.659591979974
 10
109.8155191782753
 20
-135.6351318020287
 10
110.0029323726729
 20
-135.6351318020287
 10
110.1882785097793
 20
-135.6351318020287
 10
110.4377034229114
 20
-135.6571804131343
 10
110.6457871902205
 20
-135.7629448445315
 97
        0
 97
        0
 92
        1
 93
        1
 72
     4
 94
        3
 73
     0
 74
     1
 95
       17
 96
       13
 40
0.0
 40
0.0
 40
0.0
 40
0.0
 40
1.0
 40
1.0
 40
1.0
 40
2.0
 40
2.0
 40
2.0
 40
3.0
 40
3.0
 40
3.0
 40
4.0
 40
4.0
 40
4.0
 40
4.0
 10
109.3235595429816
 20
-136.17670081231
 10
109.3235595429816
 20
-136.4368055214464
 10
109.6301730411688
 20
-136.4850368582399
 10
110.0029323726729
 20
-136.4850368582399
 10
110.3484754498434
 20
-136.4850368582399
 10
110.6823052023641
 20
-136.4474853174506
 10
110.6823052023641
 20
-136.17670081231
 10
110.6823052023641
 20
-135.9193521795618
 10
110.3781032710166
 20
-135.8687092759287
 10
110.0029323726729
 20
-135.8687092759287
 10
109.6573892955023
 20
-135.8687092759287
 10
109.3235595429816
 20
-135.908327874009
 10
109.3235595429816
 20
-136.17670081231
 97
        0
 97
        0
 75
     2
 76
     1
 98
        0
  0
ENDBLK
  5
83
330
80
100
AcDbEntity
  8
0
100
AcDbBlockEnd
  0
BLOCK
  5
97
330
95
100
AcDbEntity
  8
0
100
AcDbBlockBegin
  2
block 5
 70
     0
 10
0.0
 20
0.0
 30
0.0
  3
block 5
  1

  0
SPLINE
  5
99
330
95
100
AcDbEntity
  8
_U+30EC_U+30A4_U+30E4_U+30FC 1
370
     0
100
AcDbSpline
210
0.0
220
0.0
230
1.0
 70
    11
 71
     3
 72
    44
 73
    40
 74
     0
 42
0.0000000001
 43
0.0000000001
 12
1.0
 22
0.0
 32
0.0
 13
1.0
 23
0.0
 33
0.0
 40
0.0
 40
0.0
 40
0.0
 40
0.0
 40
1.0
 40
1.0
 40
1.0
 40
2.0
 40
2.0
 40
2.0
 40
3.0
 40
3.0
 40
3.0
 40
4.0
 40
4.0
 40
4.0
 40
5.0
 40
5.0
 40
5.0
 40
6.0
 40
6.0
 40
6.0
 40
7.0
 40
7.0
 40
7.0
 40
8.0
 40
8.0
 40
8.0
 40
9.0
 40
9.0
 40
9.0
 40
10.0
 40
10.0
 40
10.0
 40
11.0
 40
11.0
 40
11.0
 40
12.0
 40
12.0
 40
12.0
 40
13.0
 40
13.0
 40
13.0
 40
13.0
 10
100.0979383430311
 20
-144.1396945169165
 30
0.0
 10
99.87125106010164
 20
-144.3112602720819
 30
0.0
 10
99.77409936741759
 20
-144.3911864873397
 30
0.0
 10
99.72345646378442
 20
-144.546904803273
 30
0.0
 10
99.72345646378442
 20
-144.546904803273
 30
0.0
 10
100.5337429219152
 20
-144.546904803273
 30
0.0
 10
100.5337429219152
 20
-144.546904803273
 30
0.0
 10
100.5337429219152
 20
-144.546904803273
 30
0.0
 10
100.5337429219152
 20
-144.7687689525231
 30
0.0
 10
100.5337429219152
 20
-144.7687689525231
 30
0.0
 10
100.5337429219152
 20
-144.7687689525231
 30
0.0
 10
99.46369626419659
 20
-144.7687689525231
 30
0.0
 10
99.46369626419659
 20
-144.7687689525231
 30
0.0
 10
99.49676918085498
 20
-144.3822292390781
 30
0.0
 10
99.56498207146292
 20
-144.2974798901409
 30
0.0
 10
99.96564667639748
 20
-143.9750189527215
 30
0.0
 10
100.2322970669558
 20
-143.7597004848934
 30
0.0
 10
100.3005099575638
 20
-143.6866644606061
 30
0.0
 10
100.3005099575638
 20
-143.5378363356433
 30
0.0
 10
100.3005099575638
 20
-143.409678783592
 30
0.0
 10
100.2254068759853
 20
-143.2680853591483
 30
0.0
 10
100.0207682041615
 20
-143.2680853591483
 30
0.0
 10
99.74998369902085
 20
-143.2680853591483
 30
0.0
 10
99.7410264507592
 20
-143.5175102722804
 30
0.0
 10
99.7368923361769
 20
-143.643256257492
 30
0.0
 10
99.7368923361769
 20
-143.643256257492
 30
0.0
 10
99.50331486227695
 20
-143.643256257492
 30
0.0
 10
99.50331486227695
 20
-143.643256257492
 30
0.0
 10
99.5122721105386
 20
-143.5057969476305
 30
0.0
 10
99.5232964160914
 20
-143.3845295865497
 30
0.0
 10
99.60701223638297
 20
-143.256716544047
 30
0.0
 10
99.72138940649327
 20
-143.0827392220418
 30
0.0
 10
99.91500377276431
 20
-143.0462212098982
 30
0.0
 10
100.0362711338451
 20
-143.0462212098982
 30
0.0
 10
100.3246256259605
 20
-143.0462212098982
 30
0.0
 10
100.5402886033372
 20
-143.2450032193971
 30
0.0
 10
100.5402886033372
 20
-143.540247902483
 30
0.0
 10
100.5402886033372
 20
-143.7872612487754
 30
0.0
 10
100.4193657518049
 20
-143.8947482279152
 30
0.0
 10
100.0979383430311
 20
-144.1396945169165
 30
0.0
  0
HATCH
  5
9A
330
95
100
AcDbEntity
  8
_U+30EC_U+30A4_U+30E4_U+30FC 1
 62
   179
420
  2234388
100
AcDbHatch
 10
0.0
 20
0.0
 30
0.0
210
0.0
220
0.0
230
1.0
  2
SOLID
 70
     1
 71
     0
 91
        1
 92
        1
 93
        1
 72
     4
 94
        3
 73
     0
 74
     1
 95
       44
 96
       40
 40
0.0
 40
0.0
 40
0.0
 40
0.0
 40
1.0
 40
1.0
 40
1.0
 40
2.0
 40
2.0
 40
2.0
 40
3.0
 40
3.0
 40
3.0
 40
4.0
 40
4.0
 40
4.0
 40
5.0
 40
5.0
 40
5.0
 40
6.0
 40
6.0
 40
6.0
 40
7.0
 40
7.0
 40
7.0
 40
8.0
 40
8.0
 40
8.0
 40
9.0
 40
9.0
 40
9.0
 40
10.0
 40
10.0
 40
10.0
 40
11.0
 40
11.0
 40
11.0
 40
12.0
 40
12.0
 40
12.0
 40
13.0
 40
13.0
 40
13.0
 40
13.0
 10
100.0979383430311
 20
-144.1396945169165
 10
99.87125106010164
 20
-144.3112602720819
 10
99.77409936741759
 20
-144.3911864873397
 10
99.72345646378442
 20
-144.546904803273
 10
99.72345646378442
 20
-144.546904803273
 10
100.5337429219152
 20
-144.546904803273
 10
100.5337429219152
 20
-144.546904803273
 10
100.5337429219152
 20
-144.546904803273
 10
100.5337429219152
 20
-144.7687689525231
 10
100.5337429219152
 20
-144.7687689525231
 10
100.5337429219152
 20
-144.7687689525231
 10
99.46369626419659
 20
-144.7687689525231
 10
99.46369626419659
 20
-144.7687689525231
 10
99.49676918085498
 20
-144.3822292390781
 10
99.56498207146292
 20
-144.2974798901409
 10
99.96564667639748
 20
-143.9750189527215
 10
100.2322970669558
 20
-143.7597004848934
 10
100.3005099575638
 20
-143.6866644606061
 10
100.3005099575638
 20
-143.5378363356433
 10
100.3005099575638
 20
-143.409678783592
 10
100.2254068759853
 20
-143.2680853591483
 10
100.0207682041615
 20
-143.2680853591483
 10
99.74998369902085
 20
-143.2680853591483
 10
99.7410264507592
 20
-143.5175102722804
 10
99.7368923361769
 20
-143.643256257492
 10
99.7368923361769
 20
-143.643256257492
 10
99.50331486227695
 20
-143.643256257492
 10
99.50331486227695
 20
-143.643256257492
 10
99.5122721105386
 20
-143.5057969476305
 10
99.5232964160914
 20
-143.3845295865497
 10
99.60701223638297
 20
-143.256716544047
 10
99.72138940649327
 20
-143.0827392220418
 10
99.91500377276431
 20
-143.0462212098982
 10
100.0362711338451
 20
-143.0462212098982
 10
100.3246256259605
 20
-143.0462212098982
 10
100.5402886033372
 20
-143.2450032193971
 10
100.5402886033372
 20
-143.540247902483
 10
100.5402886033372
 20
-143.7872612487754
 10
100.4193657518049
 20
-143.8947482279152
 10
100.0979383430311
 20
-144.1396945169165
 97
        0
 97
        0
 75
     2
 76
     1
 98
        0
  0
SPLINE
  5
9B
330
95
100
AcDbEntity
  8
_U+30EC_U+30A4_U+30E4_U+30FC 1
370
     0
100
AcDbSpline
210
0.0
220
0.0
230
1.0
 70
    11
 71
     3
 72
    53
 73
    49
 74
     0
 42
0.0000000001
 43
0.0000000001
 12
1.0
 22
0.0
 32
0.0
 13
1.0
 23
0.0
 33
0.0
 40
0.0
 40
0.0
 40
0.0
 40
0.0
 40
1.0
 40
1.0
 40
1.0
 40
2.0
 40
2.0
 40
2.0
 40
3.0
 40
3.0
 40
3.0
 40
4.0
 40
4.0
 40
4.0
 40
5.0
 40
5.0
 40
5.0
 40
6.0
 40
6.0
 40
6.0
 40
7.0
 40
7.0
 40
7.0
 40
8.0
 40
8.0
 40
8.0
 40
9.0
 40
9.0
 40
9.0
 40
10.0
 40
10.0
 40
10.0
 40
11.0
 40
11.0
 40
11.0
 40
12.0
 40
12.0
 40
12.0
 40
13.0
 40
13.0
 40
13.0
 40
14.0
 40
14.0
 40
14.0
 40
15.0
 40
15.0
 40
15.0
 40
16.0
 40
16.0
 40
16.0
 40
16.0
 10
101.2051920319904
 20
-144.8235459707386
 30
0.0
 10
101.1238877785385
 20
-144.8235459707386
 30
0.0
 10
101.0181233471413
 20
-144.8052869646667
 30
0.0
 10
100.9123589157441
 20
-144.7367295645103
 30
0.0
 10
100.7318359123171
 20
-144.6178737702691
 30
0.0
 10
100.7097873012114
 20
-144.4759358362768
 30
0.0
 10
100.6901502569455
 20
-144.3591470993269
 30
0.0
 10
100.6901502569455
 20
-144.3591470993269
 30
0.0
 10
100.9213161640058
 20
-144.3591470993269
 30
0.0
 10
100.9213161640058
 20
-144.3591470993269
 30
0.0
 10
100.9785047490609
 20
-144.574465567155
 30
0.0
 10
101.110451906146
 20
-144.6065049551678
 30
0.0
 10
101.2072590892815
 20
-144.6065049551678
 30
0.0
 10
101.3526421187591
 20
-144.6065049551678
 30
0.0
 10
101.5111165110806
 20
-144.4986734664795
 30
0.0
 10
101.5111165110806
 20
-144.2471814960563
 30
0.0
 10
101.5111165110806
 20
-143.9701958190422
 30
0.0
 10
101.3240478262315
 20
-143.8947482279152
 30
0.0
 10
101.1986463505684
 20
-143.8947482279152
 30
0.0
 10
101.16557343391
 20
-143.8947482279152
 30
0.0
 10
101.0181233471413
 20
-143.8947482279152
 30
0.0
 10
100.9254502785881
 20
-144.0342745950678
 30
0.0
 10
100.9254502785881
 20
-144.0342745950678
 30
0.0
 10
100.7428602178698
 20
-144.0139485317048
 30
0.0
 10
100.7428602178698
 20
-144.0139485317048
 30
0.0
 10
100.7428602178698
 20
-144.0139485317048
 30
0.0
 10
100.8682616935329
 20
-143.098586661274
 30
0.0
 10
100.8682616935329
 20
-143.098586661274
 30
0.0
 10
100.8682616935329
 20
-143.098586661274
 30
0.0
 10
101.6785481516637
 20
-143.098586661274
 30
0.0
 10
101.6785481516637
 20
-143.098586661274
 30
0.0
 10
101.6785481516637
 20
-143.098586661274
 30
0.0
 10
101.6785481516637
 20
-143.3090819954227
 30
0.0
 10
101.6785481516637
 20
-143.3090819954227
 30
0.0
 10
101.6785481516637
 20
-143.3090819954227
 30
0.0
 10
101.0377603914072
 20
-143.3090819954227
 30
0.0
 10
101.0377603914072
 20
-143.3090819954227
 30
0.0
 10
101.0377603914072
 20
-143.3090819954227
 30
0.0
 10
100.9695475007993
 20
-143.7665906758639
 30
0.0
 10
100.9695475007993
 20
-143.7665906758639
 30
0.0
 10
101.0336262768249
 20
-143.7300726637203
 30
0.0
 10
101.1194091544076
 20
-143.6866644606061
 30
0.0
 10
101.2427435727796
 20
-143.6866644606061
 30
0.0
 10
101.5069823964983
 20
-143.6866644606061
 30
0.0
 10
101.7533067236936
 20
-143.8878580369447
 30
0.0
 10
101.7533067236936
 20
-144.2265109231448
 30
0.0
 10
101.7533067236936
 20
-144.5696424334757
 30
0.0
 10
101.5200737593422
 20
-144.8235459707386
 30
0.0
 10
101.2051920319904
 20
-144.8235459707386
 30
0.0
  0
HATCH
  5
9C
330
95
100
AcDbEntity
  8
_U+30EC_U+30A4_U+30E4_U+30FC 1
 62
   179
420
  2234388
100
AcDbHatch
 10
0.0
 20
0.0
 30
0.0
210
0.0
220
0.0
230
1.0
  2
SOLID
 70
     1
 71
     0
 91
        1
 92
        1
 93
        1
 72
     4
 94
        3
 73
     0
 74
     1
 95
       53
 96
       49
 40
0.0
 40
0.0
 40
0.0
 40
0.0
 40
1.0
 40
1.0
 40
1.0
 40
2.0
 40
2.0
 40
2.0
 40
3.0
 40
3.0
 40
3.0
 40
4.0
 40
4.0
 40
4.0
 40
5.0
 40
5.0
 40
5.0
 40
6.0
 40
6.0
 40
6.0
 40
7.0
 40
7.0
 40
7.0
 40
8.0
 40
8.0
 40
8.0
 40
9.0
 40
9.0
 40
9.0
 40
10.0
 40
10.0
 40
10.0
 40
11.0
 40
11.0
 40
11.0
 40
12.0
 40
12.0
 40
12.0
 40
13.0
 40
13.0
 40
13.0
 40
14.0
 40
14.0
 40
14.0
 40
15.0
 40
15.0
 40
15.0
 40
16.0
 40
16.0
 40
16.0
 40
16.0
 10
101.2051920319904
 20
-144.8235459707386
 10
101.1238877785385
 20
-144.8235459707386
 10
101.0181233471413
 20
-144.8052869646667
 10
100.9123589157441
 20
-144.7367295645103
 10
100.7318359123171
 20
-144.6178737702691
 10
100.7097873012114
 20
-144.4759358362768
 10
100.6901502569455
 20
-144.3591470993269
 10
100.6901502569455
 20
-144.3591470993269
 10
100.9213161640058
 20
-144.3591470993269
 10
100.9213161640058
 20
-144.3591470993269
 10
100.9785047490609
 20
-144.574465567155
 10
101.110451906146
 20
-144.6065049551678
 10
101.2072590892815
 20
-144.6065049551678
 10
101.3526421187591
 20
-144.6065049551678
 10
101.5111165110806
 20
-144.4986734664795
 10
101.5111165110806
 20
-144.2471814960563
 10
101.5111165110806
 20
-143.9701958190422
 10
101.3240478262315
 20
-143.8947482279152
 10
101.1986463505684
 20
-143.8947482279152
 10
101.16557343391
 20
-143.8947482279152
 10
101.0181233471413
 20
-143.8947482279152
 10
100.9254502785881
 20
-144.0342745950678
 10
100.9254502785881
 20
-144.0342745950678
 10
100.7428602178698
 20
-144.0139485317048
 10
100.7428602178698
 20
-144.0139485317048
 10
100.7428602178698
 20
-144.0139485317048
 10
100.8682616935329
 20
-143.098586661274
 10
100.8682616935329
 20
-143.098586661274
 10
100.8682616935329
 20
-143.098586661274
 10
101.6785481516637
 20
-143.098586661274
 10
101.6785481516637
 20
-143.098586661274
 10
101.6785481516637
 20
-143.098586661274
 10
101.6785481516637
 20
-143.3090819954227
 10
101.6785481516637
 20
-143.3090819954227
 10
101.6785481516637
 20
-143.3090819954227
 10
101.0377603914072
 20
-143.3090819954227
 10
101.0377603914072
 20
-143.3090819954227
 10
101.0377603914072
 20
-143.3090819954227
 10
100.9695475007993
 20
-143.7665906758639
 10
100.9695475007993
 20
-143.7665906758639
 10
101.0336262768249
 20
-143.7300726637203
 10
101.1194091544076
 20
-143.6866644606061
 10
101.2427435727796
 20
-143.6866644606061
 10
101.5069823964983
 20
-143.6866644606061
 10
101.7533067236936
 20
-143.8878580369447
 10
101.7533067236936
 20
-144.2265109231448
 10
101.7533067236936
 20
-144.5696424334757
 10
101.5200737593422
 20
-144.8235459707386
 10
101.2051920319904
 20
-144.8235459707386
 97
        0
 97
        0
 75
     2
 76
     1
 98
        0
  0
ENDBLK
  5
98
330
95
100
AcDbEntity
  8
0
100
AcDbBlockEnd
  0
BLOCK
  5
A7
330
A5
100
AcDbEntity
  8
0
100
AcDbBlockBegin
  2
block 6
 70
     0
 10
0.0
 20
0.0
 30
0.0
  3
block 6
  1

  0
SPLINE
  5
A9
330
A5
100
AcDbEntity
  8
_U+30EC_U+30A4_U+30E4_U+30FC 1
370
     0
100
AcDbSpline
210
0.0
220
0.0
230
1.0
 70
    11
 71
     3
 72
    62
 73
    58
 74
     0
 42
0.0000000001
 43
0.0000000001
 12
1.0
 22
0.0
 32
0.0
 13
1.0
 23
0.0
 33
0.0
 40
0.0
 40
0.0
 40
0.0
 40
0.0
 40
1.0
 40
1.0
 40
1.0
 40
2.0
 40
2.0
 40
2.0
 40
3.0
 40
3.0
 40
3.0
 40
4.0
 40
4.0
 40
4.0
 40
5.0
 40
5.0
 40
5.0
 40
6.0
 40
6.0
 40
6.0
 40
7.0
 40
7.0
 40
7.0
 40
8.0
 40
8.0
 40
8.0
 40
9.0
 40
9.0
 40
9.0
 40
10.0
 40
10.0
 40
10.0
 40
11.0
 40
11.0
 40
11.0
 40
12.0
 40
12.0
 40
12.0
 40
13.0
 40
13.0
 40
13.0
 40
14.0
 40
14.0
 40
14.0
 40
15.0
 40
15.0
 40
15.0
 40
16.0
 40
16.0
 40
16.0
 40
17.0
 40
17.0
 40
17.0
 40
18.0
 40
18.0
 40
18.0
 40
19.0
 40
19.0
 40
19.0
 40
19.0
 10
83.49223359457834
 20
-144.8235459707386
 30
0.0
 10
83.39301484460314
 20
-144.8235459707386
 30
0.0
 10
83.1663275616737
 20
-144.8008083405359
 30
0.0
 10
83.03644746187977
 20
-144.5996147641973
 30
0.0
 10
82.95927732301018
 20
-144.4783474031165
 30
0.0
 10
82.95514320842788
 20
-144.3708604239767
 30
0.0
 10
82.95066458429706
 20
-144.2792208840691
 30
0.0
 10
82.95066458429706
 20
-144.2792208840691
 30
0.0
 10
83.17976343406617
 20
-144.2792208840691
 30
0.0
 10
83.17976343406617
 20
-144.2792208840691
 30
0.0
 10
83.18183049135732
 20
-144.3591470993269
 30
0.0
 10
83.19285479691013
 20
-144.6130506365898
 30
0.0
 10
83.48775497044751
 20
-144.6130506365898
 30
0.0
 10
83.6310709426339
 20
-144.6130506365898
 30
0.0
 10
83.78954533495539
 20
-144.5376030454628
 30
0.0
 10
83.78954533495539
 20
-144.2905896991704
 30
0.0
 10
83.78954533495539
 20
-144.1648437139588
 30
0.0
 10
83.74992673687503
 20
-144.1121337530345
 30
0.0
 10
83.71685382021663
 20
-144.0780273077305
 30
0.0
 10
83.63968368134702
 20
-143.9977565829242
 30
0.0
 10
83.51876082981475
 20
-143.9839762009832
 30
0.0
 10
83.46157224475961
 20
-143.9839762009832
 30
0.0
 10
83.44159069094516
 20
-143.9839762009832
 30
0.0
 10
83.40403915015594
 20
-143.9863877678229
 30
0.0
 10
83.37544485762837
 20
-143.9908663919537
 30
0.0
 10
83.37544485762837
 20
-143.9908663919537
 30
0.0
 10
83.37544485762837
 20
-143.7803710578049
 30
0.0
 10
83.37544485762837
 20
-143.7803710578049
 30
0.0
 10
83.41506345570873
 20
-143.7872612487754
 30
0.0
 10
83.45916067791994
 20
-143.7896728156151
 30
0.0
 10
83.46570635934191
 20
-143.7896728156151
 30
0.0
 10
83.53391924994986
 20
-143.7896728156151
 30
0.0
 10
83.74096948861337
 20
-143.7665906758639
 30
0.0
 10
83.74096948861337
 20
-143.5106200813098
 30
0.0
 10
83.74096948861337
 20
-143.3183837532329
 30
0.0
 10
83.60454370739748
 20
-143.2587836013381
 30
0.0
 10
83.49016653728718
 20
-143.2587836013381
 30
0.0
 10
83.21490340801573
 20
-143.2587836013381
 30
0.0
 10
83.20594615975408
 20
-143.5106200813098
 30
0.0
 10
83.20146753562325
 20
-143.588134729728
 30
0.0
 10
83.20146753562325
 20
-143.588134729728
 30
0.0
 10
82.99028318237744
 20
-143.588134729728
 30
0.0
 10
82.99028318237744
 20
-143.588134729728
 30
0.0
 10
82.99924043063908
 20
-143.4534314962547
 30
0.0
 10
83.02783472316666
 20
-143.0462212098982
 30
0.0
 10
83.50325790013113
 20
-143.0462212098982
 30
0.0
 10
83.73649086448255
 20
-143.0462212098982
 30
0.0
 10
83.98763832535727
 20
-143.1833360102111
 30
0.0
 10
83.98763832535727
 20
-143.5037298903393
 30
0.0
 10
83.98763832535727
 20
-143.7049234666779
 30
0.0
 10
83.88841957538206
 20
-143.7941514397459
 30
0.0
 10
83.78506671082457
 20
-143.8606417826112
 30
0.0
 10
83.84880097730169
 20
-143.8902696037844
 30
0.0
 10
84.03828122899043
 20
-143.9770860100127
 30
0.0
 10
84.03828122899043
 20
-144.2768093172294
 30
0.0
 10
84.03828122899043
 20
-144.6430229673115
 30
0.0
 10
83.78058808669374
 20
-144.8235459707386
 30
0.0
 10
83.49223359457834
 20
-144.8235459707386
 30
0.0
  0
HATCH
  5
AA
330
A5
100
AcDbEntity
  8
_U+30EC_U+30A4_U+30E4_U+30FC 1
 62
   179
420
  2234388
100
AcDbHatch
 10
0.0
 20
0.0
 30
0.0
210
0.0
220
0.0
230
1.0
  2
SOLID
 70
     1
 71
     0
 91
        1
 92
        1
 93
        1
 72
     4
 94
        3
 73
     0
 74
     1
 95
       62
 96
       58
 40
0.0
 40
0.0
 40
0.0
 40
0.0
 40
1.0
 40
1.0
 40
1.0
 40
2.0
 40
2.0
 40
2.0
 40
3.0
 40
3.0
 40
3.0
 40
4.0
 40
4.0
 40
4.0
 40
5.0
 40
5.0
 40
5.0
 40
6.0
 40
6.0
 40
6.0
 40
7.0
 40
7.0
 40
7.0
 40
8.0
 40
8.0
 40
8.0
 40
9.0
 40
9.0
 40
9.0
 40
10.0
 40
10.0
 40
10.0
 40
11.0
 40
11.0
 40
11.0
 40
12.0
 40
12.0
 40
12.0
 40
13.0
 40
13.0
 40
13.0
 40
14.0
 40
14.0
 40
14.0
 40
15.0
 40
15.0
 40
15.0
 40
16.0
 40
16.0
 40
16.0
 40
17.0
 40
17.0
 40
17.0
 40
18.0
 40
18.0
 40
18.0
 40
19.0
 40
19.0
 40
19.0
 40
19.0
 10
83.49223359457834
 20
-144.8235459707386
 10
83.39301484460314
 20
-144.8235459707386
 10
83.1663275616737
 20
-144.8008083405359
 10
83.03644746187977
 20
-144.5996147641973
 10
82.95927732301018
 20
-144.4783474031165
 10
82.95514320842788
 20
-144.3708604239767
 10
82.95066458429706
 20
-144.2792208840691
 10
82.95066458429706
 20
-144.2792208840691
 10
83.17976343406617
 20
-144.2792208840691
 10
83.17976343406617
 20
-144.2792208840691
 10
83.18183049135732
 20
-144.3591470993269
 10
83.19285479691013
 20
-144.6130506365898
 10
83.48775497044751
 20
-144.6130506365898
 10
83.6310709426339
 20
-144.6130506365898
 10
83.78954533495539
 20
-144.5376030454628
 10
83.78954533495539
 20
-144.2905896991704
 10
83.78954533495539
 20
-144.1648437139588
 10
83.74992673687503
 20
-144.1121337530345
 10
83.71685382021663
 20
-144.0780273077305
 10
83.63968368134702
 20
-143.9977565829242
 10
83.51876082981475
 20
-143.9839762009832
 10
83.46157224475961
 20
-143.9839762009832
 10
83.44159069094516
 20
-143.9839762009832
 10
83.40403915015594
 20
-143.9863877678229
 10
83.37544485762837
 20
-143.9908663919537
 10
83.37544485762837
 20
-143.9908663919537
 10
83.37544485762837
 20
-143.7803710578049
 10
83.37544485762837
 20
-143.7803710578049
 10
83.41506345570873
 20
-143.7872612487754
 10
83.45916067791994
 20
-143.7896728156151
 10
83.46570635934191
 20
-143.7896728156151
 10
83.53391924994986
 20
-143.7896728156151
 10
83.74096948861337
 20
-143.7665906758639
 10
83.74096948861337
 20
-143.5106200813098
 10
83.74096948861337
 20
-143.3183837532329
 10
83.60454370739748
 20
-143.2587836013381
 10
83.49016653728718
 20
-143.2587836013381
 10
83.21490340801573
 20
-143.2587836013381
 10
83.20594615975408
 20
-143.5106200813098
 10
83.20146753562325
 20
-143.588134729728
 10
83.20146753562325
 20
-143.588134729728
 10
82.99028318237744
 20
-143.588134729728
 10
82.99028318237744
 20
-143.588134729728
 10
82.99924043063908
 20
-143.4534314962547
 10
83.02783472316666
 20
-143.0462212098982
 10
83.50325790013113
 20
-143.0462212098982
 10
83.73649086448255
 20
-143.0462212098982
 10
83.98763832535727
 20
-143.1833360102111
 10
83.98763832535727
 20
-143.5037298903393
 10
83.98763832535727
 20
-143.7049234666779
 10
83.88841957538206
 20
-143.7941514397459
 10
83.78506671082457
 20
-143.8606417826112
 10
83.84880097730169
 20
-143.8902696037844
 10
84.03828122899043
 20
-143.9770860100127
 10
84.03828122899043
 20
-144.2768093172294
 10
84.03828122899043
 20
-144.6430229673115
 10
83.78058808669374
 20
-144.8235459707386
 10
83.49223359457834
 20
-144.8235459707386
 97
        0
 97
        0
 75
     2
 76
     1
 98
        0
  0
SPLINE
  5
AB
330
A5
100
AcDbEntity
  8
_U+30EC_U+30A4_U+30E4_U+30FC 1
370
     0
100
AcDbSpline
210
0.0
220
0.0
230
1.0
 70
    11
 71
     3
 72
    29
 73
    25
 74
     0
 42
0.0000000001
 43
0.0000000001
 12
1.0
 22
0.0
 32
0.0
 13
1.0
 23
0.0
 33
0.0
 40
0.0
 40
0.0
 40
0.0
 40
0.0
 40
1.0
 40
1.0
 40
1.0
 40
2.0
 40
2.0
 40
2.0
 40
3.0
 40
3.0
 40
3.0
 40
4.0
 40
4.0
 40
4.0
 40
5.0
 40
5.0
 40
5.0
 40
6.0
 40
6.0
 40
6.0
 40
7.0
 40
7.0
 40
7.0
 40
8.0
 40
8.0
 40
8.0
 40
8.0
 10
85.13898923652776
 20
-144.5765326244461
 30
0.0
 10
85.02667912370862
 20
-144.8032199073756
 30
0.0
 10
84.84615612028152
 20
-144.8235459707386
 30
0.0
 10
84.72523326874925
 20
-144.8235459707386
 30
0.0
 10
84.5578016281661
 20
-144.8235459707386
 30
0.0
 10
84.41035154139742
 20
-144.7732475766539
 30
0.0
 10
84.31113279142222
 20
-144.5765326244461
 30
0.0
 10
84.2033013027339
 20
-144.3660372902974
 30
0.0
 10
84.18366425846797
 20
-144.1100666957433
 30
0.0
 10
84.18366425846797
 20
-143.9336778068985
 30
0.0
 10
84.18366425846797
 20
-143.7783040005138
 30
0.0
 10
84.20123424544275
 20
-143.5057969476305
 30
0.0
 10
84.31113279142222
 20
-143.2908229893509
 30
0.0
 10
84.42344290424137
 20
-143.0713704069405
 30
0.0
 10
84.5908745448245
 20
-143.0462212098982
 30
0.0
 10
84.72523326874925
 20
-143.0462212098982
 30
0.0
 10
84.89025334249271
 20
-143.0462212098982
 30
0.0
 10
85.03977048655256
 20
-143.0941080371431
 30
0.0
 10
85.13898923652776
 20
-143.2908229893509
 30
0.0
 10
85.24234210108526
 20
-143.49890675666
 30
0.0
 10
85.26680227903053
 20
-143.7462646125009
 30
0.0
 10
85.26680227903053
 20
-143.9336778068985
 30
0.0
 10
85.26680227903053
 20
-144.119023944005
 30
0.0
 10
85.24475366792493
 20
-144.3684488571371
 30
0.0
 10
85.13898923652776
 20
-144.5765326244461
 30
0.0
  0
SPLINE
  5
AC
330
A5
100
AcDbEntity
  8
_U+30EC_U+30A4_U+30E4_U+30FC 1
370
     0
100
AcDbSpline
210
0.0
220
0.0
230
1.0
 70
    11
 71
     3
 72
    17
 73
    13
 74
     0
 42
0.0000000001
 43
0.0000000001
 12
1.0
 22
0.0
 32
0.0
 13
1.0
 23
0.0
 33
0.0
 40
0.0
 40
0.0
 40
0.0
 40
0.0
 40
1.0
 40
1.0
 40
1.0
 40
2.0
 40
2.0
 40
2.0
 40
3.0
 40
3.0
 40
3.0
 40
4.0
 40
4.0
 40
4.0
 40
4.0
 10
84.72523326874925
 20
-143.2543049772073
 30
0.0
 10
84.46547306916142
 20
-143.2543049772073
 30
0.0
 10
84.41689722281939
 20
-143.5609184753945
 30
0.0
 10
84.41689722281939
 20
-143.9336778068985
 30
0.0
 10
84.41689722281939
 20
-144.2792208840691
 30
0.0
 10
84.45444876360861
 20
-144.6130506365898
 30
0.0
 10
84.72523326874925
 20
-144.6130506365898
 30
0.0
 10
84.98258190149741
 20
-144.6130506365898
 30
0.0
 10
85.03322480513059
 20
-144.3088487052422
 30
0.0
 10
85.03322480513059
 20
-143.9336778068985
 30
0.0
 10
85.03322480513059
 20
-143.588134729728
 30
0.0
 10
84.99360620705022
 20
-143.2543049772073
 30
0.0
 10
84.72523326874925
 20
-143.2543049772073
 30
0.0
  0
HATCH
  5
AD
330
A5
100
AcDbEntity
  8
_U+30EC_U+30A4_U+30E4_U+30FC 1
 62
   179
420
  2234388
100
AcDbHatch
 10
0.0
 20
0.0
 30
0.0
210
0.0
220
0.0
230
1.0
  2
SOLID
 70
     1
 71
     0
 91
        2
 92
        1
 93
        1
 72
     4
 94
        3
 73
     0
 74
     1
 95
       29
 96
       25
 40
0.0
 40
0.0
 40
0.0
 40
0.0
 40
1.0
 40
1.0
 40
1.0
 40
2.0
 40
2.0
 40
2.0
 40
3.0
 40
3.0
 40
3.0
 40
4.0
 40
4.0
 40
4.0
 40
5.0
 40
5.0
 40
5.0
 40
6.0
 40
6.0
 40
6.0
 40
7.0
 40
7.0
 40
7.0
 40
8.0
 40
8.0
 40
8.0
 40
8.0
 10
85.13898923652776
 20
-144.5765326244461
 10
85.02667912370862
 20
-144.8032199073756
 10
84.84615612028152
 20
-144.8235459707386
 10
84.72523326874925
 20
-144.8235459707386
 10
84.5578016281661
 20
-144.8235459707386
 10
84.41035154139742
 20
-144.7732475766539
 10
84.31113279142222
 20
-144.5765326244461
 10
84.2033013027339
 20
-144.3660372902974
 10
84.18366425846797
 20
-144.1100666957433
 10
84.18366425846797
 20
-143.9336778068985
 10
84.18366425846797
 20
-143.7783040005138
 10
84.20123424544275
 20
-143.5057969476305
 10
84.31113279142222
 20
-143.2908229893509
 10
84.42344290424137
 20
-143.0713704069405
 10
84.5908745448245
 20
-143.0462212098982
 10
84.72523326874925
 20
-143.0462212098982
 10
84.89025334249271
 20
-143.0462212098982
 10
85.03977048655256
 20
-143.0941080371431
 10
85.13898923652776
 20
-143.2908229893509
 10
85.24234210108526
 20
-143.49890675666
 10
85.26680227903053
 20
-143.7462646125009
 10
85.26680227903053
 20
-143.9336778068985
 10
85.26680227903053
 20
-144.119023944005
 10
85.24475366792493
 20
-144.3684488571371
 10
85.13898923652776
 20
-144.5765326244461
 97
        0
 97
        0
 92
        1
 93
        1
 72
     4
 94
        3
 73
     0
 74
     1
 95
       17
 96
       13
 40
0.0
 40
0.0
 40
0.0
 40
0.0
 40
1.0
 40
1.0
 40
1.0
 40
2.0
 40
2.0
 40
2.0
 40
3.0
 40
3.0
 40
3.0
 40
4.0
 40
4.0
 40
4.0
 40
4.0
 10
84.72523326874925
 20
-143.2543049772073
 10
84.46547306916142
 20
-143.2543049772073
 10
84.41689722281939
 20
-143.5609184753945
 10
84.41689722281939
 20
-143.9336778068985
 10
84.41689722281939
 20
-144.2792208840691
 10
84.45444876360861
 20
-144.6130506365898
 10
84.72523326874925
 20
-144.6130506365898
 10
84.98258190149741
 20
-144.6130506365898
 10
85.03322480513059
 20
-144.3088487052422
 10
85.03322480513059
 20
-143.9336778068985
 10
85.03322480513059
 20
-143.588134729728
 10
84.99360620705022
 20
-143.2543049772073
 10
84.72523326874925
 20
-143.2543049772073
 97
        0
 97
        0
 75
     2
 76
     1
 98
        0
  0
ENDBLK
  5
A8
330
A5
100
AcDbEntity
  8
0
100
AcDbBlockEnd
  0
BLOCK
  5
B8
330
B6
100
AcDbEntity
  8
0
100
AcDbBlockBegin
  2
block 7
 70
     0
 10
0.0
 20
0.0
 30
0.0
  3
block 7
  1

  0
SPLINE
  5
BA
330
B6
100
AcDbEntity
  8
_U+30EC_U+30A4_U+30E4_U+30FC 1
370
     0
100
AcDbSpline
210
0.0
220
0.0
230
1.0
 70
    11
 71
     3
 72
    44
 73
    40
 74
     0
 42
0.0000000001
 43
0.0000000001
 12
1.0
 22
0.0
 32
0.0
 13
1.0
 23
0.0
 33
0.0
 40
0.0
 40
0.0
 40
0.0
 40
0.0
 40
1.0
 40
1.0
 40
1.0
 40
2.0
 40
2.0
 40
2.0
 40
3.0
 40
3.0
 40
3.0
 40
4.0
 40
4.0
 40
4.0
 40
5.0
 40
5.0
 40
5.0
 40
6.0
 40
6.0
 40
6.0
 40
7.0
 40
7.0
 40
7.0
 40
8.0
 40
8.0
 40
8.0
 40
9.0
 40
9.0
 40
9.0
 40
10.0
 40
10.0
 40
10.0
 40
11.0
 40
11.0
 40
11.0
 40
12.0
 40
12.0
 40
12.0
 40
13.0
 40
13.0
 40
13.0
 40
13.0
 10
80.59800887741994
 20
-121.0031222570756
 30
0.0
 10
80.37132159449051
 20
-121.174688012241
 30
0.0
 10
80.27416990180646
 20
-121.2546142274988
 30
0.0
 10
80.22352699817328
 20
-121.4103325434321
 30
0.0
 10
80.22352699817328
 20
-121.4103325434321
 30
0.0
 10
81.03381345630405
 20
-121.4103325434321
 30
0.0
 10
81.03381345630405
 20
-121.4103325434321
 30
0.0
 10
81.03381345630405
 20
-121.4103325434321
 30
0.0
 10
81.03381345630405
 20
-121.6321966926822
 30
0.0
 10
81.03381345630405
 20
-121.6321966926822
 30
0.0
 10
81.03381345630405
 20
-121.6321966926822
 30
0.0
 10
79.96376679858545
 20
-121.6321966926822
 30
0.0
 10
79.96376679858545
 20
-121.6321966926822
 30
0.0
 10
79.99683971524385
 20
-121.2456569792372
 30
0.0
 10
80.06505260585179
 20
-121.1609076303001
 30
0.0
 10
80.46571721078635
 20
-120.8384466928807
 30
0.0
 10
80.73236760134469
 20
-120.6231282250526
 30
0.0
 10
80.80058049195263
 20
-120.5500922007653
 30
0.0
 10
80.80058049195263
 20
-120.4012640758025
 30
0.0
 10
80.80058049195263
 20
-120.2731065237512
 30
0.0
 10
80.7254774103742
 20
-120.1315130993074
 30
0.0
 10
80.52083873855035
 20
-120.1315130993074
 30
0.0
 10
80.25005423340971
 20
-120.1315130993074
 30
0.0
 10
80.24109698514806
 20
-120.3809380124395
 30
0.0
 10
80.23696287056576
 20
-120.5066839976511
 30
0.0
 10
80.23696287056576
 20
-120.5066839976511
 30
0.0
 10
80.00338539666582
 20
-120.5066839976511
 30
0.0
 10
80.00338539666582
 20
-120.5066839976511
 30
0.0
 10
80.01234264492747
 20
-120.3692246877896
 30
0.0
 10
80.02336695048027
 20
-120.2479573267088
 30
0.0
 10
80.10708277077184
 20
-120.1201442842061
 30
0.0
 10
80.22145994088214
 20
-119.946166962201
 30
0.0
 10
80.41507430715318
 20
-119.9096489500573
 30
0.0
 10
80.53634166823397
 20
-119.9096489500573
 30
0.0
 10
80.82469616034939
 20
-119.9096489500573
 30
0.0
 10
81.04035913772603
 20
-120.1084309595562
 30
0.0
 10
81.04035913772603
 20
-120.4036756426421
 30
0.0
 10
81.04035913772603
 20
-120.6506889889346
 30
0.0
 10
80.91943628619376
 20
-120.7581759680744
 30
0.0
 10
80.59800887741994
 20
-121.0031222570756
 30
0.0
  0
HATCH
  5
BB
330
B6
100
AcDbEntity
  8
_U+30EC_U+30A4_U+30E4_U+30FC 1
 62
   179
420
  2234388
100
AcDbHatch
 10
0.0
 20
0.0
 30
0.0
210
0.0
220
0.0
230
1.0
  2
SOLID
 70
     1
 71
     0
 91
        1
 92
        1
 93
        1
 72
     4
 94
        3
 73
     0
 74
     1
 95
       44
 96
       40
 40
0.0
 40
0.0
 40
0.0
 40
0.0
 40
1.0
 40
1.0
 40
1.0
 40
2.0
 40
2.0
 40
2.0
 40
3.0
 40
3.0
 40
3.0
 40
4.0
 40
4.0
 40
4.0
 40
5.0
 40
5.0
 40
5.0
 40
6.0
 40
6.0
 40
6.0
 40
7.0
 40
7.0
 40
7.0
 40
8.0
 40
8.0
 40
8.0
 40
9.0
 40
9.0
 40
9.0
 40
10.0
 40
10.0
 40
10.0
 40
11.0
 40
11.0
 40
11.0
 40
12.0
 40
12.0
 40
12.0
 40
13.0
 40
13.0
 40
13.0
 40
13.0
 10
80.59800887741994
 20
-121.0031222570756
 10
80.37132159449051
 20
-121.174688012241
 10
80.27416990180646
 20
-121.2546142274988
 10
80.22352699817328
 20
-121.4103325434321
 10
80.22352699817328
 20
-121.4103325434321
 10
81.03381345630405
 20
-121.4103325434321
 10
81.03381345630405
 20
-121.4103325434321
 10
81.03381345630405
 20
-121.4103325434321
 10
81.03381345630405
 20
-121.6321966926822
 10
81.03381345630405
 20
-121.6321966926822
 10
81.03381345630405
 20
-121.6321966926822
 10
79.96376679858545
 20
-121.6321966926822
 10
79.96376679858545
 20
-121.6321966926822
 10
79.99683971524385
 20
-121.2456569792372
 10
80.06505260585179
 20
-121.1609076303001
 10
80.46571721078635
 20
-120.8384466928807
 10
80.73236760134469
 20
-120.6231282250526
 10
80.80058049195263
 20
-120.5500922007653
 10
80.80058049195263
 20
-120.4012640758025
 10
80.80058049195263
 20
-120.2731065237512
 10
80.7254774103742
 20
-120.1315130993074
 10
80.52083873855035
 20
-120.1315130993074
 10
80.25005423340971
 20
-120.1315130993074
 10
80.24109698514806
 20
-120.3809380124395
 10
80.23696287056576
 20
-120.5066839976511
 10
80.23696287056576
 20
-120.5066839976511
 10
80.00338539666582
 20
-120.5066839976511
 10
80.00338539666582
 20
-120.5066839976511
 10
80.01234264492747
 20
-120.3692246877896
 10
80.02336695048027
 20
-120.2479573267088
 10
80.10708277077184
 20
-120.1201442842061
 10
80.22145994088214
 20
-119.946166962201
 10
80.41507430715318
 20
-119.9096489500573
 10
80.53634166823397
 20
-119.9096489500573
 10
80.82469616034939
 20
-119.9096489500573
 10
81.04035913772603
 20
-120.1084309595562
 10
81.04035913772603
 20
-120.4036756426421
 10
81.04035913772603
 20
-120.6506889889346
 10
80.91943628619376
 20
-120.7581759680744
 10
80.59800887741994
 20
-121.0031222570756
 97
        0
 97
        0
 75
     2
 76
     1
 98
        0
  0
SPLINE
  5
BC
330
B6
100
AcDbEntity
  8
_U+30EC_U+30A4_U+30E4_U+30FC 1
370
     0
100
AcDbSpline
210
0.0
220
0.0
230
1.0
 70
    11
 71
     3
 72
    29
 73
    25
 74
     0
 42
0.0000000001
 43
0.0000000001
 12
1.0
 22
0.0
 32
0.0
 13
1.0
 23
0.0
 33
0.0
 40
0.0
 40
0.0
 40
0.0
 40
0.0
 40
1.0
 40
1.0
 40
1.0
 40
2.0
 40
2.0
 40
2.0
 40
3.0
 40
3.0
 40
3.0
 40
4.0
 40
4.0
 40
4.0
 40
5.0
 40
5.0
 40
5.0
 40
6.0
 40
6.0
 40
6.0
 40
7.0
 40
7.0
 40
7.0
 40
8.0
 40
8.0
 40
8.0
 40
8.0
 10
82.13900008797219
 20
-121.4399603646053
 30
0.0
 10
82.02668997515305
 20
-121.6666476475347
 30
0.0
 10
81.84616697172596
 20
-121.6869737108977
 30
0.0
 10
81.7252441201937
 20
-121.6869737108977
 30
0.0
 10
81.55781247961055
 20
-121.6869737108977
 30
0.0
 10
81.41036239284186
 20
-121.6366753168131
 30
0.0
 10
81.31114364286667
 20
-121.4399603646053
 30
0.0
 10
81.20331215417835
 20
-121.2294650304565
 30
0.0
 10
81.18367510991241
 20
-120.9731499263539
 30
0.0
 10
81.18367510991241
 20
-120.7971055470577
 30
0.0
 10
81.18367510991241
 20
-120.6417317406729
 30
0.0
 10
81.20124509688719
 20
-120.3692246877896
 30
0.0
 10
81.31114364286667
 20
-120.1542507295101
 30
0.0
 10
81.42345375568581
 20
-119.9347981470996
 30
0.0
 10
81.59088539626894
 20
-119.9096489500573
 30
0.0
 10
81.7252441201937
 20
-119.9096489500573
 30
0.0
 10
81.89026419393716
 20
-119.9096489500573
 30
0.0
 10
82.039781337997
 20
-119.9575357773023
 30
0.0
 10
82.13900008797219
 20
-120.1542507295101
 30
0.0
 10
82.2423529525297
 20
-120.3623344968191
 30
0.0
 10
82.26681313047497
 20
-120.6096923526601
 30
0.0
 10
82.26681313047497
 20
-120.7971055470577
 30
0.0
 10
82.26681313047497
 20
-120.9824516841641
 30
0.0
 10
82.24476451936937
 20
-121.2318765972962
 30
0.0
 10
82.13900008797219
 20
-121.4399603646053
 30
0.0
  0
SPLINE
  5
BD
330
B6
100
AcDbEntity
  8
_U+30EC_U+30A4_U+30E4_U+30FC 1
370
     0
100
AcDbSpline
210
0.0
220
0.0
230
1.0
 70
    11
 71
     3
 72
    17
 73
    13
 74
     0
 42
0.0000000001
 43
0.0000000001
 12
1.0
 22
0.0
 32
0.0
 13
1.0
 23
0.0
 33
0.0
 40
0.0
 40
0.0
 40
0.0
 40
0.0
 40
1.0
 40
1.0
 40
1.0
 40
2.0
 40
2.0
 40
2.0
 40
3.0
 40
3.0
 40
3.0
 40
4.0
 40
4.0
 40
4.0
 40
4.0
 10
81.7252441201937
 20
-120.1177327173664
 30
0.0
 10
81.46548392060585
 20
-120.1177327173664
 30
0.0
 10
81.41690807426383
 20
-120.4243462155536
 30
0.0
 10
81.41690807426383
 20
-120.7971055470577
 30
0.0
 10
81.41690807426383
 20
-121.1426486242282
 30
0.0
 10
81.45445961505305
 20
-121.4764783767489
 30
0.0
 10
81.7252441201937
 20
-121.4764783767489
 30
0.0
 10
81.98259275294185
 20
-121.4764783767489
 30
0.0
 10
82.03323565657503
 20
-121.1722764454014
 30
0.0
 10
82.03323565657503
 20
-120.7971055470577
 30
0.0
 10
82.03323565657503
 20
-120.4515624698871
 30
0.0
 10
81.99361705849465
 20
-120.1177327173664
 30
0.0
 10
81.7252441201937
 20
-120.1177327173664
 30
0.0
  0
HATCH
  5
BE
330
B6
100
AcDbEntity
  8
_U+30EC_U+30A4_U+30E4_U+30FC 1
 62
   179
420
  2234388
100
AcDbHatch
 10
0.0
 20
0.0
 30
0.0
210
0.0
220
0.0
230
1.0
  2
SOLID
 70
     1
 71
     0
 91
        2
 92
        1
 93
        1
 72
     4
 94
        3
 73
     0
 74
     1
 95
       29
 96
       25
 40
0.0
 40
0.0
 40
0.0
 40
0.0
 40
1.0
 40
1.0
 40
1.0
 40
2.0
 40
2.0
 40
2.0
 40
3.0
 40
3.0
 40
3.0
 40
4.0
 40
4.0
 40
4.0
 40
5.0
 40
5.0
 40
5.0
 40
6.0
 40
6.0
 40
6.0
 40
7.0
 40
7.0
 40
7.0
 40
8.0
 40
8.0
 40
8.0
 40
8.0
 10
82.13900008797219
 20
-121.4399603646053
 10
82.02668997515305
 20
-121.6666476475347
 10
81.84616697172596
 20
-121.6869737108977
 10
81.7252441201937
 20
-121.6869737108977
 10
81.55781247961055
 20
-121.6869737108977
 10
81.41036239284186
 20
-121.6366753168131
 10
81.31114364286667
 20
-121.4399603646053
 10
81.20331215417835
 20
-121.2294650304565
 10
81.18367510991241
 20
-120.9731499263539
 10
81.18367510991241
 20
-120.7971055470577
 10
81.18367510991241
 20
-120.6417317406729
 10
81.20124509688719
 20
-120.3692246877896
 10
81.31114364286667
 20
-120.1542507295101
 10
81.42345375568581
 20
-119.9347981470996
 10
81.59088539626894
 20
-119.9096489500573
 10
81.7252441201937
 20
-119.9096489500573
 10
81.89026419393716
 20
-119.9096489500573
 10
82.039781337997
 20
-119.9575357773023
 10
82.13900008797219
 20
-120.1542507295101
 10
82.2423529525297
 20
-120.3623344968191
 10
82.26681313047497
 20
-120.6096923526601
 10
82.26681313047497
 20
-120.7971055470577
 10
82.26681313047497
 20
-120.9824516841641
 10
82.24476451936937
 20
-121.2318765972962
 10
82.13900008797219
 20
-121.4399603646053
 97
        0
 97
        0
 92
        1
 93
        1
 72
     4
 94
        3
 73
     0
 74
     1
 95
       17
 96
       13
 40
0.0
 40
0.0
 40
0.0
 40
0.0
 40
1.0
 40
1.0
 40
1.0
 40
2.0
 40
2.0
 40
2.0
 40
3.0
 40
3.0
 40
3.0
 40
4.0
 40
4.0
 40
4.0
 40
4.0
 10
81.7252441201937
 20
-120.1177327173664
 10
81.46548392060585
 20
-120.1177327173664
 10
81.41690807426383
 20
-120.4243462155536
 10
81.41690807426383
 20
-120.7971055470577
 10
81.41690807426383
 20
-121.1426486242282
 10
81.45445961505305
 20
-121.4764783767489
 10
81.7252441201937
 20
-121.4764783767489
 10
81.98259275294185
 20
-121.4764783767489
 10
82.03323565657503
 20
-121.1722764454014
 10
82.03323565657503
 20
-120.7971055470577
 10
82.03323565657503
 20
-120.4515624698871
 10
81.99361705849465
 20
-120.1177327173664
 10
81.7252441201937
 20
-120.1177327173664
 97
        0
 97
        0
 75
     2
 76
     1
 98
        0
  0
ENDBLK
  5
B9
330
B6
100
AcDbEntity
  8
0
100
AcDbBlockEnd
  0
ENDSEC
  0
SECTION
  2
ENTITIES
  0
SPLINE
  5
41
330
1F
100
AcDbEntity
  8
_U+30EC_U+30A4_U+30E4_U+30FC 1
 62
   179
420
  2234388
370
     9
100
AcDbSpline
210
0.0
220
0.0
230
1.0
 70
    11
 71
     3
 72
    17
 73
    13
 74
     0
 42
0.0000000001
 43
0.0000000001
 12
1.0
 22
0.0
 32
0.0
 13
1.0
 23
0.0
 33
0.0
 40
0.0
 40
0.0
 40
0.0
 40
0.0
 40
1.0
 40
1.0
 40
1.0
 40
2.0
 40
2.0
 40
2.0
 40
3.0
 40
3.0
 40
3.0
 40
4.0
 40
4.0
 40
4.0
 40
4.0
 10
111.3378985484225
 20
-130.5842927451318
 30
0.0
 10
111.3378985484225
 20
-130.5512021895843
 30
0.0
 10
111.3110168824416
 20
-130.5243205229245
 30
0.0
 10
111.2779616055071
 20
-130.5243205229245
 30
0.0
 10
111.2448710507958
 20
-130.5243205229245
 30
0.0
 10
111.2180246625918
 20
-130.5512021895843
 30
0.0
 10
111.2180246625918
 20
-130.5842927451318
 30
0.0
 10
111.2180246625918
 20
-130.6173480229011
 30
0.0
 10
111.2448710507958
 20
-130.6442296895609
 30
0.0
 10
111.2779616055071
 20
-130.6442296895609
 30
0.0
 10
111.3110168824416
 20
-130.6442296895609
 30
0.0
 10
111.3378985484225
 20
-130.6173480229011
 30
0.0
 10
111.3378985484225
 20
-130.5842927451318
 30
0.0
  0
SPLINE
  5
42
330
1F
100
AcDbEntity
  8
_U+30EC_U+30A4_U+30E4_U+30FC 1
 62
   179
420
  2234388
370
     9
100
AcDbSpline
210
0.0
220
0.0
230
1.0
 70
    11
 71
     3
 72
    17
 73
    13
 74
     0
 42
0.0000000001
 43
0.0000000001
 12
1.0
 22
0.0
 32
0.0
 13
1.0
 23
0.0
 33
0.0
 40
0.0
 40
0.0
 40
0.0
 40
0.0
 40
1.0
 40
1.0
 40
1.0
 40
2.0
 40
2.0
 40
2.0
 40
3.0
 40
3.0
 40
3.0
 40
4.0
 40
4.0
 40
4.0
 40
4.0
 10
111.3378985484225
 20
-142.5842405199098
 30
0.0
 10
111.3378985484225
 20
-142.5511499643623
 30
0.0
 10
111.3110168824416
 20
-142.5243035754801
 30
0.0
 10
111.2779616055071
 20
-142.5243035754801
 30
0.0
 10
111.2448710507958
 20
-142.5243035754801
 30
0.0
 10
111.2180246625918
 20
-142.5511499643623
 30
0.0
 10
111.2180246625918
 20
-142.5842405199098
 30
0.0
 10
111.2180246625918
 20
-142.6172957976791
 30
0.0
 10
111.2448710507958
 20
-142.6441774643389
 30
0.0
 10
111.2779616055071
 20
-142.6441774643389
 30
0.0
 10
111.3110168824416
 20
-142.6441774643389
 30
0.0
 10
111.3378985484225
 20
-142.6172957976791
 30
0.0
 10
111.3378985484225
 20
-142.5842405199098
 30
0.0
  0
SPLINE
  5
43
330
1F
100
AcDbEntity
  8
_U+30EC_U+30A4_U+30E4_U+30FC 1
 62
   179
420
  2234388
370
     9
100
AcDbSpline
210
0.0
220
0.0
230
1.0
 70
    11
 71
     3
 72
    17
 73
    13
 74
     0
 42
0.0000000001
 43
0.0000000001
 12
1.0
 22
0.0
 32
0.0
 13
1.0
 23
0.0
 33
0.0
 40
0.0
 40
0.0
 40
0.0
 40
0.0
 40
1.0
 40
1.0
 40
1.0
 40
2.0
 40
2.0
 40
2.0
 40
3.0
 40
3.0
 40
3.0
 40
4.0
 40
4.0
 40
4.0
 40
4.0
 10
108.9380572207586
 20
-144.9840819081982
 30
0.0
 10
108.9380572207586
 20
-144.9510266304289
 30
0.0
 10
108.9111755547778
 20
-144.9241449637691
 30
0.0
 10
108.8781202778433
 20
-144.9241449637691
 30
0.0
 10
108.8450297231319
 20
-144.9241449637691
 30
0.0
 10
108.8181480571511
 20
-144.9510266304289
 30
0.0
 10
108.8181480571511
 20
-144.9840819081982
 30
0.0
 10
108.8181480571511
 20
-145.0171724637457
 30
0.0
 10
108.8450297231319
 20
-145.0440188526279
 30
0.0
 10
108.8781202778433
 20
-145.0440188526279
 30
0.0
 10
108.9111755547778
 20
-145.0440188526279
 30
0.0
 10
108.9380572207586
 20
-145.0171724637457
 30
0.0
 10
108.9380572207586
 20
-144.9840819081982
 30
0.0
  0
SPLINE
  5
44
330
1F
100
AcDbEntity
  8
_U+30EC_U+30A4_U+30E4_U+30FC 1
 62
   179
420
  2234388
370
     9
100
AcDbSpline
210
0.0
220
0.0
230
1.0
 70
    11
 71
     3
 72
    17
 73
    13
 74
     0
 42
0.0000000001
 43
0.0000000001
 12
1.0
 22
0.0
 32
0.0
 13
1.0
 23
0.0
 33
0.0
 40
0.0
 40
0.0
 40
0.0
 40
0.0
 40
1.0
 40
1.0
 40
1.0
 40
2.0
 40
2.0
 40
2.0
 40
3.0
 40
3.0
 40
3.0
 40
4.0
 40
4.0
 40
4.0
 40
4.0
 10
93.9381228812166
 20
-144.9840819081982
 30
0.0
 10
93.9381228812166
 20
-144.9510266304289
 30
0.0
 10
93.91124121523575
 20
-144.9241449637691
 30
0.0
 10
93.8781506605244
 20
-144.9241449637691
 30
0.0
 10
93.84509538358994
 20
-144.9241449637691
 30
0.0
 10
93.81821371760907
 20
-144.9510266304289
 30
0.0
 10
93.81821371760907
 20
-144.9840819081982
 30
0.0
 10
93.81821371760907
 20
-145.0171724637457
 30
0.0
 10
93.84509538358994
 20
-145.0440188526279
 30
0.0
 10
93.8781506605244
 20
-145.0440188526279
 30
0.0
 10
93.91124121523575
 20
-145.0440188526279
 30
0.0
 10
93.9381228812166
 20
-145.0171724637457
 30
0.0
 10
93.9381228812166
 20
-144.9840819081982
 30
0.0
  0
SPLINE
  5
45
330
1F
100
AcDbEntity
  8
_U+30EC_U+30A4_U+30E4_U+30FC 1
 62
   179
420
  2234388
370
     9
100
AcDbSpline
210
0.0
220
0.0
230
1.0
 70
    11
 71
     3
 72
    17
 73
    13
 74
     0
 42
0.0000000001
 43
0.0000000001
 12
1.0
 22
0.0
 32
0.0
 13
1.0
 23
0.0
 33
0.0
 40
0.0
 40
0.0
 40
0.0
 40
0.0
 40
1.0
 40
1.0
 40
1.0
 40
2.0
 40
2.0
 40
2.0
 40
3.0
 40
3.0
 40
3.0
 40
4.0
 40
4.0
 40
4.0
 40
4.0
 10
75.93816639598931
 20
-144.9840819081982
 30
0.0
 10
75.93816639598931
 20
-144.9510266304289
 30
0.0
 10
75.91128473000845
 20
-144.9241449637691
 30
0.0
 10
75.87822945307398
 20
-144.9241449637691
 30
0.0
 10
75.84513889836263
 20
-144.9241449637691
 30
0.0
 10
75.81829442548975
 20
-144.9510266304289
 30
0.0
 10
75.81829442548975
 20
-144.9840819081982
 30
0.0
 10
75.81829442548975
 20
-145.0171724637457
 30
0.0
 10
75.84513889836263
 20
-145.0440188526279
 30
0.0
 10
75.87822945307398
 20
-145.0440188526279
 30
0.0
 10
75.91128473000845
 20
-145.0440188526279
 30
0.0
 10
75.93816639598931
 20
-145.0171724637457
 30
0.0
 10
75.93816639598931
 20
-144.9840819081982
 30
0.0
  0
SPLINE
  5
46
330
1F
100
AcDbEntity
  8
_U+30EC_U+30A4_U+30E4_U+30FC 1
 62
   179
420
  2234388
370
     9
100
AcDbSpline
210
0.0
220
0.0
230
1.0
 70
    11
 71
     3
 72
    17
 73
    13
 74
     0
 42
0.0000000001
 43
0.0000000001
 12
1.0
 22
0.0
 32
0.0
 13
1.0
 23
0.0
 33
0.0
 40
0.0
 40
0.0
 40
0.0
 40
0.0
 40
1.0
 40
1.0
 40
1.0
 40
2.0
 40
2.0
 40
2.0
 40
3.0
 40
3.0
 40
3.0
 40
4.0
 40
4.0
 40
4.0
 40
4.0
 10
73.5379722905567
 20
-142.5842405199098
 30
0.0
 10
73.5379722905567
 20
-142.5511499643623
 30
0.0
 10
73.51109062457583
 20
-142.5243035754801
 30
0.0
 10
73.47803534764137
 20
-142.5243035754801
 30
0.0
 10
73.44494479293002
 20
-142.5243035754801
 30
0.0
 10
73.41809840472604
 20
-142.5511499643623
 30
0.0
 10
73.41809840472604
 20
-142.5842405199098
 30
0.0
 10
73.41809840472604
 20
-142.6172957976791
 30
0.0
 10
73.44494479293002
 20
-142.6441774643389
 30
0.0
 10
73.47803534764137
 20
-142.6441774643389
 30
0.0
 10
73.51109062457583
 20
-142.6441774643389
 30
0.0
 10
73.5379722905567
 20
-142.6172957976791
 30
0.0
 10
73.5379722905567
 20
-142.5842405199098
 30
0.0
  0
SPLINE
  5
47
330
1F
100
AcDbEntity
  8
_U+30EC_U+30A4_U+30E4_U+30FC 1
 62
   179
420
  2234388
370
     9
100
AcDbSpline
210
0.0
220
0.0
230
1.0
 70
    11
 71
     3
 72
    17
 73
    13
 74
     0
 42
0.0000000001
 43
0.0000000001
 12
1.0
 22
0.0
 32
0.0
 13
1.0
 23
0.0
 33
0.0
 40
0.0
 40
0.0
 40
0.0
 40
0.0
 40
1.0
 40
1.0
 40
1.0
 40
2.0
 40
2.0
 40
2.0
 40
3.0
 40
3.0
 40
3.0
 40
4.0
 40
4.0
 40
4.0
 40
4.0
 10
73.5379722905567
 20
-124.584283579965
 30
0.0
 10
73.5379722905567
 20
-124.5512283021956
 30
0.0
 10
73.51109062457583
 20
-124.5243466355355
 30
0.0
 10
73.47803534764137
 20
-124.5243466355355
 30
0.0
 10
73.44494479293002
 20
-124.5243466355355
 30
0.0
 10
73.41809840472604
 20
-124.5512283021956
 30
0.0
 10
73.41809840472604
 20
-124.584283579965
 30
0.0
 10
73.41809840472604
 20
-124.6173741355124
 30
0.0
 10
73.44494479293002
 20
-124.6442558021722
 30
0.0
 10
73.47803534764137
 20
-124.6442558021722
 30
0.0
 10
73.51109062457583
 20
-124.6442558021722
 30
0.0
 10
73.5379722905567
 20
-124.6173741355124
 30
0.0
 10
73.5379722905567
 20
-124.584283579965
 30
0.0
  0
SPLINE
  5
48
330
1F
100
AcDbEntity
  8
_U+30EC_U+30A4_U+30E4_U+30FC 1
 62
   179
420
  2234388
370
     9
100
AcDbSpline
210
0.0
220
0.0
230
1.0
 70
    11
 71
     3
 72
    17
 73
    13
 74
     0
 42
0.0000000001
 43
0.0000000001
 12
1.0
 22
0.0
 32
0.0
 13
1.0
 23
0.0
 33
0.0
 40
0.0
 40
0.0
 40
0.0
 40
0.0
 40
1.0
 40
1.0
 40
1.0
 40
2.0
 40
2.0
 40
2.0
 40
3.0
 40
3.0
 40
3.0
 40
4.0
 40
4.0
 40
4.0
 40
4.0
 10
75.93816639598931
 20
-122.184442191676
 30
0.0
 10
75.93816639598931
 20
-122.1513869139066
 30
0.0
 10
75.91128473000845
 20
-122.1245052472465
 30
0.0
 10
75.87822945307398
 20
-122.1245052472465
 30
0.0
 10
75.84513889836263
 20
-122.1245052472465
 30
0.0
 10
75.81829442548975
 20
-122.1513869139066
 30
0.0
 10
75.81829442548975
 20
-122.184442191676
 30
0.0
 10
75.81829442548975
 20
-122.2175327472234
 30
0.0
 10
75.84513889836263
 20
-122.2443791361057
 30
0.0
 10
75.87822945307398
 20
-122.2443791361057
 30
0.0
 10
75.91128473000845
 20
-122.2443791361057
 30
0.0
 10
75.93816639598931
 20
-122.2175327472234
 30
0.0
 10
75.93816639598931
 20
-122.184442191676
 30
0.0
  0
SPLINE
  5
49
330
1F
100
AcDbEntity
  8
_U+30EC_U+30A4_U+30E4_U+30FC 1
 62
   179
420
  2234388
370
    25
100
AcDbSpline
210
0.0
220
0.0
230
1.0
 70
    11
 71
     3
 72
    17
 73
    13
 74
     0
 42
0.0000000001
 43
0.0000000001
 12
1.0
 22
0.0
 32
0.0
 13
1.0
 23
0.0
 33
0.0
 40
0.0
 40
0.0
 40
0.0
 40
0.0
 40
1.0
 40
1.0
 40
1.0
 40
2.0
 40
2.0
 40
2.0
 40
3.0
 40
3.0
 40
3.0
 40
4.0
 40
4.0
 40
4.0
 40
4.0
 10
87.93811386762292
 20
-122.184442191676
 30
0.0
 10
87.93811386762292
 20
-122.1513869139066
 30
0.0
 10
87.91126747941894
 20
-122.1245052472465
 30
0.0
 10
87.87817692470759
 20
-122.1245052472465
 30
0.0
 10
87.84512164777313
 20
-122.1245052472465
 30
0.0
 10
87.81823998179227
 20
-122.1513869139066
 30
0.0
 10
87.81823998179227
 20
-122.184442191676
 30
0.0
 10
87.81823998179227
 20
-122.2175327472234
 30
0.0
 10
87.84512164777313
 20
-122.2443791361057
 30
0.0
 10
87.87817692470759
 20
-122.2443791361057
 30
0.0
 10
87.91126747941894
 20
-122.2443791361057
 30
0.0
 10
87.93811386762292
 20
-122.2175327472234
 30
0.0
 10
87.93811386762292
 20
-122.184442191676
 30
0.0
  0
SPLINE
  5
4A
330
1F
100
AcDbEntity
  8
_U+30EC_U+30A4_U+30E4_U+30FC 1
 62
   179
420
  2234388
370
     9
100
AcDbSpline
210
0.0
220
0.0
230
1.0
 70
    11
 71
     3
 72
    17
 73
    13
 74
     0
 42
0.0000000001
 43
0.0000000001
 12
1.0
 22
0.0
 32
0.0
 13
1.0
 23
0.0
 33
0.0
 40
0.0
 40
0.0
 40
0.0
 40
0.0
 40
1.0
 40
1.0
 40
1.0
 40
2.0
 40
2.0
 40
2.0
 40
3.0
 40
3.0
 40
3.0
 40
4.0
 40
4.0
 40
4.0
 40
4.0
 10
73.5379722905567
 20
-109.5843488614929
 30
0.0
 10
73.5379722905567
 20
-109.5512935837233
 30
0.0
 10
73.51109062457583
 20
-109.5244119170635
 30
0.0
 10
73.47803534764137
 20
-109.5244119170635
 30
0.0
 10
73.44494479293002
 20
-109.5244119170635
 30
0.0
 10
73.41809840472604
 20
-109.5512935837233
 30
0.0
 10
73.41809840472604
 20
-109.5843488614929
 30
0.0
 10
73.41809840472604
 20
-109.6174394170401
 30
0.0
 10
73.44494479293002
 20
-109.6442858059223
 30
0.0
 10
73.47803534764137
 20
-109.6442858059223
 30
0.0
 10
73.51109062457583
 20
-109.6442858059223
 30
0.0
 10
73.5379722905567
 20
-109.6174394170401
 30
0.0
 10
73.5379722905567
 20
-109.5843488614929
 30
0.0
  0
POLYLINE
  5
4B
330
1F
100
AcDbEntity
  8
_U+30EC_U+30A4_U+30E4_U+30FC 1
 62
   179
420
  2234388
370
     9
100
AcDb2dPolyline
 66
     1
 10
0.0
 20
0.0
 30
0.0
  0
VERTEX
  5
4C
330
4B
100
AcDbEntity
  8
_U+30EC_U+30A4_U+30E4_U+30FC 1
 62
   179
420
  2234388
370
     9
100
AcDbVertex
100
AcDb2dVertex
 10
73.47803534764137
 20
-124.584283579965
 30
0.0
  0
VERTEX
  5
4D
330
4B
100
AcDbEntity
  8
_U+30EC_U+30A4_U+30E4_U+30FC 1
 62
   179
420
  2234388
370
     9
100
AcDbVertex
100
AcDb2dVertex
 10
73.47803534764137
 20
-109.5843488614929
 30
0.0
  0
SEQEND
  5
4E
330
4B
100
AcDbEntity
  8
_U+30EC_U+30A4_U+30E4_U+30FC 1
 62
   179
420
  2234388
370
     9
  0
POLYLINE
  5
4F
330
1F
100
AcDbEntity
  8
_U+30EC_U+30A4_U+30E4_U+30FC 1
 62
   179
420
  2234388
370
     9
100
AcDb2dPolyline
 66
     1
 10
0.0
 20
0.0
 30
0.0
  0
VERTEX
  5
50
330
4F
100
AcDbEntity
  8
_U+30EC_U+30A4_U+30E4_U+30FC 1
 62
   179
420
  2234388
370
     9
100
AcDbVertex
100
AcDb2dVertex
 10
74.95426919886839
 20
-124.584283579965
 30
0.0
  0
VERTEX
  5
51
330
4F
100
AcDbEntity
  8
_U+30EC_U+30A4_U+30E4_U+30FC 1
 62
   179
420
  2234388
370
     9
100
AcDbVertex
100
AcDb2dVertex
 10
72.87824442622482
 20
-124.584283579965
 30
0.0
  0
SEQEND
  5
52
330
4F
100
AcDbEntity
  8
_U+30EC_U+30A4_U+30E4_U+30FC 1
 62
   179
420
  2234388
370
     9
  0
POLYLINE
  5
53
330
1F
100
AcDbEntity
  8
_U+30EC_U+30A4_U+30E4_U+30FC 1
 62
   179
420
  2234388
370
     9
100
AcDb2dPolyline
 66
     1
 10
0.0
 20
0.0
 30
0.0
  0
VERTEX
  5
54
330
53
100
AcDbEntity
  8
_U+30EC_U+30A4_U+30E4_U+30FC 1
 62
   179
420
  2234388
370
     9
100
AcDbVertex
100
AcDb2dVertex
 10
86.59385417969563
 20
-109.5843488614929
 30
0.0
  0
VERTEX
  5
55
330
53
100
AcDbEntity
  8
_U+30EC_U+30A4_U+30E4_U+30FC 1
 62
   179
420
  2234388
370
     9
100
AcDbVertex
100
AcDb2dVertex
 10
72.87824442622482
 20
-109.5843488614929
 30
0.0
  0
SEQEND
  5
56
330
53
100
AcDbEntity
  8
_U+30EC_U+30A4_U+30E4_U+30FC 1
 62
   179
420
  2234388
370
     9
  0
INSERT
  5
58
330
1F
100
AcDbEntity
  8
_U+30EC_U+30A4_U+30E4_U+30FC 1
100
AcDbBlockReference
  2
block 2
 10
0.0
 20
0.0
 30
0.0
  0
POLYLINE
  5
5F
330
1F
100
AcDbEntity
  8
_U+30EC_U+30A4_U+30E4_U+30FC 1
 62
   179
420
  2234388
370
     9
100
AcDb2dPolyline
 66
     1
 10
0.0
 20
0.0
 30
0.0
  0
VERTEX
  5
60
330
5F
100
AcDbEntity
  8
_U+30EC_U+30A4_U+30E4_U+30FC 1
 62
   179
420
  2234388
370
     9
100
AcDbVertex
100
AcDb2dVertex
 10
73.47803534764137
 20
-124.584283579965
 30
0.0
  0
VERTEX
  5
61
330
5F
100
AcDbEntity
  8
_U+30EC_U+30A4_U+30E4_U+30FC 1
 62
   179
420
  2234388
370
     9
100
AcDbVertex
100
AcDb2dVertex
 10
73.47803534764137
 20
-142.5842405199098
 30
0.0
  0
SEQEND
  5
62
330
5F
100
AcDbEntity
  8
_U+30EC_U+30A4_U+30E4_U+30FC 1
 62
   179
420
  2234388
370
     9
  0
POLYLINE
  5
63
330
1F
100
AcDbEntity
  8
_U+30EC_U+30A4_U+30E4_U+30FC 1
 62
   179
420
  2234388
370
     9
100
AcDb2dPolyline
 66
     1
 10
0.0
 20
0.0
 30
0.0
  0
VERTEX
  5
64
330
63
100
AcDbEntity
  8
_U+30EC_U+30A4_U+30E4_U+30FC 1
 62
   179
420
  2234388
370
     9
100
AcDbVertex
100
AcDb2dVertex
 10
74.95426919886839
 20
-124.584283579965
 30
0.0
  0
VERTEX
  5
65
330
63
100
AcDbEntity
  8
_U+30EC_U+30A4_U+30E4_U+30FC 1
 62
   179
420
  2234388
370
     9
100
AcDbVertex
100
AcDb2dVertex
 10
72.87824442622482
 20
-124.584283579965
 30
0.0
  0
SEQEND
  5
66
330
63
100
AcDbEntity
  8
_U+30EC_U+30A4_U+30E4_U+30FC 1
 62
   179
420
  2234388
370
     9
  0
POLYLINE
  5
67
330
1F
100
AcDbEntity
  8
_U+30EC_U+30A4_U+30E4_U+30FC 1
 62
   179
420
  2234388
370
     9
100
AcDb2dPolyline
 66
     1
 10
0.0
 20
0.0
 30
0.0
  0
VERTEX
  5
68
330
67
100
AcDbEntity
  8
_U+30EC_U+30A4_U+30E4_U+30FC 1
 62
   179
420
  2234388
370
     9
100
AcDbVertex
100
AcDb2dVertex
 10
74.95426919886839
 20
-142.5842405199098
 30
0.0
  0
VERTEX
  5
69
330
67
100
AcDbEntity
  8
_U+30EC_U+30A4_U+30E4_U+30FC 1
 62
   179
420
  2234388
370
     9
100
AcDbVertex
100
AcDb2dVertex
 10
72.87824442622482
 20
-142.5842405199098
 30
0.0
  0
SEQEND
  5
6A
330
67
100
AcDbEntity
  8
_U+30EC_U+30A4_U+30E4_U+30FC 1
 62
   179
420
  2234388
370
     9
  0
INSERT
  5
6C
330
1F
100
AcDbEntity
  8
_U+30EC_U+30A4_U+30E4_U+30FC 1
100
AcDbBlockReference
  2
block 3
 10
0.0
 20
0.0
 30
0.0
  0
POLYLINE
  5
74
330
1F
100
AcDbEntity
  8
_U+30EC_U+30A4_U+30E4_U+30FC 1
 62
   179
420
  2234388
370
     9
100
AcDb2dPolyline
 66
     1
 10
0.0
 20
0.0
 30
0.0
  0
VERTEX
  5
75
330
74
100
AcDbEntity
  8
_U+30EC_U+30A4_U+30E4_U+30FC 1
 62
   179
420
  2234388
370
     9
100
AcDbVertex
100
AcDb2dVertex
 10
111.2779616055071
 20
-142.5842405199098
 30
0.0
  0
VERTEX
  5
76
330
74
100
AcDbEntity
  8
_U+30EC_U+30A4_U+30E4_U+30FC 1
 62
   179
420
  2234388
370
     9
100
AcDbVertex
100
AcDb2dVertex
 10
111.2779616055071
 20
-130.5842927451318
 30
0.0
  0
SEQEND
  5
77
330
74
100
AcDbEntity
  8
_U+30EC_U+30A4_U+30E4_U+30FC 1
 62
   179
420
  2234388
370
     9
  0
POLYLINE
  5
78
330
1F
100
AcDbEntity
  8
_U+30EC_U+30A4_U+30E4_U+30FC 1
 62
   179
420
  2234388
370
     9
100
AcDb2dPolyline
 66
     1
 10
0.0
 20
0.0
 30
0.0
  0
VERTEX
  5
79
330
78
100
AcDbEntity
  8
_U+30EC_U+30A4_U+30E4_U+30FC 1
 62
   179
420
  2234388
370
     9
100
AcDbVertex
100
AcDb2dVertex
 10
94.80214619250687
 20
-142.5842405199098
 30
0.0
  0
VERTEX
  5
7A
330
78
100
AcDbEntity
  8
_U+30EC_U+30A4_U+30E4_U+30FC 1
 62
   179
420
  2234388
370
     9
100
AcDbVertex
100
AcDb2dVertex
 10
111.8781071457517
 20
-142.5842405199098
 30
0.0
  0
SEQEND
  5
7B
330
78
100
AcDbEntity
  8
_U+30EC_U+30A4_U+30E4_U+30FC 1
 62
   179
420
  2234388
370
     9
  0
POLYLINE
  5
7C
330
1F
100
AcDbEntity
  8
_U+30EC_U+30A4_U+30E4_U+30FC 1
 62
   179
420
  2234388
370
     9
100
AcDb2dPolyline
 66
     1
 10
0.0
 20
0.0
 30
0.0
  0
VERTEX
  5
7D
330
7C
100
AcDbEntity
  8
_U+30EC_U+30A4_U+30E4_U+30FC 1
 62
   179
420
  2234388
370
     9
100
AcDbVertex
100
AcDb2dVertex
 10
110.1620902450865
 20
-130.5842927451318
 30
0.0
  0
VERTEX
  5
7E
330
7C
100
AcDbEntity
  8
_U+30EC_U+30A4_U+30E4_U+30FC 1
 62
   179
420
  2234388
370
     9
100
AcDbVertex
100
AcDb2dVertex
 10
111.8781071457517
 20
-130.5842927451318
 30
0.0
  0
SEQEND
  5
7F
330
7C
100
AcDbEntity
  8
_U+30EC_U+30A4_U+30E4_U+30FC 1
 62
   179
420
  2234388
370
     9
  0
INSERT
  5
81
330
1F
100
AcDbEntity
  8
_U+30EC_U+30A4_U+30E4_U+30FC 1
100
AcDbBlockReference
  2
block 4
 10
0.0
 20
0.0
 30
0.0
  0
POLYLINE
  5
89
330
1F
100
AcDbEntity
  8
_U+30EC_U+30A4_U+30E4_U+30FC 1
 62
   179
420
  2234388
370
     9
100
AcDb2dPolyline
 66
     1
 10
0.0
 20
0.0
 30
0.0
  0
VERTEX
  5
8A
330
89
100
AcDbEntity
  8
_U+30EC_U+30A4_U+30E4_U+30FC 1
 62
   179
420
  2234388
370
     9
100
AcDbVertex
100
AcDb2dVertex
 10
108.8781202778433
 20
-144.9840819081982
 30
0.0
  0
VERTEX
  5
8B
330
89
100
AcDbEntity
  8
_U+30EC_U+30A4_U+30E4_U+30FC 1
 62
   179
420
  2234388
370
     9
100
AcDbVertex
100
AcDb2dVertex
 10
93.8781506605244
 20
-144.9840819081982
 30
0.0
  0
SEQEND
  5
8C
330
89
100
AcDbEntity
  8
_U+30EC_U+30A4_U+30E4_U+30FC 1
 62
   179
420
  2234388
370
     9
  0
POLYLINE
  5
8D
330
1F
100
AcDbEntity
  8
_U+30EC_U+30A4_U+30E4_U+30FC 1
 62
   179
420
  2234388
370
     9
100
AcDb2dPolyline
 66
     1
 10
0.0
 20
0.0
 30
0.0
  0
VERTEX
  5
8E
330
8D
100
AcDbEntity
  8
_U+30EC_U+30A4_U+30E4_U+30FC 1
 62
   179
420
  2234388
370
     9
100
AcDbVertex
100
AcDb2dVertex
 10
108.8781202778433
 20
-131.8682627448109
 30
0.0
  0
VERTEX
  5
8F
330
8D
100
AcDbEntity
  8
_U+30EC_U+30A4_U+30E4_U+30FC 1
 62
   179
420
  2234388
370
     9
100
AcDbVertex
100
AcDb2dVertex
 10
108.8781202778433
 20
-145.5842274636042
 30
0.0
  0
SEQEND
  5
90
330
8D
100
AcDbEntity
  8
_U+30EC_U+30A4_U+30E4_U+30FC 1
 62
   179
420
  2234388
370
     9
  0
POLYLINE
  5
91
330
1F
100
AcDbEntity
  8
_U+30EC_U+30A4_U+30E4_U+30FC 1
 62
   179
420
  2234388
370
     9
100
AcDb2dPolyline
 66
     1
 10
0.0
 20
0.0
 30
0.0
  0
VERTEX
  5
92
330
91
100
AcDbEntity
  8
_U+30EC_U+30A4_U+30E4_U+30FC 1
 62
   179
420
  2234388
370
     9
100
AcDbVertex
100
AcDb2dVertex
 10
93.8781506605244
 20
-143.5082007974566
 30
0.0
  0
VERTEX
  5
93
330
91
100
AcDbEntity
  8
_U+30EC_U+30A4_U+30E4_U+30FC 1
 62
   179
420
  2234388
370
     9
100
AcDbVertex
100
AcDb2dVertex
 10
93.8781506605244
 20
-145.5842274636042
 30
0.0
  0
SEQEND
  5
94
330
91
100
AcDbEntity
  8
_U+30EC_U+30A4_U+30E4_U+30FC 1
 62
   179
420
  2234388
370
     9
  0
INSERT
  5
96
330
1F
100
AcDbEntity
  8
_U+30EC_U+30A4_U+30E4_U+30FC 1
100
AcDbBlockReference
  2
block 5
 10
0.0
 20
0.0
 30
0.0
  0
POLYLINE
  5
9D
330
1F
100
AcDbEntity
  8
_U+30EC_U+30A4_U+30E4_U+30FC 1
 62
   179
420
  2234388
370
     9
100
AcDb2dPolyline
 66
     1
 10
0.0
 20
0.0
 30
0.0
  0
VERTEX
  5
9E
330
9D
100
AcDbEntity
  8
_U+30EC_U+30A4_U+30E4_U+30FC 1
 62
   179
420
  2234388
370
     9
100
AcDbVertex
100
AcDb2dVertex
 10
93.8781506605244
 20
-144.9840819081982
 30
0.0
  0
VERTEX
  5
9F
330
9D
100
AcDbEntity
  8
_U+30EC_U+30A4_U+30E4_U+30FC 1
 62
   179
420
  2234388
370
     9
100
AcDbVertex
100
AcDb2dVertex
 10
75.87822945307398
 20
-144.9840819081982
 30
0.0
  0
SEQEND
  5
A0
330
9D
100
AcDbEntity
  8
_U+30EC_U+30A4_U+30E4_U+30FC 1
 62
   179
420
  2234388
370
     9
  0
POLYLINE
  5
A1
330
1F
100
AcDbEntity
  8
_U+30EC_U+30A4_U+30E4_U+30FC 1
 62
   179
420
  2234388
370
     9
100
AcDb2dPolyline
 66
     1
 10
0.0
 20
0.0
 30
0.0
  0
VERTEX
  5
A2
330
A1
100
AcDbEntity
  8
_U+30EC_U+30A4_U+30E4_U+30FC 1
 62
   179
420
  2234388
370
     9
100
AcDbVertex
100
AcDb2dVertex
 10
75.87822945307398
 20
-143.5082007974566
 30
0.0
  0
VERTEX
  5
A3
330
A1
100
AcDbEntity
  8
_U+30EC_U+30A4_U+30E4_U+30FC 1
 62
   179
420
  2234388
370
     9
100
AcDbVertex
100
AcDb2dVertex
 10
75.87822945307398
 20
-145.5842274636042
 30
0.0
  0
SEQEND
  5
A4
330
A1
100
AcDbEntity
  8
_U+30EC_U+30A4_U+30E4_U+30FC 1
 62
   179
420
  2234388
370
     9
  0
INSERT
  5
A6
330
1F
100
AcDbEntity
  8
_U+30EC_U+30A4_U+30E4_U+30FC 1
100
AcDbBlockReference
  2
block 6
 10
0.0
 20
0.0
 30
0.0
  0
POLYLINE
  5
AE
330
1F
100
AcDbEntity
  8
_U+30EC_U+30A4_U+30E4_U+30FC 1
 62
   179
420
  2234388
370
     9
100
AcDb2dPolyline
 66
     1
 10
0.0
 20
0.0
 30
0.0
  0
VERTEX
  5
AF
330
AE
100
AcDbEntity
  8
_U+30EC_U+30A4_U+30E4_U+30FC 1
 62
   179
420
  2234388
370
     9
100
AcDbVertex
100
AcDb2dVertex
 10
87.87817692470759
 20
-122.184442191676
 30
0.0
  0
VERTEX
  5
B0
330
AE
100
AcDbEntity
  8
_U+30EC_U+30A4_U+30E4_U+30FC 1
 62
   179
420
  2234388
370
     9
100
AcDbVertex
100
AcDb2dVertex
 10
75.87822945307398
 20
-122.184442191676
 30
0.0
  0
SEQEND
  5
B1
330
AE
100
AcDbEntity
  8
_U+30EC_U+30A4_U+30E4_U+30FC 1
 62
   179
420
  2234388
370
     9
  0
POLYLINE
  5
B2
330
1F
100
AcDbEntity
  8
_U+30EC_U+30A4_U+30E4_U+30FC 1
 62
   179
420
  2234388
370
     9
100
AcDb2dPolyline
 66
     1
 10
0.0
 20
0.0
 30
0.0
  0
VERTEX
  5
B3
330
B2
100
AcDbEntity
  8
_U+30EC_U+30A4_U+30E4_U+30FC 1
 62
   179
420
  2234388
370
     9
100
AcDbVertex
100
AcDb2dVertex
 10
75.87822945307398
 20
-123.6603233024182
 30
0.0
  0
VERTEX
  5
B4
330
B2
100
AcDbEntity
  8
_U+30EC_U+30A4_U+30E4_U+30FC 1
 62
   179
420
  2234388
370
     9
100
AcDbVertex
100
AcDb2dVertex
 10
75.87822945307398
 20
-121.5842966362706
 30
0.0
  0
SEQEND
  5
B5
330
B2
100
AcDbEntity
  8
_U+30EC_U+30A4_U+30E4_U+30FC 1
 62
   179
420
  2234388
370
     9
  0
INSERT
  5
B7
330
1F
100
AcDbEntity
  8
_U+30EC_U+30A4_U+30E4_U+30FC 1
100
AcDbBlockReference
  2
block 7
 10
0.0
 20
0.0
 30
0.0
  0
SPLINE
  5
BF
330
1F
100
AcDbEntity
  8
_U+30EC_U+30A4_U+30E4_U+30FC 1
 62
     7
420
 16777215
370
    25
100
AcDbSpline
210
0.0
220
0.0
230
1.0
 70
    11
 71
     3
 72
    62
 73
    58
 74
     0
 42
0.0000000001
 43
0.0000000001
 12
1.0
 22
0.0
 32
0.0
 13
1.0
 23
0.0
 33
0.0
 40
0.0
 40
0.0
 40
0.0
 40
0.0
 40
1.0
 40
1.0
 40
1.0
 40
2.0
 40
2.0
 40
2.0
 40
3.0
 40
3.0
 40
3.0
 40
4.0
 40
4.0
 40
4.0
 40
5.0
 40
5.0
 40
5.0
 40
6.0
 40
6.0
 40
6.0
 40
7.0
 40
7.0
 40
7.0
 40
8.0
 40
8.0
 40
8.0
 40
9.0
 40
9.0
 40
9.0
 40
10.0
 40
10.0
 40
10.0
 40
11.0
 40
11.0
 40
11.0
 40
12.0
 40
12.0
 40
12.0
 40
13.0
 40
13.0
 40
13.0
 40
14.0
 40
14.0
 40
14.0
 40
15.0
 40
15.0
 40
15.0
 40
16.0
 40
16.0
 40
16.0
 40
17.0
 40
17.0
 40
17.0
 40
18.0
 40
18.0
 40
18.0
 40
19.0
 40
19.0
 40
19.0
 40
19.0
 10
87.87817692470759
 20
-109.5843488614929
 30
0.0
 10
87.87817692470759
 20
-109.5843488614929
 30
0.0
 10
87.87817692470759
 20
-124.584283579965
 30
0.0
 10
87.87817692470759
 20
-124.584283579965
 30
0.0
 10
87.87817692470759
 20
-124.584283579965
 30
0.0
 10
76.47802221554977
 20
-124.584283579965
 30
0.0
 10
76.47802221554977
 20
-124.584283579965
 30
0.0
 10
76.14658750178316
 20
-124.584283579965
 30
0.0
 10
75.87822945307398
 20
-124.853029691009
 30
0.0
 10
75.87822945307398
 20
-125.1844291353706
 30
0.0
 10
75.87822945307398
 20
-125.1844291353706
 30
0.0
 10
75.87822945307398
 20
-141.9840949645038
 30
0.0
 10
75.87822945307398
 20
-141.9840949645038
 30
0.0
 10
75.87822945307398
 20
-142.3155296866433
 30
0.0
 10
76.14658750178316
 20
-142.5842405199098
 30
0.0
 10
76.47802221554977
 20
-142.5842405199098
 30
0.0
 10
76.47802221554977
 20
-142.5842405199098
 30
0.0
 10
93.27804039805672
 20
-142.5842405199098
 30
0.0
 10
93.27804039805672
 20
-142.5842405199098
 30
0.0
 10
93.60943983404646
 20
-142.5842405199098
 30
0.0
 10
93.8781506605244
 20
-142.3155296866433
 30
0.0
 10
93.8781506605244
 20
-141.9840949645038
 30
0.0
 10
93.8781506605244
 20
-141.9840949645038
 30
0.0
 10
93.8781506605244
 20
-130.5842927451318
 30
0.0
 10
93.8781506605244
 20
-130.5842927451318
 30
0.0
 10
93.8781506605244
 20
-130.5842927451318
 30
0.0
 10
108.8781202778433
 20
-130.5842927451318
 30
0.0
 10
108.8781202778433
 20
-130.5842927451318
 30
0.0
 10
108.8781202778433
 20
-130.5842927451318
 30
0.0
 10
108.8781202778433
 20
-130.1040210785853
 30
0.0
 10
108.8781202778433
 20
-130.1040210785853
 30
0.0
 10
108.8781202778433
 20
-130.1040210785853
 30
0.0
 10
93.99805982413193
 20
-130.1040210785853
 30
0.0
 10
93.99805982413193
 20
-130.1040210785853
 30
0.0
 10
93.66662511036532
 20
-130.1040210785853
 30
0.0
 10
93.39791664331719
 20
-130.3727319118511
 30
0.0
 10
93.39791664331719
 20
-130.7041666339906
 30
0.0
 10
93.39791664331719
 20
-130.7041666339906
 30
0.0
 10
93.39791664331719
 20
-142.1043216311404
 30
0.0
 10
93.39791664331719
 20
-142.1043216311404
 30
0.0
 10
93.39791664331719
 20
-142.1043216311404
 30
0.0
 10
76.35811305194224
 20
-142.1043216311404
 30
0.0
 10
76.35811305194224
 20
-142.1043216311404
 30
0.0
 10
76.35811305194224
 20
-142.1043216311404
 30
0.0
 10
76.35811305194224
 20
-125.0638496909563
 30
0.0
 10
76.35811305194224
 20
-125.0638496909563
 30
0.0
 10
76.35811305194224
 20
-125.0638496909563
 30
0.0
 10
87.75830303887695
 20
-125.0638496909563
 30
0.0
 10
87.75830303887695
 20
-125.0638496909563
 30
0.0
 10
88.08970247486668
 20
-125.0638496909563
 30
0.0
 10
88.35774302358395
 20
-124.7958444132456
 30
0.0
 10
88.35774302358395
 20
-124.4644096911061
 30
0.0
 10
88.35774302358395
 20
-124.4644096911061
 30
0.0
 10
88.35774302358395
 20
-109.5843488614929
 30
0.0
 10
88.35774302358395
 20
-109.5843488614929
 30
0.0
 10
88.35774302358395
 20
-109.5843488614929
 30
0.0
 10
87.87817692470759
 20
-109.5843488614929
 30
0.0
 10
87.87817692470759
 20
-109.5843488614929
 30
0.0
  0
HATCH
  5
C0
330
1F
100
AcDbEntity
  8
_U+30EC_U+30A4_U+30E4_U+30FC 1
 62
   253
420
 10066329
100
AcDbHatch
 10
0.0
 20
0.0
 30
0.0
210
0.0
220
0.0
230
1.0
  2
SOLID
 70
     1
 71
     0
 91
        1
 92
        1
 93
        1
 72
     4
 94
        3
 73
     0
 74
     1
 95
       62
 96
       58
 40
0.0
 40
0.0
 40
0.0
 40
0.0
 40
1.0
 40
1.0
 40
1.0
 40
2.0
 40
2.0
 40
2.0
 40
3.0
 40
3.0
 40
3.0
 40
4.0
 40
4.0
 40
4.0
 40
5.0
 40
5.0
 40
5.0
 40
6.0
 40
6.0
 40
6.0
 40
7.0
 40
7.0
 40
7.0
 40
8.0
 40
8.0
 40
8.0
 40
9.0
 40
9.0
 40
9.0
 40
10.0
 40
10.0
 40
10.0
 40
11.0
 40
11.0
 40
11.0
 40
12.0
 40
12.0
 40
12.0
 40
13.0
 40
13.0
 40
13.0
 40
14.0
 40
14.0
 40
14.0
 40
15.0
 40
15.0
 40
15.0
 40
16.0
 40
16.0
 40
16.0
 40
17.0
 40
17.0
 40
17.0
 40
18.0
 40
18.0
 40
18.0
 40
19.0
 40
19.0
 40
19.0
 40
19.0
 10
87.87817692470759
 20
-109.5843488614929
 10
87.87817692470759
 20
-109.5843488614929
 10
87.87817692470759
 20
-124.584283579965
 10
87.87817692470759
 20
-124.584283579965
 10
87.87817692470759
 20
-124.584283579965
 10
76.47802221554977
 20
-124.584283579965
 10
76.47802221554977
 20
-124.584283579965
 10
76.14658750178316
 20
-124.584283579965
 10
75.87822945307398
 20
-124.853029691009
 10
75.87822945307398
 20
-125.1844291353706
 10
75.87822945307398
 20
-125.1844291353706
 10
75.87822945307398
 20
-141.9840949645038
 10
75.87822945307398
 20
-141.9840949645038
 10
75.87822945307398
 20
-142.3155296866433
 10
76.14658750178316
 20
-142.5842405199098
 10
76.47802221554977
 20
-142.5842405199098
 10
76.47802221554977
 20
-142.5842405199098
 10
93.27804039805672
 20
-142.5842405199098
 10
93.27804039805672
 20
-142.5842405199098
 10
93.60943983404646
 20
-142.5842405199098
 10
93.8781506605244
 20
-142.3155296866433
 10
93.8781506605244
 20
-141.9840949645038
 10
93.8781506605244
 20
-141.9840949645038
 10
93.8781506605244
 20
-130.5842927451318
 10
93.8781506605244
 20
-130.5842927451318
 10
93.8781506605244
 20
-130.5842927451318
 10
108.8781202778433
 20
-130.5842927451318
 10
108.8781202778433
 20
-130.5842927451318
 10
108.8781202778433
 20
-130.5842927451318
 10
108.8781202778433
 20
-130.1040210785853
 10
108.8781202778433
 20
-130.1040210785853
 10
108.8781202778433
 20
-130.1040210785853
 10
93.99805982413193
 20
-130.1040210785853
 10
93.99805982413193
 20
-130.1040210785853
 10
93.66662511036532
 20
-130.1040210785853
 10
93.39791664331719
 20
-130.3727319118511
 10
93.39791664331719
 20
-130.7041666339906
 10
93.39791664331719
 20
-130.7041666339906
 10
93.39791664331719
 20
-142.1043216311404
 10
93.39791664331719
 20
-142.1043216311404
 10
93.39791664331719
 20
-142.1043216311404
 10
76.35811305194224
 20
-142.1043216311404
 10
76.35811305194224
 20
-142.1043216311404
 10
76.35811305194224
 20
-142.1043216311404
 10
76.35811305194224
 20
-125.0638496909563
 10
76.35811305194224
 20
-125.0638496909563
 10
76.35811305194224
 20
-125.0638496909563
 10
87.75830303887695
 20
-125.0638496909563
 10
87.75830303887695
 20
-125.0638496909563
 10
88.08970247486668
 20
-125.0638496909563
 10
88.35774302358395
 20
-124.7958444132456
 10
88.35774302358395
 20
-124.4644096911061
 10
88.35774302358395
 20
-124.4644096911061
 10
88.35774302358395
 20
-109.5843488614929
 10
88.35774302358395
 20
-109.5843488614929
 10
88.35774302358395
 20
-109.5843488614929
 10
87.87817692470759
 20
-109.5843488614929
 10
87.87817692470759
 20
-109.5843488614929
 97
        0
 97
        0
 75
     2
 76
     1
 98
        0
  0
ENDSEC
  0
SECTION
  2
OBJECTS
  0
DICTIONARY
  5
C
330
0
100
AcDbDictionary
281
     1
  3
ACAD_GROUP
350
D
  3
ACAD_LAYOUT
350
1A
  3
ACAD_MATERIAL
350
3B
  3
ACAD_MLEADERSTYLE
350
C2
  3
ACAD_MLINESTYLE
350
17
  3
ACAD_PLOTSETTINGS
350
19
  3
ACAD_PLOTSTYLENAME
350
E
  3
ACAD_TABLESTYLE
350
C1
  3
ACAD_VISUALSTYLE
350
2A
  0
SUN
  5
3F
330
29
100
AcDbSun
 90
        1
290
     0
 63
     7
421
 16777215
 40
1.0
291
     1
 91
  2455826
 92
 54000000
292
     0
 70
     2
 71
   256
280
     1
  0
DICTIONARY
  5
D
102
{ACAD_REACTORS
330
C
102
}
330
C
100
AcDbDictionary
281
     1
  0
DICTIONARY
  5
1A
102
{ACAD_REACTORS
330
C
102
}
330
C
100
AcDbDictionary
281
     1
  3
Layout1
350
1E
  3
Layout2
350
26
  3
Model
350
22
  0
DICTIONARY
  5
3B
102
{ACAD_REACTORS
330
C
102
}
330
C
100
AcDbDictionary
281
     1
  3
ByBlock
350
3D
  3
ByLayer
350
3C
  3
Global
350
3E
  0
DICTIONARY
  5
C2
102
{ACAD_REACTORS
330
C
102
}
330
C
100
AcDbDictionary
281
     1
  0
DICTIONARY
  5
17
102
{ACAD_REACTORS
330
C
102
}
330
C
100
AcDbDictionary
281
     1
  3
Standard
350
18
  0
DICTIONARY
  5
19
102
{ACAD_REACTORS
330
C
102
}
330
C
100
AcDbDictionary
281
     1
  0
ACDBDICTIONARYWDFLT
  5
E
102
{ACAD_REACTORS
330
C
102
}
330
C
100
AcDbDictionary
281
     1
  3
Normal
350
F
100
AcDbDictionaryWithDefault
340
F
  0
DICTIONARY
  5
C1
102
{ACAD_REACTORS
330
C
102
}
330
C
100
AcDbDictionary
281
     1
  0
DICTIONARY
  5
2A
102
{ACAD_REACTORS
330
C
102
}
330
C
100
AcDbDictionary
281
     1
  3
2dWireframe
350
2F
  3
3D Hidden
350
31
  3
3dWireframe
350
30
  3
Basic
350
32
  3
Brighten
350
36
  3
ColorChange
350
3A
  3
Conceptual
350
34
  3
Dim
350
35
  3
Facepattern
350
39
  3
Flat
350
2B
  3
FlatWithEdges
350
2C
  3
Gouraud
350
2D
  3
GouraudWithEdges
350
2E
  3
Linepattern
350
38
  3
Realistic
350
33
  3
Thicken
350
37
  0
LAYOUT
  5
1E
102
{ACAD_REACTORS
330
1A
102
}
330
1A
100
AcDbPlotSettings
  1

  2
none_device
  4

  6

 40
0.0
 41
0.0
 42
0.0
 43
0.0
 44
0.0
 45
0.0
 46
0.0
 47
0.0
 48
0.0
 49
0.0
140
0.0
141
0.0
142
1.0
143
1.0
 70
   688
 72
     0
 73
     0
 74
     5
  7

 75
    16
 76
     0
 77
     2
 78
   300
147
1.0
148
0.0
149
0.0
100
AcDbLayout
  1
Layout1
 70
     1
 71
     1
 10
0.0
 20
0.0
 11
12.0
 21
9.0
 12
0.0
 22
0.0
 32
0.0
 14
1.000000000000000E+20
 24
1.000000000000000E+20
 34
1.000000000000000E+20
 15
-1.000000000000000E+20
 25
-1.000000000000000E+20
 35
-1.000000000000000E+20
146
0.0
 13
0.0
 23
0.0
 33
0.0
 16
1.0
 26
0.0
 36
0.0
 17
0.0
 27
1.0
 37
0.0
 76
     0
330
1B
  0
LAYOUT
  5
26
102
{ACAD_REACTORS
330
1A
102
}
330
1A
100
AcDbPlotSettings
  1

  2
none_device
  4

  6

 40
0.0
 41
0.0
 42
0.0
 43
0.0
 44
0.0
 45
0.0
 46
0.0
 47
0.0
 48
0.0
 49
0.0
140
0.0
141
0.0
142
1.0
143
1.0
 70
   688
 72
     0
 73
     0
 74
     5
  7

 75
    16
 76
     0
 77
     2
 78
   300
147
1.0
148
0.0
149
0.0
100
AcDbLayout
  1
Layout2
 70
     1
 71
     2
 10
0.0
 20
0.0
 11
0.0
 21
0.0
 12
0.0
 22
0.0
 32
0.0
 14
0.0
 24
0.0
 34
0.0
 15
0.0
 25
0.0
 35
0.0
146
0.0
 13
0.0
 23
0.0
 33
0.0
 16
1.0
 26
0.0
 36
0.0
 17
0.0
 27
1.0
 37
0.0
 76
     0
330
23
  0
LAYOUT
  5
22
102
{ACAD_REACTORS
330
1A
102
}
330
1A
100
AcDbPlotSettings
  1

  2
none_device
  4

  6

 40
0.0
 41
0.0
 42
0.0
 43
0.0
 44
0.0
 45
0.0
 46
0.0
 47
0.0
 48
0.0
 49
0.0
140
0.0
141
0.0
142
1.0
143
1.0
 70
  1712
 72
     0
 73
     0
 74
     0
  7

 75
     0
 76
     0
 77
     2
 78
   300
147
1.0
148
0.0
149
0.0
100
AcDbLayout
  1
Model
 70
     1
 71
     0
 10
0.0
 20
0.0
 11
12.0
 21
9.0
 12
0.0
 22
0.0
 32
0.0
 14
1.000000000000000E+20
 24
1.000000000000000E+20
 34
1.000000000000000E+20
 15
-1.000000000000000E+20
 25
-1.000000000000000E+20
 35
-1.000000000000000E+20
146
0.0
 13
0.0
 23
0.0
 33
0.0
 16
1.0
 26
0.0
 36
0.0
 17
0.0
 27
1.0
 37
0.0
 76
     0
330
1F
331
29
  0
MATERIAL
  5
3D
102
{ACAD_REACTORS
330
3B
102
}
330
3B
100
AcDbMaterial
  1
ByBlock
 72
     1
 94
      127
  0
MATERIAL
  5
3C
102
{ACAD_REACTORS
330
3B
102
}
330
3B
100
AcDbMaterial
  1
ByLayer
 72
     1
 94
      127
  0
MATERIAL
  5
3E
102
{ACAD_REACTORS
330
3B
102
}
330
3B
100
AcDbMaterial
  1
Global
 72
     1
 94
      127
  0
MLINESTYLE
  5
18
102
{ACAD_REACTORS
330
17
102
}
330
17
100
AcDbMlineStyle
  2
Standard
 70
     0
  3

 62
   256
 51
90.0
 52
90.0
 71
     2
 49
0.5
 62
   256
  6
BYLAYER
 49
-0.5
 62
   256
  6
BYLAYER
  0
ACDBPLACEHOLDER
  5
F
102
{ACAD_REACTORS
330
E
102
}
330
E
  0
VISUALSTYLE
  5
2F
102
{ACAD_REACTORS
330
2A
102
}
330
2A
100
AcDbVisualStyle
  2
2dWireframe
 70
     4
177
     2
291
     0
 71
     0
176
     1
 72
     2
176
     1
 73
     0
176
     1
 90
        0
176
     1
 40
-0.6
176
     1
 41
-30.0
176
     1
 62
     5
 63
     7
421
 16777215
176
     1
 74
     1
176
     1
 91
        4
176
     1
 64
     7
176
     1
 65
   257
176
     1
 75
     1
176
     1
175
     1
176
     1
 42
1.0
176
     1
 92
        0
176
     1
 66
   257
176
     1
 43
1.0
176
     1
 76
     1
176
     1
 77
     6
176
     1
 78
     2
176
     1
 67
     7
176
     1
 79
     5
176
     1
170
     0
176
     1
171
     0
176
     1
290
     0
176
     1
 93
        1
176
     1
 44
0.0
176
     1
173
     0
176
     1
  0
VISUALSTYLE
  5
31
102
{ACAD_REACTORS
330
2A
102
}
330
2A
100
AcDbVisualStyle
  2
3D Hidden
 70
     6
177
     2
291
     0
 71
     1
176
     1
 72
     2
176
     1
 73
     2
176
     1
 90
        0
176
     1
 40
-0.6
176
     1
 41
-30.0
176
     1
 62
     5
 63
     7
421
 16777215
176
     1
 74
     2
176
     1
 91
        2
176
     1
 64
     7
176
     1
 65
   257
176
     1
 75
     2
176
     1
175
     1
176
     1
 42
40.0
176
     1
 92
        0
176
     1
 66
   257
176
     1
 43
1.0
176
     1
 76
     1
176
     1
 77
     6
176
     1
 78
     2
176
     1
 67
     7
176
     1
 79
     3
176
     1
170
     0
176
     1
171
     0
176
     1
290
     0
176
     1
 93
        1
176
     1
 44
0.0
176
     1
173
     0
176
     1
  0
VISUALSTYLE
  5
30
102
{ACAD_REACTORS
330
2A
102
}
330
2A
100
AcDbVisualStyle
  2
3dWireframe
 70
     5
177
     2
291
     0
 71
     0
176
     1
 72
     2
176
     1
 73
     0
176
     1
 90
        0
176
     1
 40
-0.6
176
     1
 41
-30.0
176
     1
 62
     5
 63
     7
421
 16777215
176
     1
 74
     1
176
     1
 91
        4
176
     1
 64
     7
176
     1
 65
   257
176
     1
 75
     1
176
     1
175
     1
176
     1
 42
1.0
176
     1
 92
        0
176
     1
 66
   257
176
     1
 43
1.0
176
     1
 76
     1
176
     1
 77
     6
176
     1
 78
     2
176
     1
 67
     7
176
     1
 79
     5
176
     1
170
     0
176
     1
171
     0
176
     1
290
     0
176
     1
 93
        1
176
     1
 44
0.0
176
     1
173
     0
176
     1
  0
VISUALSTYLE
  5
32
102
{ACAD_REACTORS
330
2A
102
}
330
2A
100
AcDbVisualStyle
  2
Basic
 70
     7
177
     2
291
     1
 71
     1
176
     1
 72
     0
176
     1
 73
     1
176
     1
 90
        0
176
     1
 40
-0.6
176
     1
 41
-30.0
176
     1
 62
     5
 63
     7
421
 16777215
176
     1
 74
     0
176
     1
 91
        4
176
     1
 64
     7
176
     1
 65
   257
176
     1
 75
     1
176
     1
175
     1
176
     1
 42
1.0
176
     1
 92
        8
176
     1
 66
     7
176
     1
 43
1.0
176
     1
 76
     1
176
     1
 77
     6
176
     1
 78
     2
176
     1
 67
     7
176
     1
 79
     5
176
     1
170
     0
176
     1
171
     0
176
     1
290
     0
176
     1
 93
        1
176
     1
 44
0.0
176
     1
173
     0
176
     1
  0
VISUALSTYLE
  5
36
102
{ACAD_REACTORS
330
2A
102
}
330
2A
100
AcDbVisualStyle
  2
Brighten
 70
    12
177
     2
291
     1
 71
     2
176
     1
 72
     2
176
     1
 73
     0
176
     1
 90
        0
176
     1
 40
-0.6
176
     1
 41
-30.0
176
     1
 62
     5
 63
     7
421
 16777215
176
     1
 74
     1
176
     1
 91
        4
176
     1
 64
     7
176
     1
 65
   257
176
     1
 75
     1
176
     1
175
     1
176
     1
 42
1.0
176
     1
 92
        8
176
     1
 66
     7
176
     1
 43
1.0
176
     1
 76
     1
176
     1
 77
     6
176
     1
 78
     2
176
     1
 67
     7
176
     1
 79
     5
176
     1
170
     0
176
     1
171
     0
176
     1
290
     0
176
     1
 93
        1
176
     1
 44
50.0
176
     1
173
     0
176
     1
  0
VISUALSTYLE
  5
3A
102
{ACAD_REACTORS
330
2A
102
}
330
2A
100
AcDbVisualStyle
  2
ColorChange
 70
    16
177
     2
291
     1
 71
     2
176
     1
 72
     2
176
     1
 73
     3
176
     1
 90
        0
176
     1
 40
-0.6
176
     1
 41
-30.0
176
     1
 62
     5
 63
     8
421
  8421504
176
     1
 74
     1
176
     1
 91
        4
176
     1
 64
     7
176
     1
 65
   257
176
     1
 75
     1
176
     1
175
     1
176
     1
 42
1.0
176
     1
 92
        8
176
     1
 66
     8
424
  8421504
176
     1
 43
1.0
176
     1
 76
     1
176
     1
 77
     6
176
     1
 78
     2
176
     1
 67
     7
176
     1
 79
     5
176
     1
170
     0
176
     1
171
     0
176
     1
290
     0
176
     1
 93
        1
176
     1
 44
0.0
176
     1
173
     0
176
     1
  0
VISUALSTYLE
  5
34
102
{ACAD_REACTORS
330
2A
102
}
330
2A
100
AcDbVisualStyle
  2
Conceptual
 70
     9
177
     2
291
     0
 71
     3
176
     1
 72
     2
176
     1
 73
     0
176
     1
 90
        0
176
     1
 40
-0.6
176
     1
 41
-30.0
176
     1
 62
     5
 63
     7
421
 16777215
176
     1
 74
     2
176
     1
 91
        2
176
     1
 64
     7
176
     1
 65
   257
176
     1
 75
     1
176
     1
175
     1
176
     1
 42
40.0
176
     1
 92
        8
176
     1
 66
     7
176
     1
 43
1.0
176
     1
 76
     1
176
     1
 77
     6
176
     1
 78
     2
176
     1
 67
     7
176
     1
 79
     3
176
     1
170
     0
176
     1
171
     0
176
     1
290
     0
176
     1
 93
        1
176
     1
 44
0.0
176
     1
173
     0
176
     1
  0
VISUALSTYLE
  5
35
102
{ACAD_REACTORS
330
2A
102
}
330
2A
100
AcDbVisualStyle
  2
Dim
 70
    11
177
     2
291
     1
 71
     2
176
     1
 72
     2
176
     1
 73
     0
176
     1
 90
        0
176
     1
 40
-0.6
176
     1
 41
-30.0
176
     1
 62
     5
 63
     7
421
 16777215
176
     1
 74
     1
176
     1
 91
        4
176
     1
 64
     7
176
     1
 65
   257
176
     1
 75
     1
176
     1
175
     1
176
     1
 42
1.0
176
     1
 92
        8
176
     1
 66
     7
176
     1
 43
1.0
176
     1
 76
     1
176
     1
 77
     6
176
     1
 78
     2
176
     1
 67
     7
176
     1
 79
     5
176
     1
170
     0
176
     1
171
     0
176
     1
290
     0
176
     1
 93
        1
176
     1
 44
-50.0
176
     1
173
     0
176
     1
  0
VISUALSTYLE
  5
39
102
{ACAD_REACTORS
330
2A
102
}
330
2A
100
AcDbVisualStyle
  2
Facepattern
 70
    15
177
     2
291
     1
 71
     2
176
     1
 72
     2
176
     1
 73
     0
176
     1
 90
        0
176
     1
 40
-0.6
176
     1
 41
-30.0
176
     1
 62
     5
 63
     7
421
 16777215
176
     1
 74
     1
176
     1
 91
        4
176
     1
 64
     7
176
     1
 65
   257
176
     1
 75
     1
176
     1
175
     1
176
     1
 42
1.0
176
     1
 92
        8
176
     1
 66
     7
176
     1
 43
1.0
176
     1
 76
     1
176
     1
 77
     6
176
     1
 78
     2
176
     1
 67
     7
176
     1
 79
     5
176
     1
170
     0
176
     1
171
     0
176
     1
290
     0
176
     1
 93
        1
176
     1
 44
0.0
176
     1
173
     0
176
     1
  0
VISUALSTYLE
  5
2B
102
{ACAD_REACTORS
330
2A
102
}
330
2A
100
AcDbVisualStyle
  2
Flat
 70
     0
177
     2
291
     1
 71
     2
176
     1
 72
     1
176
     1
 73
     1
176
     1
 90
        2
176
     1
 40
-0.6
176
     1
 41
30.0
176
     1
 62
     5
 63
     7
421
 16777215
176
     1
 74
     0
176
     1
 91
        4
176
     1
 64
     7
176
     1
 65
   257
176
     1
 75
     1
176
     1
175
     1
176
     1
 42
1.0
176
     1
 92
        8
176
     1
 66
     7
176
     1
 43
1.0
176
     1
 76
     1
176
     1
 77
     6
176
     1
 78
     2
176
     1
 67
     7
176
     1
 79
     5
176
     1
170
     0
176
     1
171
     0
176
     1
290
     0
176
     1
 93
       13
176
     1
 44
0.0
176
     1
173
     0
176
     1
  0
VISUALSTYLE
  5
2C
102
{ACAD_REACTORS
330
2A
102
}
330
2A
100
AcDbVisualStyle
  2
FlatWithEdges
 70
     1
177
     2
291
     1
 71
     2
176
     1
 72
     1
176
     1
 73
     1
176
     1
 90
        2
176
     1
 40
-0.6
176
     1
 41
30.0
176
     1
 62
     5
 63
     7
421
 16777215
176
     1
 74
     1
176
     1
 91
        4
176
     1
 64
     7
176
     1
 65
   257
176
     1
 75
     1
176
     1
175
     1
176
     1
 42
1.0
176
     1
 92
        0
176
     1
 66
   257
176
     1
 43
1.0
176
     1
 76
     1
176
     1
 77
     6
176
     1
 78
     2
176
     1
 67
     7
176
     1
 79
     5
176
     1
170
     0
176
     1
171
     0
176
     1
290
     0
176
     1
 93
       13
176
     1
 44
0.0
176
     1
173
     0
176
     1
  0
VISUALSTYLE
  5
2D
102
{ACAD_REACTORS
330
2A
102
}
330
2A
100
AcDbVisualStyle
  2
Gouraud
 70
     2
177
     2
291
     1
 71
     2
176
     1
 72
     2
176
     1
 73
     1
176
     1
 90
        2
176
     1
 40
-0.6
176
     1
 41
30.0
176
     1
 62
     5
 63
     7
421
 16777215
176
     1
 74
     0
176
     1
 91
        4
176
     1
 64
     7
176
     1
 65
   257
176
     1
 75
     1
176
     1
175
     1
176
     1
 42
1.0
176
     1
 92
        0
176
     1
 66
     7
176
     1
 43
1.0
176
     1
 76
     1
176
     1
 77
     6
176
     1
 78
     2
176
     1
 67
     7
176
     1
 79
     5
176
     1
170
     0
176
     1
171
     0
176
     1
290
     0
176
     1
 93
       13
176
     1
 44
0.0
176
     1
173
     0
176
     1
  0
VISUALSTYLE
  5
2E
102
{ACAD_REACTORS
330
2A
102
}
330
2A
100
AcDbVisualStyle
  2
GouraudWithEdges
 70
     3
177
     2
291
     1
 71
     2
176
     1
 72
     2
176
     1
 73
     1
176
     1
 90
        2
176
     1
 40
-0.6
176
     1
 41
30.0
176
     1
 62
     5
 63
     7
421
 16777215
176
     1
 74
     1
176
     1
 91
        4
176
     1
 64
     7
176
     1
 65
   257
176
     1
 75
     1
176
     1
175
     1
176
     1
 42
1.0
176
     1
 92
        0
176
     1
 66
   257
176
     1
 43
1.0
176
     1
 76
     1
176
     1
 77
     6
176
     1
 78
     2
176
     1
 67
     7
176
     1
 79
     5
176
     1
170
     0
176
     1
171
     0
176
     1
290
     0
176
     1
 93
       13
176
     1
 44
0.0
176
     1
173
     0
176
     1
  0
VISUALSTYLE
  5
38
102
{ACAD_REACTORS
330
2A
102
}
330
2A
100
AcDbVisualStyle
  2
Linepattern
 70
    14
177
     2
291
     1
 71
     2
176
     1
 72
     2
176
     1
 73
     0
176
     1
 90
        0
176
     1
 40
-0.6
176
     1
 41
-30.0
176
     1
 62
     5
 63
     7
421
 16777215
176
     1
 74
     1
176
     1
 91
        4
176
     1
 64
     7
176
     1
 65
   257
176
     1
 75
     7
176
     1
175
     7
176
     1
 42
1.0
176
     1
 92
        8
176
     1
 66
     7
176
     1
 43
1.0
176
     1
 76
     1
176
     1
 77
     6
176
     1
 78
     2
176
     1
 67
     7
176
     1
 79
     5
176
     1
170
     0
176
     1
171
     0
176
     1
290
     0
176
     1
 93
        1
176
     1
 44
0.0
176
     1
173
     0
176
     1
  0
VISUALSTYLE
  5
33
102
{ACAD_REACTORS
330
2A
102
}
330
2A
100
AcDbVisualStyle
  2
Realistic
 70
     8
177
     2
291
     0
 71
     2
176
     1
 72
     2
176
     1
 73
     0
176
     1
 90
        0
176
     1
 40
-0.6
176
     1
 41
-30.0
176
     1
 62
     5
 63
     7
421
 16777215
176
     1
 74
     1
176
     1
 91
        0
176
     1
 64
     7
176
     1
 65
   257
176
     1
 75
     1
176
     1
175
     1
176
     1
 42
1.0
176
     1
 92
        8
176
     1
 66
     8
424
  7895160
176
     1
 43
1.0
176
     1
 76
     1
176
     1
 77
     6
176
     1
 78
     2
176
     1
 67
     7
176
     1
 79
     5
176
     1
170
     0
176
     1
171
     0
176
     1
290
     0
176
     1
 93
       13
176
     1
 44
0.0
176
     1
173
     0
176
     1
  0
VISUALSTYLE
  5
37
102
{ACAD_REACTORS
330
2A
102
}
330
2A
100
AcDbVisualStyle
  2
Thicken
 70
    13
177
     2
291
     1
 71
     2
176
     1
 72
     2
176
     1
 73
     0
176
     1
 90
        0
176
     1
 40
-0.6
176
     1
 41
-30.0
176
     1
 62
     5
 63
     7
421
 16777215
176
     1
 74
     1
176
     1
 91
        4
176
     1
 64
     7
176
     1
 65
   257
176
     1
 75
     1
176
     1
175
     1
176
     1
 42
1.0
176
     1
 92
       12
176
     1
 66
     7
176
     1
 43
1.0
176
     1
 76
     1
176
     1
 77
     6
176
     1
 78
     2
176
     1
 67
     7
176
     1
 79
     5
176
     1
170
     0
176
     1
171
     0
176
     1
290
     0
176
     1
 93
        1
176
     1
 44
0.0
176
     1
173
     0
176
     1
  0
ENDSEC
  0
EOF
