  0
SECTION
  2
HEADER
  9
$ACADVER
  1
AC1024
  9
$ACADMAINTVER
 70
     6
  9
$DWGCODEPAGE
  3
UNDEFINED
  9
$INSBASE
 10
0.0
 20
0.0
 30
0.0
  9
$EXTMIN
 10
1.000000000000000E+20
 20
1.000000000000000E+20
 30
1.000000000000000E+20
  9
$EXTMAX
 10
-1.000000000000000E+20
 20
-1.000000000000000E+20
 30
-1.000000000000000E+20
  9
$LIMMIN
 10
0.0
 20
0.0
  9
$LIMMAX
 10
12.0
 20
9.0
  9
$ORTHOMODE
 70
     0
  9
$REGENMODE
 70
     1
  9
$FILLMODE
 70
     1
  9
$QTEXTMODE
 70
     0
  9
$MIRRTEXT
 70
     1
  9
$LTSCALE
 40
1.0
  9
$ATTMODE
 70
     1
  9
$TEXTSIZE
 40
0.2
  9
$TRACEWID
 40
0.05
  9
$TEXTSTYLE
  7
Standard
  9
$CLAYER
  8
0
  9
$CELTYPE
  6
ByLayer
  9
$CECOLOR
 62
   256
  9
$CELTSCALE
 40
1.0
  9
$DISPSILH
 70
     0
  9
$DIMSCALE
 40
1.0
  9
$DIMASZ
 40
0.18
  9
$DIMEXO
 40
0.0625
  9
$DIMDLI
 40
0.38
  9
$DIMRND
 40
0.0
  9
$DIMDLE
 40
0.0
  9
$DIMEXE
 40
0.18
  9
$DIMTP
 40
0.0
  9
$DIMTM
 40
0.0
  9
$DIMTXT
 40
0.18
  9
$DIMCEN
 40
0.09
  9
$DIMTSZ
 40
0.0
  9
$DIMTOL
 70
     0
  9
$DIMLIM
 70
     0
  9
$DIMTIH
 70
     1
  9
$DIMTOH
 70
     1
  9
$DIMSE1
 70
     0
  9
$DIMSE2
 70
     0
  9
$DIMTAD
 70
     0
  9
$DIMZIN
 70
     0
  9
$DIMBLK
  1

  9
$DIMASO
 70
     1
  9
$DIMSHO
 70
     1
  9
$DIMPOST
  1

  9
$DIMAPOST
  1

  9
$DIMALT
 70
     0
  9
$DIMALTD
 70
     2
  9
$DIMALTF
 40
25.4
  9
$DIMLFAC
 40
1.0
  9
$DIMTOFL
 70
     0
  9
$DIMTVP
 40
0.0
  9
$DIMTIX
 70
     0
  9
$DIMSOXD
 70
     0
  9
$DIMSAH
 70
     0
  9
$DIMBLK1
  1

  9
$DIMBLK2
  1

  9
$DIMSTYLE
  2
Standard
  9
$DIMCLRD
 70
     0
  9
$DIMCLRE
 70
     0
  9
$DIMCLRT
 70
     0
  9
$DIMTFAC
 40
1.0
  9
$DIMGAP
 40
0.09
  9
$DIMJUST
 70
     0
  9
$DIMSD1
 70
     0
  9
$DIMSD2
 70
     0
  9
$DIMTOLJ
 70
     1
  9
$DIMTZIN
 70
     0
  9
$DIMALTZ
 70
     0
  9
$DIMALTTZ
 70
     0
  9
$DIMUPT
 70
     0
  9
$DIMDEC
 70
     4
  9
$DIMTDEC
 70
     4
  9
$DIMALTU
 70
     2
  9
$DIMALTTD
 70
     2
  9
$DIMTXSTY
  7
Standard
  9
$DIMAUNIT
 70
     0
  9
$DIMADEC
 70
     0
  9
$DIMALTRND
 40
0.0
  9
$DIMAZIN
 70
     0
  9
$DIMDSEP
 70
    46
  9
$DIMATFIT
 70
     3
  9
$DIMFRAC
 70
     0
  9
$DIMLDRBLK
  1

  9
$DIMLUNIT
 70
     2
  9
$DIMLWD
 70
    -2
  9
$DIMLWE
 70
    -2
  9
$DIMTMOVE
 70
     0
  9
$DIMFXL
 40
1.0
  9
$DIMFXLON
 70
     0
  9
$DIMJOGANG
 40
0.7853981633974483
  9
$DIMTFILL
 70
     0
  9
$DIMTFILLCLR
 70
     0
  9
$DIMARCSYM
 70
     0
  9
$DIMLTYPE
  6

  9
$DIMLTEX1
  6

  9
$DIMLTEX2
  6

  9
$DIMTXTDIRECTION
 70
     0
  9
$LUNITS
 70
     2
  9
$LUPREC
 70
     4
  9
$SKETCHINC
 40
0.1
  9
$FILLETRAD
 40
0.5
  9
$AUNITS
 70
     0
  9
$AUPREC
 70
     0
  9
$MENU
  1
.
  9
$ELEVATION
 40
0.0
  9
$PELEVATION
 40
0.0
  9
$THICKNESS
 40
0.0
  9
$LIMCHECK
 70
     0
  9
$CHAMFERA
 40
0.5
  9
$CHAMFERB
 40
0.5
  9
$CHAMFERC
 40
1.0
  9
$CHAMFERD
 40
0.0
  9
$SKPOLY
 70
     0
  9
$TDCREATE
 40
2457917.626805544
  9
$TDUCREATE
 40
2457917.251805556
  9
$TDUPDATE
 40
2457917.626805544
  9
$TDUUPDATE
 40
2457917.251805556
  9
$TDINDWG
 40
0.0000000116
  9
$TDUSRTIMER
 40
0.0000000116
  9
$USRTIMER
 70
     1
  9
$ANGBASE
 50
0.0
  9
$ANGDIR
 70
     0
  9
$PDMODE
 70
     0
  9
$PDSIZE
 40
0.0
  9
$PLINEWID
 40
0.0
  9
$SPLFRAME
 70
     0
  9
$SPLINETYPE
 70
     6
  9
$SPLINESEGS
 70
     8
  9
$HANDSEED
  5
130
  9
$SURFTAB1
 70
     6
  9
$SURFTAB2
 70
     6
  9
$SURFTYPE
 70
     6
  9
$SURFU
 70
     6
  9
$SURFV
 70
     6
  9
$UCSBASE
  2

  9
$UCSNAME
  2

  9
$UCSORG
 10
0.0
 20
0.0
 30
0.0
  9
$UCSXDIR
 10
1.0
 20
0.0
 30
0.0
  9
$UCSYDIR
 10
0.0
 20
1.0
 30
0.0
  9
$UCSORTHOREF
  2

  9
$UCSORTHOVIEW
 70
     0
  9
$UCSORGTOP
 10
0.0
 20
0.0
 30
0.0
  9
$UCSORGBOTTOM
 10
0.0
 20
0.0
 30
0.0
  9
$UCSORGLEFT
 10
0.0
 20
0.0
 30
0.0
  9
$UCSORGRIGHT
 10
0.0
 20
0.0
 30
0.0
  9
$UCSORGFRONT
 10
0.0
 20
0.0
 30
0.0
  9
$UCSORGBACK
 10
0.0
 20
0.0
 30
0.0
  9
$PUCSBASE
  2

  9
$PUCSNAME
  2

  9
$PUCSORG
 10
0.0
 20
0.0
 30
0.0
  9
$PUCSXDIR
 10
1.0
 20
0.0
 30
0.0
  9
$PUCSYDIR
 10
0.0
 20
1.0
 30
0.0
  9
$PUCSORTHOREF
  2

  9
$PUCSORTHOVIEW
 70
     0
  9
$PUCSORGTOP
 10
0.0
 20
0.0
 30
0.0
  9
$PUCSORGBOTTOM
 10
0.0
 20
0.0
 30
0.0
  9
$PUCSORGLEFT
 10
0.0
 20
0.0
 30
0.0
  9
$PUCSORGRIGHT
 10
0.0
 20
0.0
 30
0.0
  9
$PUCSORGFRONT
 10
0.0
 20
0.0
 30
0.0
  9
$PUCSORGBACK
 10
0.0
 20
0.0
 30
0.0
  9
$USERI1
 70
     0
  9
$USERI2
 70
     0
  9
$USERI3
 70
     0
  9
$USERI4
 70
     0
  9
$USERI5
 70
     0
  9
$USERR1
 40
0.0
  9
$USERR2
 40
0.0
  9
$USERR3
 40
0.0
  9
$USERR4
 40
0.0
  9
$USERR5
 40
0.0
  9
$WORLDVIEW
 70
     1
  9
$SHADEDGE
 70
     3
  9
$SHADEDIF
 70
    70
  9
$TILEMODE
 70
     1
  9
$MAXACTVP
 70
    64
  9
$PINSBASE
 10
0.0
 20
0.0
 30
0.0
  9
$PLIMCHECK
 70
     0
  9
$PEXTMIN
 10
1.000000000000000E+20
 20
1.000000000000000E+20
 30
1.000000000000000E+20
  9
$PEXTMAX
 10
-1.000000000000000E+20
 20
-1.000000000000000E+20
 30
-1.000000000000000E+20
  9
$PLIMMIN
 10
0.0
 20
0.0
  9
$PLIMMAX
 10
12.0
 20
9.0
  9
$UNITMODE
 70
     0
  9
$VISRETAIN
 70
     1
  9
$PLINEGEN
 70
     0
  9
$PSLTSCALE
 70
     1
  9
$TREEDEPTH
 70
  3020
  9
$CMLSTYLE
  2
Standard
  9
$CMLJUST
 70
     0
  9
$CMLSCALE
 40
1.0
  9
$PROXYGRAPHICS
 70
     1
  9
$MEASUREMENT
 70
     0
  9
$CELWEIGHT
370
    -1
  9
$ENDCAPS
280
     0
  9
$JOINSTYLE
280
     0
  9
$LWDISPLAY
290
     1
  9
$INSUNITS
 70
     1
  9
$HYPERLINKBASE
  1

  9
$STYLESHEET
  1

  9
$XEDIT
290
     1
  9
$CEPSNTYPE
380
     0
  9
$PSTYLEMODE
290
     1
  9
$FINGERPRINTGUID
  2
{73914F93-C0E1-AAAE-B016-FBE422E1DB52}
  9
$VERSIONGUID
  2
{FAEB1C32-E019-11D5-929B-00C0DF256EC4}
  9
$EXTNAMES
290
     1
  9
$PSVPSCALE
 40
0.0
  9
$OLESTARTUP
290
     0
  9
$SORTENTS
280
   127
  9
$INDEXCTL
280
     0
  9
$HIDETEXT
280
     1
  9
$XCLIPFRAME
280
     2
  9
$HALOGAP
280
     0
  9
$OBSCOLOR
 70
   257
  9
$OBSLTYPE
280
     0
  9
$INTERSECTIONDISPLAY
280
     0
  9
$INTERSECTIONCOLOR
 70
   257
  9
$DIMASSOC
280
     2
  9
$PROJECTNAME
  1

  9
$CAMERADISPLAY
290
     0
  9
$LENSLENGTH
 40
50.0
  9
$CAMERAHEIGHT
 40
0.0
  9
$STEPSPERSEC
 40
2.0
  9
$STEPSIZE
 40
6.0
  9
$3DDWFPREC
 40
2.0
  9
$PSOLWIDTH
 40
0.25
  9
$PSOLHEIGHT
 40
4.0
  9
$LOFTANG1
 40
1.570796326794897
  9
$LOFTANG2
 40
1.570796326794897
  9
$LOFTMAG1
 40
0.0
  9
$LOFTMAG2
 40
0.0
  9
$LOFTPARAM
 70
     7
  9
$LOFTNORMALS
280
     1
  9
$LATITUDE
 40
37.795
  9
$LONGITUDE
 40
-122.394
  9
$NORTHDIRECTION
 40
0.0
  9
$TIMEZONE
 70
 -8000
  9
$LIGHTGLYPHDISPLAY
280
     1
  9
$TILEMODELIGHTSYNCH
280
     1
  9
$CMATERIAL
347
3C
  9
$SOLIDHIST
280
     1
  9
$SHOWHIST
280
     1
  9
$DWFFRAME
280
     2
  9
$DGNFRAME
280
     2
  9
$REALWORLDSCALE
290
     1
  9
$INTERFERECOLOR
 62
   256
  9
$CSHADOW
280
     0
  9
$SHADOWPLANELOCATION
 40
0.0
  0
ENDSEC
  0
SECTION
  2
CLASSES
  0
CLASS
  1
ACDBDICTIONARYWDFLT
  2
AcDbDictionaryWithDefault
  3
ObjectDBX Classes
 90
        0
 91
        4
280
     0
281
     0
  0
CLASS
  1
VISUALSTYLE
  2
AcDbVisualStyle
  3
ObjectDBX Classes
 90
     4095
 91
        4
280
     0
281
     0
  0
CLASS
  1
MATERIAL
  2
AcDbMaterial
  3
ObjectDBX Classes
 90
     1153
 91
        4
280
     0
281
     0
  0
CLASS
  1
SUN
  2
AcDbSun
  3
SCENEOE
 90
     1024
 91
        4
280
     0
281
     0
  0
ENDSEC
  0
SECTION
  2
TABLES
  0
TABLE
  2
VPORT
  5
8
330
0
100
AcDbSymbolTable
 70
     1
  0
VPORT
  5
29
330
8
100
AcDbSymbolTableRecord
100
AcDbViewportTableRecord
  2
*Active
 70
     0
 10
0.0
 20
0.0
 11
1.0
 21
1.0
 12
0.0
 22
0.0
 13
0.0
 23
0.0
 14
0.5
 24
0.5
 15
0.5
 25
0.5
 16
0.0
 26
0.0
 36
1.0
 17
91.00082462281999
 27
-128.4993055234307
 37
0.0
 40
256.9986110468615
 41
0.7081814508812795
 42
50.0
 43
0.0
 44
0.0
 50
0.0
 51
0.0
 71
     0
 72
   100
 73
     1
 74
     3
 75
     0
 76
     0
 77
     0
 78
     0
281
     0
 65
     1
110
0.0
120
0.0
130
0.0
111
1.0
121
0.0
131
0.0
112
0.0
122
1.0
132
0.0
 79
     0
146
0.0
 60
     3
 61
     5
292
     1
282
     1
141
0.0
142
0.0
 63
   250
361
3F
  0
ENDTAB
  0
TABLE
  2
LTYPE
  5
5
330
0
100
AcDbSymbolTable
 70
     1
  0
LTYPE
  5
14
330
5
100
AcDbSymbolTableRecord
100
AcDbLinetypeTableRecord
  2
ByBlock
 70
     0
  3

 72
    65
 73
     0
 40
0.0
  0
LTYPE
  5
15
330
5
100
AcDbSymbolTableRecord
100
AcDbLinetypeTableRecord
  2
ByLayer
 70
     0
  3

 72
    65
 73
     0
 40
0.0
  0
LTYPE
  5
16
330
5
100
AcDbSymbolTableRecord
100
AcDbLinetypeTableRecord
  2
Continuous
 70
     0
  3
Solid line
 72
    65
 73
     0
 40
0.0
  0
ENDTAB
  0
TABLE
  2
LAYER
  5
2
330
0
100
AcDbSymbolTable
 70
     2
  0
LAYER
  5
10
330
2
100
AcDbSymbolTableRecord
100
AcDbLayerTableRecord
  2
0
 70
     0
 62
     7
  6
Continuous
370
    -3
390
F
347
3E
  0
LAYER
  5
40
330
2
100
AcDbSymbolTableRecord
100
AcDbLayerTableRecord
  2
_U+30EC_U+30A4_U+30E4_U+30FC 1
 70
     0
 62
     7
  6
Continuous
370
    -3
390
F
347
3E
  0
ENDTAB
  0
TABLE
  2
STYLE
  5
3
330
0
100
AcDbSymbolTable
 70
     1
  0
STYLE
  5
11
330
3
100
AcDbSymbolTableRecord
100
AcDbTextStyleTableRecord
  2
Standard
 70
     0
 40
0.0
 41
1.0
 50
0.0
 71
     0
 42
0.2
  3
txt
  4

  0
ENDTAB
  0
TABLE
  2
VIEW
  5
6
330
0
100
AcDbSymbolTable
 70
     0
  0
ENDTAB
  0
TABLE
  2
UCS
  5
7
330
0
100
AcDbSymbolTable
 70
     0
  0
ENDTAB
  0
TABLE
  2
APPID
  5
9
330
0
100
AcDbSymbolTable
 70
     1
  0
APPID
  5
12
330
9
100
AcDbSymbolTableRecord
100
AcDbRegAppTableRecord
  2
ACAD
 70
     0
  0
ENDTAB
  0
TABLE
  2
DIMSTYLE
  5
A
330
0
100
AcDbSymbolTable
 70
     1
100
AcDbDimStyleTable
  0
DIMSTYLE
105
27
330
A
100
AcDbSymbolTableRecord
100
AcDbDimStyleTableRecord
  2
Standard
 70
     0
178
     0
340
11
  0
ENDTAB
  0
TABLE
  2
BLOCK_RECORD
  5
1
330
0
100
AcDbSymbolTable
 70
     8
  0
BLOCK_RECORD
  5
1F
330
1
100
AcDbSymbolTableRecord
100
AcDbBlockTableRecord
  2
*Model_Space
340
22
 70
     0
280
     1
281
     0
  0
BLOCK_RECORD
  5
1B
330
1
100
AcDbSymbolTableRecord
100
AcDbBlockTableRecord
  2
*Paper_Space
340
1E
 70
     0
280
     1
281
     0
  0
BLOCK_RECORD
  5
23
330
1
100
AcDbSymbolTableRecord
100
AcDbBlockTableRecord
  2
*Paper_Space0
340
26
 70
     0
280
     1
281
     0
  0
BLOCK_RECORD
  5
A3
330
1
100
AcDbSymbolTableRecord
100
AcDbBlockTableRecord
  2
block 2
340
0
102
{BLKREFS
331
A4
102
}
 70
     0
280
     1
281
     0
  0
BLOCK_RECORD
  5
B4
330
1
100
AcDbSymbolTableRecord
100
AcDbBlockTableRecord
  2
block 3
340
0
102
{BLKREFS
331
B5
102
}
 70
     0
280
     1
281
     0
  0
BLOCK_RECORD
  5
C6
330
1
100
AcDbSymbolTableRecord
100
AcDbBlockTableRecord
  2
block 4
340
0
102
{BLKREFS
331
C7
102
}
 70
     0
280
     1
281
     0
  0
BLOCK_RECORD
  5
E7
330
1
100
AcDbSymbolTableRecord
100
AcDbBlockTableRecord
  2
block 5
340
0
102
{BLKREFS
331
E8
102
}
 70
     0
280
     1
281
     0
  0
BLOCK_RECORD
  5
F5
330
1
100
AcDbSymbolTableRecord
100
AcDbBlockTableRecord
  2
block 6
340
0
102
{BLKREFS
331
F6
102
}
 70
     0
280
     1
281
     0
  0
BLOCK_RECORD
  5
111
330
1
100
AcDbSymbolTableRecord
100
AcDbBlockTableRecord
  2
block 7
340
0
102
{BLKREFS
331
112
102
}
 70
     0
280
     1
281
     0
  0
BLOCK_RECORD
  5
125
330
1
100
AcDbSymbolTableRecord
100
AcDbBlockTableRecord
  2
block 8
340
0
102
{BLKREFS
331
126
102
}
 70
     0
280
     1
281
     0
  0
ENDTAB
  0
ENDSEC
  0
SECTION
  2
BLOCKS
  0
BLOCK
  5
20
330
1F
100
AcDbEntity
  8
0
100
AcDbBlockBegin
  2
*Model_Space
 70
     0
 10
0.0
 20
0.0
 30
0.0
  3
*Model_Space
  1

  0
ENDBLK
  5
21
330
1F
100
AcDbEntity
  8
0
100
AcDbBlockEnd
  0
BLOCK
  5
1C
330
1B
100
AcDbEntity
 67
     1
  8
0
100
AcDbBlockBegin
  2
*Paper_Space
 70
     0
 10
0.0
 20
0.0
 30
0.0
  3
*Paper_Space
  1

  0
ENDBLK
  5
1D
330
1B
100
AcDbEntity
 67
     1
  8
0
100
AcDbBlockEnd
  0
BLOCK
  5
24
330
23
100
AcDbEntity
  8
0
100
AcDbBlockBegin
  2
*Paper_Space0
 70
     0
 10
0.0
 20
0.0
 30
0.0
  3
*Paper_Space0
  1

  0
ENDBLK
  5
25
330
23
100
AcDbEntity
  8
0
100
AcDbBlockEnd
  0
BLOCK
  5
A5
330
A3
100
AcDbEntity
  8
0
100
AcDbBlockBegin
  2
block 2
 70
     0
 10
0.0
 20
0.0
 30
0.0
  3
block 2
  1

  0
SPLINE
  5
A7
330
A3
100
AcDbEntity
  8
_U+30EC_U+30A4_U+30E4_U+30FC 1
370
     0
100
AcDbSpline
210
0.0
220
0.0
230
1.0
 70
    11
 71
     3
 72
    53
 73
    49
 74
     0
 42
0.0000000001
 43
0.0000000001
 12
1.0
 22
0.0
 32
0.0
 13
1.0
 23
0.0
 33
0.0
 40
0.0
 40
0.0
 40
0.0
 40
0.0
 40
1.0
 40
1.0
 40
1.0
 40
2.0
 40
2.0
 40
2.0
 40
3.0
 40
3.0
 40
3.0
 40
4.0
 40
4.0
 40
4.0
 40
5.0
 40
5.0
 40
5.0
 40
6.0
 40
6.0
 40
6.0
 40
7.0
 40
7.0
 40
7.0
 40
8.0
 40
8.0
 40
8.0
 40
9.0
 40
9.0
 40
9.0
 40
10.0
 40
10.0
 40
10.0
 40
11.0
 40
11.0
 40
11.0
 40
12.0
 40
12.0
 40
12.0
 40
13.0
 40
13.0
 40
13.0
 40
14.0
 40
14.0
 40
14.0
 40
15.0
 40
15.0
 40
15.0
 40
16.0
 40
16.0
 40
16.0
 40
16.0
 10
87.05394556200388
 20
-111.1125976284719
 30
0.0
 10
86.96368406029033
 20
-111.1125976284719
 30
0.0
 10
86.84620630424331
 20
-111.0943386224
 30
0.0
 10
86.72907305774481
 20
-111.0257812222436
 30
0.0
 10
86.52856850050328
 20
-110.9069254280024
 30
0.0
 10
86.50410832255801
 20
-110.7649874940101
 30
0.0
 10
86.48205971145241
 20
-110.6481987570602
 30
0.0
 10
86.48205971145241
 20
-110.6481987570602
 30
0.0
 10
86.73871932510352
 20
-110.6481987570602
 30
0.0
 10
86.73871932510352
 20
-110.6481987570602
 30
0.0
 10
86.80245359158064
 20
-110.8635172248883
 30
0.0
 10
86.94887014970377
 20
-110.8955566129011
 30
0.0
 10
87.05635712884356
 20
-110.8955566129011
 30
0.0
 10
87.21793210710177
 20
-110.8955566129011
 30
0.0
 10
87.39363197684952
 20
-110.7877251242128
 30
0.0
 10
87.39363197684952
 20
-110.5362331537896
 30
0.0
 10
87.39363197684952
 20
-110.2592474767755
 30
0.0
 10
87.18589271908895
 20
-110.1837998856485
 30
0.0
 10
87.04671086148485
 20
-110.1837998856485
 30
0.0
 10
87.01019284934121
 20
-110.1837998856485
 30
0.0
 10
86.84620630424331
 20
-110.1837998856485
 30
0.0
 10
86.74354245878287
 20
-110.3233262528011
 30
0.0
 10
86.74354245878287
 20
-110.3233262528011
 30
0.0
 10
86.54097084425018
 20
-110.3030001894381
 30
0.0
 10
86.54097084425018
 20
-110.3030001894381
 30
0.0
 10
86.54097084425018
 20
-110.3030001894381
 30
0.0
 10
86.68015270185427
 20
-109.3876383190073
 30
0.0
 10
86.68015270185427
 20
-109.3876383190073
 30
0.0
 10
86.68015270185427
 20
-109.3876383190073
 30
0.0
 10
87.57932262350448
 20
-109.3876383190073
 30
0.0
 10
87.57932262350448
 20
-109.3876383190073
 30
0.0
 10
87.57932262350448
 20
-109.3876383190073
 30
0.0
 10
87.57932262350448
 20
-109.598133653156
 30
0.0
 10
87.57932262350448
 20
-109.598133653156
 30
0.0
 10
87.57932262350448
 20
-109.598133653156
 30
0.0
 10
86.86825491534891
 20
-109.598133653156
 30
0.0
 10
86.86825491534891
 20
-109.598133653156
 30
0.0
 10
86.86825491534891
 20
-109.598133653156
 30
0.0
 10
86.79246281467341
 20
-110.0556423335972
 30
0.0
 10
86.79246281467341
 20
-110.0556423335972
 30
0.0
 10
86.86343178166956
 20
-110.0191243214536
 30
0.0
 10
86.95886092661098
 20
-109.9757161183394
 30
0.0
 10
87.0956312173754
 20
-109.9757161183394
 30
0.0
 10
87.38880884317017
 20
-109.9757161183394
 30
0.0
 10
87.66269393424753
 20
-110.176909694678
 30
0.0
 10
87.66269393424753
 20
-110.5155625808781
 30
0.0
 10
87.66269393424753
 20
-110.8586940912089
 30
0.0
 10
87.40362275375674
 20
-111.1125976284719
 30
0.0
 10
87.05394556200388
 20
-111.1125976284719
 30
0.0
  0
HATCH
  5
A8
330
A3
100
AcDbEntity
  8
_U+30EC_U+30A4_U+30E4_U+30FC 1
 62
   179
420
  2234388
100
AcDbHatch
 10
0.0
 20
0.0
 30
0.0
210
0.0
220
0.0
230
1.0
  2
SOLID
 70
     1
 71
     0
 91
        1
 92
        1
 93
        1
 72
     4
 94
        3
 73
     0
 74
     1
 95
       53
 96
       49
 40
0.0
 40
0.0
 40
0.0
 40
0.0
 40
1.0
 40
1.0
 40
1.0
 40
2.0
 40
2.0
 40
2.0
 40
3.0
 40
3.0
 40
3.0
 40
4.0
 40
4.0
 40
4.0
 40
5.0
 40
5.0
 40
5.0
 40
6.0
 40
6.0
 40
6.0
 40
7.0
 40
7.0
 40
7.0
 40
8.0
 40
8.0
 40
8.0
 40
9.0
 40
9.0
 40
9.0
 40
10.0
 40
10.0
 40
10.0
 40
11.0
 40
11.0
 40
11.0
 40
12.0
 40
12.0
 40
12.0
 40
13.0
 40
13.0
 40
13.0
 40
14.0
 40
14.0
 40
14.0
 40
15.0
 40
15.0
 40
15.0
 40
16.0
 40
16.0
 40
16.0
 40
16.0
 10
87.05394556200388
 20
-111.1125976284719
 10
86.96368406029033
 20
-111.1125976284719
 10
86.84620630424331
 20
-111.0943386224
 10
86.72907305774481
 20
-111.0257812222436
 10
86.52856850050328
 20
-110.9069254280024
 10
86.50410832255801
 20
-110.7649874940101
 10
86.48205971145241
 20
-110.6481987570602
 10
86.48205971145241
 20
-110.6481987570602
 10
86.73871932510352
 20
-110.6481987570602
 10
86.73871932510352
 20
-110.6481987570602
 10
86.80245359158064
 20
-110.8635172248883
 10
86.94887014970377
 20
-110.8955566129011
 10
87.05635712884356
 20
-110.8955566129011
 10
87.21793210710177
 20
-110.8955566129011
 10
87.39363197684952
 20
-110.7877251242128
 10
87.39363197684952
 20
-110.5362331537896
 10
87.39363197684952
 20
-110.2592474767755
 10
87.18589271908895
 20
-110.1837998856485
 10
87.04671086148485
 20
-110.1837998856485
 10
87.01019284934121
 20
-110.1837998856485
 10
86.84620630424331
 20
-110.1837998856485
 10
86.74354245878287
 20
-110.3233262528011
 10
86.74354245878287
 20
-110.3233262528011
 10
86.54097084425018
 20
-110.3030001894381
 10
86.54097084425018
 20
-110.3030001894381
 10
86.54097084425018
 20
-110.3030001894381
 10
86.68015270185427
 20
-109.3876383190073
 10
86.68015270185427
 20
-109.3876383190073
 10
86.68015270185427
 20
-109.3876383190073
 10
87.57932262350448
 20
-109.3876383190073
 10
87.57932262350448
 20
-109.3876383190073
 10
87.57932262350448
 20
-109.3876383190073
 10
87.57932262350448
 20
-109.598133653156
 10
87.57932262350448
 20
-109.598133653156
 10
87.57932262350448
 20
-109.598133653156
 10
86.86825491534891
 20
-109.598133653156
 10
86.86825491534891
 20
-109.598133653156
 10
86.86825491534891
 20
-109.598133653156
 10
86.79246281467341
 20
-110.0556423335972
 10
86.79246281467341
 20
-110.0556423335972
 10
86.86343178166956
 20
-110.0191243214536
 10
86.95886092661098
 20
-109.9757161183394
 10
87.0956312173754
 20
-109.9757161183394
 10
87.38880884317017
 20
-109.9757161183394
 10
87.66269393424753
 20
-110.176909694678
 10
87.66269393424753
 20
-110.5155625808781
 10
87.66269393424753
 20
-110.8586940912089
 10
87.40362275375674
 20
-111.1125976284719
 10
87.05394556200388
 20
-111.1125976284719
 97
        0
 97
        0
 75
     2
 76
     1
 98
        0
  0
SPLINE
  5
A9
330
A3
100
AcDbEntity
  8
_U+30EC_U+30A4_U+30E4_U+30FC 1
370
     0
100
AcDbSpline
210
0.0
220
0.0
230
1.0
 70
    11
 71
     3
 72
    29
 73
    25
 74
     0
 42
0.0000000001
 43
0.0000000001
 12
1.0
 22
0.0
 32
0.0
 13
1.0
 23
0.0
 33
0.0
 40
0.0
 40
0.0
 40
0.0
 40
0.0
 40
1.0
 40
1.0
 40
1.0
 40
2.0
 40
2.0
 40
2.0
 40
3.0
 40
3.0
 40
3.0
 40
4.0
 40
4.0
 40
4.0
 40
5.0
 40
5.0
 40
5.0
 40
6.0
 40
6.0
 40
6.0
 40
7.0
 40
7.0
 40
7.0
 40
8.0
 40
8.0
 40
8.0
 40
8.0
 10
88.89397106067581
 20
-110.8655842821794
 30
0.0
 10
88.76925860410978
 20
-111.0922715651089
 30
0.0
 10
88.56875404686824
 20
-111.1125976284719
 30
0.0
 10
88.43439532294349
 20
-111.1125976284719
 30
0.0
 10
88.24870467628853
 20
-111.1125976284719
 30
0.0
 10
88.08506264073915
 20
-111.0622992343872
 30
0.0
 10
87.97481958521116
 20
-110.8655842821794
 30
0.0
 10
87.85527477187298
 20
-110.6550889480307
 30
0.0
 10
87.8332261607674
 20
-110.3987738439281
 30
0.0
 10
87.8332261607674
 20
-110.2227294646318
 30
0.0
 10
87.8332261607674
 20
-110.0673556582471
 30
0.0
 10
87.85286320503332
 20
-109.7948486053638
 30
0.0
 10
87.97481958521116
 20
-109.5798746470842
 30
0.0
 10
88.09953204177721
 20
-109.3604220646738
 30
0.0
 10
88.28522268843217
 20
-109.3352728676315
 30
0.0
 10
88.43439532294349
 20
-109.3352728676315
 30
0.0
 10
88.61767440275878
 20
-109.3352728676315
 30
0.0
 10
88.78372800514782
 20
-109.3831596948764
 30
0.0
 10
88.89397106067581
 20
-109.5798746470842
 30
0.0
 10
89.00869274033464
 20
-109.7879584143933
 30
0.0
 10
89.03556448511958
 20
-110.0353162702342
 30
0.0
 10
89.03556448511958
 20
-110.2227294646318
 30
0.0
 10
89.03556448511958
 20
-110.4080756017383
 30
0.0
 10
89.0111043071743
 20
-110.6575005148703
 30
0.0
 10
88.89397106067581
 20
-110.8655842821794
 30
0.0
  0
SPLINE
  5
AA
330
A3
100
AcDbEntity
  8
_U+30EC_U+30A4_U+30E4_U+30FC 1
370
     0
100
AcDbSpline
210
0.0
220
0.0
230
1.0
 70
    11
 71
     3
 72
    17
 73
    13
 74
     0
 42
0.0000000001
 43
0.0000000001
 12
1.0
 22
0.0
 32
0.0
 13
1.0
 23
0.0
 33
0.0
 40
0.0
 40
0.0
 40
0.0
 40
0.0
 40
1.0
 40
1.0
 40
1.0
 40
2.0
 40
2.0
 40
2.0
 40
3.0
 40
3.0
 40
3.0
 40
4.0
 40
4.0
 40
4.0
 40
4.0
 10
88.43439532294349
 20
-109.5433566349406
 30
0.0
 10
88.14604083082807
 20
-109.5433566349406
 30
0.0
 10
88.09229734125817
 20
-109.8499701331278
 30
0.0
 10
88.09229734125817
 20
-110.2227294646318
 30
0.0
 10
88.09229734125817
 20
-110.5682725418024
 30
0.0
 10
88.1339829966297
 20
-110.9021022943231
 30
0.0
 10
88.43439532294349
 20
-110.9021022943231
 30
0.0
 10
88.72033824821922
 20
-110.9021022943231
 30
0.0
 10
88.7764933046288
 20
-110.5979003629755
 30
0.0
 10
88.7764933046288
 20
-110.2227294646318
 30
0.0
 10
88.7764933046288
 20
-109.8771863874613
 30
0.0
 10
88.7323960824176
 20
-109.5433566349406
 30
0.0
 10
88.43439532294349
 20
-109.5433566349406
 30
0.0
  0
HATCH
  5
AB
330
A3
100
AcDbEntity
  8
_U+30EC_U+30A4_U+30E4_U+30FC 1
 62
   179
420
  2234388
100
AcDbHatch
 10
0.0
 20
0.0
 30
0.0
210
0.0
220
0.0
230
1.0
  2
SOLID
 70
     1
 71
     0
 91
        2
 92
        1
 93
        1
 72
     4
 94
        3
 73
     0
 74
     1
 95
       29
 96
       25
 40
0.0
 40
0.0
 40
0.0
 40
0.0
 40
1.0
 40
1.0
 40
1.0
 40
2.0
 40
2.0
 40
2.0
 40
3.0
 40
3.0
 40
3.0
 40
4.0
 40
4.0
 40
4.0
 40
5.0
 40
5.0
 40
5.0
 40
6.0
 40
6.0
 40
6.0
 40
7.0
 40
7.0
 40
7.0
 40
8.0
 40
8.0
 40
8.0
 40
8.0
 10
88.89397106067581
 20
-110.8655842821794
 10
88.76925860410978
 20
-111.0922715651089
 10
88.56875404686824
 20
-111.1125976284719
 10
88.43439532294349
 20
-111.1125976284719
 10
88.24870467628853
 20
-111.1125976284719
 10
88.08506264073915
 20
-111.0622992343872
 10
87.97481958521116
 20
-110.8655842821794
 10
87.85527477187298
 20
-110.6550889480307
 10
87.8332261607674
 20
-110.3987738439281
 10
87.8332261607674
 20
-110.2227294646318
 10
87.8332261607674
 20
-110.0673556582471
 10
87.85286320503332
 20
-109.7948486053638
 10
87.97481958521116
 20
-109.5798746470842
 10
88.09953204177721
 20
-109.3604220646738
 10
88.28522268843217
 20
-109.3352728676315
 10
88.43439532294349
 20
-109.3352728676315
 10
88.61767440275878
 20
-109.3352728676315
 10
88.78372800514782
 20
-109.3831596948764
 10
88.89397106067581
 20
-109.5798746470842
 10
89.00869274033464
 20
-109.7879584143933
 10
89.03556448511958
 20
-110.0353162702342
 10
89.03556448511958
 20
-110.2227294646318
 10
89.03556448511958
 20
-110.4080756017383
 10
89.0111043071743
 20
-110.6575005148703
 10
88.89397106067581
 20
-110.8655842821794
 97
        0
 97
        0
 92
        1
 93
        1
 72
     4
 94
        3
 73
     0
 74
     1
 95
       17
 96
       13
 40
0.0
 40
0.0
 40
0.0
 40
0.0
 40
1.0
 40
1.0
 40
1.0
 40
2.0
 40
2.0
 40
2.0
 40
3.0
 40
3.0
 40
3.0
 40
4.0
 40
4.0
 40
4.0
 40
4.0
 10
88.43439532294349
 20
-109.5433566349406
 10
88.14604083082807
 20
-109.5433566349406
 10
88.09229734125817
 20
-109.8499701331278
 10
88.09229734125817
 20
-110.2227294646318
 10
88.09229734125817
 20
-110.5682725418024
 10
88.1339829966297
 20
-110.9021022943231
 10
88.43439532294349
 20
-110.9021022943231
 10
88.72033824821922
 20
-110.9021022943231
 10
88.7764933046288
 20
-110.5979003629755
 10
88.7764933046288
 20
-110.2227294646318
 10
88.7764933046288
 20
-109.8771863874613
 10
88.7323960824176
 20
-109.5433566349406
 10
88.43439532294349
 20
-109.5433566349406
 97
        0
 97
        0
 75
     2
 76
     1
 98
        0
  0
ENDBLK
  5
A6
330
A3
100
AcDbEntity
  8
0
100
AcDbBlockEnd
  0
BLOCK
  5
B6
330
B4
100
AcDbEntity
  8
0
100
AcDbBlockBegin
  2
block 3
 70
     0
 10
0.0
 20
0.0
 30
0.0
  3
block 3
  1

  0
SPLINE
  5
B8
330
B4
100
AcDbEntity
  8
_U+30EC_U+30A4_U+30E4_U+30FC 1
370
     0
100
AcDbSpline
210
0.0
220
0.0
230
1.0
 70
    11
 71
     3
 72
    44
 73
    40
 74
     0
 42
0.0000000001
 43
0.0000000001
 12
1.0
 22
0.0
 32
0.0
 13
1.0
 23
0.0
 33
0.0
 40
0.0
 40
0.0
 40
0.0
 40
0.0
 40
1.0
 40
1.0
 40
1.0
 40
2.0
 40
2.0
 40
2.0
 40
3.0
 40
3.0
 40
3.0
 40
4.0
 40
4.0
 40
4.0
 40
5.0
 40
5.0
 40
5.0
 40
6.0
 40
6.0
 40
6.0
 40
7.0
 40
7.0
 40
7.0
 40
8.0
 40
8.0
 40
8.0
 40
9.0
 40
9.0
 40
9.0
 40
10.0
 40
10.0
 40
10.0
 40
11.0
 40
11.0
 40
11.0
 40
12.0
 40
12.0
 40
12.0
 40
13.0
 40
13.0
 40
13.0
 40
13.0
 10
98.04259437653103
 20
-109.9877739525378
 30
0.0
 10
97.79110240610778
 20
-110.1593397077032
 30
0.0
 10
97.68327091741946
 20
-110.239265922961
 30
0.0
 10
97.6271158610099
 20
-110.3949842388943
 30
0.0
 10
97.6271158610099
 20
-110.3949842388943
 30
0.0
 10
98.52663029220862
 20
-110.3949842388943
 30
0.0
 10
98.52663029220862
 20
-110.3949842388943
 30
0.0
 10
98.52663029220862
 20
-110.3949842388943
 30
0.0
 10
98.52663029220862
 20
-110.6168483881444
 30
0.0
 10
98.52663029220862
 20
-110.6168483881444
 30
0.0
 10
98.52663029220862
 20
-110.6168483881444
 30
0.0
 10
97.33876136889448
 20
-110.6168483881444
 30
0.0
 10
97.33876136889448
 20
-110.6168483881444
 30
0.0
 10
97.37562389058665
 20
-110.2303086746994
 30
0.0
 10
97.45141599126215
 20
-110.1455593257622
 30
0.0
 10
97.8961778184079
 20
-109.8230983883428
 30
0.0
 10
98.19176701104234
 20
-109.6077799205147
 30
0.0
 10
98.26755911171783
 20
-109.5347438962274
 30
0.0
 10
98.26755911171783
 20
-109.3859157712646
 30
0.0
 10
98.26755911171783
 20
-109.2577582192133
 30
0.0
 10
98.18453231052331
 20
-109.1161647947696
 30
0.0
 10
97.95715600849682
 20
-109.1161647947696
 30
0.0
 10
97.65639917263452
 20
-109.1161647947696
 30
0.0
 10
97.64675290527582
 20
-109.3655897079017
 30
0.0
 10
97.64192977159647
 20
-109.4913356931133
 30
0.0
 10
97.64192977159647
 20
-109.4913356931133
 30
0.0
 10
97.38285859110567
 20
-109.4913356931133
 30
0.0
 10
97.38285859110567
 20
-109.4913356931133
 30
0.0
 10
97.39250485846438
 20
-109.3538763832518
 30
0.0
 10
97.40490720221128
 20
-109.232609022171
 30
0.0
 10
97.4975802707645
 20
-109.1047959796683
 30
0.0
 10
97.62470429417021
 20
-108.9308186576631
 30
0.0
 10
97.8396782524498
 20
-108.8943006455195
 30
0.0
 10
97.97438148592308
 20
-108.8943006455195
 30
0.0
 10
98.29443085650279
 20
-108.8943006455195
 30
0.0
 10
98.53386499272764
 20
-109.0930826550184
 30
0.0
 10
98.53386499272764
 20
-109.3883273381043
 30
0.0
 10
98.53386499272764
 20
-109.6353406843967
 30
0.0
 10
98.39950626880291
 20
-109.7428276635365
 30
0.0
 10
98.04259437653103
 20
-109.9877739525378
 30
0.0
  0
HATCH
  5
B9
330
B4
100
AcDbEntity
  8
_U+30EC_U+30A4_U+30E4_U+30FC 1
 62
   179
420
  2234388
100
AcDbHatch
 10
0.0
 20
0.0
 30
0.0
210
0.0
220
0.0
230
1.0
  2
SOLID
 70
     1
 71
     0
 91
        1
 92
        1
 93
        1
 72
     4
 94
        3
 73
     0
 74
     1
 95
       44
 96
       40
 40
0.0
 40
0.0
 40
0.0
 40
0.0
 40
1.0
 40
1.0
 40
1.0
 40
2.0
 40
2.0
 40
2.0
 40
3.0
 40
3.0
 40
3.0
 40
4.0
 40
4.0
 40
4.0
 40
5.0
 40
5.0
 40
5.0
 40
6.0
 40
6.0
 40
6.0
 40
7.0
 40
7.0
 40
7.0
 40
8.0
 40
8.0
 40
8.0
 40
9.0
 40
9.0
 40
9.0
 40
10.0
 40
10.0
 40
10.0
 40
11.0
 40
11.0
 40
11.0
 40
12.0
 40
12.0
 40
12.0
 40
13.0
 40
13.0
 40
13.0
 40
13.0
 10
98.04259437653103
 20
-109.9877739525378
 10
97.79110240610778
 20
-110.1593397077032
 10
97.68327091741946
 20
-110.239265922961
 10
97.6271158610099
 20
-110.3949842388943
 10
97.6271158610099
 20
-110.3949842388943
 10
98.52663029220862
 20
-110.3949842388943
 10
98.52663029220862
 20
-110.3949842388943
 10
98.52663029220862
 20
-110.3949842388943
 10
98.52663029220862
 20
-110.6168483881444
 10
98.52663029220862
 20
-110.6168483881444
 10
98.52663029220862
 20
-110.6168483881444
 10
97.33876136889448
 20
-110.6168483881444
 10
97.33876136889448
 20
-110.6168483881444
 10
97.37562389058665
 20
-110.2303086746994
 10
97.45141599126215
 20
-110.1455593257622
 10
97.8961778184079
 20
-109.8230983883428
 10
98.19176701104234
 20
-109.6077799205147
 10
98.26755911171783
 20
-109.5347438962274
 10
98.26755911171783
 20
-109.3859157712646
 10
98.26755911171783
 20
-109.2577582192133
 10
98.18453231052331
 20
-109.1161647947696
 10
97.95715600849682
 20
-109.1161647947696
 10
97.65639917263452
 20
-109.1161647947696
 10
97.64675290527582
 20
-109.3655897079017
 10
97.64192977159647
 20
-109.4913356931133
 10
97.64192977159647
 20
-109.4913356931133
 10
97.38285859110567
 20
-109.4913356931133
 10
97.38285859110567
 20
-109.4913356931133
 10
97.39250485846438
 20
-109.3538763832518
 10
97.40490720221128
 20
-109.232609022171
 10
97.4975802707645
 20
-109.1047959796683
 10
97.62470429417021
 20
-108.9308186576631
 10
97.8396782524498
 20
-108.8943006455195
 10
97.97438148592308
 20
-108.8943006455195
 10
98.29443085650279
 20
-108.8943006455195
 10
98.53386499272764
 20
-109.0930826550184
 10
98.53386499272764
 20
-109.3883273381043
 10
98.53386499272764
 20
-109.6353406843967
 10
98.39950626880291
 20
-109.7428276635365
 10
98.04259437653103
 20
-109.9877739525378
 97
        0
 97
        0
 75
     2
 76
     1
 98
        0
  0
ENDBLK
  5
B7
330
B4
100
AcDbEntity
  8
0
100
AcDbBlockEnd
  0
BLOCK
  5
C8
330
C6
100
AcDbEntity
  8
0
100
AcDbBlockBegin
  2
block 4
 70
     0
 10
0.0
 20
0.0
 30
0.0
  3
block 4
  1

  0
SPLINE
  5
CA
330
C6
100
AcDbEntity
  8
_U+30EC_U+30A4_U+30E4_U+30FC 1
370
     0
100
AcDbSpline
210
0.0
220
0.0
230
1.0
 70
    11
 71
     3
 72
    44
 73
    40
 74
     0
 42
0.0000000001
 43
0.0000000001
 12
1.0
 22
0.0
 32
0.0
 13
1.0
 23
0.0
 33
0.0
 40
0.0
 40
0.0
 40
0.0
 40
0.0
 40
1.0
 40
1.0
 40
1.0
 40
2.0
 40
2.0
 40
2.0
 40
3.0
 40
3.0
 40
3.0
 40
4.0
 40
4.0
 40
4.0
 40
5.0
 40
5.0
 40
5.0
 40
6.0
 40
6.0
 40
6.0
 40
7.0
 40
7.0
 40
7.0
 40
8.0
 40
8.0
 40
8.0
 40
9.0
 40
9.0
 40
9.0
 40
10.0
 40
10.0
 40
10.0
 40
11.0
 40
11.0
 40
11.0
 40
12.0
 40
12.0
 40
12.0
 40
13.0
 40
13.0
 40
13.0
 40
13.0
 10
102.9480658379783
 20
-109.811385063693
 30
0.0
 10
102.696573867555
 20
-109.9829508188584
 30
0.0
 10
102.5887423788667
 20
-110.0628770341162
 30
0.0
 10
102.5325873224571
 20
-110.2185953500495
 30
0.0
 10
102.5325873224571
 20
-110.2185953500495
 30
0.0
 10
103.4321017536559
 20
-110.2185953500495
 30
0.0
 10
103.4321017536559
 20
-110.2185953500495
 30
0.0
 10
103.4321017536559
 20
-110.2185953500495
 30
0.0
 10
103.4321017536559
 20
-110.4404594992996
 30
0.0
 10
103.4321017536559
 20
-110.4404594992996
 30
0.0
 10
103.4321017536559
 20
-110.4404594992996
 30
0.0
 10
102.2442328303417
 20
-110.4404594992996
 30
0.0
 10
102.2442328303417
 20
-110.4404594992996
 30
0.0
 10
102.2810953520339
 20
-110.0539197858546
 30
0.0
 10
102.3565429431609
 20
-109.9691704369174
 30
0.0
 10
102.8016492798551
 20
-109.646709499498
 30
0.0
 10
103.0972384724896
 20
-109.4313910316699
 30
0.0
 10
103.1730305731651
 20
-109.3583550073826
 30
0.0
 10
103.1730305731651
 20
-109.2095268824199
 30
0.0
 10
103.1730305731651
 20
-109.0813693303685
 30
0.0
 10
103.0900037719706
 20
-108.9397759059248
 30
0.0
 10
102.8626274699441
 20
-108.9397759059248
 30
0.0
 10
102.5618706340818
 20
-108.9397759059248
 30
0.0
 10
102.5522243667231
 20
-109.1892008190569
 30
0.0
 10
102.5474012330437
 20
-109.3149468042685
 30
0.0
 10
102.5474012330437
 20
-109.3149468042685
 30
0.0
 10
102.2883300525529
 20
-109.3149468042685
 30
0.0
 10
102.2883300525529
 20
-109.3149468042685
 30
0.0
 10
102.2979763199116
 20
-109.177487494407
 30
0.0
 10
102.3103786636585
 20
-109.0562201333262
 30
0.0
 10
102.4030517322117
 20
-108.9284070908235
 30
0.0
 10
102.5301757556175
 20
-108.7544297688183
 30
0.0
 10
102.745149713897
 20
-108.7179117566747
 30
0.0
 10
102.8798529473703
 20
-108.7179117566747
 30
0.0
 10
103.19990231795
 20
-108.7179117566747
 30
0.0
 10
103.4393364541749
 20
-108.9166937661736
 30
0.0
 10
103.4393364541749
 20
-109.2119384492595
 30
0.0
 10
103.4393364541749
 20
-109.4589517955519
 30
0.0
 10
103.3049777302501
 20
-109.5664387746917
 30
0.0
 10
102.9480658379783
 20
-109.811385063693
 30
0.0
  0
HATCH
  5
CB
330
C6
100
AcDbEntity
  8
_U+30EC_U+30A4_U+30E4_U+30FC 1
 62
   179
420
  2234388
100
AcDbHatch
 10
0.0
 20
0.0
 30
0.0
210
0.0
220
0.0
230
1.0
  2
SOLID
 70
     1
 71
     0
 91
        1
 92
        1
 93
        1
 72
     4
 94
        3
 73
     0
 74
     1
 95
       44
 96
       40
 40
0.0
 40
0.0
 40
0.0
 40
0.0
 40
1.0
 40
1.0
 40
1.0
 40
2.0
 40
2.0
 40
2.0
 40
3.0
 40
3.0
 40
3.0
 40
4.0
 40
4.0
 40
4.0
 40
5.0
 40
5.0
 40
5.0
 40
6.0
 40
6.0
 40
6.0
 40
7.0
 40
7.0
 40
7.0
 40
8.0
 40
8.0
 40
8.0
 40
9.0
 40
9.0
 40
9.0
 40
10.0
 40
10.0
 40
10.0
 40
11.0
 40
11.0
 40
11.0
 40
12.0
 40
12.0
 40
12.0
 40
13.0
 40
13.0
 40
13.0
 40
13.0
 10
102.9480658379783
 20
-109.811385063693
 10
102.696573867555
 20
-109.9829508188584
 10
102.5887423788667
 20
-110.0628770341162
 10
102.5325873224571
 20
-110.2185953500495
 10
102.5325873224571
 20
-110.2185953500495
 10
103.4321017536559
 20
-110.2185953500495
 10
103.4321017536559
 20
-110.2185953500495
 10
103.4321017536559
 20
-110.2185953500495
 10
103.4321017536559
 20
-110.4404594992996
 10
103.4321017536559
 20
-110.4404594992996
 10
103.4321017536559
 20
-110.4404594992996
 10
102.2442328303417
 20
-110.4404594992996
 10
102.2442328303417
 20
-110.4404594992996
 10
102.2810953520339
 20
-110.0539197858546
 10
102.3565429431609
 20
-109.9691704369174
 10
102.8016492798551
 20
-109.646709499498
 10
103.0972384724896
 20
-109.4313910316699
 10
103.1730305731651
 20
-109.3583550073826
 10
103.1730305731651
 20
-109.2095268824199
 10
103.1730305731651
 20
-109.0813693303685
 10
103.0900037719706
 20
-108.9397759059248
 10
102.8626274699441
 20
-108.9397759059248
 10
102.5618706340818
 20
-108.9397759059248
 10
102.5522243667231
 20
-109.1892008190569
 10
102.5474012330437
 20
-109.3149468042685
 10
102.5474012330437
 20
-109.3149468042685
 10
102.2883300525529
 20
-109.3149468042685
 10
102.2883300525529
 20
-109.3149468042685
 10
102.2979763199116
 20
-109.177487494407
 10
102.3103786636585
 20
-109.0562201333262
 10
102.4030517322117
 20
-108.9284070908235
 10
102.5301757556175
 20
-108.7544297688183
 10
102.745149713897
 20
-108.7179117566747
 10
102.8798529473703
 20
-108.7179117566747
 10
103.19990231795
 20
-108.7179117566747
 10
103.4393364541749
 20
-108.9166937661736
 10
103.4393364541749
 20
-109.2119384492595
 10
103.4393364541749
 20
-109.4589517955519
 10
103.3049777302501
 20
-109.5664387746917
 10
102.9480658379783
 20
-109.811385063693
 97
        0
 97
        0
 75
     2
 76
     1
 98
        0
  0
SPLINE
  5
CC
330
C6
100
AcDbEntity
  8
_U+30EC_U+30A4_U+30E4_U+30FC 1
370
     0
100
AcDbSpline
210
0.0
220
0.0
230
1.0
 70
    11
 71
     3
 72
    32
 73
    28
 74
     0
 42
0.0000000001
 43
0.0000000001
 12
1.0
 22
0.0
 32
0.0
 13
1.0
 23
0.0
 33
0.0
 40
0.0
 40
0.0
 40
0.0
 40
0.0
 40
1.0
 40
1.0
 40
1.0
 40
2.0
 40
2.0
 40
2.0
 40
3.0
 40
3.0
 40
3.0
 40
4.0
 40
4.0
 40
4.0
 40
5.0
 40
5.0
 40
5.0
 40
6.0
 40
6.0
 40
6.0
 40
7.0
 40
7.0
 40
7.0
 40
8.0
 40
8.0
 40
8.0
 40
9.0
 40
9.0
 40
9.0
 40
9.0
 10
104.1500596527819
 20
-110.4952365175151
 30
0.0
 10
103.9495550955404
 20
-110.4952365175151
 30
0.0
 10
103.6663682466529
 20
-110.4197889263881
 30
0.0
 10
103.6222710244417
 20
-110.0608099768251
 30
0.0
 10
103.6222710244417
 20
-110.0608099768251
 30
0.0
 10
103.8689398611856
 20
-110.0608099768251
 30
0.0
 10
103.8689398611856
 20
-110.0608099768251
 30
0.0
 10
103.8813422049325
 20
-110.1248887528507
 30
0.0
 10
103.9178602170761
 20
-110.2847411833663
 30
0.0
 10
104.1524712196216
 20
-110.2847411833663
 30
0.0
 10
104.4897460676276
 20
-110.2847411833663
 30
0.0
 10
104.5338432898388
 20
-109.928173800643
 30
0.0
 10
104.5483126908768
 20
-109.7059651418443
 30
0.0
 10
104.4432372785767
 20
-109.7931260576212
 30
0.0
 10
104.3650336110615
 20
-109.8547932668071
 30
0.0
 10
104.1548827864613
 20
-109.8547932668071
 30
0.0
 10
103.9471435287007
 20
-109.8547932668071
 30
0.0
 10
103.5978108464964
 20
-109.7404160966968
 30
0.0
 10
103.5978108464964
 20
-109.3011664223275
 30
0.0
 10
103.5978108464964
 20
-108.9556233451569
 30
0.0
 10
103.8275987153626
 20
-108.7179117566747
 30
0.0
 10
104.1941568749931
 20
-108.7179117566747
 30
0.0
 10
104.7880913366502
 20
-108.7179117566747
 30
0.0
 10
104.8001491708486
 20
-109.3170138615596
 30
0.0
 10
104.8001491708486
 20
-109.5481797686199
 30
0.0
 10
104.8001491708486
 20
-109.797604681752
 30
0.0
 10
104.778100559743
 20
-110.4952365175151
 30
0.0
 10
104.1500596527819
 20
-110.4952365175151
 30
0.0
  0
SPLINE
  5
CD
330
C6
100
AcDbEntity
  8
_U+30EC_U+30A4_U+30E4_U+30FC 1
370
     0
100
AcDbSpline
210
0.0
220
0.0
230
1.0
 70
    11
 71
     3
 72
    17
 73
    13
 74
     0
 42
0.0000000001
 43
0.0000000001
 12
1.0
 22
0.0
 32
0.0
 13
1.0
 23
0.0
 33
0.0
 40
0.0
 40
0.0
 40
0.0
 40
0.0
 40
1.0
 40
1.0
 40
1.0
 40
2.0
 40
2.0
 40
2.0
 40
3.0
 40
3.0
 40
3.0
 40
4.0
 40
4.0
 40
4.0
 40
4.0
 10
104.1965684418328
 20
-108.9259955239838
 30
0.0
 10
104.0597981510684
 20
-108.9259955239838
 30
0.0
 10
103.8568820269872
 20
-108.9876627331698
 30
0.0
 10
103.8568820269872
 20
-109.2966877981967
 30
0.0
 10
103.8568820269872
 20
-109.5412895776494
 30
0.0
 10
104.0181124956969
 20
-109.6442979326584
 30
0.0
 10
104.1745198307272
 20
-109.6442979326584
 30
0.0
 10
104.4776882334292
 20
-109.6442979326584
 30
0.0
 10
104.5214409460919
 20
-109.4179551592775
 30
0.0
 10
104.5214409460919
 20
-109.2918646645173
 30
0.0
 10
104.5214409460919
 20
-109.10203990328
 30
0.0
 10
104.4115424001124
 20
-108.9259955239838
 30
0.0
 10
104.1965684418328
 20
-108.9259955239838
 30
0.0
  0
HATCH
  5
CE
330
C6
100
AcDbEntity
  8
_U+30EC_U+30A4_U+30E4_U+30FC 1
 62
   179
420
  2234388
100
AcDbHatch
 10
0.0
 20
0.0
 30
0.0
210
0.0
220
0.0
230
1.0
  2
SOLID
 70
     1
 71
     0
 91
        2
 92
        1
 93
        1
 72
     4
 94
        3
 73
     0
 74
     1
 95
       32
 96
       28
 40
0.0
 40
0.0
 40
0.0
 40
0.0
 40
1.0
 40
1.0
 40
1.0
 40
2.0
 40
2.0
 40
2.0
 40
3.0
 40
3.0
 40
3.0
 40
4.0
 40
4.0
 40
4.0
 40
5.0
 40
5.0
 40
5.0
 40
6.0
 40
6.0
 40
6.0
 40
7.0
 40
7.0
 40
7.0
 40
8.0
 40
8.0
 40
8.0
 40
9.0
 40
9.0
 40
9.0
 40
9.0
 10
104.1500596527819
 20
-110.4952365175151
 10
103.9495550955404
 20
-110.4952365175151
 10
103.6663682466529
 20
-110.4197889263881
 10
103.6222710244417
 20
-110.0608099768251
 10
103.6222710244417
 20
-110.0608099768251
 10
103.8689398611856
 20
-110.0608099768251
 10
103.8689398611856
 20
-110.0608099768251
 10
103.8813422049325
 20
-110.1248887528507
 10
103.9178602170761
 20
-110.2847411833663
 10
104.1524712196216
 20
-110.2847411833663
 10
104.4897460676276
 20
-110.2847411833663
 10
104.5338432898388
 20
-109.928173800643
 10
104.5483126908768
 20
-109.7059651418443
 10
104.4432372785767
 20
-109.7931260576212
 10
104.3650336110615
 20
-109.8547932668071
 10
104.1548827864613
 20
-109.8547932668071
 10
103.9471435287007
 20
-109.8547932668071
 10
103.5978108464964
 20
-109.7404160966968
 10
103.5978108464964
 20
-109.3011664223275
 10
103.5978108464964
 20
-108.9556233451569
 10
103.8275987153626
 20
-108.7179117566747
 10
104.1941568749931
 20
-108.7179117566747
 10
104.7880913366502
 20
-108.7179117566747
 10
104.8001491708486
 20
-109.3170138615596
 10
104.8001491708486
 20
-109.5481797686199
 10
104.8001491708486
 20
-109.797604681752
 10
104.778100559743
 20
-110.4952365175151
 10
104.1500596527819
 20
-110.4952365175151
 97
        0
 97
        0
 92
        1
 93
        1
 72
     4
 94
        3
 73
     0
 74
     1
 95
       17
 96
       13
 40
0.0
 40
0.0
 40
0.0
 40
0.0
 40
1.0
 40
1.0
 40
1.0
 40
2.0
 40
2.0
 40
2.0
 40
3.0
 40
3.0
 40
3.0
 40
4.0
 40
4.0
 40
4.0
 40
4.0
 10
104.1965684418328
 20
-108.9259955239838
 10
104.0597981510684
 20
-108.9259955239838
 10
103.8568820269872
 20
-108.9876627331698
 10
103.8568820269872
 20
-109.2966877981967
 10
103.8568820269872
 20
-109.5412895776494
 10
104.0181124956969
 20
-109.6442979326584
 10
104.1745198307272
 20
-109.6442979326584
 10
104.4776882334292
 20
-109.6442979326584
 10
104.5214409460919
 20
-109.4179551592775
 10
104.5214409460919
 20
-109.2918646645173
 10
104.5214409460919
 20
-109.10203990328
 10
104.4115424001124
 20
-108.9259955239838
 10
104.1965684418328
 20
-108.9259955239838
 97
        0
 97
        0
 75
     2
 76
     1
 98
        0
  0
POLYLINE
  5
CF
330
C6
100
AcDbEntity
  8
_U+30EC_U+30A4_U+30E4_U+30FC 1
370
     0
100
AcDb2dPolyline
 66
     1
 10
0.0
 20
0.0
 30
0.0
  0
VERTEX
  5
D0
330
CF
100
AcDbEntity
  8
_U+30EC_U+30A4_U+30E4_U+30FC 1
370
     0
100
AcDbVertex
100
AcDb2dVertex
 10
105.0492295744321
 20
-110.4404594992996
 30
0.0
  0
VERTEX
  5
D1
330
CF
100
AcDbEntity
  8
_U+30EC_U+30A4_U+30E4_U+30FC 1
370
     0
100
AcDbVertex
100
AcDb2dVertex
 10
105.0492295744321
 20
-110.1682969559649
 30
0.0
  0
VERTEX
  5
D2
330
CF
100
AcDbEntity
  8
_U+30EC_U+30A4_U+30E4_U+30FC 1
370
     0
100
AcDbVertex
100
AcDb2dVertex
 10
105.3399956333872
 20
-110.1682969559649
 30
0.0
  0
VERTEX
  5
D3
330
CF
100
AcDbEntity
  8
_U+30EC_U+30A4_U+30E4_U+30FC 1
370
     0
100
AcDbVertex
100
AcDb2dVertex
 10
105.3399956333872
 20
-110.4404594992996
 30
0.0
  0
VERTEX
  5
D4
330
CF
100
AcDbEntity
  8
_U+30EC_U+30A4_U+30E4_U+30FC 1
370
     0
100
AcDbVertex
100
AcDb2dVertex
 10
105.0492295744321
 20
-110.4404594992996
 30
0.0
  0
SEQEND
  5
D5
330
CF
100
AcDbEntity
  8
_U+30EC_U+30A4_U+30E4_U+30FC 1
370
     0
  0
HATCH
  5
D6
330
C6
100
AcDbEntity
  8
_U+30EC_U+30A4_U+30E4_U+30FC 1
 62
   179
420
  2234388
100
AcDbHatch
 10
0.0
 20
0.0
 30
0.0
210
0.0
220
0.0
230
1.0
  2
SOLID
 70
     1
 71
     0
 91
        1
 92
        1
 93
        4
 72
     1
 10
105.0492295744321
 20
-110.4404594992996
 11
105.0492295744321
 21
-110.1682969559649
 72
     1
 10
105.0492295744321
 20
-110.1682969559649
 11
105.3399956333872
 21
-110.1682969559649
 72
     1
 10
105.3399956333872
 20
-110.1682969559649
 11
105.3399956333872
 21
-110.4404594992996
 72
     1
 10
105.3399956333872
 20
-110.4404594992996
 11
105.0492295744321
 21
-110.4404594992996
 97
        0
 75
     2
 76
     1
 98
        0
  0
SPLINE
  5
D7
330
C6
100
AcDbEntity
  8
_U+30EC_U+30A4_U+30E4_U+30FC 1
370
     0
100
AcDbSpline
210
0.0
220
0.0
230
1.0
 70
    11
 71
     3
 72
    29
 73
    25
 74
     0
 42
0.0000000001
 43
0.0000000001
 12
1.0
 22
0.0
 32
0.0
 13
1.0
 23
0.0
 33
0.0
 40
0.0
 40
0.0
 40
0.0
 40
0.0
 40
1.0
 40
1.0
 40
1.0
 40
2.0
 40
2.0
 40
2.0
 40
3.0
 40
3.0
 40
3.0
 40
4.0
 40
4.0
 40
4.0
 40
5.0
 40
5.0
 40
5.0
 40
6.0
 40
6.0
 40
6.0
 40
7.0
 40
7.0
 40
7.0
 40
8.0
 40
8.0
 40
8.0
 40
8.0
 10
106.1902451991469
 20
-110.4952365175151
 30
0.0
 10
105.8822536627655
 20
-110.4952365175151
 30
0.0
 10
105.5890760369708
 20
-110.3467529021008
 30
0.0
 10
105.5890760369708
 20
-109.9691704369174
 30
0.0
 10
105.5890760369708
 20
-109.6925292694519
 30
0.0
 10
105.7527180725202
 20
-109.5895209144429
 30
0.0
 10
105.8750189622465
 20
-109.5230305715776
 30
0.0
 10
105.7306694614146
 20
-109.4589517955519
 30
0.0
 10
105.6428195265407
 20
-109.33561737718
 30
0.0
 10
105.6428195265407
 20
-109.1616400551749
 30
0.0
 10
105.6428195265407
 20
-108.8643283147978
 30
0.0
 10
105.8726073954069
 20
-108.7179117566747
 30
0.0
 10
106.1902451991469
 20
-108.7179117566747
 30
0.0
 10
106.5178737797941
 20
-108.7179117566747
 30
0.0
 10
106.7376708717531
 20
-108.8732855630595
 30
0.0
 10
106.7376708717531
 20
-109.1616400551749
 30
0.0
 10
106.7376708717531
 20
-109.33561737718
 30
0.0
 10
106.6474093700395
 20
-109.4589517955519
 30
0.0
 10
106.5030598692076
 20
-109.5230305715776
 30
0.0
 10
106.605723714668
 20
-109.5778075897931
 30
0.0
 10
106.7890027944833
 20
-109.680815944802
 30
0.0
 10
106.7890027944833
 20
-109.9646918127866
 30
0.0
 10
106.7890027944833
 20
-110.3694905323035
 30
0.0
 10
106.4665418570639
 20
-110.4952365175151
 30
0.0
 10
106.1902451991469
 20
-110.4952365175151
 30
0.0
  0
SPLINE
  5
D8
330
C6
100
AcDbEntity
  8
_U+30EC_U+30A4_U+30E4_U+30FC 1
370
     0
100
AcDbSpline
210
0.0
220
0.0
230
1.0
 70
    11
 71
     3
 72
    17
 73
    13
 74
     0
 42
0.0000000001
 43
0.0000000001
 12
1.0
 22
0.0
 32
0.0
 13
1.0
 23
0.0
 33
0.0
 40
0.0
 40
0.0
 40
0.0
 40
0.0
 40
1.0
 40
1.0
 40
1.0
 40
2.0
 40
2.0
 40
2.0
 40
3.0
 40
3.0
 40
3.0
 40
4.0
 40
4.0
 40
4.0
 40
4.0
 10
106.1902451991469
 20
-109.6398193085275
 30
0.0
 10
106.0241915967578
 20
-109.6398193085275
 30
0.0
 10
105.8481472174616
 20
-109.7335259057264
 30
0.0
 10
105.8481472174616
 20
-109.9533229976853
 30
0.0
 10
105.8481472174616
 20
-110.1751871469354
 30
0.0
 10
105.9949082851332
 20
-110.2847411833663
 30
0.0
 10
106.1902451991469
 20
-110.2847411833663
 30
0.0
 10
106.4052191574265
 20
-110.2847411833663
 30
0.0
 10
106.5323431808322
 20
-110.1521050071842
 30
0.0
 10
106.5323431808322
 20
-109.9598686791073
 30
0.0
 10
106.5323431808322
 20
-109.7197455237853
 30
0.0
 10
106.3442409673376
 20
-109.6398193085275
 30
0.0
 10
106.1902451991469
 20
-109.6398193085275
 30
0.0
  0
SPLINE
  5
D9
330
C6
100
AcDbEntity
  8
_U+30EC_U+30A4_U+30E4_U+30FC 1
370
     0
100
AcDbSpline
210
0.0
220
0.0
230
1.0
 70
    11
 71
     3
 72
    17
 73
    13
 74
     0
 42
0.0000000001
 43
0.0000000001
 12
1.0
 22
0.0
 32
0.0
 13
1.0
 23
0.0
 33
0.0
 40
0.0
 40
0.0
 40
0.0
 40
0.0
 40
1.0
 40
1.0
 40
1.0
 40
2.0
 40
2.0
 40
2.0
 40
3.0
 40
3.0
 40
3.0
 40
4.0
 40
4.0
 40
4.0
 40
4.0
 10
106.1902451991469
 20
-108.9259955239838
 30
0.0
 10
105.9997314188126
 20
-108.9259955239838
 30
0.0
 10
105.9018907070315
 20
-109.0290038789928
 30
0.0
 10
105.9018907070315
 20
-109.1754204371159
 30
0.0
 10
105.9018907070315
 20
-109.308056613298
 30
0.0
 10
105.984917508226
 20
-109.4362141653493
 30
0.0
 10
106.1902451991469
 20
-109.4362141653493
 30
0.0
 10
106.3955728900678
 20
-109.4362141653493
 30
0.0
 10
106.4785996912623
 20
-109.308056613298
 30
0.0
 10
106.4785996912623
 20
-109.1754204371159
 30
0.0
 10
106.4785996912623
 20
-109.0290038789928
 30
0.0
 10
106.3783474126415
 20
-108.9259955239838
 30
0.0
 10
106.1902451991469
 20
-108.9259955239838
 30
0.0
  0
HATCH
  5
DA
330
C6
100
AcDbEntity
  8
_U+30EC_U+30A4_U+30E4_U+30FC 1
 62
   179
420
  2234388
100
AcDbHatch
 10
0.0
 20
0.0
 30
0.0
210
0.0
220
0.0
230
1.0
  2
SOLID
 70
     1
 71
     0
 91
        3
 92
        1
 93
        1
 72
     4
 94
        3
 73
     0
 74
     1
 95
       29
 96
       25
 40
0.0
 40
0.0
 40
0.0
 40
0.0
 40
1.0
 40
1.0
 40
1.0
 40
2.0
 40
2.0
 40
2.0
 40
3.0
 40
3.0
 40
3.0
 40
4.0
 40
4.0
 40
4.0
 40
5.0
 40
5.0
 40
5.0
 40
6.0
 40
6.0
 40
6.0
 40
7.0
 40
7.0
 40
7.0
 40
8.0
 40
8.0
 40
8.0
 40
8.0
 10
106.1902451991469
 20
-110.4952365175151
 10
105.8822536627655
 20
-110.4952365175151
 10
105.5890760369708
 20
-110.3467529021008
 10
105.5890760369708
 20
-109.9691704369174
 10
105.5890760369708
 20
-109.6925292694519
 10
105.7527180725202
 20
-109.5895209144429
 10
105.8750189622465
 20
-109.5230305715776
 10
105.7306694614146
 20
-109.4589517955519
 10
105.6428195265407
 20
-109.33561737718
 10
105.6428195265407
 20
-109.1616400551749
 10
105.6428195265407
 20
-108.8643283147978
 10
105.8726073954069
 20
-108.7179117566747
 10
106.1902451991469
 20
-108.7179117566747
 10
106.5178737797941
 20
-108.7179117566747
 10
106.7376708717531
 20
-108.8732855630595
 10
106.7376708717531
 20
-109.1616400551749
 10
106.7376708717531
 20
-109.33561737718
 10
106.6474093700395
 20
-109.4589517955519
 10
106.5030598692076
 20
-109.5230305715776
 10
106.605723714668
 20
-109.5778075897931
 10
106.7890027944833
 20
-109.680815944802
 10
106.7890027944833
 20
-109.9646918127866
 10
106.7890027944833
 20
-110.3694905323035
 10
106.4665418570639
 20
-110.4952365175151
 10
106.1902451991469
 20
-110.4952365175151
 97
        0
 97
        0
 92
        1
 93
        1
 72
     4
 94
        3
 73
     0
 74
     1
 95
       17
 96
       13
 40
0.0
 40
0.0
 40
0.0
 40
0.0
 40
1.0
 40
1.0
 40
1.0
 40
2.0
 40
2.0
 40
2.0
 40
3.0
 40
3.0
 40
3.0
 40
4.0
 40
4.0
 40
4.0
 40
4.0
 10
106.1902451991469
 20
-109.6398193085275
 10
106.0241915967578
 20
-109.6398193085275
 10
105.8481472174616
 20
-109.7335259057264
 10
105.8481472174616
 20
-109.9533229976853
 10
105.8481472174616
 20
-110.1751871469354
 10
105.9949082851332
 20
-110.2847411833663
 10
106.1902451991469
 20
-110.2847411833663
 10
106.4052191574265
 20
-110.2847411833663
 10
106.5323431808322
 20
-110.1521050071842
 10
106.5323431808322
 20
-109.9598686791073
 10
106.5323431808322
 20
-109.7197455237853
 10
106.3442409673376
 20
-109.6398193085275
 10
106.1902451991469
 20
-109.6398193085275
 97
        0
 97
        0
 92
        1
 93
        1
 72
     4
 94
        3
 73
     0
 74
     1
 95
       17
 96
       13
 40
0.0
 40
0.0
 40
0.0
 40
0.0
 40
1.0
 40
1.0
 40
1.0
 40
2.0
 40
2.0
 40
2.0
 40
3.0
 40
3.0
 40
3.0
 40
4.0
 40
4.0
 40
4.0
 40
4.0
 10
106.1902451991469
 20
-108.9259955239838
 10
105.9997314188126
 20
-108.9259955239838
 10
105.9018907070315
 20
-109.0290038789928
 10
105.9018907070315
 20
-109.1754204371159
 10
105.9018907070315
 20
-109.308056613298
 10
105.984917508226
 20
-109.4362141653493
 10
106.1902451991469
 20
-109.4362141653493
 10
106.3955728900678
 20
-109.4362141653493
 10
106.4785996912623
 20
-109.308056613298
 10
106.4785996912623
 20
-109.1754204371159
 10
106.4785996912623
 20
-109.0290038789928
 10
106.3783474126415
 20
-108.9259955239838
 10
106.1902451991469
 20
-108.9259955239838
 97
        0
 97
        0
 75
     2
 76
     1
 98
        0
  0
ENDBLK
  5
C9
330
C6
100
AcDbEntity
  8
0
100
AcDbBlockEnd
  0
BLOCK
  5
E9
330
E7
100
AcDbEntity
  8
0
100
AcDbBlockBegin
  2
block 5
 70
     0
 10
0.0
 20
0.0
 30
0.0
  3
block 5
  1

  0
SPLINE
  5
EB
330
E7
100
AcDbEntity
  8
_U+30EC_U+30A4_U+30E4_U+30FC 1
370
     0
100
AcDbSpline
210
0.0
220
0.0
230
1.0
 70
    11
 71
     3
 72
    44
 73
    40
 74
     0
 42
0.0000000001
 43
0.0000000001
 12
1.0
 22
0.0
 32
0.0
 13
1.0
 23
0.0
 33
0.0
 40
0.0
 40
0.0
 40
0.0
 40
0.0
 40
1.0
 40
1.0
 40
1.0
 40
2.0
 40
2.0
 40
2.0
 40
3.0
 40
3.0
 40
3.0
 40
4.0
 40
4.0
 40
4.0
 40
5.0
 40
5.0
 40
5.0
 40
6.0
 40
6.0
 40
6.0
 40
7.0
 40
7.0
 40
7.0
 40
8.0
 40
8.0
 40
8.0
 40
9.0
 40
9.0
 40
9.0
 40
10.0
 40
10.0
 40
10.0
 40
11.0
 40
11.0
 40
11.0
 40
12.0
 40
12.0
 40
12.0
 40
13.0
 40
13.0
 40
13.0
 40
13.0
 10
74.68209091014893
 20
-133.1326144415432
 30
0.0
 10
74.85365666531436
 20
-133.3841064119665
 30
0.0
 10
74.93375513534643
 20
-133.4919379006548
 30
0.0
 10
75.08930119650546
 20
-133.5480929570644
 30
0.0
 10
75.08930119650546
 20
-133.5480929570644
 30
0.0
 10
75.08930119650546
 20
-132.6485785258656
 30
0.0
 10
75.08930119650546
 20
-132.6485785258656
 30
0.0
 10
75.08930119650546
 20
-132.6485785258656
 30
0.0
 10
75.31116534575554
 20
-132.6485785258656
 30
0.0
 10
75.31116534575554
 20
-132.6485785258656
 30
0.0
 10
75.31116534575554
 20
-132.6485785258656
 30
0.0
 10
75.31116534575554
 20
-133.8364474491798
 30
0.0
 10
75.31116534575554
 20
-133.8364474491798
 30
0.0
 10
74.92445337753625
 20
-133.7995849274876
 30
0.0
 10
74.83987628337337
 20
-133.7241373363606
 30
0.0
 10
74.51724309117972
 20
-133.2790309996664
 30
0.0
 10
74.30226913290014
 20
-132.9834418070319
 30
0.0
 10
74.22906085383858
 20
-132.9076497063564
 30
0.0
 10
74.08040498365004
 20
-132.9076497063564
 30
0.0
 10
73.95224743159875
 20
-132.9076497063564
 30
0.0
 10
73.81048175238071
 20
-132.9906765075509
 30
0.0
 10
73.81048175238071
 20
-133.2180528095774
 30
0.0
 10
73.81048175238071
 20
-133.5188096454397
 30
0.0
 10
74.05973441073854
 20
-133.5284559127984
 30
0.0
 10
74.18565265072442
 20
-133.5332790464778
 30
0.0
 10
74.18565265072442
 20
-133.5332790464778
 30
0.0
 10
74.18565265072442
 20
-133.7923502269686
 30
0.0
 10
74.18565265072442
 20
-133.7923502269686
 30
0.0
 10
74.04836559563722
 20
-133.7827039596099
 30
0.0
 10
73.92709823455642
 20
-133.770301615863
 30
0.0
 10
73.79894068250513
 20
-133.6776285473098
 30
0.0
 10
73.62513561527427
 20
-133.550504523904
 30
0.0
 10
73.58844534835636
 20
-133.3355305656245
 30
0.0
 10
73.58844534835636
 20
-133.2008273321512
 30
0.0
 10
73.58844534835636
 20
-132.8807779615715
 30
0.0
 10
73.7875718674038
 20
-132.6413438253466
 30
0.0
 10
74.08264429571545
 20
-132.6413438253466
 30
0.0
 10
74.32965764200787
 20
-132.6413438253466
 30
0.0
 10
74.43731687592192
 20
-132.7757025492714
 30
0.0
 10
74.68209091014893
 20
-133.1326144415432
 30
0.0
  0
HATCH
  5
EC
330
E7
100
AcDbEntity
  8
_U+30EC_U+30A4_U+30E4_U+30FC 1
 62
   179
420
  2234388
100
AcDbHatch
 10
0.0
 20
0.0
 30
0.0
210
0.0
220
0.0
230
1.0
  2
SOLID
 70
     1
 71
     0
 91
        1
 92
        1
 93
        1
 72
     4
 94
        3
 73
     0
 74
     1
 95
       44
 96
       40
 40
0.0
 40
0.0
 40
0.0
 40
0.0
 40
1.0
 40
1.0
 40
1.0
 40
2.0
 40
2.0
 40
2.0
 40
3.0
 40
3.0
 40
3.0
 40
4.0
 40
4.0
 40
4.0
 40
5.0
 40
5.0
 40
5.0
 40
6.0
 40
6.0
 40
6.0
 40
7.0
 40
7.0
 40
7.0
 40
8.0
 40
8.0
 40
8.0
 40
9.0
 40
9.0
 40
9.0
 40
10.0
 40
10.0
 40
10.0
 40
11.0
 40
11.0
 40
11.0
 40
12.0
 40
12.0
 40
12.0
 40
13.0
 40
13.0
 40
13.0
 40
13.0
 10
74.68209091014893
 20
-133.1326144415432
 10
74.85365666531436
 20
-133.3841064119665
 10
74.93375513534643
 20
-133.4919379006548
 10
75.08930119650546
 20
-133.5480929570644
 10
75.08930119650546
 20
-133.5480929570644
 10
75.08930119650546
 20
-132.6485785258656
 10
75.08930119650546
 20
-132.6485785258656
 10
75.08930119650546
 20
-132.6485785258656
 10
75.31116534575554
 20
-132.6485785258656
 10
75.31116534575554
 20
-132.6485785258656
 10
75.31116534575554
 20
-132.6485785258656
 10
75.31116534575554
 20
-133.8364474491798
 10
75.31116534575554
 20
-133.8364474491798
 10
74.92445337753625
 20
-133.7995849274876
 10
74.83987628337337
 20
-133.7241373363606
 10
74.51724309117972
 20
-133.2790309996664
 10
74.30226913290014
 20
-132.9834418070319
 10
74.22906085383858
 20
-132.9076497063564
 10
74.08040498365004
 20
-132.9076497063564
 10
73.95224743159875
 20
-132.9076497063564
 10
73.81048175238071
 20
-132.9906765075509
 10
73.81048175238071
 20
-133.2180528095774
 10
73.81048175238071
 20
-133.5188096454397
 10
74.05973441073854
 20
-133.5284559127984
 10
74.18565265072442
 20
-133.5332790464778
 10
74.18565265072442
 20
-133.5332790464778
 10
74.18565265072442
 20
-133.7923502269686
 10
74.18565265072442
 20
-133.7923502269686
 10
74.04836559563722
 20
-133.7827039596099
 10
73.92709823455642
 20
-133.770301615863
 10
73.79894068250513
 20
-133.6776285473098
 10
73.62513561527427
 20
-133.550504523904
 10
73.58844534835636
 20
-133.3355305656245
 10
73.58844534835636
 20
-133.2008273321512
 10
73.58844534835636
 20
-132.8807779615715
 10
73.7875718674038
 20
-132.6413438253466
 10
74.08264429571545
 20
-132.6413438253466
 10
74.32965764200787
 20
-132.6413438253466
 10
74.43731687592192
 20
-132.7757025492714
 10
74.68209091014893
 20
-133.1326144415432
 97
        0
 97
        0
 75
     2
 76
     1
 98
        0
  0
ENDBLK
  5
EA
330
E7
100
AcDbEntity
  8
0
100
AcDbBlockEnd
  0
BLOCK
  5
F7
330
F5
100
AcDbEntity
  8
0
100
AcDbBlockBegin
  2
block 6
 70
     0
 10
0.0
 20
0.0
 30
0.0
  3
block 6
  1

  0
SPLINE
  5
F9
330
F5
100
AcDbEntity
  8
_U+30EC_U+30A4_U+30E4_U+30FC 1
370
     0
100
AcDbSpline
210
0.0
220
0.0
230
1.0
 70
    11
 71
     3
 72
    44
 73
    40
 74
     0
 42
0.0000000001
 43
0.0000000001
 12
1.0
 22
0.0
 32
0.0
 13
1.0
 23
0.0
 33
0.0
 40
0.0
 40
0.0
 40
0.0
 40
0.0
 40
1.0
 40
1.0
 40
1.0
 40
2.0
 40
2.0
 40
2.0
 40
3.0
 40
3.0
 40
3.0
 40
4.0
 40
4.0
 40
4.0
 40
5.0
 40
5.0
 40
5.0
 40
6.0
 40
6.0
 40
6.0
 40
7.0
 40
7.0
 40
7.0
 40
8.0
 40
8.0
 40
8.0
 40
9.0
 40
9.0
 40
9.0
 40
10.0
 40
10.0
 40
10.0
 40
11.0
 40
11.0
 40
11.0
 40
12.0
 40
12.0
 40
12.0
 40
13.0
 40
13.0
 40
13.0
 40
13.0
 10
74.77011309979706
 20
-139.6996554555265
 30
0.0
 10
74.9416788549625
 20
-139.9511474259497
 30
0.0
 10
75.02177732499456
 20
-140.058978914638
 30
0.0
 10
75.17732338615359
 20
-140.1151339710476
 30
0.0
 10
75.17732338615359
 20
-140.1151339710476
 30
0.0
 10
75.17732338615359
 20
-139.2156195398489
 30
0.0
 10
75.17732338615359
 20
-139.2156195398489
 30
0.0
 10
75.17732338615359
 20
-139.2156195398489
 30
0.0
 10
75.39918753540368
 20
-139.2156195398489
 30
0.0
 10
75.39918753540368
 20
-139.2156195398489
 30
0.0
 10
75.39918753540368
 20
-139.2156195398489
 30
0.0
 10
75.39918753540368
 20
-140.403488463163
 30
0.0
 10
75.39918753540368
 20
-140.403488463163
 30
0.0
 10
75.01247556718438
 20
-140.3666259414709
 30
0.0
 10
74.9278984730215
 20
-140.2911783503439
 30
0.0
 10
74.60526528082785
 20
-139.8460720136496
 30
0.0
 10
74.39029132254826
 20
-139.5504828210152
 30
0.0
 10
74.3170830434867
 20
-139.4746907203397
 30
0.0
 10
74.16842717329817
 20
-139.4746907203397
 30
0.0
 10
74.04026962124688
 20
-139.4746907203397
 30
0.0
 10
73.89833168725458
 20
-139.5577175215342
 30
0.0
 10
73.89833168725458
 20
-139.7850938235607
 30
0.0
 10
73.89833168725458
 20
-140.085850659423
 30
0.0
 10
74.14775660038667
 20
-140.0954969267817
 30
0.0
 10
74.27367484037255
 20
-140.100320060461
 30
0.0
 10
74.27367484037255
 20
-140.100320060461
 30
0.0
 10
74.27367484037255
 20
-140.3593912409518
 30
0.0
 10
74.27367484037255
 20
-140.3593912409518
 30
0.0
 10
74.13638778528535
 20
-140.3497449735931
 30
0.0
 10
74.01512042420455
 20
-140.3373426298462
 30
0.0
 10
73.88696287215326
 20
-140.244669561293
 30
0.0
 10
73.7131578049224
 20
-140.1175455378873
 30
0.0
 10
73.6764675380045
 20
-139.9025715796077
 30
0.0
 10
73.6764675380045
 20
-139.7678683461344
 30
0.0
 10
73.6764675380045
 20
-139.4478189755547
 30
0.0
 10
73.87559405705194
 20
-139.2083848393299
 30
0.0
 10
74.17066648536358
 20
-139.2083848393299
 30
0.0
 10
74.417679831656
 20
-139.2083848393299
 30
0.0
 10
74.52533906557005
 20
-139.3427435632546
 30
0.0
 10
74.77011309979706
 20
-139.6996554555265
 30
0.0
  0
HATCH
  5
FA
330
F5
100
AcDbEntity
  8
_U+30EC_U+30A4_U+30E4_U+30FC 1
 62
   179
420
  2234388
100
AcDbHatch
 10
0.0
 20
0.0
 30
0.0
210
0.0
220
0.0
230
1.0
  2
SOLID
 70
     1
 71
     0
 91
        1
 92
        1
 93
        1
 72
     4
 94
        3
 73
     0
 74
     1
 95
       44
 96
       40
 40
0.0
 40
0.0
 40
0.0
 40
0.0
 40
1.0
 40
1.0
 40
1.0
 40
2.0
 40
2.0
 40
2.0
 40
3.0
 40
3.0
 40
3.0
 40
4.0
 40
4.0
 40
4.0
 40
5.0
 40
5.0
 40
5.0
 40
6.0
 40
6.0
 40
6.0
 40
7.0
 40
7.0
 40
7.0
 40
8.0
 40
8.0
 40
8.0
 40
9.0
 40
9.0
 40
9.0
 40
10.0
 40
10.0
 40
10.0
 40
11.0
 40
11.0
 40
11.0
 40
12.0
 40
12.0
 40
12.0
 40
13.0
 40
13.0
 40
13.0
 40
13.0
 10
74.77011309979706
 20
-139.6996554555265
 10
74.9416788549625
 20
-139.9511474259497
 10
75.02177732499456
 20
-140.058978914638
 10
75.17732338615359
 20
-140.1151339710476
 10
75.17732338615359
 20
-140.1151339710476
 10
75.17732338615359
 20
-139.2156195398489
 10
75.17732338615359
 20
-139.2156195398489
 10
75.17732338615359
 20
-139.2156195398489
 10
75.39918753540368
 20
-139.2156195398489
 10
75.39918753540368
 20
-139.2156195398489
 10
75.39918753540368
 20
-139.2156195398489
 10
75.39918753540368
 20
-140.403488463163
 10
75.39918753540368
 20
-140.403488463163
 10
75.01247556718438
 20
-140.3666259414709
 10
74.9278984730215
 20
-140.2911783503439
 10
74.60526528082785
 20
-139.8460720136496
 10
74.39029132254826
 20
-139.5504828210152
 10
74.3170830434867
 20
-139.4746907203397
 10
74.16842717329817
 20
-139.4746907203397
 10
74.04026962124688
 20
-139.4746907203397
 10
73.89833168725458
 20
-139.5577175215342
 10
73.89833168725458
 20
-139.7850938235607
 10
73.89833168725458
 20
-140.085850659423
 10
74.14775660038667
 20
-140.0954969267817
 10
74.27367484037255
 20
-140.100320060461
 10
74.27367484037255
 20
-140.100320060461
 10
74.27367484037255
 20
-140.3593912409518
 10
74.27367484037255
 20
-140.3593912409518
 10
74.13638778528535
 20
-140.3497449735931
 10
74.01512042420455
 20
-140.3373426298462
 10
73.88696287215326
 20
-140.244669561293
 10
73.7131578049224
 20
-140.1175455378873
 10
73.6764675380045
 20
-139.9025715796077
 10
73.6764675380045
 20
-139.7678683461344
 10
73.6764675380045
 20
-139.4478189755547
 10
73.87559405705194
 20
-139.2083848393299
 10
74.17066648536358
 20
-139.2083848393299
 10
74.417679831656
 20
-139.2083848393299
 10
74.52533906557005
 20
-139.3427435632546
 10
74.77011309979706
 20
-139.6996554555265
 97
        0
 97
        0
 75
     2
 76
     1
 98
        0
  0
SPLINE
  5
FB
330
F5
100
AcDbEntity
  8
_U+30EC_U+30A4_U+30E4_U+30FC 1
370
     0
100
AcDbSpline
210
0.0
220
0.0
230
1.0
 70
    11
 71
     3
 72
    26
 73
    22
 74
     0
 42
0.0000000001
 43
0.0000000001
 12
1.0
 22
0.0
 32
0.0
 13
1.0
 23
0.0
 33
0.0
 40
0.0
 40
0.0
 40
0.0
 40
0.0
 40
1.0
 40
1.0
 40
1.0
 40
2.0
 40
2.0
 40
2.0
 40
3.0
 40
3.0
 40
3.0
 40
4.0
 40
4.0
 40
4.0
 40
5.0
 40
5.0
 40
5.0
 40
6.0
 40
6.0
 40
6.0
 40
7.0
 40
7.0
 40
7.0
 40
7.0
 10
75.39918753540368
 20
-138.5048963412418
 30
0.0
 10
75.39918753540368
 20
-138.5048963412418
 30
0.0
 10
74.20494518544183
 20
-138.5048963412418
 30
0.0
 10
74.20494518544183
 20
-138.5048963412418
 30
0.0
 10
74.20494518544183
 20
-138.5048963412418
 30
0.0
 10
74.20494518544183
 20
-138.886268411459
 30
0.0
 10
74.20494518544183
 20
-138.886268411459
 30
0.0
 10
74.20494518544183
 20
-138.886268411459
 30
0.0
 10
74.0447482453777
 20
-138.886268411459
 30
0.0
 10
74.0447482453777
 20
-138.886268411459
 30
0.0
 10
74.02890080614556
 20
-138.5024847744022
 30
0.0
 10
73.85268417207503
 20
-138.4487412848323
 30
0.0
 10
73.72917749892882
 20
-138.4146348395283
 30
0.0
 10
73.72917749892882
 20
-138.4146348395283
 30
0.0
 10
73.72917749892882
 20
-138.2458251607511
 30
0.0
 10
73.72917749892882
 20
-138.2458251607511
 30
0.0
 10
73.72917749892882
 20
-138.2458251607511
 30
0.0
 10
75.39918753540368
 20
-138.2458251607511
 30
0.0
 10
75.39918753540368
 20
-138.2458251607511
 30
0.0
 10
75.39918753540368
 20
-138.2458251607511
 30
0.0
 10
75.39918753540368
 20
-138.5048963412418
 30
0.0
 10
75.39918753540368
 20
-138.5048963412418
 30
0.0
  0
HATCH
  5
FC
330
F5
100
AcDbEntity
  8
_U+30EC_U+30A4_U+30E4_U+30FC 1
 62
   179
420
  2234388
100
AcDbHatch
 10
0.0
 20
0.0
 30
0.0
210
0.0
220
0.0
230
1.0
  2
SOLID
 70
     1
 71
     0
 91
        1
 92
        1
 93
        1
 72
     4
 94
        3
 73
     0
 74
     1
 95
       26
 96
       22
 40
0.0
 40
0.0
 40
0.0
 40
0.0
 40
1.0
 40
1.0
 40
1.0
 40
2.0
 40
2.0
 40
2.0
 40
3.0
 40
3.0
 40
3.0
 40
4.0
 40
4.0
 40
4.0
 40
5.0
 40
5.0
 40
5.0
 40
6.0
 40
6.0
 40
6.0
 40
7.0
 40
7.0
 40
7.0
 40
7.0
 10
75.39918753540368
 20
-138.5048963412418
 10
75.39918753540368
 20
-138.5048963412418
 10
74.20494518544183
 20
-138.5048963412418
 10
74.20494518544183
 20
-138.5048963412418
 10
74.20494518544183
 20
-138.5048963412418
 10
74.20494518544183
 20
-138.886268411459
 10
74.20494518544183
 20
-138.886268411459
 10
74.20494518544183
 20
-138.886268411459
 10
74.0447482453777
 20
-138.886268411459
 10
74.0447482453777
 20
-138.886268411459
 10
74.02890080614556
 20
-138.5024847744022
 10
73.85268417207503
 20
-138.4487412848323
 10
73.72917749892882
 20
-138.4146348395283
 10
73.72917749892882
 20
-138.4146348395283
 10
73.72917749892882
 20
-138.2458251607511
 10
73.72917749892882
 20
-138.2458251607511
 10
73.72917749892882
 20
-138.2458251607511
 10
75.39918753540368
 20
-138.2458251607511
 10
75.39918753540368
 20
-138.2458251607511
 10
75.39918753540368
 20
-138.2458251607511
 10
75.39918753540368
 20
-138.5048963412418
 10
75.39918753540368
 20
-138.5048963412418
 97
        0
 97
        0
 75
     2
 76
     1
 98
        0
  0
POLYLINE
  5
FD
330
F5
100
AcDbEntity
  8
_U+30EC_U+30A4_U+30E4_U+30FC 1
370
     0
100
AcDb2dPolyline
 66
     1
 10
0.0
 20
0.0
 30
0.0
  0
VERTEX
  5
FE
330
FD
100
AcDbEntity
  8
_U+30EC_U+30A4_U+30E4_U+30FC 1
370
     0
100
AcDbVertex
100
AcDb2dVertex
 10
75.39918753540368
 20
-137.5984917190726
 30
0.0
  0
VERTEX
  5
FF
330
FD
100
AcDbEntity
  8
_U+30EC_U+30A4_U+30E4_U+30FC 1
370
     0
100
AcDbVertex
100
AcDb2dVertex
 10
75.12702499206894
 20
-137.5984917190726
 30
0.0
  0
VERTEX
  5
100
330
FD
100
AcDbEntity
  8
_U+30EC_U+30A4_U+30E4_U+30FC 1
370
     0
100
AcDbVertex
100
AcDb2dVertex
 10
75.12702499206894
 20
-137.3077256601175
 30
0.0
  0
VERTEX
  5
101
330
FD
100
AcDbEntity
  8
_U+30EC_U+30A4_U+30E4_U+30FC 1
370
     0
100
AcDbVertex
100
AcDb2dVertex
 10
75.39918753540368
 20
-137.3077256601175
 30
0.0
  0
VERTEX
  5
102
330
FD
100
AcDbEntity
  8
_U+30EC_U+30A4_U+30E4_U+30FC 1
370
     0
100
AcDbVertex
100
AcDb2dVertex
 10
75.39918753540368
 20
-137.5984917190726
 30
0.0
  0
SEQEND
  5
103
330
FD
100
AcDbEntity
  8
_U+30EC_U+30A4_U+30E4_U+30FC 1
370
     0
  0
HATCH
  5
104
330
F5
100
AcDbEntity
  8
_U+30EC_U+30A4_U+30E4_U+30FC 1
 62
   179
420
  2234388
100
AcDbHatch
 10
0.0
 20
0.0
 30
0.0
210
0.0
220
0.0
230
1.0
  2
SOLID
 70
     1
 71
     0
 91
        1
 92
        1
 93
        4
 72
     1
 10
75.39918753540368
 20
-137.5984917190726
 11
75.12702499206894
 21
-137.5984917190726
 72
     1
 10
75.12702499206894
 20
-137.5984917190726
 11
75.12702499206894
 21
-137.3077256601175
 72
     1
 10
75.12702499206894
 20
-137.3077256601175
 11
75.39918753540368
 21
-137.3077256601175
 72
     1
 10
75.39918753540368
 20
-137.3077256601175
 11
75.39918753540368
 21
-137.5984917190726
 97
        0
 75
     2
 76
     1
 98
        0
  0
SPLINE
  5
105
330
F5
100
AcDbEntity
  8
_U+30EC_U+30A4_U+30E4_U+30FC 1
370
     0
100
AcDbSpline
210
0.0
220
0.0
230
1.0
 70
    11
 71
     3
 72
    29
 73
    25
 74
     0
 42
0.0000000001
 43
0.0000000001
 12
1.0
 22
0.0
 32
0.0
 13
1.0
 23
0.0
 33
0.0
 40
0.0
 40
0.0
 40
0.0
 40
0.0
 40
1.0
 40
1.0
 40
1.0
 40
2.0
 40
2.0
 40
2.0
 40
3.0
 40
3.0
 40
3.0
 40
4.0
 40
4.0
 40
4.0
 40
5.0
 40
5.0
 40
5.0
 40
6.0
 40
6.0
 40
6.0
 40
7.0
 40
7.0
 40
7.0
 40
8.0
 40
8.0
 40
8.0
 40
8.0
 10
75.45413680839341
 20
-136.4574760943579
 30
0.0
 10
75.45413680839341
 20
-136.7654676307392
 30
0.0
 10
75.30530868343062
 20
-137.058645256534
 30
0.0
 10
74.9278984730215
 20
-137.058645256534
 30
0.0
 10
74.65108505078167
 20
-137.058645256534
 30
0.0
 10
74.5480766957727
 20
-136.8950032209846
 30
0.0
 10
74.48175860768164
 20
-136.7727023312582
 30
0.0
 10
74.417679831656
 20
-136.9170518320902
 30
0.0
 10
74.29417315850979
 20
-137.0049017669641
 30
0.0
 10
74.12036809127893
 20
-137.0049017669641
 30
0.0
 10
73.82288409612761
 20
-137.0049017669641
 30
0.0
 10
73.6764675380045
 20
-136.7751138980979
 30
0.0
 10
73.6764675380045
 20
-136.4574760943579
 30
0.0
 10
73.6764675380045
 20
-136.1298475137106
 30
0.0
 10
73.83201359916353
 20
-135.9100504217517
 30
0.0
 10
74.12036809127893
 20
-135.9100504217517
 30
0.0
 10
74.29417315850979
 20
-135.9100504217517
 30
0.0
 10
74.417679831656
 20
-136.0003119234652
 30
0.0
 10
74.48175860768164
 20
-136.1446614242972
 30
0.0
 10
74.53670788067139
 20
-136.0419975788367
 30
0.0
 10
74.63971623568035
 20
-135.8587184990214
 30
0.0
 10
74.92324759411642
 20
-135.8587184990214
 30
0.0
 10
75.32821856840754
 20
-135.8587184990214
 30
0.0
 10
75.45413680839341
 20
-136.1811794364408
 30
0.0
 10
75.45413680839341
 20
-136.4574760943579
 30
0.0
  0
SPLINE
  5
106
330
F5
100
AcDbEntity
  8
_U+30EC_U+30A4_U+30E4_U+30FC 1
370
     0
100
AcDbSpline
210
0.0
220
0.0
230
1.0
 70
    11
 71
     3
 72
    17
 73
    13
 74
     0
 42
0.0000000001
 43
0.0000000001
 12
1.0
 22
0.0
 32
0.0
 13
1.0
 23
0.0
 33
0.0
 40
0.0
 40
0.0
 40
0.0
 40
0.0
 40
1.0
 40
1.0
 40
1.0
 40
2.0
 40
2.0
 40
2.0
 40
3.0
 40
3.0
 40
3.0
 40
4.0
 40
4.0
 40
4.0
 40
4.0
 10
73.88472356008785
 20
-136.4574760943579
 30
0.0
 10
73.88472356008785
 20
-136.6479898746922
 30
0.0
 10
73.98755966032256
 20
-136.7458305864733
 30
0.0
 10
74.13397621844568
 20
-136.7458305864733
 30
0.0
 10
74.26678464940206
 20
-136.7458305864733
 30
0.0
 10
74.39494220145335
 20
-136.6628037852788
 30
0.0
 10
74.39494220145335
 20
-136.4574760943579
 30
0.0
 10
74.39494220145335
 20
-136.252148403437
 30
0.0
 10
74.26678464940206
 20
-136.1691216022425
 30
0.0
 10
74.13397621844568
 20
-136.1691216022425
 30
0.0
 10
73.98755966032256
 20
-136.1691216022425
 30
0.0
 10
73.88472356008785
 20
-136.2693738808632
 30
0.0
 10
73.88472356008785
 20
-136.4574760943579
 30
0.0
  0
SPLINE
  5
107
330
F5
100
AcDbEntity
  8
_U+30EC_U+30A4_U+30E4_U+30FC 1
370
     0
100
AcDbSpline
210
0.0
220
0.0
230
1.0
 70
    11
 71
     3
 72
    17
 73
    13
 74
     0
 42
0.0000000001
 43
0.0000000001
 12
1.0
 22
0.0
 32
0.0
 13
1.0
 23
0.0
 33
0.0
 40
0.0
 40
0.0
 40
0.0
 40
0.0
 40
1.0
 40
1.0
 40
1.0
 40
2.0
 40
2.0
 40
2.0
 40
3.0
 40
3.0
 40
3.0
 40
4.0
 40
4.0
 40
4.0
 40
4.0
 10
74.59854734463161
 20
-136.4574760943579
 30
0.0
 10
74.59854734463161
 20
-136.6235296967469
 30
0.0
 10
74.69225394183042
 20
-136.7995740760432
 30
0.0
 10
74.91187877901508
 20
-136.7995740760432
 30
0.0
 10
75.13374292826518
 20
-136.7995740760432
 30
0.0
 10
75.24364147424465
 20
-136.6528130083715
 30
0.0
 10
75.24364147424465
 20
-136.4574760943579
 30
0.0
 10
75.24364147424465
 20
-136.2425021360783
 30
0.0
 10
75.11100529806254
 20
-136.1153781126725
 30
0.0
 10
74.91876896998559
 20
-136.1153781126725
 30
0.0
 10
74.67847355988941
 20
-136.1153781126725
 30
0.0
 10
74.59854734463161
 20
-136.3034803261672
 30
0.0
 10
74.59854734463161
 20
-136.4574760943579
 30
0.0
  0
HATCH
  5
108
330
F5
100
AcDbEntity
  8
_U+30EC_U+30A4_U+30E4_U+30FC 1
 62
   179
420
  2234388
100
AcDbHatch
 10
0.0
 20
0.0
 30
0.0
210
0.0
220
0.0
230
1.0
  2
SOLID
 70
     1
 71
     0
 91
        3
 92
        1
 93
        1
 72
     4
 94
        3
 73
     0
 74
     1
 95
       29
 96
       25
 40
0.0
 40
0.0
 40
0.0
 40
0.0
 40
1.0
 40
1.0
 40
1.0
 40
2.0
 40
2.0
 40
2.0
 40
3.0
 40
3.0
 40
3.0
 40
4.0
 40
4.0
 40
4.0
 40
5.0
 40
5.0
 40
5.0
 40
6.0
 40
6.0
 40
6.0
 40
7.0
 40
7.0
 40
7.0
 40
8.0
 40
8.0
 40
8.0
 40
8.0
 10
75.45413680839341
 20
-136.4574760943579
 10
75.45413680839341
 20
-136.7654676307392
 10
75.30530868343062
 20
-137.058645256534
 10
74.9278984730215
 20
-137.058645256534
 10
74.65108505078167
 20
-137.058645256534
 10
74.5480766957727
 20
-136.8950032209846
 10
74.48175860768164
 20
-136.7727023312582
 10
74.417679831656
 20
-136.9170518320902
 10
74.29417315850979
 20
-137.0049017669641
 10
74.12036809127893
 20
-137.0049017669641
 10
73.82288409612761
 20
-137.0049017669641
 10
73.6764675380045
 20
-136.7751138980979
 10
73.6764675380045
 20
-136.4574760943579
 10
73.6764675380045
 20
-136.1298475137106
 10
73.83201359916353
 20
-135.9100504217517
 10
74.12036809127893
 20
-135.9100504217517
 10
74.29417315850979
 20
-135.9100504217517
 10
74.417679831656
 20
-136.0003119234652
 10
74.48175860768164
 20
-136.1446614242972
 10
74.53670788067139
 20
-136.0419975788367
 10
74.63971623568035
 20
-135.8587184990214
 10
74.92324759411642
 20
-135.8587184990214
 10
75.32821856840754
 20
-135.8587184990214
 10
75.45413680839341
 20
-136.1811794364408
 10
75.45413680839341
 20
-136.4574760943579
 97
        0
 97
        0
 92
        1
 93
        1
 72
     4
 94
        3
 73
     0
 74
     1
 95
       17
 96
       13
 40
0.0
 40
0.0
 40
0.0
 40
0.0
 40
1.0
 40
1.0
 40
1.0
 40
2.0
 40
2.0
 40
2.0
 40
3.0
 40
3.0
 40
3.0
 40
4.0
 40
4.0
 40
4.0
 40
4.0
 10
73.88472356008785
 20
-136.4574760943579
 10
73.88472356008785
 20
-136.6479898746922
 10
73.98755966032256
 20
-136.7458305864733
 10
74.13397621844568
 20
-136.7458305864733
 10
74.26678464940206
 20
-136.7458305864733
 10
74.39494220145335
 20
-136.6628037852788
 10
74.39494220145335
 20
-136.4574760943579
 10
74.39494220145335
 20
-136.252148403437
 10
74.26678464940206
 20
-136.1691216022425
 10
74.13397621844568
 20
-136.1691216022425
 10
73.98755966032256
 20
-136.1691216022425
 10
73.88472356008785
 20
-136.2693738808632
 10
73.88472356008785
 20
-136.4574760943579
 97
        0
 97
        0
 92
        1
 93
        1
 72
     4
 94
        3
 73
     0
 74
     1
 95
       17
 96
       13
 40
0.0
 40
0.0
 40
0.0
 40
0.0
 40
1.0
 40
1.0
 40
1.0
 40
2.0
 40
2.0
 40
2.0
 40
3.0
 40
3.0
 40
3.0
 40
4.0
 40
4.0
 40
4.0
 40
4.0
 10
74.59854734463161
 20
-136.4574760943579
 10
74.59854734463161
 20
-136.6235296967469
 10
74.69225394183042
 20
-136.7995740760432
 10
74.91187877901508
 20
-136.7995740760432
 10
75.13374292826518
 20
-136.7995740760432
 10
75.24364147424465
 20
-136.6528130083715
 10
75.24364147424465
 20
-136.4574760943579
 10
75.24364147424465
 20
-136.2425021360783
 10
75.11100529806254
 20
-136.1153781126725
 10
74.91876896998559
 20
-136.1153781126725
 10
74.67847355988941
 20
-136.1153781126725
 10
74.59854734463161
 20
-136.3034803261672
 10
74.59854734463161
 20
-136.4574760943579
 97
        0
 97
        0
 75
     2
 76
     1
 98
        0
  0
ENDBLK
  5
F8
330
F5
100
AcDbEntity
  8
0
100
AcDbBlockEnd
  0
BLOCK
  5
113
330
111
100
AcDbEntity
  8
0
100
AcDbBlockBegin
  2
block 7
 70
     0
 10
0.0
 20
0.0
 30
0.0
  3
block 7
  1

  0
SPLINE
  5
115
330
111
100
AcDbEntity
  8
_U+30EC_U+30A4_U+30E4_U+30FC 1
370
     0
100
AcDbSpline
210
0.0
220
0.0
230
1.0
 70
    11
 71
     3
 72
    29
 73
    25
 74
     0
 42
0.0000000001
 43
0.0000000001
 12
1.0
 22
0.0
 32
0.0
 13
1.0
 23
0.0
 33
0.0
 40
0.0
 40
0.0
 40
0.0
 40
0.0
 40
1.0
 40
1.0
 40
1.0
 40
2.0
 40
2.0
 40
2.0
 40
3.0
 40
3.0
 40
3.0
 40
4.0
 40
4.0
 40
4.0
 40
5.0
 40
5.0
 40
5.0
 40
6.0
 40
6.0
 40
6.0
 40
7.0
 40
7.0
 40
7.0
 40
8.0
 40
8.0
 40
8.0
 40
8.0
 10
75.63069795201247
 20
-143.7834716437416
 30
0.0
 10
75.63069795201247
 20
-144.091463180123
 30
0.0
 10
75.48186982704968
 20
-144.3846408059177
 30
0.0
 10
75.10445961664055
 20
-144.3846408059177
 30
0.0
 10
74.82764619440073
 20
-144.3846408059177
 30
0.0
 10
74.72463783939176
 20
-144.2209987703684
 30
0.0
 10
74.6583197513007
 20
-144.098697880642
 30
0.0
 10
74.59424097527506
 20
-144.243047381474
 30
0.0
 10
74.47073430212885
 20
-144.3308973163478
 30
0.0
 10
74.29692923489799
 20
-144.3308973163478
 30
0.0
 10
73.99944523974666
 20
-144.3308973163478
 30
0.0
 10
73.85302868162356
 20
-144.1011094474817
 30
0.0
 10
73.85302868162356
 20
-143.7834716437416
 30
0.0
 10
73.85302868162356
 20
-143.4558430630944
 30
0.0
 10
74.00857474278259
 20
-143.2360459711354
 30
0.0
 10
74.29692923489799
 20
-143.2360459711354
 30
0.0
 10
74.47073430212885
 20
-143.2360459711354
 30
0.0
 10
74.59424097527506
 20
-143.326307472849
 30
0.0
 10
74.6583197513007
 20
-143.4706569736809
 30
0.0
 10
74.71326902429044
 20
-143.3679931282205
 30
0.0
 10
74.81627737929941
 20
-143.1847140484052
 30
0.0
 10
75.09998099250973
 20
-143.1847140484052
 30
0.0
 10
75.50477971202659
 20
-143.1847140484052
 30
0.0
 10
75.63069795201247
 20
-143.5071749858246
 30
0.0
 10
75.63069795201247
 20
-143.7834716437416
 30
0.0
  0
SPLINE
  5
116
330
111
100
AcDbEntity
  8
_U+30EC_U+30A4_U+30E4_U+30FC 1
370
     0
100
AcDbSpline
210
0.0
220
0.0
230
1.0
 70
    11
 71
     3
 72
    17
 73
    13
 74
     0
 42
0.0000000001
 43
0.0000000001
 12
1.0
 22
0.0
 32
0.0
 13
1.0
 23
0.0
 33
0.0
 40
0.0
 40
0.0
 40
0.0
 40
0.0
 40
1.0
 40
1.0
 40
1.0
 40
2.0
 40
2.0
 40
2.0
 40
3.0
 40
3.0
 40
3.0
 40
4.0
 40
4.0
 40
4.0
 40
4.0
 10
74.0612847037069
 20
-143.7834716437416
 30
0.0
 10
74.0612847037069
 20
-143.9739854240759
 30
0.0
 10
74.16412080394161
 20
-144.071826135857
 30
0.0
 10
74.31053736206474
 20
-144.071826135857
 30
0.0
 10
74.44334579302111
 20
-144.071826135857
 30
0.0
 10
74.5715033450724
 20
-143.9887993346625
 30
0.0
 10
74.5715033450724
 20
-143.7834716437416
 30
0.0
 10
74.5715033450724
 20
-143.5781439528207
 30
0.0
 10
74.44334579302111
 20
-143.4951171516262
 30
0.0
 10
74.31053736206474
 20
-143.4951171516262
 30
0.0
 10
74.16412080394161
 20
-143.4951171516262
 30
0.0
 10
74.0612847037069
 20
-143.595369430247
 30
0.0
 10
74.0612847037069
 20
-143.7834716437416
 30
0.0
  0
SPLINE
  5
117
330
111
100
AcDbEntity
  8
_U+30EC_U+30A4_U+30E4_U+30FC 1
370
     0
100
AcDbSpline
210
0.0
220
0.0
230
1.0
 70
    11
 71
     3
 72
    17
 73
    13
 74
     0
 42
0.0000000001
 43
0.0000000001
 12
1.0
 22
0.0
 32
0.0
 13
1.0
 23
0.0
 33
0.0
 40
0.0
 40
0.0
 40
0.0
 40
0.0
 40
1.0
 40
1.0
 40
1.0
 40
2.0
 40
2.0
 40
2.0
 40
3.0
 40
3.0
 40
3.0
 40
4.0
 40
4.0
 40
4.0
 40
4.0
 10
74.77510848825067
 20
-143.7834716437416
 30
0.0
 10
74.77510848825067
 20
-143.9495252461307
 30
0.0
 10
74.86881508544947
 20
-144.1255696254269
 30
0.0
 10
75.08843992263414
 20
-144.1255696254269
 30
0.0
 10
75.31030407188423
 20
-144.1255696254269
 30
0.0
 10
75.42020261786371
 20
-143.9788085577553
 30
0.0
 10
75.42020261786371
 20
-143.7834716437416
 30
0.0
 10
75.42020261786371
 20
-143.5684976854621
 30
0.0
 10
75.28756644168159
 20
-143.4413736620563
 30
0.0
 10
75.09533011360465
 20
-143.4413736620563
 30
0.0
 10
74.85503470350847
 20
-143.4413736620563
 30
0.0
 10
74.77510848825067
 20
-143.629475875551
 30
0.0
 10
74.77510848825067
 20
-143.7834716437416
 30
0.0
  0
HATCH
  5
118
330
111
100
AcDbEntity
  8
_U+30EC_U+30A4_U+30E4_U+30FC 1
 62
   179
420
  2234388
100
AcDbHatch
 10
0.0
 20
0.0
 30
0.0
210
0.0
220
0.0
230
1.0
  2
SOLID
 70
     1
 71
     0
 91
        3
 92
        1
 93
        1
 72
     4
 94
        3
 73
     0
 74
     1
 95
       29
 96
       25
 40
0.0
 40
0.0
 40
0.0
 40
0.0
 40
1.0
 40
1.0
 40
1.0
 40
2.0
 40
2.0
 40
2.0
 40
3.0
 40
3.0
 40
3.0
 40
4.0
 40
4.0
 40
4.0
 40
5.0
 40
5.0
 40
5.0
 40
6.0
 40
6.0
 40
6.0
 40
7.0
 40
7.0
 40
7.0
 40
8.0
 40
8.0
 40
8.0
 40
8.0
 10
75.63069795201247
 20
-143.7834716437416
 10
75.63069795201247
 20
-144.091463180123
 10
75.48186982704968
 20
-144.3846408059177
 10
75.10445961664055
 20
-144.3846408059177
 10
74.82764619440073
 20
-144.3846408059177
 10
74.72463783939176
 20
-144.2209987703684
 10
74.6583197513007
 20
-144.098697880642
 10
74.59424097527506
 20
-144.243047381474
 10
74.47073430212885
 20
-144.3308973163478
 10
74.29692923489799
 20
-144.3308973163478
 10
73.99944523974666
 20
-144.3308973163478
 10
73.85302868162356
 20
-144.1011094474817
 10
73.85302868162356
 20
-143.7834716437416
 10
73.85302868162356
 20
-143.4558430630944
 10
74.00857474278259
 20
-143.2360459711354
 10
74.29692923489799
 20
-143.2360459711354
 10
74.47073430212885
 20
-143.2360459711354
 10
74.59424097527506
 20
-143.326307472849
 10
74.6583197513007
 20
-143.4706569736809
 10
74.71326902429044
 20
-143.3679931282205
 10
74.81627737929941
 20
-143.1847140484052
 10
75.09998099250973
 20
-143.1847140484052
 10
75.50477971202659
 20
-143.1847140484052
 10
75.63069795201247
 20
-143.5071749858246
 10
75.63069795201247
 20
-143.7834716437416
 97
        0
 97
        0
 92
        1
 93
        1
 72
     4
 94
        3
 73
     0
 74
     1
 95
       17
 96
       13
 40
0.0
 40
0.0
 40
0.0
 40
0.0
 40
1.0
 40
1.0
 40
1.0
 40
2.0
 40
2.0
 40
2.0
 40
3.0
 40
3.0
 40
3.0
 40
4.0
 40
4.0
 40
4.0
 40
4.0
 10
74.0612847037069
 20
-143.7834716437416
 10
74.0612847037069
 20
-143.9739854240759
 10
74.16412080394161
 20
-144.071826135857
 10
74.31053736206474
 20
-144.071826135857
 10
74.44334579302111
 20
-144.071826135857
 10
74.5715033450724
 20
-143.9887993346625
 10
74.5715033450724
 20
-143.7834716437416
 10
74.5715033450724
 20
-143.5781439528207
 10
74.44334579302111
 20
-143.4951171516262
 10
74.31053736206474
 20
-143.4951171516262
 10
74.16412080394161
 20
-143.4951171516262
 10
74.0612847037069
 20
-143.595369430247
 10
74.0612847037069
 20
-143.7834716437416
 97
        0
 97
        0
 92
        1
 93
        1
 72
     4
 94
        3
 73
     0
 74
     1
 95
       17
 96
       13
 40
0.0
 40
0.0
 40
0.0
 40
0.0
 40
1.0
 40
1.0
 40
1.0
 40
2.0
 40
2.0
 40
2.0
 40
3.0
 40
3.0
 40
3.0
 40
4.0
 40
4.0
 40
4.0
 40
4.0
 10
74.77510848825067
 20
-143.7834716437416
 10
74.77510848825067
 20
-143.9495252461307
 10
74.86881508544947
 20
-144.1255696254269
 10
75.08843992263414
 20
-144.1255696254269
 10
75.31030407188423
 20
-144.1255696254269
 10
75.42020261786371
 20
-143.9788085577553
 10
75.42020261786371
 20
-143.7834716437416
 10
75.42020261786371
 20
-143.5684976854621
 10
75.28756644168159
 20
-143.4413736620563
 10
75.09533011360465
 20
-143.4413736620563
 10
74.85503470350847
 20
-143.4413736620563
 10
74.77510848825067
 20
-143.629475875551
 10
74.77510848825067
 20
-143.7834716437416
 97
        0
 97
        0
 75
     2
 76
     1
 98
        0
  0
ENDBLK
  5
114
330
111
100
AcDbEntity
  8
0
100
AcDbBlockEnd
  0
BLOCK
  5
127
330
125
100
AcDbEntity
  8
0
100
AcDbBlockBegin
  2
block 8
 70
     0
 10
0.0
 20
0.0
 30
0.0
  3
block 8
  1

  0
SPLINE
  5
129
330
125
100
AcDbEntity
  8
_U+30EC_U+30A4_U+30E4_U+30FC 1
370
     0
100
AcDbSpline
210
0.0
220
0.0
230
1.0
 70
    11
 71
     3
 72
    53
 73
    49
 74
     0
 42
0.0000000001
 43
0.0000000001
 12
1.0
 22
0.0
 32
0.0
 13
1.0
 23
0.0
 33
0.0
 40
0.0
 40
0.0
 40
0.0
 40
0.0
 40
1.0
 40
1.0
 40
1.0
 40
2.0
 40
2.0
 40
2.0
 40
3.0
 40
3.0
 40
3.0
 40
4.0
 40
4.0
 40
4.0
 40
5.0
 40
5.0
 40
5.0
 40
6.0
 40
6.0
 40
6.0
 40
7.0
 40
7.0
 40
7.0
 40
8.0
 40
8.0
 40
8.0
 40
9.0
 40
9.0
 40
9.0
 40
10.0
 40
10.0
 40
10.0
 40
11.0
 40
11.0
 40
11.0
 40
12.0
 40
12.0
 40
12.0
 40
13.0
 40
13.0
 40
13.0
 40
14.0
 40
14.0
 40
14.0
 40
15.0
 40
15.0
 40
15.0
 40
16.0
 40
16.0
 40
16.0
 40
16.0
 10
99.77409936741759
 20
-147.9144856401047
 30
0.0
 10
99.68383786570405
 20
-147.9144856401047
 30
0.0
 10
99.56636010965703
 20
-147.8962266340329
 30
0.0
 10
99.44922686315853
 20
-147.8276692338764
 30
0.0
 10
99.24872230591698
 20
-147.7088134396353
 30
0.0
 10
99.22426212797171
 20
-147.566875505643
 30
0.0
 10
99.20221351686612
 20
-147.450086768693
 30
0.0
 10
99.20221351686612
 20
-147.450086768693
 30
0.0
 10
99.45887313051723
 20
-147.450086768693
 30
0.0
 10
99.45887313051723
 20
-147.450086768693
 30
0.0
 10
99.52260739699435
 20
-147.6654052365212
 30
0.0
 10
99.66902395511747
 20
-147.697444624534
 30
0.0
 10
99.77651093425726
 20
-147.697444624534
 30
0.0
 10
99.93808591251549
 20
-147.697444624534
 30
0.0
 10
100.1137857822632
 20
-147.5896131358457
 30
0.0
 10
100.1137857822632
 20
-147.3381211654224
 30
0.0
 10
100.1137857822632
 20
-147.0611354884083
 30
0.0
 10
99.90604652450266
 20
-146.9856878972814
 30
0.0
 10
99.76686466689857
 20
-146.9856878972814
 30
0.0
 10
99.73034665475492
 20
-146.9856878972814
 30
0.0
 10
99.56636010965703
 20
-146.9856878972814
 30
0.0
 10
99.46369626419659
 20
-147.125214264434
 30
0.0
 10
99.46369626419659
 20
-147.125214264434
 30
0.0
 10
99.26112464966388
 20
-147.104888201071
 30
0.0
 10
99.26112464966388
 20
-147.104888201071
 30
0.0
 10
99.26112464966388
 20
-147.104888201071
 30
0.0
 10
99.40030650726798
 20
-146.1895263306401
 30
0.0
 10
99.40030650726798
 20
-146.1895263306401
 30
0.0
 10
99.40030650726798
 20
-146.1895263306401
 30
0.0
 10
100.2994764289182
 20
-146.1895263306401
 30
0.0
 10
100.2994764289182
 20
-146.1895263306401
 30
0.0
 10
100.2994764289182
 20
-146.1895263306401
 30
0.0
 10
100.2994764289182
 20
-146.4000216647889
 30
0.0
 10
100.2994764289182
 20
-146.4000216647889
 30
0.0
 10
100.2994764289182
 20
-146.4000216647889
 30
0.0
 10
99.58840872076263
 20
-146.4000216647889
 30
0.0
 10
99.58840872076263
 20
-146.4000216647889
 30
0.0
 10
99.58840872076263
 20
-146.4000216647889
 30
0.0
 10
99.51261662008713
 20
-146.8575303452301
 30
0.0
 10
99.51261662008713
 20
-146.8575303452301
 30
0.0
 10
99.58358558708328
 20
-146.8210123330864
 30
0.0
 10
99.6790147320247
 20
-146.7776041299723
 30
0.0
 10
99.81578502278911
 20
-146.7776041299723
 30
0.0
 10
100.1089626485839
 20
-146.7776041299723
 30
0.0
 10
100.3828477396612
 20
-146.9787977063109
 30
0.0
 10
100.3828477396612
 20
-147.3174505925109
 30
0.0
 10
100.3828477396612
 20
-147.6605821028418
 30
0.0
 10
100.1237765591705
 20
-147.9144856401047
 30
0.0
 10
99.77409936741759
 20
-147.9144856401047
 30
0.0
  0
HATCH
  5
12A
330
125
100
AcDbEntity
  8
_U+30EC_U+30A4_U+30E4_U+30FC 1
 62
   179
420
  2234388
100
AcDbHatch
 10
0.0
 20
0.0
 30
0.0
210
0.0
220
0.0
230
1.0
  2
SOLID
 70
     1
 71
     0
 91
        1
 92
        1
 93
        1
 72
     4
 94
        3
 73
     0
 74
     1
 95
       53
 96
       49
 40
0.0
 40
0.0
 40
0.0
 40
0.0
 40
1.0
 40
1.0
 40
1.0
 40
2.0
 40
2.0
 40
2.0
 40
3.0
 40
3.0
 40
3.0
 40
4.0
 40
4.0
 40
4.0
 40
5.0
 40
5.0
 40
5.0
 40
6.0
 40
6.0
 40
6.0
 40
7.0
 40
7.0
 40
7.0
 40
8.0
 40
8.0
 40
8.0
 40
9.0
 40
9.0
 40
9.0
 40
10.0
 40
10.0
 40
10.0
 40
11.0
 40
11.0
 40
11.0
 40
12.0
 40
12.0
 40
12.0
 40
13.0
 40
13.0
 40
13.0
 40
14.0
 40
14.0
 40
14.0
 40
15.0
 40
15.0
 40
15.0
 40
16.0
 40
16.0
 40
16.0
 40
16.0
 10
99.77409936741759
 20
-147.9144856401047
 10
99.68383786570405
 20
-147.9144856401047
 10
99.56636010965703
 20
-147.8962266340329
 10
99.44922686315853
 20
-147.8276692338764
 10
99.24872230591698
 20
-147.7088134396353
 10
99.22426212797171
 20
-147.566875505643
 10
99.20221351686612
 20
-147.450086768693
 10
99.20221351686612
 20
-147.450086768693
 10
99.45887313051723
 20
-147.450086768693
 10
99.45887313051723
 20
-147.450086768693
 10
99.52260739699435
 20
-147.6654052365212
 10
99.66902395511747
 20
-147.697444624534
 10
99.77651093425726
 20
-147.697444624534
 10
99.93808591251549
 20
-147.697444624534
 10
100.1137857822632
 20
-147.5896131358457
 10
100.1137857822632
 20
-147.3381211654224
 10
100.1137857822632
 20
-147.0611354884083
 10
99.90604652450266
 20
-146.9856878972814
 10
99.76686466689857
 20
-146.9856878972814
 10
99.73034665475492
 20
-146.9856878972814
 10
99.56636010965703
 20
-146.9856878972814
 10
99.46369626419659
 20
-147.125214264434
 10
99.46369626419659
 20
-147.125214264434
 10
99.26112464966388
 20
-147.104888201071
 10
99.26112464966388
 20
-147.104888201071
 10
99.26112464966388
 20
-147.104888201071
 10
99.40030650726798
 20
-146.1895263306401
 10
99.40030650726798
 20
-146.1895263306401
 10
99.40030650726798
 20
-146.1895263306401
 10
100.2994764289182
 20
-146.1895263306401
 10
100.2994764289182
 20
-146.1895263306401
 10
100.2994764289182
 20
-146.1895263306401
 10
100.2994764289182
 20
-146.4000216647889
 10
100.2994764289182
 20
-146.4000216647889
 10
100.2994764289182
 20
-146.4000216647889
 10
99.58840872076263
 20
-146.4000216647889
 10
99.58840872076263
 20
-146.4000216647889
 10
99.58840872076263
 20
-146.4000216647889
 10
99.51261662008713
 20
-146.8575303452301
 10
99.51261662008713
 20
-146.8575303452301
 10
99.58358558708328
 20
-146.8210123330864
 10
99.6790147320247
 20
-146.7776041299723
 10
99.81578502278911
 20
-146.7776041299723
 10
100.1089626485839
 20
-146.7776041299723
 10
100.3828477396612
 20
-146.9787977063109
 10
100.3828477396612
 20
-147.3174505925109
 10
100.3828477396612
 20
-147.6605821028418
 10
100.1237765591705
 20
-147.9144856401047
 10
99.77409936741759
 20
-147.9144856401047
 97
        0
 97
        0
 75
     2
 76
     1
 98
        0
  0
SPLINE
  5
12B
330
125
100
AcDbEntity
  8
_U+30EC_U+30A4_U+30E4_U+30FC 1
370
     0
100
AcDbSpline
210
0.0
220
0.0
230
1.0
 70
    11
 71
     3
 72
    29
 73
    25
 74
     0
 42
0.0000000001
 43
0.0000000001
 12
1.0
 22
0.0
 32
0.0
 13
1.0
 23
0.0
 33
0.0
 40
0.0
 40
0.0
 40
0.0
 40
0.0
 40
1.0
 40
1.0
 40
1.0
 40
2.0
 40
2.0
 40
2.0
 40
3.0
 40
3.0
 40
3.0
 40
4.0
 40
4.0
 40
4.0
 40
5.0
 40
5.0
 40
5.0
 40
6.0
 40
6.0
 40
6.0
 40
7.0
 40
7.0
 40
7.0
 40
8.0
 40
8.0
 40
8.0
 40
8.0
 10
101.6141248660895
 20
-147.6674722938123
 30
0.0
 10
101.4894124095235
 20
-147.8941595767417
 30
0.0
 10
101.2889078522819
 20
-147.9144856401047
 30
0.0
 10
101.1545491283572
 20
-147.9144856401047
 30
0.0
 10
100.9688584817022
 20
-147.9144856401047
 30
0.0
 10
100.8052164461529
 20
-147.8641872460201
 30
0.0
 10
100.6949733906249
 20
-147.6674722938123
 30
0.0
 10
100.5754285772867
 20
-147.4569769596635
 30
0.0
 10
100.5533799661811
 20
-147.200661855561
 30
0.0
 10
100.5533799661811
 20
-147.0246174762647
 30
0.0
 10
100.5533799661811
 20
-146.8692436698799
 30
0.0
 10
100.573017010447
 20
-146.5967366169967
 30
0.0
 10
100.6949733906249
 20
-146.3817626587171
 30
0.0
 10
100.8196858471909
 20
-146.1623100763067
 30
0.0
 10
101.0053764938459
 20
-146.1371608792643
 30
0.0
 10
101.1545491283572
 20
-146.1371608792643
 30
0.0
 10
101.3378282081725
 20
-146.1371608792643
 30
0.0
 10
101.5038818105615
 20
-146.1850477065093
 30
0.0
 10
101.6141248660895
 20
-146.3817626587171
 30
0.0
 10
101.7288465457484
 20
-146.5898464260262
 30
0.0
 10
101.7557182905333
 20
-146.8372042818671
 30
0.0
 10
101.7557182905333
 20
-147.0246174762647
 30
0.0
 10
101.7557182905333
 20
-147.2099636133711
 30
0.0
 10
101.731258112588
 20
-147.4593885265032
 30
0.0
 10
101.6141248660895
 20
-147.6674722938123
 30
0.0
  0
SPLINE
  5
12C
330
125
100
AcDbEntity
  8
_U+30EC_U+30A4_U+30E4_U+30FC 1
370
     0
100
AcDbSpline
210
0.0
220
0.0
230
1.0
 70
    11
 71
     3
 72
    17
 73
    13
 74
     0
 42
0.0000000001
 43
0.0000000001
 12
1.0
 22
0.0
 32
0.0
 13
1.0
 23
0.0
 33
0.0
 40
0.0
 40
0.0
 40
0.0
 40
0.0
 40
1.0
 40
1.0
 40
1.0
 40
2.0
 40
2.0
 40
2.0
 40
3.0
 40
3.0
 40
3.0
 40
4.0
 40
4.0
 40
4.0
 40
4.0
 10
101.1545491283572
 20
-146.3452446465734
 30
0.0
 10
100.8661946362418
 20
-146.3452446465734
 30
0.0
 10
100.8124511466719
 20
-146.6518581447607
 30
0.0
 10
100.8124511466719
 20
-147.0246174762647
 30
0.0
 10
100.8124511466719
 20
-147.3701605534353
 30
0.0
 10
100.8541368020434
 20
-147.703990305956
 30
0.0
 10
101.1545491283572
 20
-147.703990305956
 30
0.0
 10
101.4404920536329
 20
-147.703990305956
 30
0.0
 10
101.4966471100425
 20
-147.3997883746084
 30
0.0
 10
101.4966471100425
 20
-147.0246174762647
 30
0.0
 10
101.4966471100425
 20
-146.6790743990941
 30
0.0
 10
101.4525498878313
 20
-146.3452446465734
 30
0.0
 10
101.1545491283572
 20
-146.3452446465734
 30
0.0
  0
HATCH
  5
12D
330
125
100
AcDbEntity
  8
_U+30EC_U+30A4_U+30E4_U+30FC 1
 62
   179
420
  2234388
100
AcDbHatch
 10
0.0
 20
0.0
 30
0.0
210
0.0
220
0.0
230
1.0
  2
SOLID
 70
     1
 71
     0
 91
        2
 92
        1
 93
        1
 72
     4
 94
        3
 73
     0
 74
     1
 95
       29
 96
       25
 40
0.0
 40
0.0
 40
0.0
 40
0.0
 40
1.0
 40
1.0
 40
1.0
 40
2.0
 40
2.0
 40
2.0
 40
3.0
 40
3.0
 40
3.0
 40
4.0
 40
4.0
 40
4.0
 40
5.0
 40
5.0
 40
5.0
 40
6.0
 40
6.0
 40
6.0
 40
7.0
 40
7.0
 40
7.0
 40
8.0
 40
8.0
 40
8.0
 40
8.0
 10
101.6141248660895
 20
-147.6674722938123
 10
101.4894124095235
 20
-147.8941595767417
 10
101.2889078522819
 20
-147.9144856401047
 10
101.1545491283572
 20
-147.9144856401047
 10
100.9688584817022
 20
-147.9144856401047
 10
100.8052164461529
 20
-147.8641872460201
 10
100.6949733906249
 20
-147.6674722938123
 10
100.5754285772867
 20
-147.4569769596635
 10
100.5533799661811
 20
-147.200661855561
 10
100.5533799661811
 20
-147.0246174762647
 10
100.5533799661811
 20
-146.8692436698799
 10
100.573017010447
 20
-146.5967366169967
 10
100.6949733906249
 20
-146.3817626587171
 10
100.8196858471909
 20
-146.1623100763067
 10
101.0053764938459
 20
-146.1371608792643
 10
101.1545491283572
 20
-146.1371608792643
 10
101.3378282081725
 20
-146.1371608792643
 10
101.5038818105615
 20
-146.1850477065093
 10
101.6141248660895
 20
-146.3817626587171
 10
101.7288465457484
 20
-146.5898464260262
 10
101.7557182905333
 20
-146.8372042818671
 10
101.7557182905333
 20
-147.0246174762647
 10
101.7557182905333
 20
-147.2099636133711
 10
101.731258112588
 20
-147.4593885265032
 10
101.6141248660895
 20
-147.6674722938123
 97
        0
 97
        0
 92
        1
 93
        1
 72
     4
 94
        3
 73
     0
 74
     1
 95
       17
 96
       13
 40
0.0
 40
0.0
 40
0.0
 40
0.0
 40
1.0
 40
1.0
 40
1.0
 40
2.0
 40
2.0
 40
2.0
 40
3.0
 40
3.0
 40
3.0
 40
4.0
 40
4.0
 40
4.0
 40
4.0
 10
101.1545491283572
 20
-146.3452446465734
 10
100.8661946362418
 20
-146.3452446465734
 10
100.8124511466719
 20
-146.6518581447607
 10
100.8124511466719
 20
-147.0246174762647
 10
100.8124511466719
 20
-147.3701605534353
 10
100.8541368020434
 20
-147.703990305956
 10
101.1545491283572
 20
-147.703990305956
 10
101.4404920536329
 20
-147.703990305956
 10
101.4966471100425
 20
-147.3997883746084
 10
101.4966471100425
 20
-147.0246174762647
 10
101.4966471100425
 20
-146.6790743990941
 10
101.4525498878313
 20
-146.3452446465734
 10
101.1545491283572
 20
-146.3452446465734
 97
        0
 97
        0
 75
     2
 76
     1
 98
        0
  0
ENDBLK
  5
128
330
125
100
AcDbEntity
  8
0
100
AcDbBlockEnd
  0
ENDSEC
  0
SECTION
  2
ENTITIES
  0
SPLINE
  5
41
330
1F
100
AcDbEntity
  8
_U+30EC_U+30A4_U+30E4_U+30FC 1
370
     0
100
AcDbSpline
210
0.0
220
0.0
230
1.0
 70
    11
 71
     3
 72
    68
 73
    64
 74
     0
 42
0.0000000001
 43
0.0000000001
 12
1.0
 22
0.0
 32
0.0
 13
1.0
 23
0.0
 33
0.0
 40
0.0
 40
0.0
 40
0.0
 40
0.0
 40
1.0
 40
1.0
 40
1.0
 40
2.0
 40
2.0
 40
2.0
 40
3.0
 40
3.0
 40
3.0
 40
4.0
 40
4.0
 40
4.0
 40
5.0
 40
5.0
 40
5.0
 40
6.0
 40
6.0
 40
6.0
 40
7.0
 40
7.0
 40
7.0
 40
8.0
 40
8.0
 40
8.0
 40
9.0
 40
9.0
 40
9.0
 40
10.0
 40
10.0
 40
10.0
 40
11.0
 40
11.0
 40
11.0
 40
12.0
 40
12.0
 40
12.0
 40
13.0
 40
13.0
 40
13.0
 40
14.0
 40
14.0
 40
14.0
 40
15.0
 40
15.0
 40
15.0
 40
16.0
 40
16.0
 40
16.0
 40
17.0
 40
17.0
 40
17.0
 40
18.0
 40
18.0
 40
18.0
 40
19.0
 40
19.0
 40
19.0
 40
20.0
 40
20.0
 40
20.0
 40
21.0
 40
21.0
 40
21.0
 40
21.0
 10
77.78749998055312
 20
-132.9920716334185
 30
0.0
 10
77.78749998055312
 20
-132.9920716334185
 30
0.0
 10
77.78749998055312
 20
-133.8147494109907
 30
0.0
 10
77.78749998055312
 20
-133.8147494109907
 30
0.0
 10
77.78749998055312
 20
-133.8147494109907
 30
0.0
 10
97.95474719773335
 20
-133.8147494109907
 30
0.0
 10
97.95474719773335
 20
-133.8147494109907
 30
0.0
 10
97.95474719773335
 20
-133.8147494109907
 30
0.0
 10
108.8908583061104
 20
-144.5159105194268
 30
0.0
 10
108.8908583061104
 20
-144.5159105194268
 30
0.0
 10
108.8908583061104
 20
-144.5159105194268
 30
0.0
 10
108.8908583061104
 20
-144.6337382971747
 30
0.0
 10
108.8908583061104
 20
-144.6337382971747
 30
0.0
 10
108.8908583061104
 20
-144.6337382971747
 30
0.0
 10
109.4200249726448
 20
-144.9272494082126
 30
0.0
 10
108.8908583061104
 20
-145.1036382970574
 30
0.0
 10
108.8908583061104
 20
-145.1036382970574
 30
0.0
 10
91.0755805327868
 20
-145.0450771859612
 30
0.0
 10
91.0755805327868
 20
-145.0450771859612
 30
0.0
 10
91.0755805327868
 20
-145.0450771859612
 30
0.0
 10
91.0755805327868
 20
-142.5756327421341
 30
0.0
 10
91.0755805327868
 20
-142.5756327421341
 30
0.0
 10
91.0755805327868
 20
-142.5756327421341
 30
0.0
 10
90.48749997737814
 20
-142.5756327421341
 30
0.0
 10
90.48749997737814
 20
-142.5756327421341
 30
0.0
 10
90.48749997737814
 20
-142.5756327421341
 30
0.0
 10
90.48749997737814
 20
-145.6920716302435
 30
0.0
 10
90.48749997737814
 20
-145.6920716302435
 30
0.0
 10
90.48749997737814
 20
-145.6920716302435
 30
0.0
 10
110.4194444168396
 20
-145.6920716302435
 30
0.0
 10
110.4194444168396
 20
-145.6920716302435
 30
0.0
 10
110.4194444168396
 20
-145.6920716302435
 30
0.0
 10
110.4783583057136
 20
-125.7008605241303
 30
0.0
 10
110.4783583057136
 20
-125.7008605241303
 30
0.0
 10
110.4783583057136
 20
-125.7008605241303
 30
0.0
 10
107.3033583065073
 20
-125.7008605241303
 30
0.0
 10
107.3033583065073
 20
-125.7008605241303
 30
0.0
 10
107.3033583065073
 20
-125.7008605241303
 30
0.0
 10
107.3033583065073
 20
-126.2892938573164
 30
0.0
 10
107.3033583065073
 20
-126.2892938573164
 30
0.0
 10
107.3033583065073
 20
-126.2892938573164
 30
0.0
 10
109.7728027503344
 20
-126.2892938573164
 30
0.0
 10
109.7728027503344
 20
-126.2892938573164
 30
0.0
 10
109.7728027503344
 20
-126.2892938573164
 30
0.0
 10
109.7728027503344
 20
-143.6339660752029
 30
0.0
 10
109.7728027503344
 20
-143.6339660752029
 30
0.0
 10
109.7728027503344
 20
-143.6339660752029
 30
0.0
 10
110.007752750276
 20
-144.3980827416782
 30
0.0
 10
109.6549749725864
 20
-144.3980827416782
 30
0.0
 10
109.6549749725864
 20
-144.3980827416782
 30
0.0
 10
98.48391386426772
 20
-133.2855827444563
 30
0.0
 10
98.48391386426772
 20
-133.2855827444563
 30
0.0
 10
98.48391386426772
 20
-133.2855827444563
 30
0.0
 10
98.54247497536457
 20
-113.0008605273053
 30
0.0
 10
98.54247497536457
 20
-113.0008605273053
 30
0.0
 10
98.54247497536457
 20
-113.0008605273053
 30
0.0
 10
97.77835830888856
 20
-113.0008605273053
 30
0.0
 10
97.77835830888856
 20
-113.0008605273053
 30
0.0
 10
97.77835830888856
 20
-113.0008605273053
 30
0.0
 10
97.77835830888856
 20
-132.9328049667668
 30
0.0
 10
97.77835830888856
 20
-132.9328049667668
 30
0.0
 10
97.77835830888856
 20
-132.9328049667668
 30
0.0
 10
77.78749998055312
 20
-132.9920716334185
 30
0.0
 10
77.78749998055312
 20
-132.9920716334185
 30
0.0
  0
HATCH
  5
42
330
1F
100
AcDbEntity
  8
_U+30EC_U+30A4_U+30E4_U+30FC 1
 62
   253
420
 10066329
100
AcDbHatch
 10
0.0
 20
0.0
 30
0.0
210
0.0
220
0.0
230
1.0
  2
SOLID
 70
     1
 71
     0
 91
        1
 92
        1
 93
        1
 72
     4
 94
        3
 73
     0
 74
     1
 95
       68
 96
       64
 40
0.0
 40
0.0
 40
0.0
 40
0.0
 40
1.0
 40
1.0
 40
1.0
 40
2.0
 40
2.0
 40
2.0
 40
3.0
 40
3.0
 40
3.0
 40
4.0
 40
4.0
 40
4.0
 40
5.0
 40
5.0
 40
5.0
 40
6.0
 40
6.0
 40
6.0
 40
7.0
 40
7.0
 40
7.0
 40
8.0
 40
8.0
 40
8.0
 40
9.0
 40
9.0
 40
9.0
 40
10.0
 40
10.0
 40
10.0
 40
11.0
 40
11.0
 40
11.0
 40
12.0
 40
12.0
 40
12.0
 40
13.0
 40
13.0
 40
13.0
 40
14.0
 40
14.0
 40
14.0
 40
15.0
 40
15.0
 40
15.0
 40
16.0
 40
16.0
 40
16.0
 40
17.0
 40
17.0
 40
17.0
 40
18.0
 40
18.0
 40
18.0
 40
19.0
 40
19.0
 40
19.0
 40
20.0
 40
20.0
 40
20.0
 40
21.0
 40
21.0
 40
21.0
 40
21.0
 10
77.78749998055312
 20
-132.9920716334185
 10
77.78749998055312
 20
-132.9920716334185
 10
77.78749998055312
 20
-133.8147494109907
 10
77.78749998055312
 20
-133.8147494109907
 10
77.78749998055312
 20
-133.8147494109907
 10
97.95474719773335
 20
-133.8147494109907
 10
97.95474719773335
 20
-133.8147494109907
 10
97.95474719773335
 20
-133.8147494109907
 10
108.8908583061104
 20
-144.5159105194268
 10
108.8908583061104
 20
-144.5159105194268
 10
108.8908583061104
 20
-144.5159105194268
 10
108.8908583061104
 20
-144.6337382971747
 10
108.8908583061104
 20
-144.6337382971747
 10
108.8908583061104
 20
-144.6337382971747
 10
109.4200249726448
 20
-144.9272494082126
 10
108.8908583061104
 20
-145.1036382970574
 10
108.8908583061104
 20
-145.1036382970574
 10
91.0755805327868
 20
-145.0450771859612
 10
91.0755805327868
 20
-145.0450771859612
 10
91.0755805327868
 20
-145.0450771859612
 10
91.0755805327868
 20
-142.5756327421341
 10
91.0755805327868
 20
-142.5756327421341
 10
91.0755805327868
 20
-142.5756327421341
 10
90.48749997737814
 20
-142.5756327421341
 10
90.48749997737814
 20
-142.5756327421341
 10
90.48749997737814
 20
-142.5756327421341
 10
90.48749997737814
 20
-145.6920716302435
 10
90.48749997737814
 20
-145.6920716302435
 10
90.48749997737814
 20
-145.6920716302435
 10
110.4194444168396
 20
-145.6920716302435
 10
110.4194444168396
 20
-145.6920716302435
 10
110.4194444168396
 20
-145.6920716302435
 10
110.4783583057136
 20
-125.7008605241303
 10
110.4783583057136
 20
-125.7008605241303
 10
110.4783583057136
 20
-125.7008605241303
 10
107.3033583065073
 20
-125.7008605241303
 10
107.3033583065073
 20
-125.7008605241303
 10
107.3033583065073
 20
-125.7008605241303
 10
107.3033583065073
 20
-126.2892938573164
 10
107.3033583065073
 20
-126.2892938573164
 10
107.3033583065073
 20
-126.2892938573164
 10
109.7728027503344
 20
-126.2892938573164
 10
109.7728027503344
 20
-126.2892938573164
 10
109.7728027503344
 20
-126.2892938573164
 10
109.7728027503344
 20
-143.6339660752029
 10
109.7728027503344
 20
-143.6339660752029
 10
109.7728027503344
 20
-143.6339660752029
 10
110.007752750276
 20
-144.3980827416782
 10
109.6549749725864
 20
-144.3980827416782
 10
109.6549749725864
 20
-144.3980827416782
 10
98.48391386426772
 20
-133.2855827444563
 10
98.48391386426772
 20
-133.2855827444563
 10
98.48391386426772
 20
-133.2855827444563
 10
98.54247497536457
 20
-113.0008605273053
 10
98.54247497536457
 20
-113.0008605273053
 10
98.54247497536457
 20
-113.0008605273053
 10
97.77835830888856
 20
-113.0008605273053
 10
97.77835830888856
 20
-113.0008605273053
 10
97.77835830888856
 20
-113.0008605273053
 10
97.77835830888856
 20
-132.9328049667668
 10
97.77835830888856
 20
-132.9328049667668
 10
97.77835830888856
 20
-132.9328049667668
 10
77.78749998055312
 20
-132.9920716334185
 10
77.78749998055312
 20
-132.9920716334185
 97
        0
 97
        0
 75
     2
 76
     1
 98
        0
  0
POLYLINE
  5
43
330
1F
100
AcDbEntity
  8
_U+30EC_U+30A4_U+30E4_U+30FC 1
 62
   179
420
  2234388
370
    25
100
AcDb2dPolyline
 66
     1
 10
0.0
 20
0.0
 30
0.0
  0
VERTEX
  5
44
330
43
100
AcDbEntity
  8
_U+30EC_U+30A4_U+30E4_U+30FC 1
 62
   179
420
  2234388
370
    25
100
AcDbVertex
100
AcDb2dVertex
 10
97.75493139495282
 20
-112.9726030273123
 30
0.0
  0
VERTEX
  5
45
330
43
100
AcDbEntity
  8
_U+30EC_U+30A4_U+30E4_U+30FC 1
 62
   179
420
  2234388
370
    25
100
AcDbVertex
100
AcDb2dVertex
 10
97.75493139495282
 20
-132.9720691334238
 30
0.0
  0
SEQEND
  5
46
330
43
100
AcDbEntity
  8
_U+30EC_U+30A4_U+30E4_U+30FC 1
 62
   179
420
  2234388
370
    25
  0
POLYLINE
  5
47
330
1F
100
AcDbEntity
  8
_U+30EC_U+30A4_U+30E4_U+30FC 1
 62
   179
420
  2234388
370
    25
100
AcDb2dPolyline
 66
     1
 10
0.0
 20
0.0
 30
0.0
  0
VERTEX
  5
48
330
47
100
AcDbEntity
  8
_U+30EC_U+30A4_U+30E4_U+30FC 1
 62
   179
420
  2234388
370
    25
100
AcDbVertex
100
AcDb2dVertex
 10
97.75493139495282
 20
-112.9726030273123
 30
0.0
  0
VERTEX
  5
49
330
47
100
AcDbEntity
  8
_U+30EC_U+30A4_U+30E4_U+30FC 1
 62
   179
420
  2234388
370
    25
100
AcDbVertex
100
AcDb2dVertex
 10
98.55489026343305
 20
-112.9726030273123
 30
0.0
  0
SEQEND
  5
4A
330
47
100
AcDbEntity
  8
_U+30EC_U+30A4_U+30E4_U+30FC 1
 62
   179
420
  2234388
370
    25
  0
POLYLINE
  5
4B
330
1F
100
AcDbEntity
  8
_U+30EC_U+30A4_U+30E4_U+30FC 1
 62
   179
420
  2234388
370
    25
100
AcDb2dPolyline
 66
     1
 10
0.0
 20
0.0
 30
0.0
  0
VERTEX
  5
4C
330
4B
100
AcDbEntity
  8
_U+30EC_U+30A4_U+30E4_U+30FC 1
 62
   179
420
  2234388
370
    25
100
AcDbVertex
100
AcDb2dVertex
 10
77.7551130163018
 20
-132.9720691334238
 30
0.0
  0
VERTEX
  5
4D
330
4B
100
AcDbEntity
  8
_U+30EC_U+30A4_U+30E4_U+30FC 1
 62
   179
420
  2234388
370
    25
100
AcDbVertex
100
AcDb2dVertex
 10
77.7551130163018
 20
-133.7720280221124
 30
0.0
  0
SEQEND
  5
4E
330
4B
100
AcDbEntity
  8
_U+30EC_U+30A4_U+30E4_U+30FC 1
 62
   179
420
  2234388
370
    25
  0
POLYLINE
  5
4F
330
1F
100
AcDbEntity
  8
_U+30EC_U+30A4_U+30E4_U+30FC 1
 62
   179
420
  2234388
370
    25
100
AcDb2dPolyline
 66
     1
 10
0.0
 20
0.0
 30
0.0
  0
VERTEX
  5
50
330
4F
100
AcDbEntity
  8
_U+30EC_U+30A4_U+30E4_U+30FC 1
 62
   179
420
  2234388
370
    25
100
AcDbVertex
100
AcDb2dVertex
 10
98.55489026343305
 20
-112.9726030273123
 30
0.0
  0
VERTEX
  5
51
330
4F
100
AcDbEntity
  8
_U+30EC_U+30A4_U+30E4_U+30FC 1
 62
   179
420
  2234388
370
    25
100
AcDbVertex
100
AcDb2dVertex
 10
98.55489026343305
 20
-133.3482713555519
 30
0.0
  0
SEQEND
  5
52
330
4F
100
AcDbEntity
  8
_U+30EC_U+30A4_U+30E4_U+30FC 1
 62
   179
420
  2234388
370
    25
  0
POLYLINE
  5
53
330
1F
100
AcDbEntity
  8
_U+30EC_U+30A4_U+30E4_U+30FC 1
 62
   179
420
  2234388
370
    25
100
AcDb2dPolyline
 66
     1
 10
0.0
 20
0.0
 30
0.0
  0
VERTEX
  5
54
330
53
100
AcDbEntity
  8
_U+30EC_U+30A4_U+30E4_U+30FC 1
 62
   179
420
  2234388
370
    25
100
AcDbVertex
100
AcDb2dVertex
 10
110.4748982926616
 20
-125.6925702463545
 30
0.0
  0
VERTEX
  5
55
330
53
100
AcDbEntity
  8
_U+30EC_U+30A4_U+30E4_U+30FC 1
 62
   179
420
  2234388
370
    25
100
AcDbVertex
100
AcDb2dVertex
 10
110.4748982926616
 20
-145.6920716302435
 30
0.0
  0
SEQEND
  5
56
330
53
100
AcDbEntity
  8
_U+30EC_U+30A4_U+30E4_U+30FC 1
 62
   179
420
  2234388
370
    25
  0
POLYLINE
  5
57
330
1F
100
AcDbEntity
  8
_U+30EC_U+30A4_U+30E4_U+30FC 1
 62
   179
420
  2234388
370
    25
100
AcDb2dPolyline
 66
     1
 10
0.0
 20
0.0
 30
0.0
  0
VERTEX
  5
58
330
57
100
AcDbEntity
  8
_U+30EC_U+30A4_U+30E4_U+30FC 1
 62
   179
420
  2234388
370
    25
100
AcDbVertex
100
AcDb2dVertex
 10
109.8751083058647
 20
-126.2920455239825
 30
0.0
  0
VERTEX
  5
59
330
57
100
AcDbEntity
  8
_U+30EC_U+30A4_U+30E4_U+30FC 1
 62
   179
420
  2234388
370
    25
100
AcDbVertex
100
AcDb2dVertex
 10
109.8751083058647
 20
-144.1851813528428
 30
0.0
  0
SEQEND
  5
5A
330
57
100
AcDbEntity
  8
_U+30EC_U+30A4_U+30E4_U+30FC 1
 62
   179
420
  2234388
370
    25
  0
POLYLINE
  5
5B
330
1F
100
AcDbEntity
  8
_U+30EC_U+30A4_U+30E4_U+30FC 1
 62
   179
420
  2234388
370
    25
100
AcDb2dPolyline
 66
     1
 10
0.0
 20
0.0
 30
0.0
  0
VERTEX
  5
5C
330
5B
100
AcDbEntity
  8
_U+30EC_U+30A4_U+30E4_U+30FC 1
 62
   179
420
  2234388
370
    25
100
AcDbVertex
100
AcDb2dVertex
 10
77.7551130163018
 20
-132.9720691334238
 30
0.0
  0
VERTEX
  5
5D
330
5B
100
AcDbEntity
  8
_U+30EC_U+30A4_U+30E4_U+30FC 1
 62
   179
420
  2234388
370
    25
100
AcDbVertex
100
AcDb2dVertex
 10
97.75493139495282
 20
-132.9720691334238
 30
0.0
  0
SEQEND
  5
5E
330
5B
100
AcDbEntity
  8
_U+30EC_U+30A4_U+30E4_U+30FC 1
 62
   179
420
  2234388
370
    25
  0
POLYLINE
  5
5F
330
1F
100
AcDbEntity
  8
_U+30EC_U+30A4_U+30E4_U+30FC 1
 62
   179
420
  2234388
370
    25
100
AcDb2dPolyline
 66
     1
 10
0.0
 20
0.0
 30
0.0
  0
VERTEX
  5
60
330
5F
100
AcDbEntity
  8
_U+30EC_U+30A4_U+30E4_U+30FC 1
 62
   179
420
  2234388
370
    25
100
AcDbVertex
100
AcDb2dVertex
 10
77.7551130163018
 20
-133.7720280221124
 30
0.0
  0
VERTEX
  5
61
330
5F
100
AcDbEntity
  8
_U+30EC_U+30A4_U+30E4_U+30FC 1
 62
   179
420
  2234388
370
    25
100
AcDbVertex
100
AcDb2dVertex
 10
98.13078330880037
 20
-133.7720280221124
 30
0.0
  0
SEQEND
  5
62
330
5F
100
AcDbEntity
  8
_U+30EC_U+30A4_U+30E4_U+30FC 1
 62
   179
420
  2234388
370
    25
  0
POLYLINE
  5
63
330
1F
100
AcDbEntity
  8
_U+30EC_U+30A4_U+30E4_U+30FC 1
 62
   179
420
  2234388
370
    25
100
AcDb2dPolyline
 66
     1
 10
0.0
 20
0.0
 30
0.0
  0
VERTEX
  5
64
330
63
100
AcDbEntity
  8
_U+30EC_U+30A4_U+30E4_U+30FC 1
 62
   179
420
  2234388
370
    25
100
AcDbVertex
100
AcDb2dVertex
 10
90.47507991401064
 20
-142.4922360754884
 30
0.0
  0
VERTEX
  5
65
330
63
100
AcDbEntity
  8
_U+30EC_U+30A4_U+30E4_U+30FC 1
 62
   179
420
  2234388
370
    25
100
AcDbVertex
100
AcDb2dVertex
 10
91.07487497723127
 20
-142.4922360754884
 30
0.0
  0
SEQEND
  5
66
330
63
100
AcDbEntity
  8
_U+30EC_U+30A4_U+30E4_U+30FC 1
 62
   179
420
  2234388
370
    25
  0
POLYLINE
  5
67
330
1F
100
AcDbEntity
  8
_U+30EC_U+30A4_U+30E4_U+30FC 1
 62
   179
420
  2234388
370
    25
100
AcDb2dPolyline
 66
     1
 10
0.0
 20
0.0
 30
0.0
  0
VERTEX
  5
68
330
67
100
AcDbEntity
  8
_U+30EC_U+30A4_U+30E4_U+30FC 1
 62
   179
420
  2234388
370
    25
100
AcDbVertex
100
AcDb2dVertex
 10
90.47507991401064
 20
-145.6920716302435
 30
0.0
  0
VERTEX
  5
69
330
67
100
AcDbEntity
  8
_U+30EC_U+30A4_U+30E4_U+30FC 1
 62
   179
420
  2234388
370
    25
100
AcDbVertex
100
AcDb2dVertex
 10
110.4748982926616
 20
-145.6920716302435
 30
0.0
  0
SEQEND
  5
6A
330
67
100
AcDbEntity
  8
_U+30EC_U+30A4_U+30E4_U+30FC 1
 62
   179
420
  2234388
370
    25
  0
POLYLINE
  5
6B
330
1F
100
AcDbEntity
  8
_U+30EC_U+30A4_U+30E4_U+30FC 1
 62
   179
420
  2234388
370
    25
100
AcDb2dPolyline
 66
     1
 10
0.0
 20
0.0
 30
0.0
  0
VERTEX
  5
6C
330
6B
100
AcDbEntity
  8
_U+30EC_U+30A4_U+30E4_U+30FC 1
 62
   179
420
  2234388
370
    25
100
AcDbVertex
100
AcDb2dVertex
 10
90.47507991401064
 20
-142.4922360754884
 30
0.0
  0
VERTEX
  5
6D
330
6B
100
AcDbEntity
  8
_U+30EC_U+30A4_U+30E4_U+30FC 1
 62
   179
420
  2234388
370
    25
100
AcDbVertex
100
AcDb2dVertex
 10
90.47507991401064
 20
-145.6920716302435
 30
0.0
  0
SEQEND
  5
6E
330
6B
100
AcDbEntity
  8
_U+30EC_U+30A4_U+30E4_U+30FC 1
 62
   179
420
  2234388
370
    25
  0
POLYLINE
  5
6F
330
1F
100
AcDbEntity
  8
_U+30EC_U+30A4_U+30E4_U+30FC 1
 62
   179
420
  2234388
370
    25
100
AcDb2dPolyline
 66
     1
 10
0.0
 20
0.0
 30
0.0
  0
VERTEX
  5
70
330
6F
100
AcDbEntity
  8
_U+30EC_U+30A4_U+30E4_U+30FC 1
 62
   179
420
  2234388
370
    25
100
AcDbVertex
100
AcDb2dVertex
 10
91.07487497723127
 20
-142.4922360754884
 30
0.0
  0
VERTEX
  5
71
330
6F
100
AcDbEntity
  8
_U+30EC_U+30A4_U+30E4_U+30FC 1
 62
   179
420
  2234388
370
    25
100
AcDbVertex
100
AcDb2dVertex
 10
91.07487497723127
 20
-145.0925963526155
 30
0.0
  0
SEQEND
  5
72
330
6F
100
AcDbEntity
  8
_U+30EC_U+30A4_U+30E4_U+30FC 1
 62
   179
420
  2234388
370
    25
  0
POLYLINE
  5
73
330
1F
100
AcDbEntity
  8
_U+30EC_U+30A4_U+30E4_U+30FC 1
 62
   179
420
  2234388
370
    25
100
AcDb2dPolyline
 66
     1
 10
0.0
 20
0.0
 30
0.0
  0
VERTEX
  5
74
330
73
100
AcDbEntity
  8
_U+30EC_U+30A4_U+30E4_U+30FC 1
 62
   179
420
  2234388
370
    25
100
AcDbVertex
100
AcDb2dVertex
 10
91.07487497723127
 20
-145.0925963526155
 30
0.0
  0
VERTEX
  5
75
330
73
100
AcDbEntity
  8
_U+30EC_U+30A4_U+30E4_U+30FC 1
 62
   179
420
  2234388
370
    25
100
AcDbVertex
100
AcDb2dVertex
 10
108.9680080533278
 20
-145.0925963526155
 30
0.0
  0
SEQEND
  5
76
330
73
100
AcDbEntity
  8
_U+30EC_U+30A4_U+30E4_U+30FC 1
 62
   179
420
  2234388
370
    25
  0
POLYLINE
  5
77
330
1F
100
AcDbEntity
  8
_U+30EC_U+30A4_U+30E4_U+30FC 1
 62
   179
420
  2234388
370
    25
100
AcDb2dPolyline
 66
     1
 10
0.0
 20
0.0
 30
0.0
  0
VERTEX
  5
78
330
77
100
AcDbEntity
  8
_U+30EC_U+30A4_U+30E4_U+30FC 1
 62
   179
420
  2234388
370
    25
100
AcDbVertex
100
AcDb2dVertex
 10
107.2750980965176
 20
-125.6925702463545
 30
0.0
  0
VERTEX
  5
79
330
77
100
AcDbEntity
  8
_U+30EC_U+30A4_U+30E4_U+30FC 1
 62
   179
420
  2234388
370
    25
100
AcDbVertex
100
AcDb2dVertex
 10
110.4748982926616
 20
-125.6925702463545
 30
0.0
  0
SEQEND
  5
7A
330
77
100
AcDbEntity
  8
_U+30EC_U+30A4_U+30E4_U+30FC 1
 62
   179
420
  2234388
370
    25
  0
POLYLINE
  5
7B
330
1F
100
AcDbEntity
  8
_U+30EC_U+30A4_U+30E4_U+30FC 1
 62
   179
420
  2234388
370
    25
100
AcDb2dPolyline
 66
     1
 10
0.0
 20
0.0
 30
0.0
  0
VERTEX
  5
7C
330
7B
100
AcDbEntity
  8
_U+30EC_U+30A4_U+30E4_U+30FC 1
 62
   179
420
  2234388
370
    25
100
AcDbVertex
100
AcDb2dVertex
 10
107.2750980965176
 20
-125.6925702463545
 30
0.0
  0
VERTEX
  5
7D
330
7B
100
AcDbEntity
  8
_U+30EC_U+30A4_U+30E4_U+30FC 1
 62
   179
420
  2234388
370
    25
100
AcDbVertex
100
AcDb2dVertex
 10
107.2750980965176
 20
-126.2920455239825
 30
0.0
  0
SEQEND
  5
7E
330
7B
100
AcDbEntity
  8
_U+30EC_U+30A4_U+30E4_U+30FC 1
 62
   179
420
  2234388
370
    25
  0
POLYLINE
  5
7F
330
1F
100
AcDbEntity
  8
_U+30EC_U+30A4_U+30E4_U+30FC 1
 62
   179
420
  2234388
370
    25
100
AcDb2dPolyline
 66
     1
 10
0.0
 20
0.0
 30
0.0
  0
VERTEX
  5
80
330
7F
100
AcDbEntity
  8
_U+30EC_U+30A4_U+30E4_U+30FC 1
 62
   179
420
  2234388
370
    25
100
AcDbVertex
100
AcDb2dVertex
 10
107.2750980965176
 20
-126.2920455239825
 30
0.0
  0
VERTEX
  5
81
330
7F
100
AcDbEntity
  8
_U+30EC_U+30A4_U+30E4_U+30FC 1
 62
   179
420
  2234388
370
    25
100
AcDbVertex
100
AcDb2dVertex
 10
109.8751083058647
 20
-126.2920455239825
 30
0.0
  0
SEQEND
  5
82
330
7F
100
AcDbEntity
  8
_U+30EC_U+30A4_U+30E4_U+30FC 1
 62
   179
420
  2234388
370
    25
  0
POLYLINE
  5
83
330
1F
100
AcDbEntity
  8
_U+30EC_U+30A4_U+30E4_U+30FC 1
 62
   179
420
  2234388
370
    25
100
AcDb2dPolyline
 66
     1
 10
0.0
 20
0.0
 30
0.0
  0
VERTEX
  5
84
330
83
100
AcDbEntity
  8
_U+30EC_U+30A4_U+30E4_U+30FC 1
 62
   179
420
  2234388
370
    25
100
AcDbVertex
100
AcDb2dVertex
 10
98.55489026343305
 20
-133.3482713555519
 30
0.0
  0
VERTEX
  5
85
330
83
100
AcDbEntity
  8
_U+30EC_U+30A4_U+30E4_U+30FC 1
 62
   179
420
  2234388
370
    25
100
AcDbVertex
100
AcDb2dVertex
 10
109.5337224833397
 20
-144.3264335750293
 30
0.0
  0
SEQEND
  5
86
330
83
100
AcDbEntity
  8
_U+30EC_U+30A4_U+30E4_U+30FC 1
 62
   179
420
  2234388
370
    25
  0
POLYLINE
  5
87
330
1F
100
AcDbEntity
  8
_U+30EC_U+30A4_U+30E4_U+30FC 1
 62
   179
420
  2234388
370
    25
100
AcDb2dPolyline
 66
     1
 10
0.0
 20
0.0
 30
0.0
  0
VERTEX
  5
88
330
87
100
AcDbEntity
  8
_U+30EC_U+30A4_U+30E4_U+30FC 1
 62
   179
420
  2234388
370
    25
100
AcDbVertex
100
AcDb2dVertex
 10
98.13078330880037
 20
-133.7720280221124
 30
0.0
  0
VERTEX
  5
89
330
87
100
AcDbEntity
  8
_U+30EC_U+30A4_U+30E4_U+30FC 1
 62
   179
420
  2234388
370
    25
100
AcDbVertex
100
AcDb2dVertex
 10
109.1092602719464
 20
-144.7508605193678
 30
0.0
  0
SEQEND
  5
8A
330
87
100
AcDbEntity
  8
_U+30EC_U+30A4_U+30E4_U+30FC 1
 62
   179
420
  2234388
370
    25
  0
SPLINE
  5
8B
330
1F
100
AcDbEntity
  8
_U+30EC_U+30A4_U+30E4_U+30FC 1
 62
   179
420
  2234388
370
     9
100
AcDbSpline
210
0.0
220
0.0
230
1.0
 70
     8
 71
     3
 72
    11
 73
     7
 74
     0
 42
0.0000000001
 43
0.0000000001
 12
1.0
 22
0.0
 32
0.0
 13
1.0
 23
0.0
 33
0.0
 40
0.0
 40
0.0
 40
0.0
 40
0.0
 40
1.0
 40
1.0
 40
1.0
 40
2.0
 40
2.0
 40
2.0
 40
2.0
 10
109.5337224833397
 20
-144.3264335750293
 30
0.0
 10
109.6115833059301
 20
-144.4049619083433
 30
0.0
 10
109.7383335892308
 20
-144.4049619083433
 30
0.0
 10
109.8165471947678
 20
-144.3264335750293
 30
0.0
 10
109.8541152529436
 20
-144.2892155194831
 30
0.0
 10
109.8751083058647
 20
-144.2382391306069
 30
0.0
 10
109.8751083058647
 20
-144.1851813528428
 30
0.0
  0
SPLINE
  5
8C
330
1F
100
AcDbEntity
  8
_U+30EC_U+30A4_U+30E4_U+30FC 1
 62
   179
420
  2234388
370
    25
100
AcDbSpline
210
0.0
220
0.0
230
1.0
 70
     8
 71
     3
 72
    11
 73
     7
 74
     0
 42
0.0000000001
 43
0.0000000001
 12
1.0
 22
0.0
 32
0.0
 13
1.0
 23
0.0
 33
0.0
 40
0.0
 40
0.0
 40
0.0
 40
0.0
 40
1.0
 40
1.0
 40
1.0
 40
2.0
 40
2.0
 40
2.0
 40
2.0
 10
108.9680080533278
 20
-145.0925963526155
 30
0.0
 10
109.0782511060709
 20
-145.0925963526155
 30
0.0
 10
109.1678213815635
 20
-145.0030260748602
 30
0.0
 10
109.1678213815635
 20
-144.8921127415549
 30
0.0
 10
109.1678213815635
 20
-144.8390549637902
 30
0.0
 10
109.1468311043212
 20
-144.788078574914
 30
0.0
 10
109.1092602719464
 20
-144.7508605193678
 30
0.0
  0
SPLINE
  5
8D
330
1F
100
AcDbEntity
  8
_U+30EC_U+30A4_U+30E4_U+30FC 1
 62
   179
420
  2234388
370
     9
100
AcDbSpline
210
0.0
220
0.0
230
1.0
 70
    11
 71
     3
 72
    17
 73
    13
 74
     0
 42
0.0000000001
 43
0.0000000001
 12
1.0
 22
0.0
 32
0.0
 13
1.0
 23
0.0
 33
0.0
 40
0.0
 40
0.0
 40
0.0
 40
0.0
 40
1.0
 40
1.0
 40
1.0
 40
2.0
 40
2.0
 40
2.0
 40
3.0
 40
3.0
 40
3.0
 40
4.0
 40
4.0
 40
4.0
 40
4.0
 10
77.79508273750432
 20
-111.3720149721571
 30
0.0
 10
77.79508273750432
 20
-111.3501427499404
 30
0.0
 10
77.77716162685041
 20
-111.3322216388337
 30
0.0
 10
77.7551130163018
 20
-111.3322216388337
 30
0.0
 10
77.73288801686881
 20
-111.3322216388337
 30
0.0
 10
77.71496690621491
 20
-111.3501427499404
 30
0.0
 10
77.71496690621491
 20
-111.3720149721571
 30
0.0
 10
77.71496690621491
 20
-111.3940635832627
 30
0.0
 10
77.73288801686881
 20
-111.4119846943693
 30
0.0
 10
77.7551130163018
 20
-111.4119846943693
 30
0.0
 10
77.77716162685041
 20
-111.4119846943693
 30
0.0
 10
77.79508273750432
 20
-111.3940635832627
 30
0.0
 10
77.79508273750432
 20
-111.3720149721571
 30
0.0
  0
SPLINE
  5
8E
330
1F
100
AcDbEntity
  8
_U+30EC_U+30A4_U+30E4_U+30FC 1
 62
   179
420
  2234388
370
     9
100
AcDbSpline
210
0.0
220
0.0
230
1.0
 70
    11
 71
     3
 72
    17
 73
    13
 74
     0
 42
0.0000000001
 43
0.0000000001
 12
1.0
 22
0.0
 32
0.0
 13
1.0
 23
0.0
 33
0.0
 40
0.0
 40
0.0
 40
0.0
 40
0.0
 40
1.0
 40
1.0
 40
1.0
 40
2.0
 40
2.0
 40
2.0
 40
3.0
 40
3.0
 40
3.0
 40
4.0
 40
4.0
 40
4.0
 40
4.0
 10
97.79490111615533
 20
-111.3720149721571
 30
0.0
 10
97.79490111615533
 20
-111.3501427499404
 30
0.0
 10
97.77698000550141
 20
-111.3322216388337
 30
0.0
 10
97.75493139495282
 20
-111.3322216388337
 30
0.0
 10
97.73288278440421
 20
-111.3322216388337
 30
0.0
 10
97.71496167375031
 20
-111.3501427499404
 30
0.0
 10
97.71496167375031
 20
-111.3720149721571
 30
0.0
 10
97.71496167375031
 20
-111.3940635832627
 30
0.0
 10
97.73288278440421
 20
-111.4119846943693
 30
0.0
 10
97.75493139495282
 20
-111.4119846943693
 30
0.0
 10
97.77698000550141
 20
-111.4119846943693
 30
0.0
 10
97.79490111615533
 20
-111.3940635832627
 30
0.0
 10
97.79490111615533
 20
-111.3720149721571
 30
0.0
  0
SPLINE
  5
8F
330
1F
100
AcDbEntity
  8
_U+30EC_U+30A4_U+30E4_U+30FC 1
 62
   179
420
  2234388
370
     9
100
AcDbSpline
210
0.0
220
0.0
230
1.0
 70
    11
 71
     3
 72
    17
 73
    13
 74
     0
 42
0.0000000001
 43
0.0000000001
 12
1.0
 22
0.0
 32
0.0
 13
1.0
 23
0.0
 33
0.0
 40
0.0
 40
0.0
 40
0.0
 40
0.0
 40
1.0
 40
1.0
 40
1.0
 40
2.0
 40
2.0
 40
2.0
 40
3.0
 40
3.0
 40
3.0
 40
4.0
 40
4.0
 40
4.0
 40
4.0
 10
98.59482470685869
 20
-111.3720149721571
 30
0.0
 10
98.59482470685869
 20
-111.3501427499404
 30
0.0
 10
98.57693887398166
 20
-111.3322216388337
 30
0.0
 10
98.55489026343305
 20
-111.3322216388337
 30
0.0
 10
98.53284165288446
 20
-111.3322216388337
 30
0.0
 10
98.51492054223054
 20
-111.3501427499404
 30
0.0
 10
98.51492054223054
 20
-111.3720149721571
 30
0.0
 10
98.51492054223054
 20
-111.3940635832627
 30
0.0
 10
98.53284165288446
 20
-111.4119846943693
 30
0.0
 10
98.55489026343305
 20
-111.4119846943693
 30
0.0
 10
98.57693887398166
 20
-111.4119846943693
 30
0.0
 10
98.59482470685869
 20
-111.3940635832627
 30
0.0
 10
98.59482470685869
 20
-111.3720149721571
 30
0.0
  0
SPLINE
  5
90
330
1F
100
AcDbEntity
  8
_U+30EC_U+30A4_U+30E4_U+30FC 1
 62
   179
420
  2234388
370
     9
100
AcDbSpline
210
0.0
220
0.0
230
1.0
 70
    11
 71
     3
 72
    17
 73
    13
 74
     0
 42
0.0000000001
 43
0.0000000001
 12
1.0
 22
0.0
 32
0.0
 13
1.0
 23
0.0
 33
0.0
 40
0.0
 40
0.0
 40
0.0
 40
0.0
 40
1.0
 40
1.0
 40
1.0
 40
2.0
 40
2.0
 40
2.0
 40
3.0
 40
3.0
 40
3.0
 40
4.0
 40
4.0
 40
4.0
 40
4.0
 10
110.5148680138642
 20
-111.3720149721571
 30
0.0
 10
110.5148680138642
 20
-111.3501427499404
 30
0.0
 10
110.4969469032103
 20
-111.3322216388337
 30
0.0
 10
110.4748982926616
 20
-111.3322216388337
 30
0.0
 10
110.452849682113
 20
-111.3322216388337
 30
0.0
 10
110.4349285714591
 20
-111.3501427499404
 30
0.0
 10
110.4349285714591
 20
-111.3720149721571
 30
0.0
 10
110.4349285714591
 20
-111.3940635832627
 30
0.0
 10
110.452849682113
 20
-111.4119846943693
 30
0.0
 10
110.4748982926616
 20
-111.4119846943693
 30
0.0
 10
110.4969469032103
 20
-111.4119846943693
 30
0.0
 10
110.5148680138642
 20
-111.3940635832627
 30
0.0
 10
110.5148680138642
 20
-111.3720149721571
 30
0.0
  0
SPLINE
  5
91
330
1F
100
AcDbEntity
  8
_U+30EC_U+30A4_U+30E4_U+30FC 1
 62
   179
420
  2234388
370
     9
100
AcDbSpline
210
0.0
220
0.0
230
1.0
 70
    11
 71
     3
 72
    17
 73
    13
 74
     0
 42
0.0000000001
 43
0.0000000001
 12
1.0
 22
0.0
 32
0.0
 13
1.0
 23
0.0
 33
0.0
 40
0.0
 40
0.0
 40
0.0
 40
0.0
 40
1.0
 40
1.0
 40
1.0
 40
2.0
 40
2.0
 40
2.0
 40
3.0
 40
3.0
 40
3.0
 40
4.0
 40
4.0
 40
4.0
 40
4.0
 10
110.5148680138642
 20
-148.2627985740451
 30
0.0
 10
110.5148680138642
 20
-148.2400444073846
 30
0.0
 10
110.4969469032103
 20
-147.6929566297433
 30
0.0
 10
110.4748982926616
 20
-147.6929566297433
 30
0.0
 10
110.452849682113
 20
-147.6929566297433
 30
0.0
 10
110.4349285714591
 20
-148.2400444073846
 30
0.0
 10
110.4349285714591
 20
-148.2627985740451
 30
0.0
 10
110.4349285714591
 20
-148.2848471851507
 30
0.0
 10
110.452849682113
 20
-148.3027330184801
 30
0.0
 10
110.4748982926616
 20
-148.3027330184801
 30
0.0
 10
110.4969469032103
 20
-148.3027330184801
 30
0.0
 10
110.5148680138642
 20
-148.2848471851507
 30
0.0
 10
110.5148680138642
 20
-148.2627985740451
 30
0.0
  0
SPLINE
  5
92
330
1F
100
AcDbEntity
  8
_U+30EC_U+30A4_U+30E4_U+30FC 1
 62
   179
420
  2234388
370
     9
100
AcDbSpline
210
0.0
220
0.0
230
1.0
 70
    11
 71
     3
 72
    17
 73
    13
 74
     0
 42
0.0000000001
 43
0.0000000001
 12
1.0
 22
0.0
 32
0.0
 13
1.0
 23
0.0
 33
0.0
 40
0.0
 40
0.0
 40
0.0
 40
0.0
 40
1.0
 40
1.0
 40
1.0
 40
2.0
 40
2.0
 40
2.0
 40
3.0
 40
3.0
 40
3.0
 40
4.0
 40
4.0
 40
4.0
 40
4.0
 10
90.51504963521315
 20
-148.2627985740451
 30
0.0
 10
90.51504963521315
 20
-148.2400444073846
 30
0.0
 10
90.49712852455924
 20
-147.6929566297433
 30
0.0
 10
90.47507991401064
 20
-147.6929566297433
 30
0.0
 10
90.45271380347013
 20
-147.6929566297433
 30
0.0
 10
90.43479269281623
 20
-148.2400444073846
 30
0.0
 10
90.43479269281623
 20
-148.2627985740451
 30
0.0
 10
90.43479269281623
 20
-148.2848471851507
 30
0.0
 10
90.45271380347013
 20
-148.3027330184801
 30
0.0
 10
90.47507991401064
 20
-148.3027330184801
 30
0.0
 10
90.49712852455924
 20
-148.3027330184801
 30
0.0
 10
90.51504963521315
 20
-148.2848471851507
 30
0.0
 10
90.51504963521315
 20
-148.2627985740451
 30
0.0
  0
SPLINE
  5
93
330
1F
100
AcDbEntity
  8
_U+30EC_U+30A4_U+30E4_U+30FC 1
 62
   179
420
  2234388
370
     9
100
AcDbSpline
210
0.0
220
0.0
230
1.0
 70
    11
 71
     3
 72
    17
 73
    13
 74
     0
 42
0.0000000001
 43
0.0000000001
 12
1.0
 22
0.0
 32
0.0
 13
1.0
 23
0.0
 33
0.0
 40
0.0
 40
0.0
 40
0.0
 40
0.0
 40
1.0
 40
1.0
 40
1.0
 40
2.0
 40
2.0
 40
2.0
 40
3.0
 40
3.0
 40
3.0
 40
4.0
 40
4.0
 40
4.0
 40
4.0
 10
76.19498861165945
 20
-145.6920716302435
 30
0.0
 10
76.19498861165945
 20
-145.6700230191379
 30
0.0
 10
76.17710277878243
 20
-145.6521019080316
 30
0.0
 10
76.15487777934943
 20
-145.6521019080316
 30
0.0
 10
76.13282916880082
 20
-145.6521019080316
 30
0.0
 10
76.11490805814692
 20
-145.6700230191379
 30
0.0
 10
76.11490805814692
 20
-145.6920716302435
 30
0.0
 10
76.11490805814692
 20
-145.7141202413491
 30
0.0
 10
76.13282916880082
 20
-145.7320060746779
 30
0.0
 10
76.15487777934943
 20
-145.7320060746779
 30
0.0
 10
76.17710277878243
 20
-145.7320060746779
 30
0.0
 10
76.19498861165945
 20
-145.7141202413491
 30
0.0
 10
76.19498861165945
 20
-145.6920716302435
 30
0.0
  0
SPLINE
  5
94
330
1F
100
AcDbEntity
  8
_U+30EC_U+30A4_U+30E4_U+30FC 1
 62
   179
420
  2234388
370
     9
100
AcDbSpline
210
0.0
220
0.0
230
1.0
 70
    11
 71
     3
 72
    17
 73
    13
 74
     0
 42
0.0000000001
 43
0.0000000001
 12
1.0
 22
0.0
 32
0.0
 13
1.0
 23
0.0
 33
0.0
 40
0.0
 40
0.0
 40
0.0
 40
0.0
 40
1.0
 40
1.0
 40
1.0
 40
2.0
 40
2.0
 40
2.0
 40
3.0
 40
3.0
 40
3.0
 40
4.0
 40
4.0
 40
4.0
 40
4.0
 10
76.19498861165945
 20
-142.4922360754884
 30
0.0
 10
76.19498861165945
 20
-142.4701874643828
 30
0.0
 10
76.17710277878243
 20
-142.4523016310533
 30
0.0
 10
76.15487777934943
 20
-142.4523016310533
 30
0.0
 10
76.13282916880082
 20
-142.4523016310533
 30
0.0
 10
76.11490805814692
 20
-142.4701874643828
 30
0.0
 10
76.11490805814692
 20
-142.4922360754884
 30
0.0
 10
76.11490805814692
 20
-142.514284686594
 30
0.0
 10
76.13282916880082
 20
-142.5322057977003
 30
0.0
 10
76.15487777934943
 20
-142.5322057977003
 30
0.0
 10
76.17710277878243
 20
-142.5322057977003
 30
0.0
 10
76.19498861165945
 20
-142.514284686594
 30
0.0
 10
76.19498861165945
 20
-142.4922360754884
 30
0.0
  0
SPLINE
  5
95
330
1F
100
AcDbEntity
  8
_U+30EC_U+30A4_U+30E4_U+30FC 1
 62
   179
420
  2234388
370
     9
100
AcDbSpline
210
0.0
220
0.0
230
1.0
 70
    11
 71
     3
 72
    17
 73
    13
 74
     0
 42
0.0000000001
 43
0.0000000001
 12
1.0
 22
0.0
 32
0.0
 13
1.0
 23
0.0
 33
0.0
 40
0.0
 40
0.0
 40
0.0
 40
0.0
 40
1.0
 40
1.0
 40
1.0
 40
2.0
 40
2.0
 40
2.0
 40
3.0
 40
3.0
 40
3.0
 40
4.0
 40
4.0
 40
4.0
 40
4.0
 10
76.19498861165945
 20
-132.9720691334238
 30
0.0
 10
76.19498861165945
 20
-132.9500205223182
 30
0.0
 10
76.17710277878243
 20
-132.9320994112113
 30
0.0
 10
76.15487777934943
 20
-132.9320994112113
 30
0.0
 10
76.13282916880082
 20
-132.9320994112113
 30
0.0
 10
76.11490805814692
 20
-132.9500205223182
 30
0.0
 10
76.11490805814692
 20
-132.9720691334238
 30
0.0
 10
76.11490805814692
 20
-132.9941177445294
 30
0.0
 10
76.13282916880082
 20
-133.0120388556357
 30
0.0
 10
76.15487777934943
 20
-133.0120388556357
 30
0.0
 10
76.17710277878243
 20
-133.0120388556357
 30
0.0
 10
76.19498861165945
 20
-132.9941177445294
 30
0.0
 10
76.19498861165945
 20
-132.9720691334238
 30
0.0
  0
SPLINE
  5
96
330
1F
100
AcDbEntity
  8
_U+30EC_U+30A4_U+30E4_U+30FC 1
 62
   179
420
  2234388
370
     9
100
AcDbSpline
210
0.0
220
0.0
230
1.0
 70
    11
 71
     3
 72
    17
 73
    13
 74
     0
 42
0.0000000001
 43
0.0000000001
 12
1.0
 22
0.0
 32
0.0
 13
1.0
 23
0.0
 33
0.0
 40
0.0
 40
0.0
 40
0.0
 40
0.0
 40
1.0
 40
1.0
 40
1.0
 40
2.0
 40
2.0
 40
2.0
 40
3.0
 40
3.0
 40
3.0
 40
4.0
 40
4.0
 40
4.0
 40
4.0
 10
76.19498861165945
 20
-133.7720280221124
 30
0.0
 10
76.19498861165945
 20
-133.7499794110068
 30
0.0
 10
76.17710277878243
 20
-133.7320582999005
 30
0.0
 10
76.15487777934943
 20
-133.7320582999005
 30
0.0
 10
76.13282916880082
 20
-133.7320582999005
 30
0.0
 10
76.11490805814692
 20
-133.7499794110068
 30
0.0
 10
76.11490805814692
 20
-133.7720280221124
 30
0.0
 10
76.11490805814692
 20
-133.794076633218
 30
0.0
 10
76.13282916880082
 20
-133.811997744325
 30
0.0
 10
76.15487777934943
 20
-133.811997744325
 30
0.0
 10
76.17710277878243
 20
-133.811997744325
 30
0.0
 10
76.19498861165945
 20
-133.794076633218
 30
0.0
 10
76.19498861165945
 20
-133.7720280221124
 30
0.0
  0
POLYLINE
  5
97
330
1F
100
AcDbEntity
  8
_U+30EC_U+30A4_U+30E4_U+30FC 1
 62
   179
420
  2234388
370
     9
100
AcDb2dPolyline
 66
     1
 10
0.0
 20
0.0
 30
0.0
  0
VERTEX
  5
98
330
97
100
AcDbEntity
  8
_U+30EC_U+30A4_U+30E4_U+30FC 1
 62
   179
420
  2234388
370
     9
100
AcDbVertex
100
AcDb2dVertex
 10
77.7551130163018
 20
-111.3720149721571
 30
0.0
  0
VERTEX
  5
99
330
97
100
AcDbEntity
  8
_U+30EC_U+30A4_U+30E4_U+30FC 1
 62
   179
420
  2234388
370
     9
100
AcDbVertex
100
AcDb2dVertex
 10
97.75493139495282
 20
-111.3720149721571
 30
0.0
  0
SEQEND
  5
9A
330
97
100
AcDbEntity
  8
_U+30EC_U+30A4_U+30E4_U+30FC 1
 62
   179
420
  2234388
370
     9
  0
POLYLINE
  5
9B
330
1F
100
AcDbEntity
  8
_U+30EC_U+30A4_U+30E4_U+30FC 1
 62
   179
420
  2234388
370
     9
100
AcDb2dPolyline
 66
     1
 10
0.0
 20
0.0
 30
0.0
  0
VERTEX
  5
9C
330
9B
100
AcDbEntity
  8
_U+30EC_U+30A4_U+30E4_U+30FC 1
 62
   179
420
  2234388
370
     9
100
AcDbVertex
100
AcDb2dVertex
 10
77.7551130163018
 20
-131.9564571892334
 30
0.0
  0
VERTEX
  5
9D
330
9B
100
AcDbEntity
  8
_U+30EC_U+30A4_U+30E4_U+30FC 1
 62
   179
420
  2234388
370
     9
100
AcDbVertex
100
AcDb2dVertex
 10
77.7551130163018
 20
-110.9725646944791
 30
0.0
  0
SEQEND
  5
9E
330
9B
100
AcDbEntity
  8
_U+30EC_U+30A4_U+30E4_U+30FC 1
 62
   179
420
  2234388
370
     9
  0
POLYLINE
  5
9F
330
1F
100
AcDbEntity
  8
_U+30EC_U+30A4_U+30E4_U+30FC 1
 62
   179
420
  2234388
370
     9
100
AcDb2dPolyline
 66
     1
 10
0.0
 20
0.0
 30
0.0
  0
VERTEX
  5
A0
330
9F
100
AcDbEntity
  8
_U+30EC_U+30A4_U+30E4_U+30FC 1
 62
   179
420
  2234388
370
     9
100
AcDbVertex
100
AcDb2dVertex
 10
97.75493139495282
 20
-111.9562855275664
 30
0.0
  0
VERTEX
  5
A1
330
9F
100
AcDbEntity
  8
_U+30EC_U+30A4_U+30E4_U+30FC 1
 62
   179
420
  2234388
370
     9
100
AcDbVertex
100
AcDb2dVertex
 10
97.75493139495282
 20
-110.9725646944791
 30
0.0
  0
SEQEND
  5
A2
330
9F
100
AcDbEntity
  8
_U+30EC_U+30A4_U+30E4_U+30FC 1
 62
   179
420
  2234388
370
     9
  0
INSERT
  5
A4
330
1F
100
AcDbEntity
  8
_U+30EC_U+30A4_U+30E4_U+30FC 1
100
AcDbBlockReference
  2
block 2
 10
0.0
 20
0.0
 30
0.0
  0
POLYLINE
  5
AC
330
1F
100
AcDbEntity
  8
_U+30EC_U+30A4_U+30E4_U+30FC 1
 62
   179
420
  2234388
370
     9
100
AcDb2dPolyline
 66
     1
 10
0.0
 20
0.0
 30
0.0
  0
VERTEX
  5
AD
330
AC
100
AcDbEntity
  8
_U+30EC_U+30A4_U+30E4_U+30FC 1
 62
   179
420
  2234388
370
     9
100
AcDbVertex
100
AcDb2dVertex
 10
97.75493139495282
 20
-111.3720149721571
 30
0.0
  0
VERTEX
  5
AE
330
AC
100
AcDbEntity
  8
_U+30EC_U+30A4_U+30E4_U+30FC 1
 62
   179
420
  2234388
370
     9
100
AcDbVertex
100
AcDb2dVertex
 10
98.55489026343305
 20
-111.3720149721571
 30
0.0
  0
SEQEND
  5
AF
330
AC
100
AcDbEntity
  8
_U+30EC_U+30A4_U+30E4_U+30FC 1
 62
   179
420
  2234388
370
     9
  0
POLYLINE
  5
B0
330
1F
100
AcDbEntity
  8
_U+30EC_U+30A4_U+30E4_U+30FC 1
 62
   179
420
  2234388
370
     9
100
AcDb2dPolyline
 66
     1
 10
0.0
 20
0.0
 30
0.0
  0
VERTEX
  5
B1
330
B0
100
AcDbEntity
  8
_U+30EC_U+30A4_U+30E4_U+30FC 1
 62
   179
420
  2234388
370
     9
100
AcDbVertex
100
AcDb2dVertex
 10
98.55489026343305
 20
-111.9562855275664
 30
0.0
  0
VERTEX
  5
B2
330
B0
100
AcDbEntity
  8
_U+30EC_U+30A4_U+30E4_U+30FC 1
 62
   179
420
  2234388
370
     9
100
AcDbVertex
100
AcDb2dVertex
 10
98.55489026343305
 20
-110.9725646944791
 30
0.0
  0
SEQEND
  5
B3
330
B0
100
AcDbEntity
  8
_U+30EC_U+30A4_U+30E4_U+30FC 1
 62
   179
420
  2234388
370
     9
  0
INSERT
  5
B5
330
1F
100
AcDbEntity
  8
_U+30EC_U+30A4_U+30E4_U+30FC 1
100
AcDbBlockReference
  2
block 3
 10
0.0
 20
0.0
 30
0.0
  0
POLYLINE
  5
BA
330
1F
100
AcDbEntity
  8
_U+30EC_U+30A4_U+30E4_U+30FC 1
 62
   179
420
  2234388
370
     9
100
AcDb2dPolyline
 66
     1
 10
0.0
 20
0.0
 30
0.0
  0
VERTEX
  5
BB
330
BA
100
AcDbEntity
  8
_U+30EC_U+30A4_U+30E4_U+30FC 1
 62
   179
420
  2234388
370
     9
100
AcDbVertex
100
AcDb2dVertex
 10
98.55489026343305
 20
-111.3720149721571
 30
0.0
  0
VERTEX
  5
BC
330
BA
100
AcDbEntity
  8
_U+30EC_U+30A4_U+30E4_U+30FC 1
 62
   179
420
  2234388
370
     9
100
AcDbVertex
100
AcDb2dVertex
 10
110.4748982926616
 20
-111.3720149721571
 30
0.0
  0
SEQEND
  5
BD
330
BA
100
AcDbEntity
  8
_U+30EC_U+30A4_U+30E4_U+30FC 1
 62
   179
420
  2234388
370
     9
  0
POLYLINE
  5
BE
330
1F
100
AcDbEntity
  8
_U+30EC_U+30A4_U+30E4_U+30FC 1
 62
   179
420
  2234388
370
     9
100
AcDb2dPolyline
 66
     1
 10
0.0
 20
0.0
 30
0.0
  0
VERTEX
  5
BF
330
BE
100
AcDbEntity
  8
_U+30EC_U+30A4_U+30E4_U+30FC 1
 62
   179
420
  2234388
370
     9
100
AcDbVertex
100
AcDb2dVertex
 10
98.55489026343305
 20
-111.9562855275664
 30
0.0
  0
VERTEX
  5
C0
330
BE
100
AcDbEntity
  8
_U+30EC_U+30A4_U+30E4_U+30FC 1
 62
   179
420
  2234388
370
     9
100
AcDbVertex
100
AcDb2dVertex
 10
98.55489026343305
 20
-110.9725646944791
 30
0.0
  0
SEQEND
  5
C1
330
BE
100
AcDbEntity
  8
_U+30EC_U+30A4_U+30E4_U+30FC 1
 62
   179
420
  2234388
370
     9
  0
POLYLINE
  5
C2
330
1F
100
AcDbEntity
  8
_U+30EC_U+30A4_U+30E4_U+30FC 1
 62
   179
420
  2234388
370
     9
100
AcDb2dPolyline
 66
     1
 10
0.0
 20
0.0
 30
0.0
  0
VERTEX
  5
C3
330
C2
100
AcDbEntity
  8
_U+30EC_U+30A4_U+30E4_U+30FC 1
 62
   179
420
  2234388
370
     9
100
AcDbVertex
100
AcDb2dVertex
 10
110.4748982926616
 20
-124.6762880243864
 30
0.0
  0
VERTEX
  5
C4
330
C2
100
AcDbEntity
  8
_U+30EC_U+30A4_U+30E4_U+30FC 1
 62
   179
420
  2234388
370
     9
100
AcDbVertex
100
AcDb2dVertex
 10
110.4748982926616
 20
-110.9725646944791
 30
0.0
  0
SEQEND
  5
C5
330
C2
100
AcDbEntity
  8
_U+30EC_U+30A4_U+30E4_U+30FC 1
 62
   179
420
  2234388
370
     9
  0
INSERT
  5
C7
330
1F
100
AcDbEntity
  8
_U+30EC_U+30A4_U+30E4_U+30FC 1
100
AcDbBlockReference
  2
block 4
 10
0.0
 20
0.0
 30
0.0
  0
POLYLINE
  5
DB
330
1F
100
AcDbEntity
  8
_U+30EC_U+30A4_U+30E4_U+30FC 1
 62
   179
420
  2234388
370
     9
100
AcDb2dPolyline
 66
     1
 10
0.0
 20
0.0
 30
0.0
  0
VERTEX
  5
DC
330
DB
100
AcDbEntity
  8
_U+30EC_U+30A4_U+30E4_U+30FC 1
 62
   179
420
  2234388
370
     9
100
AcDbVertex
100
AcDb2dVertex
 10
76.15487777934943
 20
-132.9720691334238
 30
0.0
  0
VERTEX
  5
DD
330
DB
100
AcDbEntity
  8
_U+30EC_U+30A4_U+30E4_U+30FC 1
 62
   179
420
  2234388
370
     9
100
AcDbVertex
100
AcDb2dVertex
 10
76.15487777934943
 20
-133.7720280221124
 30
0.0
  0
SEQEND
  5
DE
330
DB
100
AcDbEntity
  8
_U+30EC_U+30A4_U+30E4_U+30FC 1
 62
   179
420
  2234388
370
     9
  0
POLYLINE
  5
DF
330
1F
100
AcDbEntity
  8
_U+30EC_U+30A4_U+30E4_U+30FC 1
 62
   179
420
  2234388
370
     9
100
AcDb2dPolyline
 66
     1
 10
0.0
 20
0.0
 30
0.0
  0
VERTEX
  5
E0
330
DF
100
AcDbEntity
  8
_U+30EC_U+30A4_U+30E4_U+30FC 1
 62
   179
420
  2234388
370
     9
100
AcDbVertex
100
AcDb2dVertex
 10
76.7389719311146
 20
-132.9720691334238
 30
0.0
  0
VERTEX
  5
E1
330
DF
100
AcDbEntity
  8
_U+30EC_U+30A4_U+30E4_U+30FC 1
 62
   179
420
  2234388
370
     9
100
AcDbVertex
100
AcDb2dVertex
 10
75.75489834510931
 20
-132.9720691334238
 30
0.0
  0
SEQEND
  5
E2
330
DF
100
AcDbEntity
  8
_U+30EC_U+30A4_U+30E4_U+30FC 1
 62
   179
420
  2234388
370
     9
  0
POLYLINE
  5
E3
330
1F
100
AcDbEntity
  8
_U+30EC_U+30A4_U+30E4_U+30FC 1
 62
   179
420
  2234388
370
     9
100
AcDb2dPolyline
 66
     1
 10
0.0
 20
0.0
 30
0.0
  0
VERTEX
  5
E4
330
E3
100
AcDbEntity
  8
_U+30EC_U+30A4_U+30E4_U+30FC 1
 62
   179
420
  2234388
370
     9
100
AcDbVertex
100
AcDb2dVertex
 10
76.7389719311146
 20
-133.7720280221124
 30
0.0
  0
VERTEX
  5
E5
330
E3
100
AcDbEntity
  8
_U+30EC_U+30A4_U+30E4_U+30FC 1
 62
   179
420
  2234388
370
     9
100
AcDbVertex
100
AcDb2dVertex
 10
75.75489834510931
 20
-133.7720280221124
 30
0.0
  0
SEQEND
  5
E6
330
E3
100
AcDbEntity
  8
_U+30EC_U+30A4_U+30E4_U+30FC 1
 62
   179
420
  2234388
370
     9
  0
INSERT
  5
E8
330
1F
100
AcDbEntity
  8
_U+30EC_U+30A4_U+30E4_U+30FC 1
100
AcDbBlockReference
  2
block 5
 10
0.0
 20
0.0
 30
0.0
  0
POLYLINE
  5
ED
330
1F
100
AcDbEntity
  8
_U+30EC_U+30A4_U+30E4_U+30FC 1
 62
   179
420
  2234388
370
     9
100
AcDb2dPolyline
 66
     1
 10
0.0
 20
0.0
 30
0.0
  0
VERTEX
  5
EE
330
ED
100
AcDbEntity
  8
_U+30EC_U+30A4_U+30E4_U+30FC 1
 62
   179
420
  2234388
370
     9
100
AcDbVertex
100
AcDb2dVertex
 10
76.15487777934943
 20
-133.7720280221124
 30
0.0
  0
VERTEX
  5
EF
330
ED
100
AcDbEntity
  8
_U+30EC_U+30A4_U+30E4_U+30FC 1
 62
   179
420
  2234388
370
     9
100
AcDbVertex
100
AcDb2dVertex
 10
76.15487777934943
 20
-142.4922360754884
 30
0.0
  0
SEQEND
  5
F0
330
ED
100
AcDbEntity
  8
_U+30EC_U+30A4_U+30E4_U+30FC 1
 62
   179
420
  2234388
370
     9
  0
POLYLINE
  5
F1
330
1F
100
AcDbEntity
  8
_U+30EC_U+30A4_U+30E4_U+30FC 1
 62
   179
420
  2234388
370
     9
100
AcDb2dPolyline
 66
     1
 10
0.0
 20
0.0
 30
0.0
  0
VERTEX
  5
F2
330
F1
100
AcDbEntity
  8
_U+30EC_U+30A4_U+30E4_U+30FC 1
 62
   179
420
  2234388
370
     9
100
AcDbVertex
100
AcDb2dVertex
 10
89.459152755413
 20
-142.4922360754884
 30
0.0
  0
VERTEX
  5
F3
330
F1
100
AcDbEntity
  8
_U+30EC_U+30A4_U+30E4_U+30FC 1
 62
   179
420
  2234388
370
     9
100
AcDbVertex
100
AcDb2dVertex
 10
75.75489834510931
 20
-142.4922360754884
 30
0.0
  0
SEQEND
  5
F4
330
F1
100
AcDbEntity
  8
_U+30EC_U+30A4_U+30E4_U+30FC 1
 62
   179
420
  2234388
370
     9
  0
INSERT
  5
F6
330
1F
100
AcDbEntity
  8
_U+30EC_U+30A4_U+30E4_U+30FC 1
100
AcDbBlockReference
  2
block 6
 10
0.0
 20
0.0
 30
0.0
  0
POLYLINE
  5
109
330
1F
100
AcDbEntity
  8
_U+30EC_U+30A4_U+30E4_U+30FC 1
 62
   179
420
  2234388
370
     9
100
AcDb2dPolyline
 66
     1
 10
0.0
 20
0.0
 30
0.0
  0
VERTEX
  5
10A
330
109
100
AcDbEntity
  8
_U+30EC_U+30A4_U+30E4_U+30FC 1
 62
   179
420
  2234388
370
     9
100
AcDbVertex
100
AcDb2dVertex
 10
76.15487777934943
 20
-142.4922360754884
 30
0.0
  0
VERTEX
  5
10B
330
109
100
AcDbEntity
  8
_U+30EC_U+30A4_U+30E4_U+30FC 1
 62
   179
420
  2234388
370
     9
100
AcDbVertex
100
AcDb2dVertex
 10
76.15487777934943
 20
-145.6920716302435
 30
0.0
  0
SEQEND
  5
10C
330
109
100
AcDbEntity
  8
_U+30EC_U+30A4_U+30E4_U+30FC 1
 62
   179
420
  2234388
370
     9
  0
POLYLINE
  5
10D
330
1F
100
AcDbEntity
  8
_U+30EC_U+30A4_U+30E4_U+30FC 1
 62
   179
420
  2234388
370
     9
100
AcDb2dPolyline
 66
     1
 10
0.0
 20
0.0
 30
0.0
  0
VERTEX
  5
10E
330
10D
100
AcDbEntity
  8
_U+30EC_U+30A4_U+30E4_U+30FC 1
 62
   179
420
  2234388
370
     9
100
AcDbVertex
100
AcDb2dVertex
 10
89.459152755413
 20
-145.6920716302435
 30
0.0
  0
VERTEX
  5
10F
330
10D
100
AcDbEntity
  8
_U+30EC_U+30A4_U+30E4_U+30FC 1
 62
   179
420
  2234388
370
     9
100
AcDbVertex
100
AcDb2dVertex
 10
75.75489834510931
 20
-145.6920716302435
 30
0.0
  0
SEQEND
  5
110
330
10D
100
AcDbEntity
  8
_U+30EC_U+30A4_U+30E4_U+30FC 1
 62
   179
420
  2234388
370
     9
  0
INSERT
  5
112
330
1F
100
AcDbEntity
  8
_U+30EC_U+30A4_U+30E4_U+30FC 1
100
AcDbBlockReference
  2
block 7
 10
0.0
 20
0.0
 30
0.0
  0
POLYLINE
  5
119
330
1F
100
AcDbEntity
  8
_U+30EC_U+30A4_U+30E4_U+30FC 1
 62
   179
420
  2234388
370
     9
100
AcDb2dPolyline
 66
     1
 10
0.0
 20
0.0
 30
0.0
  0
VERTEX
  5
11A
330
119
100
AcDbEntity
  8
_U+30EC_U+30A4_U+30E4_U+30FC 1
 62
   179
420
  2234388
370
     9
100
AcDbVertex
100
AcDb2dVertex
 10
90.47507991401064
 20
-148.2627985740451
 30
0.0
  0
VERTEX
  5
11B
330
119
100
AcDbEntity
  8
_U+30EC_U+30A4_U+30E4_U+30FC 1
 62
   179
420
  2234388
370
     9
100
AcDbVertex
100
AcDb2dVertex
 10
110.4748982926616
 20
-148.2627985740451
 30
0.0
  0
SEQEND
  5
11C
330
119
100
AcDbEntity
  8
_U+30EC_U+30A4_U+30E4_U+30FC 1
 62
   179
420
  2234388
370
     9
  0
POLYLINE
  5
11D
330
1F
100
AcDbEntity
  8
_U+30EC_U+30A4_U+30E4_U+30FC 1
 62
   179
420
  2234388
370
     9
100
AcDb2dPolyline
 66
     1
 10
0.0
 20
0.0
 30
0.0
  0
VERTEX
  5
11E
330
11D
100
AcDbEntity
  8
_U+30EC_U+30A4_U+30E4_U+30FC 1
 62
   179
420
  2234388
370
     9
100
AcDbVertex
100
AcDb2dVertex
 10
90.47507991401064
 20
-147.6784927408583
 30
0.0
  0
VERTEX
  5
11F
330
11D
100
AcDbEntity
  8
_U+30EC_U+30A4_U+30E4_U+30FC 1
 62
   179
420
  2234388
370
     9
100
AcDbVertex
100
AcDb2dVertex
 10
90.47507991401064
 20
-148.6624252406123
 30
0.0
  0
SEQEND
  5
120
330
11D
100
AcDbEntity
  8
_U+30EC_U+30A4_U+30E4_U+30FC 1
 62
   179
420
  2234388
370
     9
  0
POLYLINE
  5
121
330
1F
100
AcDbEntity
  8
_U+30EC_U+30A4_U+30E4_U+30FC 1
 62
   179
420
  2234388
370
     9
100
AcDb2dPolyline
 66
     1
 10
0.0
 20
0.0
 30
0.0
  0
VERTEX
  5
122
330
121
100
AcDbEntity
  8
_U+30EC_U+30A4_U+30E4_U+30FC 1
 62
   179
420
  2234388
370
     9
100
AcDbVertex
100
AcDb2dVertex
 10
110.4748982926616
 20
-147.6784927408583
 30
0.0
  0
VERTEX
  5
123
330
121
100
AcDbEntity
  8
_U+30EC_U+30A4_U+30E4_U+30FC 1
 62
   179
420
  2234388
370
     9
100
AcDbVertex
100
AcDb2dVertex
 10
110.4748982926616
 20
-148.6624252406123
 30
0.0
  0
SEQEND
  5
124
330
121
100
AcDbEntity
  8
_U+30EC_U+30A4_U+30E4_U+30FC 1
 62
   179
420
  2234388
370
     9
  0
INSERT
  5
126
330
1F
100
AcDbEntity
  8
_U+30EC_U+30A4_U+30E4_U+30FC 1
100
AcDbBlockReference
  2
block 8
 10
0.0
 20
0.0
 30
0.0
  0
ENDSEC
  0
SECTION
  2
OBJECTS
  0
DICTIONARY
  5
C
330
0
100
AcDbDictionary
281
     1
  3
ACAD_GROUP
350
D
  3
ACAD_LAYOUT
350
1A
  3
ACAD_MATERIAL
350
3B
  3
ACAD_MLEADERSTYLE
350
12F
  3
ACAD_MLINESTYLE
350
17
  3
ACAD_PLOTSETTINGS
350
19
  3
ACAD_PLOTSTYLENAME
350
E
  3
ACAD_TABLESTYLE
350
12E
  3
ACAD_VISUALSTYLE
350
2A
  0
SUN
  5
3F
330
29
100
AcDbSun
 90
        1
290
     0
 63
     7
421
 16777215
 40
1.0
291
     1
 91
  2455826
 92
 54000000
292
     0
 70
     2
 71
   256
280
     1
  0
DICTIONARY
  5
D
102
{ACAD_REACTORS
330
C
102
}
330
C
100
AcDbDictionary
281
     1
  0
DICTIONARY
  5
1A
102
{ACAD_REACTORS
330
C
102
}
330
C
100
AcDbDictionary
281
     1
  3
Layout1
350
1E
  3
Layout2
350
26
  3
Model
350
22
  0
DICTIONARY
  5
3B
102
{ACAD_REACTORS
330
C
102
}
330
C
100
AcDbDictionary
281
     1
  3
ByBlock
350
3D
  3
ByLayer
350
3C
  3
Global
350
3E
  0
DICTIONARY
  5
12F
102
{ACAD_REACTORS
330
C
102
}
330
C
100
AcDbDictionary
281
     1
  0
DICTIONARY
  5
17
102
{ACAD_REACTORS
330
C
102
}
330
C
100
AcDbDictionary
281
     1
  3
Standard
350
18
  0
DICTIONARY
  5
19
102
{ACAD_REACTORS
330
C
102
}
330
C
100
AcDbDictionary
281
     1
  0
ACDBDICTIONARYWDFLT
  5
E
102
{ACAD_REACTORS
330
C
102
}
330
C
100
AcDbDictionary
281
     1
  3
Normal
350
F
100
AcDbDictionaryWithDefault
340
F
  0
DICTIONARY
  5
12E
102
{ACAD_REACTORS
330
C
102
}
330
C
100
AcDbDictionary
281
     1
  0
DICTIONARY
  5
2A
102
{ACAD_REACTORS
330
C
102
}
330
C
100
AcDbDictionary
281
     1
  3
2dWireframe
350
2F
  3
3D Hidden
350
31
  3
3dWireframe
350
30
  3
Basic
350
32
  3
Brighten
350
36
  3
ColorChange
350
3A
  3
Conceptual
350
34
  3
Dim
350
35
  3
Facepattern
350
39
  3
Flat
350
2B
  3
FlatWithEdges
350
2C
  3
Gouraud
350
2D
  3
GouraudWithEdges
350
2E
  3
Linepattern
350
38
  3
Realistic
350
33
  3
Thicken
350
37
  0
LAYOUT
  5
1E
102
{ACAD_REACTORS
330
1A
102
}
330
1A
100
AcDbPlotSettings
  1

  2
none_device
  4

  6

 40
0.0
 41
0.0
 42
0.0
 43
0.0
 44
0.0
 45
0.0
 46
0.0
 47
0.0
 48
0.0
 49
0.0
140
0.0
141
0.0
142
1.0
143
1.0
 70
   688
 72
     0
 73
     0
 74
     5
  7

 75
    16
 76
     0
 77
     2
 78
   300
147
1.0
148
0.0
149
0.0
100
AcDbLayout
  1
Layout1
 70
     1
 71
     1
 10
0.0
 20
0.0
 11
12.0
 21
9.0
 12
0.0
 22
0.0
 32
0.0
 14
1.000000000000000E+20
 24
1.000000000000000E+20
 34
1.000000000000000E+20
 15
-1.000000000000000E+20
 25
-1.000000000000000E+20
 35
-1.000000000000000E+20
146
0.0
 13
0.0
 23
0.0
 33
0.0
 16
1.0
 26
0.0
 36
0.0
 17
0.0
 27
1.0
 37
0.0
 76
     0
330
1B
  0
LAYOUT
  5
26
102
{ACAD_REACTORS
330
1A
102
}
330
1A
100
AcDbPlotSettings
  1

  2
none_device
  4

  6

 40
0.0
 41
0.0
 42
0.0
 43
0.0
 44
0.0
 45
0.0
 46
0.0
 47
0.0
 48
0.0
 49
0.0
140
0.0
141
0.0
142
1.0
143
1.0
 70
   688
 72
     0
 73
     0
 74
     5
  7

 75
    16
 76
     0
 77
     2
 78
   300
147
1.0
148
0.0
149
0.0
100
AcDbLayout
  1
Layout2
 70
     1
 71
     2
 10
0.0
 20
0.0
 11
0.0
 21
0.0
 12
0.0
 22
0.0
 32
0.0
 14
0.0
 24
0.0
 34
0.0
 15
0.0
 25
0.0
 35
0.0
146
0.0
 13
0.0
 23
0.0
 33
0.0
 16
1.0
 26
0.0
 36
0.0
 17
0.0
 27
1.0
 37
0.0
 76
     0
330
23
  0
LAYOUT
  5
22
102
{ACAD_REACTORS
330
1A
102
}
330
1A
100
AcDbPlotSettings
  1

  2
none_device
  4

  6

 40
0.0
 41
0.0
 42
0.0
 43
0.0
 44
0.0
 45
0.0
 46
0.0
 47
0.0
 48
0.0
 49
0.0
140
0.0
141
0.0
142
1.0
143
1.0
 70
  1712
 72
     0
 73
     0
 74
     0
  7

 75
     0
 76
     0
 77
     2
 78
   300
147
1.0
148
0.0
149
0.0
100
AcDbLayout
  1
Model
 70
     1
 71
     0
 10
0.0
 20
0.0
 11
12.0
 21
9.0
 12
0.0
 22
0.0
 32
0.0
 14
1.000000000000000E+20
 24
1.000000000000000E+20
 34
1.000000000000000E+20
 15
-1.000000000000000E+20
 25
-1.000000000000000E+20
 35
-1.000000000000000E+20
146
0.0
 13
0.0
 23
0.0
 33
0.0
 16
1.0
 26
0.0
 36
0.0
 17
0.0
 27
1.0
 37
0.0
 76
     0
330
1F
331
29
  0
MATERIAL
  5
3D
102
{ACAD_REACTORS
330
3B
102
}
330
3B
100
AcDbMaterial
  1
ByBlock
 72
     1
 94
      127
  0
MATERIAL
  5
3C
102
{ACAD_REACTORS
330
3B
102
}
330
3B
100
AcDbMaterial
  1
ByLayer
 72
     1
 94
      127
  0
MATERIAL
  5
3E
102
{ACAD_REACTORS
330
3B
102
}
330
3B
100
AcDbMaterial
  1
Global
 72
     1
 94
      127
  0
MLINESTYLE
  5
18
102
{ACAD_REACTORS
330
17
102
}
330
17
100
AcDbMlineStyle
  2
Standard
 70
     0
  3

 62
   256
 51
90.0
 52
90.0
 71
     2
 49
0.5
 62
   256
  6
BYLAYER
 49
-0.5
 62
   256
  6
BYLAYER
  0
ACDBPLACEHOLDER
  5
F
102
{ACAD_REACTORS
330
E
102
}
330
E
  0
VISUALSTYLE
  5
2F
102
{ACAD_REACTORS
330
2A
102
}
330
2A
100
AcDbVisualStyle
  2
2dWireframe
 70
     4
177
     2
291
     0
 71
     0
176
     1
 72
     2
176
     1
 73
     0
176
     1
 90
        0
176
     1
 40
-0.6
176
     1
 41
-30.0
176
     1
 62
     5
 63
     7
421
 16777215
176
     1
 74
     1
176
     1
 91
        4
176
     1
 64
     7
176
     1
 65
   257
176
     1
 75
     1
176
     1
175
     1
176
     1
 42
1.0
176
     1
 92
        0
176
     1
 66
   257
176
     1
 43
1.0
176
     1
 76
     1
176
     1
 77
     6
176
     1
 78
     2
176
     1
 67
     7
176
     1
 79
     5
176
     1
170
     0
176
     1
171
     0
176
     1
290
     0
176
     1
 93
        1
176
     1
 44
0.0
176
     1
173
     0
176
     1
  0
VISUALSTYLE
  5
31
102
{ACAD_REACTORS
330
2A
102
}
330
2A
100
AcDbVisualStyle
  2
3D Hidden
 70
     6
177
     2
291
     0
 71
     1
176
     1
 72
     2
176
     1
 73
     2
176
     1
 90
        0
176
     1
 40
-0.6
176
     1
 41
-30.0
176
     1
 62
     5
 63
     7
421
 16777215
176
     1
 74
     2
176
     1
 91
        2
176
     1
 64
     7
176
     1
 65
   257
176
     1
 75
     2
176
     1
175
     1
176
     1
 42
40.0
176
     1
 92
        0
176
     1
 66
   257
176
     1
 43
1.0
176
     1
 76
     1
176
     1
 77
     6
176
     1
 78
     2
176
     1
 67
     7
176
     1
 79
     3
176
     1
170
     0
176
     1
171
     0
176
     1
290
     0
176
     1
 93
        1
176
     1
 44
0.0
176
     1
173
     0
176
     1
  0
VISUALSTYLE
  5
30
102
{ACAD_REACTORS
330
2A
102
}
330
2A
100
AcDbVisualStyle
  2
3dWireframe
 70
     5
177
     2
291
     0
 71
     0
176
     1
 72
     2
176
     1
 73
     0
176
     1
 90
        0
176
     1
 40
-0.6
176
     1
 41
-30.0
176
     1
 62
     5
 63
     7
421
 16777215
176
     1
 74
     1
176
     1
 91
        4
176
     1
 64
     7
176
     1
 65
   257
176
     1
 75
     1
176
     1
175
     1
176
     1
 42
1.0
176
     1
 92
        0
176
     1
 66
   257
176
     1
 43
1.0
176
     1
 76
     1
176
     1
 77
     6
176
     1
 78
     2
176
     1
 67
     7
176
     1
 79
     5
176
     1
170
     0
176
     1
171
     0
176
     1
290
     0
176
     1
 93
        1
176
     1
 44
0.0
176
     1
173
     0
176
     1
  0
VISUALSTYLE
  5
32
102
{ACAD_REACTORS
330
2A
102
}
330
2A
100
AcDbVisualStyle
  2
Basic
 70
     7
177
     2
291
     1
 71
     1
176
     1
 72
     0
176
     1
 73
     1
176
     1
 90
        0
176
     1
 40
-0.6
176
     1
 41
-30.0
176
     1
 62
     5
 63
     7
421
 16777215
176
     1
 74
     0
176
     1
 91
        4
176
     1
 64
     7
176
     1
 65
   257
176
     1
 75
     1
176
     1
175
     1
176
     1
 42
1.0
176
     1
 92
        8
176
     1
 66
     7
176
     1
 43
1.0
176
     1
 76
     1
176
     1
 77
     6
176
     1
 78
     2
176
     1
 67
     7
176
     1
 79
     5
176
     1
170
     0
176
     1
171
     0
176
     1
290
     0
176
     1
 93
        1
176
     1
 44
0.0
176
     1
173
     0
176
     1
  0
VISUALSTYLE
  5
36
102
{ACAD_REACTORS
330
2A
102
}
330
2A
100
AcDbVisualStyle
  2
Brighten
 70
    12
177
     2
291
     1
 71
     2
176
     1
 72
     2
176
     1
 73
     0
176
     1
 90
        0
176
     1
 40
-0.6
176
     1
 41
-30.0
176
     1
 62
     5
 63
     7
421
 16777215
176
     1
 74
     1
176
     1
 91
        4
176
     1
 64
     7
176
     1
 65
   257
176
     1
 75
     1
176
     1
175
     1
176
     1
 42
1.0
176
     1
 92
        8
176
     1
 66
     7
176
     1
 43
1.0
176
     1
 76
     1
176
     1
 77
     6
176
     1
 78
     2
176
     1
 67
     7
176
     1
 79
     5
176
     1
170
     0
176
     1
171
     0
176
     1
290
     0
176
     1
 93
        1
176
     1
 44
50.0
176
     1
173
     0
176
     1
  0
VISUALSTYLE
  5
3A
102
{ACAD_REACTORS
330
2A
102
}
330
2A
100
AcDbVisualStyle
  2
ColorChange
 70
    16
177
     2
291
     1
 71
     2
176
     1
 72
     2
176
     1
 73
     3
176
     1
 90
        0
176
     1
 40
-0.6
176
     1
 41
-30.0
176
     1
 62
     5
 63
     8
421
  8421504
176
     1
 74
     1
176
     1
 91
        4
176
     1
 64
     7
176
     1
 65
   257
176
     1
 75
     1
176
     1
175
     1
176
     1
 42
1.0
176
     1
 92
        8
176
     1
 66
     8
424
  8421504
176
     1
 43
1.0
176
     1
 76
     1
176
     1
 77
     6
176
     1
 78
     2
176
     1
 67
     7
176
     1
 79
     5
176
     1
170
     0
176
     1
171
     0
176
     1
290
     0
176
     1
 93
        1
176
     1
 44
0.0
176
     1
173
     0
176
     1
  0
VISUALSTYLE
  5
34
102
{ACAD_REACTORS
330
2A
102
}
330
2A
100
AcDbVisualStyle
  2
Conceptual
 70
     9
177
     2
291
     0
 71
     3
176
     1
 72
     2
176
     1
 73
     0
176
     1
 90
        0
176
     1
 40
-0.6
176
     1
 41
-30.0
176
     1
 62
     5
 63
     7
421
 16777215
176
     1
 74
     2
176
     1
 91
        2
176
     1
 64
     7
176
     1
 65
   257
176
     1
 75
     1
176
     1
175
     1
176
     1
 42
40.0
176
     1
 92
        8
176
     1
 66
     7
176
     1
 43
1.0
176
     1
 76
     1
176
     1
 77
     6
176
     1
 78
     2
176
     1
 67
     7
176
     1
 79
     3
176
     1
170
     0
176
     1
171
     0
176
     1
290
     0
176
     1
 93
        1
176
     1
 44
0.0
176
     1
173
     0
176
     1
  0
VISUALSTYLE
  5
35
102
{ACAD_REACTORS
330
2A
102
}
330
2A
100
AcDbVisualStyle
  2
Dim
 70
    11
177
     2
291
     1
 71
     2
176
     1
 72
     2
176
     1
 73
     0
176
     1
 90
        0
176
     1
 40
-0.6
176
     1
 41
-30.0
176
     1
 62
     5
 63
     7
421
 16777215
176
     1
 74
     1
176
     1
 91
        4
176
     1
 64
     7
176
     1
 65
   257
176
     1
 75
     1
176
     1
175
     1
176
     1
 42
1.0
176
     1
 92
        8
176
     1
 66
     7
176
     1
 43
1.0
176
     1
 76
     1
176
     1
 77
     6
176
     1
 78
     2
176
     1
 67
     7
176
     1
 79
     5
176
     1
170
     0
176
     1
171
     0
176
     1
290
     0
176
     1
 93
        1
176
     1
 44
-50.0
176
     1
173
     0
176
     1
  0
VISUALSTYLE
  5
39
102
{ACAD_REACTORS
330
2A
102
}
330
2A
100
AcDbVisualStyle
  2
Facepattern
 70
    15
177
     2
291
     1
 71
     2
176
     1
 72
     2
176
     1
 73
     0
176
     1
 90
        0
176
     1
 40
-0.6
176
     1
 41
-30.0
176
     1
 62
     5
 63
     7
421
 16777215
176
     1
 74
     1
176
     1
 91
        4
176
     1
 64
     7
176
     1
 65
   257
176
     1
 75
     1
176
     1
175
     1
176
     1
 42
1.0
176
     1
 92
        8
176
     1
 66
     7
176
     1
 43
1.0
176
     1
 76
     1
176
     1
 77
     6
176
     1
 78
     2
176
     1
 67
     7
176
     1
 79
     5
176
     1
170
     0
176
     1
171
     0
176
     1
290
     0
176
     1
 93
        1
176
     1
 44
0.0
176
     1
173
     0
176
     1
  0
VISUALSTYLE
  5
2B
102
{ACAD_REACTORS
330
2A
102
}
330
2A
100
AcDbVisualStyle
  2
Flat
 70
     0
177
     2
291
     1
 71
     2
176
     1
 72
     1
176
     1
 73
     1
176
     1
 90
        2
176
     1
 40
-0.6
176
     1
 41
30.0
176
     1
 62
     5
 63
     7
421
 16777215
176
     1
 74
     0
176
     1
 91
        4
176
     1
 64
     7
176
     1
 65
   257
176
     1
 75
     1
176
     1
175
     1
176
     1
 42
1.0
176
     1
 92
        8
176
     1
 66
     7
176
     1
 43
1.0
176
     1
 76
     1
176
     1
 77
     6
176
     1
 78
     2
176
     1
 67
     7
176
     1
 79
     5
176
     1
170
     0
176
     1
171
     0
176
     1
290
     0
176
     1
 93
       13
176
     1
 44
0.0
176
     1
173
     0
176
     1
  0
VISUALSTYLE
  5
2C
102
{ACAD_REACTORS
330
2A
102
}
330
2A
100
AcDbVisualStyle
  2
FlatWithEdges
 70
     1
177
     2
291
     1
 71
     2
176
     1
 72
     1
176
     1
 73
     1
176
     1
 90
        2
176
     1
 40
-0.6
176
     1
 41
30.0
176
     1
 62
     5
 63
     7
421
 16777215
176
     1
 74
     1
176
     1
 91
        4
176
     1
 64
     7
176
     1
 65
   257
176
     1
 75
     1
176
     1
175
     1
176
     1
 42
1.0
176
     1
 92
        0
176
     1
 66
   257
176
     1
 43
1.0
176
     1
 76
     1
176
     1
 77
     6
176
     1
 78
     2
176
     1
 67
     7
176
     1
 79
     5
176
     1
170
     0
176
     1
171
     0
176
     1
290
     0
176
     1
 93
       13
176
     1
 44
0.0
176
     1
173
     0
176
     1
  0
VISUALSTYLE
  5
2D
102
{ACAD_REACTORS
330
2A
102
}
330
2A
100
AcDbVisualStyle
  2
Gouraud
 70
     2
177
     2
291
     1
 71
     2
176
     1
 72
     2
176
     1
 73
     1
176
     1
 90
        2
176
     1
 40
-0.6
176
     1
 41
30.0
176
     1
 62
     5
 63
     7
421
 16777215
176
     1
 74
     0
176
     1
 91
        4
176
     1
 64
     7
176
     1
 65
   257
176
     1
 75
     1
176
     1
175
     1
176
     1
 42
1.0
176
     1
 92
        0
176
     1
 66
     7
176
     1
 43
1.0
176
     1
 76
     1
176
     1
 77
     6
176
     1
 78
     2
176
     1
 67
     7
176
     1
 79
     5
176
     1
170
     0
176
     1
171
     0
176
     1
290
     0
176
     1
 93
       13
176
     1
 44
0.0
176
     1
173
     0
176
     1
  0
VISUALSTYLE
  5
2E
102
{ACAD_REACTORS
330
2A
102
}
330
2A
100
AcDbVisualStyle
  2
GouraudWithEdges
 70
     3
177
     2
291
     1
 71
     2
176
     1
 72
     2
176
     1
 73
     1
176
     1
 90
        2
176
     1
 40
-0.6
176
     1
 41
30.0
176
     1
 62
     5
 63
     7
421
 16777215
176
     1
 74
     1
176
     1
 91
        4
176
     1
 64
     7
176
     1
 65
   257
176
     1
 75
     1
176
     1
175
     1
176
     1
 42
1.0
176
     1
 92
        0
176
     1
 66
   257
176
     1
 43
1.0
176
     1
 76
     1
176
     1
 77
     6
176
     1
 78
     2
176
     1
 67
     7
176
     1
 79
     5
176
     1
170
     0
176
     1
171
     0
176
     1
290
     0
176
     1
 93
       13
176
     1
 44
0.0
176
     1
173
     0
176
     1
  0
VISUALSTYLE
  5
38
102
{ACAD_REACTORS
330
2A
102
}
330
2A
100
AcDbVisualStyle
  2
Linepattern
 70
    14
177
     2
291
     1
 71
     2
176
     1
 72
     2
176
     1
 73
     0
176
     1
 90
        0
176
     1
 40
-0.6
176
     1
 41
-30.0
176
     1
 62
     5
 63
     7
421
 16777215
176
     1
 74
     1
176
     1
 91
        4
176
     1
 64
     7
176
     1
 65
   257
176
     1
 75
     7
176
     1
175
     7
176
     1
 42
1.0
176
     1
 92
        8
176
     1
 66
     7
176
     1
 43
1.0
176
     1
 76
     1
176
     1
 77
     6
176
     1
 78
     2
176
     1
 67
     7
176
     1
 79
     5
176
     1
170
     0
176
     1
171
     0
176
     1
290
     0
176
     1
 93
        1
176
     1
 44
0.0
176
     1
173
     0
176
     1
  0
VISUALSTYLE
  5
33
102
{ACAD_REACTORS
330
2A
102
}
330
2A
100
AcDbVisualStyle
  2
Realistic
 70
     8
177
     2
291
     0
 71
     2
176
     1
 72
     2
176
     1
 73
     0
176
     1
 90
        0
176
     1
 40
-0.6
176
     1
 41
-30.0
176
     1
 62
     5
 63
     7
421
 16777215
176
     1
 74
     1
176
     1
 91
        0
176
     1
 64
     7
176
     1
 65
   257
176
     1
 75
     1
176
     1
175
     1
176
     1
 42
1.0
176
     1
 92
        8
176
     1
 66
     8
424
  7895160
176
     1
 43
1.0
176
     1
 76
     1
176
     1
 77
     6
176
     1
 78
     2
176
     1
 67
     7
176
     1
 79
     5
176
     1
170
     0
176
     1
171
     0
176
     1
290
     0
176
     1
 93
       13
176
     1
 44
0.0
176
     1
173
     0
176
     1
  0
VISUALSTYLE
  5
37
102
{ACAD_REACTORS
330
2A
102
}
330
2A
100
AcDbVisualStyle
  2
Thicken
 70
    13
177
     2
291
     1
 71
     2
176
     1
 72
     2
176
     1
 73
     0
176
     1
 90
        0
176
     1
 40
-0.6
176
     1
 41
-30.0
176
     1
 62
     5
 63
     7
421
 16777215
176
     1
 74
     1
176
     1
 91
        4
176
     1
 64
     7
176
     1
 65
   257
176
     1
 75
     1
176
     1
175
     1
176
     1
 42
1.0
176
     1
 92
       12
176
     1
 66
     7
176
     1
 43
1.0
176
     1
 76
     1
176
     1
 77
     6
176
     1
 78
     2
176
     1
 67
     7
176
     1
 79
     5
176
     1
170
     0
176
     1
171
     0
176
     1
290
     0
176
     1
 93
        1
176
     1
 44
0.0
176
     1
173
     0
176
     1
  0
ENDSEC
  0
EOF
