  0
SECTION
  2
HEADER
  9
$ACADVER
  1
AC1024
  9
$ACADMAINTVER
 70
     6
  9
$DWGCODEPAGE
  3
UNDEFINED
  9
$INSBASE
 10
0.0
 20
0.0
 30
0.0
  9
$EXTMIN
 10
1.000000000000000E+20
 20
1.000000000000000E+20
 30
1.000000000000000E+20
  9
$EXTMAX
 10
-1.000000000000000E+20
 20
-1.000000000000000E+20
 30
-1.000000000000000E+20
  9
$LIMMIN
 10
0.0
 20
0.0
  9
$LIMMAX
 10
12.0
 20
9.0
  9
$ORTHOMODE
 70
     0
  9
$REGENMODE
 70
     1
  9
$FILLMODE
 70
     1
  9
$QTEXTMODE
 70
     0
  9
$MIRRTEXT
 70
     1
  9
$LTSCALE
 40
1.0
  9
$ATTMODE
 70
     1
  9
$TEXTSIZE
 40
0.2
  9
$TRACEWID
 40
0.05
  9
$TEXTSTYLE
  7
Standard
  9
$CLAYER
  8
0
  9
$CELTYPE
  6
ByLayer
  9
$CECOLOR
 62
   256
  9
$CELTSCALE
 40
1.0
  9
$DISPSILH
 70
     0
  9
$DIMSCALE
 40
1.0
  9
$DIMASZ
 40
0.18
  9
$DIMEXO
 40
0.0625
  9
$DIMDLI
 40
0.38
  9
$DIMRND
 40
0.0
  9
$DIMDLE
 40
0.0
  9
$DIMEXE
 40
0.18
  9
$DIMTP
 40
0.0
  9
$DIMTM
 40
0.0
  9
$DIMTXT
 40
0.18
  9
$DIMCEN
 40
0.09
  9
$DIMTSZ
 40
0.0
  9
$DIMTOL
 70
     0
  9
$DIMLIM
 70
     0
  9
$DIMTIH
 70
     1
  9
$DIMTOH
 70
     1
  9
$DIMSE1
 70
     0
  9
$DIMSE2
 70
     0
  9
$DIMTAD
 70
     0
  9
$DIMZIN
 70
     0
  9
$DIMBLK
  1

  9
$DIMASO
 70
     1
  9
$DIMSHO
 70
     1
  9
$DIMPOST
  1

  9
$DIMAPOST
  1

  9
$DIMALT
 70
     0
  9
$DIMALTD
 70
     2
  9
$DIMALTF
 40
25.4
  9
$DIMLFAC
 40
1.0
  9
$DIMTOFL
 70
     0
  9
$DIMTVP
 40
0.0
  9
$DIMTIX
 70
     0
  9
$DIMSOXD
 70
     0
  9
$DIMSAH
 70
     0
  9
$DIMBLK1
  1

  9
$DIMBLK2
  1

  9
$DIMSTYLE
  2
Standard
  9
$DIMCLRD
 70
     0
  9
$DIMCLRE
 70
     0
  9
$DIMCLRT
 70
     0
  9
$DIMTFAC
 40
1.0
  9
$DIMGAP
 40
0.09
  9
$DIMJUST
 70
     0
  9
$DIMSD1
 70
     0
  9
$DIMSD2
 70
     0
  9
$DIMTOLJ
 70
     1
  9
$DIMTZIN
 70
     0
  9
$DIMALTZ
 70
     0
  9
$DIMALTTZ
 70
     0
  9
$DIMUPT
 70
     0
  9
$DIMDEC
 70
     4
  9
$DIMTDEC
 70
     4
  9
$DIMALTU
 70
     2
  9
$DIMALTTD
 70
     2
  9
$DIMTXSTY
  7
Standard
  9
$DIMAUNIT
 70
     0
  9
$DIMADEC
 70
     0
  9
$DIMALTRND
 40
0.0
  9
$DIMAZIN
 70
     0
  9
$DIMDSEP
 70
    46
  9
$DIMATFIT
 70
     3
  9
$DIMFRAC
 70
     0
  9
$DIMLDRBLK
  1

  9
$DIMLUNIT
 70
     2
  9
$DIMLWD
 70
    -2
  9
$DIMLWE
 70
    -2
  9
$DIMTMOVE
 70
     0
  9
$DIMFXL
 40
1.0
  9
$DIMFXLON
 70
     0
  9
$DIMJOGANG
 40
0.7853981633974483
  9
$DIMTFILL
 70
     0
  9
$DIMTFILLCLR
 70
     0
  9
$DIMARCSYM
 70
     0
  9
$DIMLTYPE
  6

  9
$DIMLTEX1
  6

  9
$DIMLTEX2
  6

  9
$DIMTXTDIRECTION
 70
     0
  9
$LUNITS
 70
     2
  9
$LUPREC
 70
     4
  9
$SKETCHINC
 40
0.1
  9
$FILLETRAD
 40
0.5
  9
$AUNITS
 70
     0
  9
$AUPREC
 70
     0
  9
$MENU
  1
.
  9
$ELEVATION
 40
0.0
  9
$PELEVATION
 40
0.0
  9
$THICKNESS
 40
0.0
  9
$LIMCHECK
 70
     0
  9
$CHAMFERA
 40
0.5
  9
$CHAMFERB
 40
0.5
  9
$CHAMFERC
 40
1.0
  9
$CHAMFERD
 40
0.0
  9
$SKPOLY
 70
     0
  9
$TDCREATE
 40
2457917.626759248
  9
$TDUCREATE
 40
2457917.251759259
  9
$TDUPDATE
 40
2457917.626759248
  9
$TDUUPDATE
 40
2457917.251759259
  9
$TDINDWG
 40
0.0000000116
  9
$TDUSRTIMER
 40
0.0000000116
  9
$USRTIMER
 70
     1
  9
$ANGBASE
 50
0.0
  9
$ANGDIR
 70
     0
  9
$PDMODE
 70
     0
  9
$PDSIZE
 40
0.0
  9
$PLINEWID
 40
0.0
  9
$SPLFRAME
 70
     0
  9
$SPLINETYPE
 70
     6
  9
$SPLINESEGS
 70
     8
  9
$HANDSEED
  5
101
  9
$SURFTAB1
 70
     6
  9
$SURFTAB2
 70
     6
  9
$SURFTYPE
 70
     6
  9
$SURFU
 70
     6
  9
$SURFV
 70
     6
  9
$UCSBASE
  2

  9
$UCSNAME
  2

  9
$UCSORG
 10
0.0
 20
0.0
 30
0.0
  9
$UCSXDIR
 10
1.0
 20
0.0
 30
0.0
  9
$UCSYDIR
 10
0.0
 20
1.0
 30
0.0
  9
$UCSORTHOREF
  2

  9
$UCSORTHOVIEW
 70
     0
  9
$UCSORGTOP
 10
0.0
 20
0.0
 30
0.0
  9
$UCSORGBOTTOM
 10
0.0
 20
0.0
 30
0.0
  9
$UCSORGLEFT
 10
0.0
 20
0.0
 30
0.0
  9
$UCSORGRIGHT
 10
0.0
 20
0.0
 30
0.0
  9
$UCSORGFRONT
 10
0.0
 20
0.0
 30
0.0
  9
$UCSORGBACK
 10
0.0
 20
0.0
 30
0.0
  9
$PUCSBASE
  2

  9
$PUCSNAME
  2

  9
$PUCSORG
 10
0.0
 20
0.0
 30
0.0
  9
$PUCSXDIR
 10
1.0
 20
0.0
 30
0.0
  9
$PUCSYDIR
 10
0.0
 20
1.0
 30
0.0
  9
$PUCSORTHOREF
  2

  9
$PUCSORTHOVIEW
 70
     0
  9
$PUCSORGTOP
 10
0.0
 20
0.0
 30
0.0
  9
$PUCSORGBOTTOM
 10
0.0
 20
0.0
 30
0.0
  9
$PUCSORGLEFT
 10
0.0
 20
0.0
 30
0.0
  9
$PUCSORGRIGHT
 10
0.0
 20
0.0
 30
0.0
  9
$PUCSORGFRONT
 10
0.0
 20
0.0
 30
0.0
  9
$PUCSORGBACK
 10
0.0
 20
0.0
 30
0.0
  9
$USERI1
 70
     0
  9
$USERI2
 70
     0
  9
$USERI3
 70
     0
  9
$USERI4
 70
     0
  9
$USERI5
 70
     0
  9
$USERR1
 40
0.0
  9
$USERR2
 40
0.0
  9
$USERR3
 40
0.0
  9
$USERR4
 40
0.0
  9
$USERR5
 40
0.0
  9
$WORLDVIEW
 70
     1
  9
$SHADEDGE
 70
     3
  9
$SHADEDIF
 70
    70
  9
$TILEMODE
 70
     1
  9
$MAXACTVP
 70
    64
  9
$PINSBASE
 10
0.0
 20
0.0
 30
0.0
  9
$PLIMCHECK
 70
     0
  9
$PEXTMIN
 10
1.000000000000000E+20
 20
1.000000000000000E+20
 30
1.000000000000000E+20
  9
$PEXTMAX
 10
-1.000000000000000E+20
 20
-1.000000000000000E+20
 30
-1.000000000000000E+20
  9
$PLIMMIN
 10
0.0
 20
0.0
  9
$PLIMMAX
 10
12.0
 20
9.0
  9
$UNITMODE
 70
     0
  9
$VISRETAIN
 70
     1
  9
$PLINEGEN
 70
     0
  9
$PSLTSCALE
 70
     1
  9
$TREEDEPTH
 70
  3020
  9
$CMLSTYLE
  2
Standard
  9
$CMLJUST
 70
     0
  9
$CMLSCALE
 40
1.0
  9
$PROXYGRAPHICS
 70
     1
  9
$MEASUREMENT
 70
     0
  9
$CELWEIGHT
370
    -1
  9
$ENDCAPS
280
     0
  9
$JOINSTYLE
280
     0
  9
$LWDISPLAY
290
     1
  9
$INSUNITS
 70
     1
  9
$HYPERLINKBASE
  1

  9
$STYLESHEET
  1

  9
$XEDIT
290
     1
  9
$CEPSNTYPE
380
     0
  9
$PSTYLEMODE
290
     1
  9
$FINGERPRINTGUID
  2
{C32646EA-9186-864E-260E-31C3577686BE}
  9
$VERSIONGUID
  2
{FAEB1C32-E019-11D5-929B-00C0DF256EC4}
  9
$EXTNAMES
290
     1
  9
$PSVPSCALE
 40
0.0
  9
$OLESTARTUP
290
     0
  9
$SORTENTS
280
   127
  9
$INDEXCTL
280
     0
  9
$HIDETEXT
280
     1
  9
$XCLIPFRAME
280
     2
  9
$HALOGAP
280
     0
  9
$OBSCOLOR
 70
   257
  9
$OBSLTYPE
280
     0
  9
$INTERSECTIONDISPLAY
280
     0
  9
$INTERSECTIONCOLOR
 70
   257
  9
$DIMASSOC
280
     2
  9
$PROJECTNAME
  1

  9
$CAMERADISPLAY
290
     0
  9
$LENSLENGTH
 40
50.0
  9
$CAMERAHEIGHT
 40
0.0
  9
$STEPSPERSEC
 40
2.0
  9
$STEPSIZE
 40
6.0
  9
$3DDWFPREC
 40
2.0
  9
$PSOLWIDTH
 40
0.25
  9
$PSOLHEIGHT
 40
4.0
  9
$LOFTANG1
 40
1.570796326794897
  9
$LOFTANG2
 40
1.570796326794897
  9
$LOFTMAG1
 40
0.0
  9
$LOFTMAG2
 40
0.0
  9
$LOFTPARAM
 70
     7
  9
$LOFTNORMALS
280
     1
  9
$LATITUDE
 40
37.795
  9
$LONGITUDE
 40
-122.394
  9
$NORTHDIRECTION
 40
0.0
  9
$TIMEZONE
 70
 -8000
  9
$LIGHTGLYPHDISPLAY
280
     1
  9
$TILEMODELIGHTSYNCH
280
     1
  9
$CMATERIAL
347
3C
  9
$SOLIDHIST
280
     1
  9
$SHOWHIST
280
     1
  9
$DWFFRAME
280
     2
  9
$DGNFRAME
280
     2
  9
$REALWORLDSCALE
290
     1
  9
$INTERFERECOLOR
 62
   256
  9
$CSHADOW
280
     0
  9
$SHADOWPLANELOCATION
 40
0.0
  0
ENDSEC
  0
SECTION
  2
CLASSES
  0
CLASS
  1
ACDBDICTIONARYWDFLT
  2
AcDbDictionaryWithDefault
  3
ObjectDBX Classes
 90
        0
 91
        4
280
     0
281
     0
  0
CLASS
  1
VISUALSTYLE
  2
AcDbVisualStyle
  3
ObjectDBX Classes
 90
     4095
 91
        4
280
     0
281
     0
  0
CLASS
  1
MATERIAL
  2
AcDbMaterial
  3
ObjectDBX Classes
 90
     1153
 91
        4
280
     0
281
     0
  0
CLASS
  1
SUN
  2
AcDbSun
  3
SCENEOE
 90
     1024
 91
        4
280
     0
281
     0
  0
ENDSEC
  0
SECTION
  2
TABLES
  0
TABLE
  2
VPORT
  5
8
330
0
100
AcDbSymbolTable
 70
     1
  0
VPORT
  5
29
330
8
100
AcDbSymbolTableRecord
100
AcDbViewportTableRecord
  2
*Active
 70
     0
 10
0.0
 20
0.0
 11
1.0
 21
1.0
 12
0.0
 22
0.0
 13
0.0
 23
0.0
 14
0.5
 24
0.5
 15
0.5
 25
0.5
 16
0.0
 26
0.0
 36
1.0
 17
91.00082462281999
 27
-128.4993055234307
 37
0.0
 40
256.9986110468615
 41
0.7081814508812795
 42
50.0
 43
0.0
 44
0.0
 50
0.0
 51
0.0
 71
     0
 72
   100
 73
     1
 74
     3
 75
     0
 76
     0
 77
     0
 78
     0
281
     0
 65
     1
110
0.0
120
0.0
130
0.0
111
1.0
121
0.0
131
0.0
112
0.0
122
1.0
132
0.0
 79
     0
146
0.0
 60
     3
 61
     5
292
     1
282
     1
141
0.0
142
0.0
 63
   250
361
3F
  0
ENDTAB
  0
TABLE
  2
LTYPE
  5
5
330
0
100
AcDbSymbolTable
 70
     1
  0
LTYPE
  5
14
330
5
100
AcDbSymbolTableRecord
100
AcDbLinetypeTableRecord
  2
ByBlock
 70
     0
  3

 72
    65
 73
     0
 40
0.0
  0
LTYPE
  5
15
330
5
100
AcDbSymbolTableRecord
100
AcDbLinetypeTableRecord
  2
ByLayer
 70
     0
  3

 72
    65
 73
     0
 40
0.0
  0
LTYPE
  5
16
330
5
100
AcDbSymbolTableRecord
100
AcDbLinetypeTableRecord
  2
Continuous
 70
     0
  3
Solid line
 72
    65
 73
     0
 40
0.0
  0
ENDTAB
  0
TABLE
  2
LAYER
  5
2
330
0
100
AcDbSymbolTable
 70
     2
  0
LAYER
  5
10
330
2
100
AcDbSymbolTableRecord
100
AcDbLayerTableRecord
  2
0
 70
     0
 62
     7
  6
Continuous
370
    -3
390
F
347
3E
  0
LAYER
  5
40
330
2
100
AcDbSymbolTableRecord
100
AcDbLayerTableRecord
  2
_U+30EC_U+30A4_U+30E4_U+30FC 1
 70
     0
 62
     7
  6
Continuous
370
    -3
390
F
347
3E
  0
ENDTAB
  0
TABLE
  2
STYLE
  5
3
330
0
100
AcDbSymbolTable
 70
     1
  0
STYLE
  5
11
330
3
100
AcDbSymbolTableRecord
100
AcDbTextStyleTableRecord
  2
Standard
 70
     0
 40
0.0
 41
1.0
 50
0.0
 71
     0
 42
0.2
  3
txt
  4

  0
ENDTAB
  0
TABLE
  2
VIEW
  5
6
330
0
100
AcDbSymbolTable
 70
     0
  0
ENDTAB
  0
TABLE
  2
UCS
  5
7
330
0
100
AcDbSymbolTable
 70
     0
  0
ENDTAB
  0
TABLE
  2
APPID
  5
9
330
0
100
AcDbSymbolTable
 70
     1
  0
APPID
  5
12
330
9
100
AcDbSymbolTableRecord
100
AcDbRegAppTableRecord
  2
ACAD
 70
     0
  0
ENDTAB
  0
TABLE
  2
DIMSTYLE
  5
A
330
0
100
AcDbSymbolTable
 70
     1
100
AcDbDimStyleTable
  0
DIMSTYLE
105
27
330
A
100
AcDbSymbolTableRecord
100
AcDbDimStyleTableRecord
  2
Standard
 70
     0
178
     0
340
11
  0
ENDTAB
  0
TABLE
  2
BLOCK_RECORD
  5
1
330
0
100
AcDbSymbolTable
 70
     7
  0
BLOCK_RECORD
  5
1F
330
1
100
AcDbSymbolTableRecord
100
AcDbBlockTableRecord
  2
*Model_Space
340
22
 70
     0
280
     1
281
     0
  0
BLOCK_RECORD
  5
1B
330
1
100
AcDbSymbolTableRecord
100
AcDbBlockTableRecord
  2
*Paper_Space
340
1E
 70
     0
280
     1
281
     0
  0
BLOCK_RECORD
  5
23
330
1
100
AcDbSymbolTableRecord
100
AcDbBlockTableRecord
  2
*Paper_Space0
340
26
 70
     0
280
     1
281
     0
  0
BLOCK_RECORD
  5
8C
330
1
100
AcDbSymbolTableRecord
100
AcDbBlockTableRecord
  2
block 2
340
0
102
{BLKREFS
331
8D
102
}
 70
     0
280
     1
281
     0
  0
BLOCK_RECORD
  5
B0
330
1
100
AcDbSymbolTableRecord
100
AcDbBlockTableRecord
  2
block 3
340
0
102
{BLKREFS
331
B1
102
}
 70
     0
280
     1
281
     0
  0
BLOCK_RECORD
  5
C2
330
1
100
AcDbSymbolTableRecord
100
AcDbBlockTableRecord
  2
block 4
340
0
102
{BLKREFS
331
C3
102
}
 70
     0
280
     1
281
     0
  0
BLOCK_RECORD
  5
D7
330
1
100
AcDbSymbolTableRecord
100
AcDbBlockTableRecord
  2
block 5
340
0
102
{BLKREFS
331
D8
102
}
 70
     0
280
     1
281
     0
  0
BLOCK_RECORD
  5
E9
330
1
100
AcDbSymbolTableRecord
100
AcDbBlockTableRecord
  2
block 6
340
0
102
{BLKREFS
331
EA
102
}
 70
     0
280
     1
281
     0
  0
BLOCK_RECORD
  5
F7
330
1
100
AcDbSymbolTableRecord
100
AcDbBlockTableRecord
  2
block 7
340
0
102
{BLKREFS
331
F8
102
}
 70
     0
280
     1
281
     0
  0
ENDTAB
  0
ENDSEC
  0
SECTION
  2
BLOCKS
  0
BLOCK
  5
20
330
1F
100
AcDbEntity
  8
0
100
AcDbBlockBegin
  2
*Model_Space
 70
     0
 10
0.0
 20
0.0
 30
0.0
  3
*Model_Space
  1

  0
ENDBLK
  5
21
330
1F
100
AcDbEntity
  8
0
100
AcDbBlockEnd
  0
BLOCK
  5
1C
330
1B
100
AcDbEntity
 67
     1
  8
0
100
AcDbBlockBegin
  2
*Paper_Space
 70
     0
 10
0.0
 20
0.0
 30
0.0
  3
*Paper_Space
  1

  0
ENDBLK
  5
1D
330
1B
100
AcDbEntity
 67
     1
  8
0
100
AcDbBlockEnd
  0
BLOCK
  5
24
330
23
100
AcDbEntity
  8
0
100
AcDbBlockBegin
  2
*Paper_Space0
 70
     0
 10
0.0
 20
0.0
 30
0.0
  3
*Paper_Space0
  1

  0
ENDBLK
  5
25
330
23
100
AcDbEntity
  8
0
100
AcDbBlockEnd
  0
BLOCK
  5
8E
330
8C
100
AcDbEntity
  8
0
100
AcDbBlockBegin
  2
block 2
 70
     0
 10
0.0
 20
0.0
 30
0.0
  3
block 2
  1

  0
POLYLINE
  5
90
330
8C
100
AcDbEntity
  8
_U+30EC_U+30A4_U+30E4_U+30FC 1
370
     0
100
AcDb2dPolyline
 66
     1
 10
0.0
 20
0.0
 30
0.0
  0
VERTEX
  5
91
330
90
100
AcDbEntity
  8
_U+30EC_U+30A4_U+30E4_U+30FC 1
370
     0
100
AcDbVertex
100
AcDb2dVertex
 10
85.445602734715
 20
-119.484179657629
 30
0.0
  0
VERTEX
  5
92
330
90
100
AcDbEntity
  8
_U+30EC_U+30A4_U+30E4_U+30FC 1
370
     0
100
AcDbVertex
100
AcDb2dVertex
 10
85.82077363305869
 20
-119.484179657629
 30
0.0
  0
VERTEX
  5
93
330
90
100
AcDbEntity
  8
_U+30EC_U+30A4_U+30E4_U+30FC 1
370
     0
100
AcDbVertex
100
AcDb2dVertex
 10
85.82077363305869
 20
-119.7360161376007
 30
0.0
  0
VERTEX
  5
94
330
90
100
AcDbEntity
  8
_U+30EC_U+30A4_U+30E4_U+30FC 1
370
     0
100
AcDbVertex
100
AcDb2dVertex
 10
85.445602734715
 20
-119.7360161376007
 30
0.0
  0
VERTEX
  5
95
330
90
100
AcDbEntity
  8
_U+30EC_U+30A4_U+30E4_U+30FC 1
370
     0
100
AcDbVertex
100
AcDb2dVertex
 10
85.445602734715
 20
-120.4935926348072
 30
0.0
  0
VERTEX
  5
96
330
90
100
AcDbEntity
  8
_U+30EC_U+30A4_U+30E4_U+30FC 1
370
     0
100
AcDbVertex
100
AcDb2dVertex
 10
85.2030680125534
 20
-120.4935926348072
 30
0.0
  0
VERTEX
  5
97
330
90
100
AcDbEntity
  8
_U+30EC_U+30A4_U+30E4_U+30FC 1
370
     0
100
AcDbVertex
100
AcDb2dVertex
 10
84.15076359658384
 20
-119.7091443928158
 30
0.0
  0
VERTEX
  5
98
330
90
100
AcDbEntity
  8
_U+30EC_U+30A4_U+30E4_U+30FC 1
370
     0
100
AcDbVertex
100
AcDb2dVertex
 10
84.15076359658384
 20
-119.484179657629
 30
0.0
  0
VERTEX
  5
99
330
90
100
AcDbEntity
  8
_U+30EC_U+30A4_U+30E4_U+30FC 1
370
     0
100
AcDbVertex
100
AcDb2dVertex
 10
85.23045652166114
 20
-119.484179657629
 30
0.0
  0
VERTEX
  5
9A
330
90
100
AcDbEntity
  8
_U+30EC_U+30A4_U+30E4_U+30FC 1
370
     0
100
AcDbVertex
100
AcDb2dVertex
 10
85.23045652166114
 20
-119.2447455214041
 30
0.0
  0
VERTEX
  5
9B
330
90
100
AcDbEntity
  8
_U+30EC_U+30A4_U+30E4_U+30FC 1
370
     0
100
AcDbVertex
100
AcDb2dVertex
 10
85.445602734715
 20
-119.2447455214041
 30
0.0
  0
VERTEX
  5
9C
330
90
100
AcDbEntity
  8
_U+30EC_U+30A4_U+30E4_U+30FC 1
370
     0
100
AcDbVertex
100
AcDb2dVertex
 10
85.445602734715
 20
-119.484179657629
 30
0.0
  0
SEQEND
  5
9D
330
90
100
AcDbEntity
  8
_U+30EC_U+30A4_U+30E4_U+30FC 1
370
     0
  0
POLYLINE
  5
9E
330
8C
100
AcDbEntity
  8
_U+30EC_U+30A4_U+30E4_U+30FC 1
370
     0
100
AcDb2dPolyline
 66
     1
 10
0.0
 20
0.0
 30
0.0
  0
VERTEX
  5
9F
330
9E
100
AcDbEntity
  8
_U+30EC_U+30A4_U+30E4_U+30FC 1
370
     0
100
AcDbVertex
100
AcDb2dVertex
 10
84.52128361602246
 20
-119.7360161376007
 30
0.0
  0
VERTEX
  5
A0
330
9E
100
AcDbEntity
  8
_U+30EC_U+30A4_U+30E4_U+30FC 1
370
     0
100
AcDbVertex
100
AcDb2dVertex
 10
85.23045652166114
 20
-120.263804765941
 30
0.0
  0
VERTEX
  5
A1
330
9E
100
AcDbEntity
  8
_U+30EC_U+30A4_U+30E4_U+30FC 1
370
     0
100
AcDbVertex
100
AcDb2dVertex
 10
85.23045652166114
 20
-119.7360161376007
 30
0.0
  0
VERTEX
  5
A2
330
9E
100
AcDbEntity
  8
_U+30EC_U+30A4_U+30E4_U+30FC 1
370
     0
100
AcDbVertex
100
AcDb2dVertex
 10
84.52128361602246
 20
-119.7360161376007
 30
0.0
  0
SEQEND
  5
A3
330
9E
100
AcDbEntity
  8
_U+30EC_U+30A4_U+30E4_U+30FC 1
370
     0
  0
HATCH
  5
A4
330
8C
100
AcDbEntity
  8
_U+30EC_U+30A4_U+30E4_U+30FC 1
 62
   179
420
  2234388
100
AcDbHatch
 10
0.0
 20
0.0
 30
0.0
210
0.0
220
0.0
230
1.0
  2
SOLID
 70
     1
 71
     0
 91
        2
 92
        1
 93
       11
 72
     1
 10
85.445602734715
 20
-119.484179657629
 11
85.82077363305869
 21
-119.484179657629
 72
     1
 10
85.82077363305869
 20
-119.484179657629
 11
85.82077363305869
 21
-119.7360161376007
 72
     1
 10
85.82077363305869
 20
-119.7360161376007
 11
85.445602734715
 21
-119.7360161376007
 72
     1
 10
85.445602734715
 20
-119.7360161376007
 11
85.445602734715
 21
-120.4935926348072
 72
     1
 10
85.445602734715
 20
-120.4935926348072
 11
85.2030680125534
 21
-120.4935926348072
 72
     1
 10
85.2030680125534
 20
-120.4935926348072
 11
84.15076359658384
 21
-119.7091443928158
 72
     1
 10
84.15076359658384
 20
-119.7091443928158
 11
84.15076359658384
 21
-119.484179657629
 72
     1
 10
84.15076359658384
 20
-119.484179657629
 11
85.23045652166114
 21
-119.484179657629
 72
     1
 10
85.23045652166114
 20
-119.484179657629
 11
85.23045652166114
 21
-119.2447455214041
 72
     1
 10
85.23045652166114
 20
-119.2447455214041
 11
85.445602734715
 21
-119.2447455214041
 72
     1
 10
85.445602734715
 20
-119.2447455214041
 11
85.445602734715
 21
-119.484179657629
 97
        0
 92
        1
 93
        3
 72
     1
 10
84.52128361602246
 20
-119.7360161376007
 11
85.23045652166114
 21
-120.263804765941
 72
     1
 10
85.23045652166114
 20
-120.263804765941
 11
85.23045652166114
 21
-119.7360161376007
 72
     1
 10
85.23045652166114
 20
-119.7360161376007
 11
84.52128361602246
 21
-119.7360161376007
 97
        0
 75
     2
 76
     1
 98
        0
  0
SPLINE
  5
A5
330
8C
100
AcDbEntity
  8
_U+30EC_U+30A4_U+30E4_U+30FC 1
370
     0
100
AcDbSpline
210
0.0
220
0.0
230
1.0
 70
    11
 71
     3
 72
    29
 73
    25
 74
     0
 42
0.0000000001
 43
0.0000000001
 12
1.0
 22
0.0
 32
0.0
 13
1.0
 23
0.0
 33
0.0
 40
0.0
 40
0.0
 40
0.0
 40
0.0
 40
1.0
 40
1.0
 40
1.0
 40
2.0
 40
2.0
 40
2.0
 40
3.0
 40
3.0
 40
3.0
 40
4.0
 40
4.0
 40
4.0
 40
5.0
 40
5.0
 40
5.0
 40
6.0
 40
6.0
 40
6.0
 40
7.0
 40
7.0
 40
7.0
 40
8.0
 40
8.0
 40
8.0
 40
8.0
 10
85.62853730498176
 20
-118.0499864071194
 30
0.0
 10
85.85505233313694
 20
-118.1746988636855
 30
0.0
 10
85.87572290604844
 20
-118.375203420927
 30
0.0
 10
85.87572290604844
 20
-118.5095621448518
 30
0.0
 10
85.87572290604844
 20
-118.6952527915067
 30
0.0
 10
85.82542451196379
 20
-118.8588948270561
 30
0.0
 10
85.62853730498176
 20
-118.9691378825841
 30
0.0
 10
85.41804197083299
 20
-119.0886826959223
 30
0.0
 10
85.16189912150467
 20
-119.1107313070279
 30
0.0
 10
84.98568248743413
 20
-119.1107313070279
 30
0.0
 10
84.8301364262751
 20
-119.1107313070279
 30
0.0
 10
84.55797388294037
 20
-119.091094262762
 30
0.0
 10
84.34282766988652
 20
-118.9691378825841
 30
0.0
 10
84.12320283270184
 20
-118.8444254260181
 30
0.0
 10
84.09805363565953
 20
-118.6587347793631
 30
0.0
 10
84.09805363565953
 20
-118.5095621448518
 30
0.0
 10
84.09805363565953
 20
-118.3262830650365
 30
0.0
 10
84.14611271767875
 20
-118.1602294626475
 30
0.0
 10
84.34282766988652
 20
-118.0499864071194
 30
0.0
 10
84.55108369196986
 20
-117.9352647274606
 30
0.0
 10
84.79809703826228
 20
-117.9083929826757
 30
0.0
 10
84.98568248743413
 20
-117.9083929826757
 30
0.0
 10
85.17102862454058
 20
-117.9083929826757
 30
0.0
 10
85.42045353767267
 20
-117.932853160621
 30
0.0
 10
85.62853730498176
 20
-118.0499864071194
 30
0.0
  0
SPLINE
  5
A6
330
8C
100
AcDbEntity
  8
_U+30EC_U+30A4_U+30E4_U+30FC 1
370
     0
100
AcDbSpline
210
0.0
220
0.0
230
1.0
 70
    11
 71
     3
 72
    17
 73
    13
 74
     0
 42
0.0000000001
 43
0.0000000001
 12
1.0
 22
0.0
 32
0.0
 13
1.0
 23
0.0
 33
0.0
 40
0.0
 40
0.0
 40
0.0
 40
0.0
 40
1.0
 40
1.0
 40
1.0
 40
2.0
 40
2.0
 40
2.0
 40
3.0
 40
3.0
 40
3.0
 40
4.0
 40
4.0
 40
4.0
 40
4.0
 10
84.30630965774287
 20
-118.5095621448518
 30
0.0
 10
84.30630965774287
 20
-118.7979166369672
 30
0.0
 10
84.6129231559301
 20
-118.8516601265371
 30
0.0
 10
84.98568248743413
 20
-118.8516601265371
 30
0.0
 10
85.3312255646047
 20
-118.8516601265371
 30
0.0
 10
85.66522757189966
 20
-118.8099744711656
 30
0.0
 10
85.66522757189966
 20
-118.5095621448518
 30
0.0
 10
85.66522757189966
 20
-118.2236192195761
 30
0.0
 10
85.36085338577784
 20
-118.1674641631665
 30
0.0
 10
84.98568248743413
 20
-118.1674641631665
 30
0.0
 10
84.64031166503784
 20
-118.1674641631665
 30
0.0
 10
84.30630965774287
 20
-118.2115613853777
 30
0.0
 10
84.30630965774287
 20
-118.5095621448518
 30
0.0
  0
HATCH
  5
A7
330
8C
100
AcDbEntity
  8
_U+30EC_U+30A4_U+30E4_U+30FC 1
 62
   179
420
  2234388
100
AcDbHatch
 10
0.0
 20
0.0
 30
0.0
210
0.0
220
0.0
230
1.0
  2
SOLID
 70
     1
 71
     0
 91
        2
 92
        1
 93
        1
 72
     4
 94
        3
 73
     0
 74
     1
 95
       29
 96
       25
 40
0.0
 40
0.0
 40
0.0
 40
0.0
 40
1.0
 40
1.0
 40
1.0
 40
2.0
 40
2.0
 40
2.0
 40
3.0
 40
3.0
 40
3.0
 40
4.0
 40
4.0
 40
4.0
 40
5.0
 40
5.0
 40
5.0
 40
6.0
 40
6.0
 40
6.0
 40
7.0
 40
7.0
 40
7.0
 40
8.0
 40
8.0
 40
8.0
 40
8.0
 10
85.62853730498176
 20
-118.0499864071194
 10
85.85505233313694
 20
-118.1746988636855
 10
85.87572290604844
 20
-118.375203420927
 10
85.87572290604844
 20
-118.5095621448518
 10
85.87572290604844
 20
-118.6952527915067
 10
85.82542451196379
 20
-118.8588948270561
 10
85.62853730498176
 20
-118.9691378825841
 10
85.41804197083299
 20
-119.0886826959223
 10
85.16189912150467
 20
-119.1107313070279
 10
84.98568248743413
 20
-119.1107313070279
 10
84.8301364262751
 20
-119.1107313070279
 10
84.55797388294037
 20
-119.091094262762
 10
84.34282766988652
 20
-118.9691378825841
 10
84.12320283270184
 20
-118.8444254260181
 10
84.09805363565953
 20
-118.6587347793631
 10
84.09805363565953
 20
-118.5095621448518
 10
84.09805363565953
 20
-118.3262830650365
 10
84.14611271767875
 20
-118.1602294626475
 10
84.34282766988652
 20
-118.0499864071194
 10
84.55108369196986
 20
-117.9352647274606
 10
84.79809703826228
 20
-117.9083929826757
 10
84.98568248743413
 20
-117.9083929826757
 10
85.17102862454058
 20
-117.9083929826757
 10
85.42045353767267
 20
-117.932853160621
 10
85.62853730498176
 20
-118.0499864071194
 97
        0
 97
        0
 92
        1
 93
        1
 72
     4
 94
        3
 73
     0
 74
     1
 95
       17
 96
       13
 40
0.0
 40
0.0
 40
0.0
 40
0.0
 40
1.0
 40
1.0
 40
1.0
 40
2.0
 40
2.0
 40
2.0
 40
3.0
 40
3.0
 40
3.0
 40
4.0
 40
4.0
 40
4.0
 40
4.0
 10
84.30630965774287
 20
-118.5095621448518
 10
84.30630965774287
 20
-118.7979166369672
 10
84.6129231559301
 20
-118.8516601265371
 10
84.98568248743413
 20
-118.8516601265371
 10
85.3312255646047
 20
-118.8516601265371
 10
85.66522757189966
 20
-118.8099744711656
 10
85.66522757189966
 20
-118.5095621448518
 10
85.66522757189966
 20
-118.2236192195761
 10
85.36085338577784
 20
-118.1674641631665
 10
84.98568248743413
 20
-118.1674641631665
 10
84.64031166503784
 20
-118.1674641631665
 10
84.30630965774287
 20
-118.2115613853777
 10
84.30630965774287
 20
-118.5095621448518
 97
        0
 97
        0
 75
     2
 76
     1
 98
        0
  0
ENDBLK
  5
8F
330
8C
100
AcDbEntity
  8
0
100
AcDbBlockEnd
  0
BLOCK
  5
B2
330
B0
100
AcDbEntity
  8
0
100
AcDbBlockBegin
  2
block 3
 70
     0
 10
0.0
 20
0.0
 30
0.0
  3
block 3
  1

  0
SPLINE
  5
B4
330
B0
100
AcDbEntity
  8
_U+30EC_U+30A4_U+30E4_U+30FC 1
370
     0
100
AcDbSpline
210
0.0
220
0.0
230
1.0
 70
    11
 71
     3
 72
    26
 73
    22
 74
     0
 42
0.0000000001
 43
0.0000000001
 12
1.0
 22
0.0
 32
0.0
 13
1.0
 23
0.0
 33
0.0
 40
0.0
 40
0.0
 40
0.0
 40
0.0
 40
1.0
 40
1.0
 40
1.0
 40
2.0
 40
2.0
 40
2.0
 40
3.0
 40
3.0
 40
3.0
 40
4.0
 40
4.0
 40
4.0
 40
5.0
 40
5.0
 40
5.0
 40
6.0
 40
6.0
 40
6.0
 40
7.0
 40
7.0
 40
7.0
 40
7.0
 10
85.3505180993221
 20
-128.4700222118061
 30
0.0
 10
85.3505180993221
 20
-128.4700222118061
 30
0.0
 10
84.15627574936023
 20
-128.4700222118061
 30
0.0
 10
84.15627574936023
 20
-128.4700222118061
 30
0.0
 10
84.15627574936023
 20
-128.4700222118061
 30
0.0
 10
84.15627574936023
 20
-128.8513942820233
 30
0.0
 10
84.15627574936023
 20
-128.8513942820233
 30
0.0
 10
84.15627574936023
 20
-128.8513942820233
 30
0.0
 10
83.99625106407039
 20
-128.8513942820233
 30
0.0
 10
83.99625106407039
 20
-128.8513942820233
 30
0.0
 10
83.98023137006398
 20
-128.4676106449664
 30
0.0
 10
83.80401473599345
 20
-128.4138671553965
 30
0.0
 10
83.68050806284724
 20
-128.3797607100926
 30
0.0
 10
83.68050806284724
 20
-128.3797607100926
 30
0.0
 10
83.68050806284724
 20
-128.2109510313153
 30
0.0
 10
83.68050806284724
 20
-128.2109510313153
 30
0.0
 10
83.68050806284724
 20
-128.2109510313153
 30
0.0
 10
85.3505180993221
 20
-128.2109510313153
 30
0.0
 10
85.3505180993221
 20
-128.2109510313153
 30
0.0
 10
85.3505180993221
 20
-128.2109510313153
 30
0.0
 10
85.3505180993221
 20
-128.4700222118061
 30
0.0
 10
85.3505180993221
 20
-128.4700222118061
 30
0.0
  0
HATCH
  5
B5
330
B0
100
AcDbEntity
  8
_U+30EC_U+30A4_U+30E4_U+30FC 1
 62
   179
420
  2234388
100
AcDbHatch
 10
0.0
 20
0.0
 30
0.0
210
0.0
220
0.0
230
1.0
  2
SOLID
 70
     1
 71
     0
 91
        1
 92
        1
 93
        1
 72
     4
 94
        3
 73
     0
 74
     1
 95
       26
 96
       22
 40
0.0
 40
0.0
 40
0.0
 40
0.0
 40
1.0
 40
1.0
 40
1.0
 40
2.0
 40
2.0
 40
2.0
 40
3.0
 40
3.0
 40
3.0
 40
4.0
 40
4.0
 40
4.0
 40
5.0
 40
5.0
 40
5.0
 40
6.0
 40
6.0
 40
6.0
 40
7.0
 40
7.0
 40
7.0
 40
7.0
 10
85.3505180993221
 20
-128.4700222118061
 10
85.3505180993221
 20
-128.4700222118061
 10
84.15627574936023
 20
-128.4700222118061
 10
84.15627574936023
 20
-128.4700222118061
 10
84.15627574936023
 20
-128.4700222118061
 10
84.15627574936023
 20
-128.8513942820233
 10
84.15627574936023
 20
-128.8513942820233
 10
84.15627574936023
 20
-128.8513942820233
 10
83.99625106407039
 20
-128.8513942820233
 10
83.99625106407039
 20
-128.8513942820233
 10
83.98023137006398
 20
-128.4676106449664
 10
83.80401473599345
 20
-128.4138671553965
 10
83.68050806284724
 20
-128.3797607100926
 10
83.68050806284724
 20
-128.3797607100926
 10
83.68050806284724
 20
-128.2109510313153
 10
83.68050806284724
 20
-128.2109510313153
 10
83.68050806284724
 20
-128.2109510313153
 10
85.3505180993221
 20
-128.2109510313153
 10
85.3505180993221
 20
-128.2109510313153
 10
85.3505180993221
 20
-128.2109510313153
 10
85.3505180993221
 20
-128.4700222118061
 10
85.3505180993221
 20
-128.4700222118061
 97
        0
 97
        0
 75
     2
 76
     1
 98
        0
  0
ENDBLK
  5
B3
330
B0
100
AcDbEntity
  8
0
100
AcDbBlockEnd
  0
BLOCK
  5
C4
330
C2
100
AcDbEntity
  8
0
100
AcDbBlockBegin
  2
block 4
 70
     0
 10
0.0
 20
0.0
 30
0.0
  3
block 4
  1

  0
SPLINE
  5
C6
330
C2
100
AcDbEntity
  8
_U+30EC_U+30A4_U+30E4_U+30FC 1
370
     0
100
AcDbSpline
210
0.0
220
0.0
230
1.0
 70
    11
 71
     3
 72
    62
 73
    58
 74
     0
 42
0.0000000001
 43
0.0000000001
 12
1.0
 22
0.0
 32
0.0
 13
1.0
 23
0.0
 33
0.0
 40
0.0
 40
0.0
 40
0.0
 40
0.0
 40
1.0
 40
1.0
 40
1.0
 40
2.0
 40
2.0
 40
2.0
 40
3.0
 40
3.0
 40
3.0
 40
4.0
 40
4.0
 40
4.0
 40
5.0
 40
5.0
 40
5.0
 40
6.0
 40
6.0
 40
6.0
 40
7.0
 40
7.0
 40
7.0
 40
8.0
 40
8.0
 40
8.0
 40
9.0
 40
9.0
 40
9.0
 40
10.0
 40
10.0
 40
10.0
 40
11.0
 40
11.0
 40
11.0
 40
12.0
 40
12.0
 40
12.0
 40
13.0
 40
13.0
 40
13.0
 40
14.0
 40
14.0
 40
14.0
 40
15.0
 40
15.0
 40
15.0
 40
16.0
 40
16.0
 40
16.0
 40
17.0
 40
17.0
 40
17.0
 40
18.0
 40
18.0
 40
18.0
 40
19.0
 40
19.0
 40
19.0
 40
19.0
 10
85.69933401720364
 20
-136.0778265718833
 30
0.0
 10
85.69933401720364
 20
-136.1880696274113
 30
0.0
 10
85.67642413222673
 20
-136.4395615978346
 30
0.0
 10
85.47505830111388
 20
-136.5839110986665
 30
0.0
 10
85.35379094003308
 20
-136.6693494667007
 30
0.0
 10
85.24630396089329
 20
-136.6741726003801
 30
0.0
 10
85.15483667575991
 20
-136.6789957340594
 30
0.0
 10
85.15483667575991
 20
-136.6789957340594
 30
0.0
 10
85.15483667575991
 20
-136.4250921967965
 30
0.0
 10
85.15483667575991
 20
-136.4250921967965
 30
0.0
 10
85.23493514579197
 20
-136.4226806299568
 30
0.0
 10
85.48883868305488
 20
-136.4102782862099
 30
0.0
 10
85.48883868305488
 20
-136.0826497055627
 30
0.0
 10
85.48883868305488
 20
-135.9238308036927
 30
0.0
 10
85.4133910919279
 20
-135.7481309339449
 30
0.0
 10
85.16620549086123
 20
-135.7481309339449
 30
0.0
 10
85.04045950564961
 20
-135.7481309339449
 30
0.0
 10
84.98774954472529
 20
-135.7918836466076
 30
0.0
 10
84.95347084464706
 20
-135.8287461682998
 30
0.0
 10
84.87337237461499
 20
-135.9141845363339
 30
0.0
 10
84.85976424744825
 20
-136.0485432602587
 30
0.0
 10
84.85976424744825
 20
-136.1122775267358
 30
0.0
 10
84.85976424744825
 20
-136.1339816282929
 30
0.0
 10
84.86200355951367
 20
-136.1756672836644
 30
0.0
 10
84.8664821836445
 20
-136.2073621621287
 30
0.0
 10
84.8664821836445
 20
-136.2073621621287
 30
0.0
 10
84.65598684949573
 20
-136.2073621621287
 30
0.0
 10
84.65598684949573
 20
-136.2073621621287
 30
0.0
 10
84.66287704046623
 20
-136.163609449466
 30
0.0
 10
84.66528860730591
 20
-136.1146890935755
 30
0.0
 10
84.66528860730591
 20
-136.1071098835079
 30
0.0
 10
84.66528860730591
 20
-136.031662292381
 30
0.0
 10
84.642378722329
 20
-135.8018744235148
 30
0.0
 10
84.3860636182264
 20
-135.8018744235148
 30
0.0
 10
84.19399954492373
 20
-135.8018744235148
 30
0.0
 10
84.1343993930289
 20
-135.9534586248658
 30
0.0
 10
84.1343993930289
 20
-136.080238138723
 30
0.0
 10
84.1343993930289
 20
-136.3858181082647
 30
0.0
 10
84.3860636182264
 20
-136.3954643756234
 30
0.0
 10
84.46392277619304
 20
-136.4006320188512
 30
0.0
 10
84.46392277619304
 20
-136.4006320188512
 30
0.0
 10
84.46392277619304
 20
-136.6352430213967
 30
0.0
 10
84.46392277619304
 20
-136.6352430213967
 30
0.0
 10
84.32887503317126
 20
-136.6252522444895
 30
0.0
 10
83.92166474681473
 20
-136.5935573660252
 30
0.0
 10
83.92166474681473
 20
-136.0657687376849
 30
0.0
 10
83.92166474681473
 20
-135.8066975571942
 30
0.0
 10
84.05895180190193
 20
-135.5279893324374
 30
0.0
 10
84.3791734272559
 20
-135.5279893324374
 30
0.0
 10
84.58053925836876
 20
-135.5279893324374
 30
0.0
 10
84.66976723143672
 20
-135.6378878784169
 30
0.0
 10
84.73608531952779
 20
-135.7529540676243
 30
0.0
 10
84.7658853954752
 20
-135.6819851006281
 30
0.0
 10
84.85287405647776
 20
-135.4718342760279
 30
0.0
 10
85.1525973636945
 20
-135.4718342760279
 30
0.0
 10
85.51863875900229
 20
-135.4718342760279
 30
0.0
 10
85.69933401720364
 20
-135.7577772013036
 30
0.0
 10
85.69933401720364
 20
-136.0778265718833
 30
0.0
  0
HATCH
  5
C7
330
C2
100
AcDbEntity
  8
_U+30EC_U+30A4_U+30E4_U+30FC 1
 62
   179
420
  2234388
100
AcDbHatch
 10
0.0
 20
0.0
 30
0.0
210
0.0
220
0.0
230
1.0
  2
SOLID
 70
     1
 71
     0
 91
        1
 92
        1
 93
        1
 72
     4
 94
        3
 73
     0
 74
     1
 95
       62
 96
       58
 40
0.0
 40
0.0
 40
0.0
 40
0.0
 40
1.0
 40
1.0
 40
1.0
 40
2.0
 40
2.0
 40
2.0
 40
3.0
 40
3.0
 40
3.0
 40
4.0
 40
4.0
 40
4.0
 40
5.0
 40
5.0
 40
5.0
 40
6.0
 40
6.0
 40
6.0
 40
7.0
 40
7.0
 40
7.0
 40
8.0
 40
8.0
 40
8.0
 40
9.0
 40
9.0
 40
9.0
 40
10.0
 40
10.0
 40
10.0
 40
11.0
 40
11.0
 40
11.0
 40
12.0
 40
12.0
 40
12.0
 40
13.0
 40
13.0
 40
13.0
 40
14.0
 40
14.0
 40
14.0
 40
15.0
 40
15.0
 40
15.0
 40
16.0
 40
16.0
 40
16.0
 40
17.0
 40
17.0
 40
17.0
 40
18.0
 40
18.0
 40
18.0
 40
19.0
 40
19.0
 40
19.0
 40
19.0
 10
85.69933401720364
 20
-136.0778265718833
 10
85.69933401720364
 20
-136.1880696274113
 10
85.67642413222673
 20
-136.4395615978346
 10
85.47505830111388
 20
-136.5839110986665
 10
85.35379094003308
 20
-136.6693494667007
 10
85.24630396089329
 20
-136.6741726003801
 10
85.15483667575991
 20
-136.6789957340594
 10
85.15483667575991
 20
-136.6789957340594
 10
85.15483667575991
 20
-136.4250921967965
 10
85.15483667575991
 20
-136.4250921967965
 10
85.23493514579197
 20
-136.4226806299568
 10
85.48883868305488
 20
-136.4102782862099
 10
85.48883868305488
 20
-136.0826497055627
 10
85.48883868305488
 20
-135.9238308036927
 10
85.4133910919279
 20
-135.7481309339449
 10
85.16620549086123
 20
-135.7481309339449
 10
85.04045950564961
 20
-135.7481309339449
 10
84.98774954472529
 20
-135.7918836466076
 10
84.95347084464706
 20
-135.8287461682998
 10
84.87337237461499
 20
-135.9141845363339
 10
84.85976424744825
 20
-136.0485432602587
 10
84.85976424744825
 20
-136.1122775267358
 10
84.85976424744825
 20
-136.1339816282929
 10
84.86200355951367
 20
-136.1756672836644
 10
84.8664821836445
 20
-136.2073621621287
 10
84.8664821836445
 20
-136.2073621621287
 10
84.65598684949573
 20
-136.2073621621287
 10
84.65598684949573
 20
-136.2073621621287
 10
84.66287704046623
 20
-136.163609449466
 10
84.66528860730591
 20
-136.1146890935755
 10
84.66528860730591
 20
-136.1071098835079
 10
84.66528860730591
 20
-136.031662292381
 10
84.642378722329
 20
-135.8018744235148
 10
84.3860636182264
 20
-135.8018744235148
 10
84.19399954492373
 20
-135.8018744235148
 10
84.1343993930289
 20
-135.9534586248658
 10
84.1343993930289
 20
-136.080238138723
 10
84.1343993930289
 20
-136.3858181082647
 10
84.3860636182264
 20
-136.3954643756234
 10
84.46392277619304
 20
-136.4006320188512
 10
84.46392277619304
 20
-136.4006320188512
 10
84.46392277619304
 20
-136.6352430213967
 10
84.46392277619304
 20
-136.6352430213967
 10
84.32887503317126
 20
-136.6252522444895
 10
83.92166474681473
 20
-136.5935573660252
 10
83.92166474681473
 20
-136.0657687376849
 10
83.92166474681473
 20
-135.8066975571942
 10
84.05895180190193
 20
-135.5279893324374
 10
84.3791734272559
 20
-135.5279893324374
 10
84.58053925836876
 20
-135.5279893324374
 10
84.66976723143672
 20
-135.6378878784169
 10
84.73608531952779
 20
-135.7529540676243
 10
84.7658853954752
 20
-135.6819851006281
 10
84.85287405647776
 20
-135.4718342760279
 10
85.1525973636945
 20
-135.4718342760279
 10
85.51863875900229
 20
-135.4718342760279
 10
85.69933401720364
 20
-135.7577772013036
 10
85.69933401720364
 20
-136.0778265718833
 97
        0
 97
        0
 75
     2
 76
     1
 98
        0
  0
SPLINE
  5
C8
330
C2
100
AcDbEntity
  8
_U+30EC_U+30A4_U+30E4_U+30FC 1
370
     0
100
AcDbSpline
210
0.0
220
0.0
230
1.0
 70
    11
 71
     3
 72
    29
 73
    25
 74
     0
 42
0.0000000001
 43
0.0000000001
 12
1.0
 22
0.0
 32
0.0
 13
1.0
 23
0.0
 33
0.0
 40
0.0
 40
0.0
 40
0.0
 40
0.0
 40
1.0
 40
1.0
 40
1.0
 40
2.0
 40
2.0
 40
2.0
 40
3.0
 40
3.0
 40
3.0
 40
4.0
 40
4.0
 40
4.0
 40
5.0
 40
5.0
 40
5.0
 40
6.0
 40
6.0
 40
6.0
 40
7.0
 40
7.0
 40
7.0
 40
8.0
 40
8.0
 40
8.0
 40
8.0
 10
85.45214841613696
 20
-134.2502034169583
 30
0.0
 10
85.67866344429214
 20
-134.3749158735243
 30
0.0
 10
85.69933401720364
 20
-134.5754204307659
 30
0.0
 10
85.69933401720364
 20
-134.7097791546906
 30
0.0
 10
85.69933401720364
 20
-134.8954698013456
 30
0.0
 10
85.64903562311899
 20
-135.0591118368949
 30
0.0
 10
85.45214841613696
 20
-135.1693548924229
 30
0.0
 10
85.2416530819882
 20
-135.2888997057611
 30
0.0
 10
84.98551023265988
 20
-135.3109483168667
 30
0.0
 10
84.80929359858935
 20
-135.3109483168667
 30
0.0
 10
84.65374753743032
 20
-135.3109483168667
 30
0.0
 10
84.38158499409558
 20
-135.2913112726008
 30
0.0
 10
84.16643878104173
 20
-135.1693548924229
 30
0.0
 10
83.94681394385705
 20
-135.0446424358569
 30
0.0
 10
83.92166474681473
 20
-134.8589517892019
 30
0.0
 10
83.92166474681473
 20
-134.7097791546906
 30
0.0
 10
83.92166474681473
 20
-134.5265000748753
 30
0.0
 10
83.96972382883396
 20
-134.3604464724863
 30
0.0
 10
84.16643878104173
 20
-134.2502034169583
 30
0.0
 10
84.37469480312508
 20
-134.1354817372995
 30
0.0
 10
84.6217081494175
 20
-134.1086099925145
 30
0.0
 10
84.80929359858935
 20
-134.1086099925145
 30
0.0
 10
84.99463973569578
 20
-134.1086099925145
 30
0.0
 10
85.24406464882787
 20
-134.1330701704598
 30
0.0
 10
85.45214841613696
 20
-134.2502034169583
 30
0.0
  0
SPLINE
  5
C9
330
C2
100
AcDbEntity
  8
_U+30EC_U+30A4_U+30E4_U+30FC 1
370
     0
100
AcDbSpline
210
0.0
220
0.0
230
1.0
 70
    11
 71
     3
 72
    17
 73
    13
 74
     0
 42
0.0000000001
 43
0.0000000001
 12
1.0
 22
0.0
 32
0.0
 13
1.0
 23
0.0
 33
0.0
 40
0.0
 40
0.0
 40
0.0
 40
0.0
 40
1.0
 40
1.0
 40
1.0
 40
2.0
 40
2.0
 40
2.0
 40
3.0
 40
3.0
 40
3.0
 40
4.0
 40
4.0
 40
4.0
 40
4.0
 10
84.12992076889807
 20
-134.7097791546906
 30
0.0
 10
84.12992076889807
 20
-134.998133646806
 30
0.0
 10
84.43653426708532
 20
-135.0518771363759
 30
0.0
 10
84.80929359858935
 20
-135.0518771363759
 30
0.0
 10
85.15483667575991
 20
-135.0518771363759
 30
0.0
 10
85.48883868305488
 20
-135.0101914810044
 30
0.0
 10
85.48883868305488
 20
-134.7097791546906
 30
0.0
 10
85.48883868305488
 20
-134.4238362294149
 30
0.0
 10
85.18446449693306
 20
-134.3676811730053
 30
0.0
 10
84.80929359858935
 20
-134.3676811730053
 30
0.0
 10
84.46392277619304
 20
-134.3676811730053
 30
0.0
 10
84.12992076889807
 20
-134.4117783952165
 30
0.0
 10
84.12992076889807
 20
-134.7097791546906
 30
0.0
  0
HATCH
  5
CA
330
C2
100
AcDbEntity
  8
_U+30EC_U+30A4_U+30E4_U+30FC 1
 62
   179
420
  2234388
100
AcDbHatch
 10
0.0
 20
0.0
 30
0.0
210
0.0
220
0.0
230
1.0
  2
SOLID
 70
     1
 71
     0
 91
        2
 92
        1
 93
        1
 72
     4
 94
        3
 73
     0
 74
     1
 95
       29
 96
       25
 40
0.0
 40
0.0
 40
0.0
 40
0.0
 40
1.0
 40
1.0
 40
1.0
 40
2.0
 40
2.0
 40
2.0
 40
3.0
 40
3.0
 40
3.0
 40
4.0
 40
4.0
 40
4.0
 40
5.0
 40
5.0
 40
5.0
 40
6.0
 40
6.0
 40
6.0
 40
7.0
 40
7.0
 40
7.0
 40
8.0
 40
8.0
 40
8.0
 40
8.0
 10
85.45214841613696
 20
-134.2502034169583
 10
85.67866344429214
 20
-134.3749158735243
 10
85.69933401720364
 20
-134.5754204307659
 10
85.69933401720364
 20
-134.7097791546906
 10
85.69933401720364
 20
-134.8954698013456
 10
85.64903562311899
 20
-135.0591118368949
 10
85.45214841613696
 20
-135.1693548924229
 10
85.2416530819882
 20
-135.2888997057611
 10
84.98551023265988
 20
-135.3109483168667
 10
84.80929359858935
 20
-135.3109483168667
 10
84.65374753743032
 20
-135.3109483168667
 10
84.38158499409558
 20
-135.2913112726008
 10
84.16643878104173
 20
-135.1693548924229
 10
83.94681394385705
 20
-135.0446424358569
 10
83.92166474681473
 20
-134.8589517892019
 10
83.92166474681473
 20
-134.7097791546906
 10
83.92166474681473
 20
-134.5265000748753
 10
83.96972382883396
 20
-134.3604464724863
 10
84.16643878104173
 20
-134.2502034169583
 10
84.37469480312508
 20
-134.1354817372995
 10
84.6217081494175
 20
-134.1086099925145
 10
84.80929359858935
 20
-134.1086099925145
 10
84.99463973569578
 20
-134.1086099925145
 10
85.24406464882787
 20
-134.1330701704598
 10
85.45214841613696
 20
-134.2502034169583
 97
        0
 97
        0
 92
        1
 93
        1
 72
     4
 94
        3
 73
     0
 74
     1
 95
       17
 96
       13
 40
0.0
 40
0.0
 40
0.0
 40
0.0
 40
1.0
 40
1.0
 40
1.0
 40
2.0
 40
2.0
 40
2.0
 40
3.0
 40
3.0
 40
3.0
 40
4.0
 40
4.0
 40
4.0
 40
4.0
 10
84.12992076889807
 20
-134.7097791546906
 10
84.12992076889807
 20
-134.998133646806
 10
84.43653426708532
 20
-135.0518771363759
 10
84.80929359858935
 20
-135.0518771363759
 10
85.15483667575991
 20
-135.0518771363759
 10
85.48883868305488
 20
-135.0101914810044
 10
85.48883868305488
 20
-134.7097791546906
 10
85.48883868305488
 20
-134.4238362294149
 10
85.18446449693306
 20
-134.3676811730053
 10
84.80929359858935
 20
-134.3676811730053
 10
84.46392277619304
 20
-134.3676811730053
 10
84.12992076889807
 20
-134.4117783952165
 10
84.12992076889807
 20
-134.7097791546906
 97
        0
 97
        0
 75
     2
 76
     1
 98
        0
  0
ENDBLK
  5
C5
330
C2
100
AcDbEntity
  8
0
100
AcDbBlockEnd
  0
BLOCK
  5
D9
330
D7
100
AcDbEntity
  8
0
100
AcDbBlockBegin
  2
block 5
 70
     0
 10
0.0
 20
0.0
 30
0.0
  3
block 5
  1

  0
SPLINE
  5
DB
330
D7
100
AcDbEntity
  8
_U+30EC_U+30A4_U+30E4_U+30FC 1
370
     0
100
AcDbSpline
210
0.0
220
0.0
230
1.0
 70
    11
 71
     3
 72
    62
 73
    58
 74
     0
 42
0.0000000001
 43
0.0000000001
 12
1.0
 22
0.0
 32
0.0
 13
1.0
 23
0.0
 33
0.0
 40
0.0
 40
0.0
 40
0.0
 40
0.0
 40
1.0
 40
1.0
 40
1.0
 40
2.0
 40
2.0
 40
2.0
 40
3.0
 40
3.0
 40
3.0
 40
4.0
 40
4.0
 40
4.0
 40
5.0
 40
5.0
 40
5.0
 40
6.0
 40
6.0
 40
6.0
 40
7.0
 40
7.0
 40
7.0
 40
8.0
 40
8.0
 40
8.0
 40
9.0
 40
9.0
 40
9.0
 40
10.0
 40
10.0
 40
10.0
 40
11.0
 40
11.0
 40
11.0
 40
12.0
 40
12.0
 40
12.0
 40
13.0
 40
13.0
 40
13.0
 40
14.0
 40
14.0
 40
14.0
 40
15.0
 40
15.0
 40
15.0
 40
16.0
 40
16.0
 40
16.0
 40
17.0
 40
17.0
 40
17.0
 40
18.0
 40
18.0
 40
18.0
 40
19.0
 40
19.0
 40
19.0
 40
19.0
 10
90.96378442821391
 20
-141.4149684976324
 30
0.0
 10
90.96378442821391
 20
-141.5252115531604
 30
0.0
 10
90.940874543237
 20
-141.7767035235836
 30
0.0
 10
90.73950871212415
 20
-141.9210530244156
 30
0.0
 10
90.61824135104337
 20
-142.0064913924498
 30
0.0
 10
90.51075437190356
 20
-142.0113145261291
 30
0.0
 10
90.41928708677018
 20
-142.0161376598085
 30
0.0
 10
90.41928708677018
 20
-142.0161376598085
 30
0.0
 10
90.41928708677018
 20
-141.7622341225456
 30
0.0
 10
90.41928708677018
 20
-141.7622341225456
 30
0.0
 10
90.49938555680224
 20
-141.7598225557059
 30
0.0
 10
90.75328909406515
 20
-141.747420211959
 30
0.0
 10
90.75328909406515
 20
-141.4197916313117
 30
0.0
 10
90.75328909406515
 20
-141.2609727294417
 30
0.0
 10
90.67784150293818
 20
-141.085272859694
 30
0.0
 10
90.4306559018715
 20
-141.085272859694
 30
0.0
 10
90.30490991665988
 20
-141.085272859694
 30
0.0
 10
90.25219995573556
 20
-141.1290255723567
 30
0.0
 10
90.21792125565733
 20
-141.1658880940488
 30
0.0
 10
90.13782278562527
 20
-141.251326462083
 30
0.0
 10
90.12421465845853
 20
-141.3856851860077
 30
0.0
 10
90.12421465845853
 20
-141.4494194524849
 30
0.0
 10
90.12421465845853
 20
-141.471123554042
 30
0.0
 10
90.12645397052394
 20
-141.5128092094135
 30
0.0
 10
90.13093259465477
 20
-141.5445040878778
 30
0.0
 10
90.13093259465477
 20
-141.5445040878778
 30
0.0
 10
89.920437260506
 20
-141.5445040878778
 30
0.0
 10
89.920437260506
 20
-141.5445040878778
 30
0.0
 10
89.9273274514765
 20
-141.5007513752151
 30
0.0
 10
89.92973901831618
 20
-141.4518310193245
 30
0.0
 10
89.92973901831618
 20
-141.444251809257
 30
0.0
 10
89.92973901831618
 20
-141.36880421813
 30
0.0
 10
89.90682913333927
 20
-141.1390163492639
 30
0.0
 10
89.65051402923667
 20
-141.1390163492639
 30
0.0
 10
89.458449955934
 20
-141.1390163492639
 30
0.0
 10
89.39884980403919
 20
-141.2906005506149
 30
0.0
 10
89.39884980403919
 20
-141.417380064472
 30
0.0
 10
89.39884980403919
 20
-141.7229600340137
 30
0.0
 10
89.65051402923667
 20
-141.7326063013724
 30
0.0
 10
89.72837318720333
 20
-141.7377739446003
 30
0.0
 10
89.72837318720333
 20
-141.7377739446003
 30
0.0
 10
89.72837318720333
 20
-141.9723849471458
 30
0.0
 10
89.72837318720333
 20
-141.9723849471458
 30
0.0
 10
89.59332544418153
 20
-141.9623941702386
 30
0.0
 10
89.186115157825
 20
-141.9306992917743
 30
0.0
 10
89.186115157825
 20
-141.402910663434
 30
0.0
 10
89.186115157825
 20
-141.1438394829432
 30
0.0
 10
89.32340221291221
 20
-140.8651312581865
 30
0.0
 10
89.64362383826618
 20
-140.8651312581865
 30
0.0
 10
89.84498966937903
 20
-140.8651312581865
 30
0.0
 10
89.93421764244701
 20
-140.975029804166
 30
0.0
 10
90.00053573053806
 20
-141.0900959933733
 30
0.0
 10
90.03033580648548
 20
-141.0191270263772
 30
0.0
 10
90.11732446748803
 20
-140.8089762017769
 30
0.0
 10
90.41704777470477
 20
-140.8089762017769
 30
0.0
 10
90.78308917001256
 20
-140.8089762017769
 30
0.0
 10
90.96378442821391
 20
-141.0949191270527
 30
0.0
 10
90.96378442821391
 20
-141.4149684976324
 30
0.0
  0
HATCH
  5
DC
330
D7
100
AcDbEntity
  8
_U+30EC_U+30A4_U+30E4_U+30FC 1
 62
   179
420
  2234388
100
AcDbHatch
 10
0.0
 20
0.0
 30
0.0
210
0.0
220
0.0
230
1.0
  2
SOLID
 70
     1
 71
     0
 91
        1
 92
        1
 93
        1
 72
     4
 94
        3
 73
     0
 74
     1
 95
       62
 96
       58
 40
0.0
 40
0.0
 40
0.0
 40
0.0
 40
1.0
 40
1.0
 40
1.0
 40
2.0
 40
2.0
 40
2.0
 40
3.0
 40
3.0
 40
3.0
 40
4.0
 40
4.0
 40
4.0
 40
5.0
 40
5.0
 40
5.0
 40
6.0
 40
6.0
 40
6.0
 40
7.0
 40
7.0
 40
7.0
 40
8.0
 40
8.0
 40
8.0
 40
9.0
 40
9.0
 40
9.0
 40
10.0
 40
10.0
 40
10.0
 40
11.0
 40
11.0
 40
11.0
 40
12.0
 40
12.0
 40
12.0
 40
13.0
 40
13.0
 40
13.0
 40
14.0
 40
14.0
 40
14.0
 40
15.0
 40
15.0
 40
15.0
 40
16.0
 40
16.0
 40
16.0
 40
17.0
 40
17.0
 40
17.0
 40
18.0
 40
18.0
 40
18.0
 40
19.0
 40
19.0
 40
19.0
 40
19.0
 10
90.96378442821391
 20
-141.4149684976324
 10
90.96378442821391
 20
-141.5252115531604
 10
90.940874543237
 20
-141.7767035235836
 10
90.73950871212415
 20
-141.9210530244156
 10
90.61824135104337
 20
-142.0064913924498
 10
90.51075437190356
 20
-142.0113145261291
 10
90.41928708677018
 20
-142.0161376598085
 10
90.41928708677018
 20
-142.0161376598085
 10
90.41928708677018
 20
-141.7622341225456
 10
90.41928708677018
 20
-141.7622341225456
 10
90.49938555680224
 20
-141.7598225557059
 10
90.75328909406515
 20
-141.747420211959
 10
90.75328909406515
 20
-141.4197916313117
 10
90.75328909406515
 20
-141.2609727294417
 10
90.67784150293818
 20
-141.085272859694
 10
90.4306559018715
 20
-141.085272859694
 10
90.30490991665988
 20
-141.085272859694
 10
90.25219995573556
 20
-141.1290255723567
 10
90.21792125565733
 20
-141.1658880940488
 10
90.13782278562527
 20
-141.251326462083
 10
90.12421465845853
 20
-141.3856851860077
 10
90.12421465845853
 20
-141.4494194524849
 10
90.12421465845853
 20
-141.471123554042
 10
90.12645397052394
 20
-141.5128092094135
 10
90.13093259465477
 20
-141.5445040878778
 10
90.13093259465477
 20
-141.5445040878778
 10
89.920437260506
 20
-141.5445040878778
 10
89.920437260506
 20
-141.5445040878778
 10
89.9273274514765
 20
-141.5007513752151
 10
89.92973901831618
 20
-141.4518310193245
 10
89.92973901831618
 20
-141.444251809257
 10
89.92973901831618
 20
-141.36880421813
 10
89.90682913333927
 20
-141.1390163492639
 10
89.65051402923667
 20
-141.1390163492639
 10
89.458449955934
 20
-141.1390163492639
 10
89.39884980403919
 20
-141.2906005506149
 10
89.39884980403919
 20
-141.417380064472
 10
89.39884980403919
 20
-141.7229600340137
 10
89.65051402923667
 20
-141.7326063013724
 10
89.72837318720333
 20
-141.7377739446003
 10
89.72837318720333
 20
-141.7377739446003
 10
89.72837318720333
 20
-141.9723849471458
 10
89.72837318720333
 20
-141.9723849471458
 10
89.59332544418153
 20
-141.9623941702386
 10
89.186115157825
 20
-141.9306992917743
 10
89.186115157825
 20
-141.402910663434
 10
89.186115157825
 20
-141.1438394829432
 10
89.32340221291221
 20
-140.8651312581865
 10
89.64362383826618
 20
-140.8651312581865
 10
89.84498966937903
 20
-140.8651312581865
 10
89.93421764244701
 20
-140.975029804166
 10
90.00053573053806
 20
-141.0900959933733
 10
90.03033580648548
 20
-141.0191270263772
 10
90.11732446748803
 20
-140.8089762017769
 10
90.41704777470477
 20
-140.8089762017769
 10
90.78308917001256
 20
-140.8089762017769
 10
90.96378442821391
 20
-141.0949191270527
 10
90.96378442821391
 20
-141.4149684976324
 97
        0
 97
        0
 75
     2
 76
     1
 98
        0
  0
ENDBLK
  5
DA
330
D7
100
AcDbEntity
  8
0
100
AcDbBlockEnd
  0
BLOCK
  5
EB
330
E9
100
AcDbEntity
  8
0
100
AcDbBlockBegin
  2
block 6
 70
     0
 10
0.0
 20
0.0
 30
0.0
  3
block 6
  1

  0
SPLINE
  5
ED
330
E9
100
AcDbEntity
  8
_U+30EC_U+30A4_U+30E4_U+30FC 1
370
     0
100
AcDbSpline
210
0.0
220
0.0
230
1.0
 70
    11
 71
     3
 72
    44
 73
    40
 74
     0
 42
0.0000000001
 43
0.0000000001
 12
1.0
 22
0.0
 32
0.0
 13
1.0
 23
0.0
 33
0.0
 40
0.0
 40
0.0
 40
0.0
 40
0.0
 40
1.0
 40
1.0
 40
1.0
 40
2.0
 40
2.0
 40
2.0
 40
3.0
 40
3.0
 40
3.0
 40
4.0
 40
4.0
 40
4.0
 40
5.0
 40
5.0
 40
5.0
 40
6.0
 40
6.0
 40
6.0
 40
7.0
 40
7.0
 40
7.0
 40
8.0
 40
8.0
 40
8.0
 40
9.0
 40
9.0
 40
9.0
 40
10.0
 40
10.0
 40
10.0
 40
11.0
 40
11.0
 40
11.0
 40
12.0
 40
12.0
 40
12.0
 40
13.0
 40
13.0
 40
13.0
 40
13.0
 10
88.49485674870962
 20
-143.34008785479
 30
0.0
 10
88.25921221751854
 20
-143.5116536099554
 30
0.0
 10
88.15844317457497
 20
-143.5915798252132
 30
0.0
 10
88.10590546842492
 20
-143.7472981411465
 30
0.0
 10
88.10590546842492
 20
-143.7472981411465
 30
0.0
 10
88.94771455024572
 20
-143.7472981411465
 30
0.0
 10
88.94771455024572
 20
-143.7472981411465
 30
0.0
 10
88.94771455024572
 20
-143.7472981411465
 30
0.0
 10
88.94771455024572
 20
-143.9691622903966
 30
0.0
 10
88.94771455024572
 20
-143.9691622903966
 30
0.0
 10
88.94771455024572
 20
-143.9691622903966
 30
0.0
 10
87.83598223715559
 20
-143.9691622903966
 30
0.0
 10
87.83598223715559
 20
-143.9691622903966
 30
0.0
 10
87.87026093723382
 20
-143.5826225769516
 30
0.0
 10
87.94122990422997
 20
-143.4978732280144
 30
0.0
 10
88.35756969362242
 20
-143.175412290595
 30
0.0
 10
88.63438311586224
 20
-142.9600938227669
 30
0.0
 10
88.70517982808413
 20
-142.8870577984796
 30
0.0
 10
88.70517982808413
 20
-142.7382296735168
 30
0.0
 10
88.70517982808413
 20
-142.6100721214655
 30
0.0
 10
88.62749292489174
 20
-142.4684786970218
 30
0.0
 10
88.41475827867757
 20
-142.4684786970218
 30
0.0
 10
88.13329397753266
 20
-142.4684786970218
 30
0.0
 10
88.12416447449674
 20
-142.7179036101539
 30
0.0
 10
88.11951359559166
 20
-142.8436495953655
 30
0.0
 10
88.11951359559166
 20
-142.8436495953655
 30
0.0
 10
87.87715112820433
 20
-142.8436495953655
 30
0.0
 10
87.87715112820433
 20
-142.8436495953655
 30
0.0
 10
87.88628063124024
 20
-142.706190285504
 30
0.0
 10
87.89764944634156
 20
-142.5849229244232
 30
0.0
 10
87.98463810734413
 20
-142.4571098819204
 30
0.0
 10
88.10349390158524
 20
-142.2831325599153
 30
0.0
 10
88.30485973269809
 20
-142.2466145477717
 30
0.0
 10
88.43077797268397
 20
-142.2466145477717
 30
0.0
 10
88.73050127990071
 20
-142.2466145477717
 30
0.0
 10
88.95460474121622
 20
-142.4453965572706
 30
0.0
 10
88.95460474121622
 20
-142.7406412403565
 30
0.0
 10
88.95460474121622
 20
-142.9876545866489
 30
0.0
 10
88.82885875600459
 20
-143.0951415657887
 30
0.0
 10
88.49485674870962
 20
-143.34008785479
 30
0.0
  0
HATCH
  5
EE
330
E9
100
AcDbEntity
  8
_U+30EC_U+30A4_U+30E4_U+30FC 1
 62
   179
420
  2234388
100
AcDbHatch
 10
0.0
 20
0.0
 30
0.0
210
0.0
220
0.0
230
1.0
  2
SOLID
 70
     1
 71
     0
 91
        1
 92
        1
 93
        1
 72
     4
 94
        3
 73
     0
 74
     1
 95
       44
 96
       40
 40
0.0
 40
0.0
 40
0.0
 40
0.0
 40
1.0
 40
1.0
 40
1.0
 40
2.0
 40
2.0
 40
2.0
 40
3.0
 40
3.0
 40
3.0
 40
4.0
 40
4.0
 40
4.0
 40
5.0
 40
5.0
 40
5.0
 40
6.0
 40
6.0
 40
6.0
 40
7.0
 40
7.0
 40
7.0
 40
8.0
 40
8.0
 40
8.0
 40
9.0
 40
9.0
 40
9.0
 40
10.0
 40
10.0
 40
10.0
 40
11.0
 40
11.0
 40
11.0
 40
12.0
 40
12.0
 40
12.0
 40
13.0
 40
13.0
 40
13.0
 40
13.0
 10
88.49485674870962
 20
-143.34008785479
 10
88.25921221751854
 20
-143.5116536099554
 10
88.15844317457497
 20
-143.5915798252132
 10
88.10590546842492
 20
-143.7472981411465
 10
88.10590546842492
 20
-143.7472981411465
 10
88.94771455024572
 20
-143.7472981411465
 10
88.94771455024572
 20
-143.7472981411465
 10
88.94771455024572
 20
-143.7472981411465
 10
88.94771455024572
 20
-143.9691622903966
 10
88.94771455024572
 20
-143.9691622903966
 10
88.94771455024572
 20
-143.9691622903966
 10
87.83598223715559
 20
-143.9691622903966
 10
87.83598223715559
 20
-143.9691622903966
 10
87.87026093723382
 20
-143.5826225769516
 10
87.94122990422997
 20
-143.4978732280144
 10
88.35756969362242
 20
-143.175412290595
 10
88.63438311586224
 20
-142.9600938227669
 10
88.70517982808413
 20
-142.8870577984796
 10
88.70517982808413
 20
-142.7382296735168
 10
88.70517982808413
 20
-142.6100721214655
 10
88.62749292489174
 20
-142.4684786970218
 10
88.41475827867757
 20
-142.4684786970218
 10
88.13329397753266
 20
-142.4684786970218
 10
88.12416447449674
 20
-142.7179036101539
 10
88.11951359559166
 20
-142.8436495953655
 10
88.11951359559166
 20
-142.8436495953655
 10
87.87715112820433
 20
-142.8436495953655
 10
87.87715112820433
 20
-142.8436495953655
 10
87.88628063124024
 20
-142.706190285504
 10
87.89764944634156
 20
-142.5849229244232
 10
87.98463810734413
 20
-142.4571098819204
 10
88.10349390158524
 20
-142.2831325599153
 10
88.30485973269809
 20
-142.2466145477717
 10
88.43077797268397
 20
-142.2466145477717
 10
88.73050127990071
 20
-142.2466145477717
 10
88.95460474121622
 20
-142.4453965572706
 10
88.95460474121622
 20
-142.7406412403565
 10
88.95460474121622
 20
-142.9876545866489
 10
88.82885875600459
 20
-143.0951415657887
 10
88.49485674870962
 20
-143.34008785479
 97
        0
 97
        0
 75
     2
 76
     1
 98
        0
  0
ENDBLK
  5
EC
330
E9
100
AcDbEntity
  8
0
100
AcDbBlockEnd
  0
BLOCK
  5
F9
330
F7
100
AcDbEntity
  8
0
100
AcDbBlockBegin
  2
block 7
 70
     0
 10
0.0
 20
0.0
 30
0.0
  3
block 7
  1

  0
SPLINE
  5
FB
330
F7
100
AcDbEntity
  8
_U+30EC_U+30A4_U+30E4_U+30FC 1
370
     0
100
AcDbSpline
210
0.0
220
0.0
230
1.0
 70
    11
 71
     3
 72
    44
 73
    40
 74
     0
 42
0.0000000001
 43
0.0000000001
 12
1.0
 22
0.0
 32
0.0
 13
1.0
 23
0.0
 33
0.0
 40
0.0
 40
0.0
 40
0.0
 40
0.0
 40
1.0
 40
1.0
 40
1.0
 40
2.0
 40
2.0
 40
2.0
 40
3.0
 40
3.0
 40
3.0
 40
4.0
 40
4.0
 40
4.0
 40
5.0
 40
5.0
 40
5.0
 40
6.0
 40
6.0
 40
6.0
 40
7.0
 40
7.0
 40
7.0
 40
8.0
 40
8.0
 40
8.0
 40
9.0
 40
9.0
 40
9.0
 40
10.0
 40
10.0
 40
10.0
 40
11.0
 40
11.0
 40
11.0
 40
12.0
 40
12.0
 40
12.0
 40
13.0
 40
13.0
 40
13.0
 40
13.0
 10
93.89711097912989
 20
-143.457565610837
 30
0.0
 10
93.64527449915813
 20
-143.6291313660024
 30
0.0
 10
93.53778752001834
 20
-143.7090575812603
 30
0.0
 10
93.48163246360876
 20
-143.8647758971935
 30
0.0
 10
93.48163246360876
 20
-143.8647758971935
 30
0.0
 10
94.3811468948075
 20
-143.8647758971935
 30
0.0
 10
94.3811468948075
 20
-143.8647758971935
 30
0.0
 10
94.3811468948075
 20
-143.8647758971935
 30
0.0
 10
94.3811468948075
 20
-144.0866400464436
 30
0.0
 10
94.3811468948075
 20
-144.0866400464436
 30
0.0
 10
94.3811468948075
 20
-144.0866400464436
 30
0.0
 10
93.19327797149334
 20
-144.0866400464436
 30
0.0
 10
93.19327797149334
 20
-144.0866400464436
 30
0.0
 10
93.229795983637
 20
-143.7001003329986
 30
0.0
 10
93.30558808431249
 20
-143.6153509840615
 30
0.0
 10
93.75069442100677
 20
-143.2928900466421
 30
0.0
 10
94.04628361364121
 20
-143.0775715788139
 30
0.0
 10
94.12207571431671
 20
-143.0045355545267
 30
0.0
 10
94.12207571431671
 20
-142.8557074295639
 30
0.0
 10
94.12207571431671
 20
-142.7275498775126
 30
0.0
 10
94.03870440357366
 20
-142.5859564530688
 30
0.0
 10
93.8116726110957
 20
-142.5859564530688
 30
0.0
 10
93.51091577523339
 20
-142.5859564530688
 30
0.0
 10
93.50126950787468
 20
-142.8353813662009
 30
0.0
 10
93.49644637419534
 20
-142.9611273514125
 30
0.0
 10
93.49644637419534
 20
-142.9611273514125
 30
0.0
 10
93.23737519370455
 20
-142.9611273514125
 30
0.0
 10
93.23737519370455
 20
-142.9611273514125
 30
0.0
 10
93.24702146106326
 20
-142.823668041551
 30
0.0
 10
93.25942380481015
 20
-142.7024006804702
 30
0.0
 10
93.35244138291189
 20
-142.5745876379675
 30
0.0
 10
93.47922089676909
 20
-142.4006103159624
 30
0.0
 10
93.69419485504868
 20
-142.3640923038187
 30
0.0
 10
93.82855357897343
 20
-142.3640923038187
 30
0.0
 10
94.14894745910166
 20
-142.3640923038187
 30
0.0
 10
94.38838159532652
 20
-142.5628743133176
 30
0.0
 10
94.38838159532652
 20
-142.8581189964035
 30
0.0
 10
94.38838159532652
 20
-143.105132342696
 30
0.0
 10
94.25402287140177
 20
-143.2126193218357
 30
0.0
 10
93.89711097912989
 20
-143.457565610837
 30
0.0
  0
HATCH
  5
FC
330
F7
100
AcDbEntity
  8
_U+30EC_U+30A4_U+30E4_U+30FC 1
 62
   179
420
  2234388
100
AcDbHatch
 10
0.0
 20
0.0
 30
0.0
210
0.0
220
0.0
230
1.0
  2
SOLID
 70
     1
 71
     0
 91
        1
 92
        1
 93
        1
 72
     4
 94
        3
 73
     0
 74
     1
 95
       44
 96
       40
 40
0.0
 40
0.0
 40
0.0
 40
0.0
 40
1.0
 40
1.0
 40
1.0
 40
2.0
 40
2.0
 40
2.0
 40
3.0
 40
3.0
 40
3.0
 40
4.0
 40
4.0
 40
4.0
 40
5.0
 40
5.0
 40
5.0
 40
6.0
 40
6.0
 40
6.0
 40
7.0
 40
7.0
 40
7.0
 40
8.0
 40
8.0
 40
8.0
 40
9.0
 40
9.0
 40
9.0
 40
10.0
 40
10.0
 40
10.0
 40
11.0
 40
11.0
 40
11.0
 40
12.0
 40
12.0
 40
12.0
 40
13.0
 40
13.0
 40
13.0
 40
13.0
 10
93.89711097912989
 20
-143.457565610837
 10
93.64527449915813
 20
-143.6291313660024
 10
93.53778752001834
 20
-143.7090575812603
 10
93.48163246360876
 20
-143.8647758971935
 10
93.48163246360876
 20
-143.8647758971935
 10
94.3811468948075
 20
-143.8647758971935
 10
94.3811468948075
 20
-143.8647758971935
 10
94.3811468948075
 20
-143.8647758971935
 10
94.3811468948075
 20
-144.0866400464436
 10
94.3811468948075
 20
-144.0866400464436
 10
94.3811468948075
 20
-144.0866400464436
 10
93.19327797149334
 20
-144.0866400464436
 10
93.19327797149334
 20
-144.0866400464436
 10
93.229795983637
 20
-143.7001003329986
 10
93.30558808431249
 20
-143.6153509840615
 10
93.75069442100677
 20
-143.2928900466421
 10
94.04628361364121
 20
-143.0775715788139
 10
94.12207571431671
 20
-143.0045355545267
 10
94.12207571431671
 20
-142.8557074295639
 10
94.12207571431671
 20
-142.7275498775126
 10
94.03870440357366
 20
-142.5859564530688
 10
93.8116726110957
 20
-142.5859564530688
 10
93.51091577523339
 20
-142.5859564530688
 10
93.50126950787468
 20
-142.8353813662009
 10
93.49644637419534
 20
-142.9611273514125
 10
93.49644637419534
 20
-142.9611273514125
 10
93.23737519370455
 20
-142.9611273514125
 10
93.23737519370455
 20
-142.9611273514125
 10
93.24702146106326
 20
-142.823668041551
 10
93.25942380481015
 20
-142.7024006804702
 10
93.35244138291189
 20
-142.5745876379675
 10
93.47922089676909
 20
-142.4006103159624
 10
93.69419485504868
 20
-142.3640923038187
 10
93.82855357897343
 20
-142.3640923038187
 10
94.14894745910166
 20
-142.3640923038187
 10
94.38838159532652
 20
-142.5628743133176
 10
94.38838159532652
 20
-142.8581189964035
 10
94.38838159532652
 20
-143.105132342696
 10
94.25402287140177
 20
-143.2126193218357
 10
93.89711097912989
 20
-143.457565610837
 97
        0
 97
        0
 75
     2
 76
     1
 98
        0
  0
SPLINE
  5
FD
330
F7
100
AcDbEntity
  8
_U+30EC_U+30A4_U+30E4_U+30FC 1
370
     0
100
AcDbSpline
210
0.0
220
0.0
230
1.0
 70
    11
 71
     3
 72
    53
 73
    49
 74
     0
 42
0.0000000001
 43
0.0000000001
 12
1.0
 22
0.0
 32
0.0
 13
1.0
 23
0.0
 33
0.0
 40
0.0
 40
0.0
 40
0.0
 40
0.0
 40
1.0
 40
1.0
 40
1.0
 40
2.0
 40
2.0
 40
2.0
 40
3.0
 40
3.0
 40
3.0
 40
4.0
 40
4.0
 40
4.0
 40
5.0
 40
5.0
 40
5.0
 40
6.0
 40
6.0
 40
6.0
 40
7.0
 40
7.0
 40
7.0
 40
8.0
 40
8.0
 40
8.0
 40
9.0
 40
9.0
 40
9.0
 40
10.0
 40
10.0
 40
10.0
 40
11.0
 40
11.0
 40
11.0
 40
12.0
 40
12.0
 40
12.0
 40
13.0
 40
13.0
 40
13.0
 40
14.0
 40
14.0
 40
14.0
 40
15.0
 40
15.0
 40
15.0
 40
16.0
 40
16.0
 40
16.0
 40
16.0
 10
95.1259765387185
 20
-144.1414170646591
 30
0.0
 10
95.03571503700496
 20
-144.1414170646591
 30
0.0
 10
94.91823728095794
 20
-144.1231580585873
 30
0.0
 10
94.80110403445946
 20
-144.0546006584308
 30
0.0
 10
94.60059947721791
 20
-143.9357448641897
 30
0.0
 10
94.57613929927264
 20
-143.7938069301974
 30
0.0
 10
94.55409068816704
 20
-143.6770181932474
 30
0.0
 10
94.55409068816704
 20
-143.6770181932474
 30
0.0
 10
94.81075030181815
 20
-143.6770181932474
 30
0.0
 10
94.81075030181815
 20
-143.6770181932474
 30
0.0
 10
94.87448456829527
 20
-143.8923366610755
 30
0.0
 10
95.0209011264184
 20
-143.9243760490884
 30
0.0
 10
95.12873261510671
 20
-143.9243760490884
 30
0.0
 10
95.2899630838164
 20
-143.9243760490884
 30
0.0
 10
95.46566295356415
 20
-143.8165445604
 30
0.0
 10
95.46566295356415
 20
-143.5650525899768
 30
0.0
 10
95.46566295356415
 20
-143.2880669129627
 30
0.0
 10
95.25826820535211
 20
-143.2126193218357
 30
0.0
 10
95.11874183819948
 20
-143.2126193218357
 30
0.0
 10
95.08187931650731
 20
-143.2126193218357
 30
0.0
 10
94.91823728095794
 20
-143.2126193218357
 30
0.0
 10
94.81591794504602
 20
-143.3521456889884
 30
0.0
 10
94.81591794504602
 20
-143.3521456889884
 30
0.0
 10
94.61265731141629
 20
-143.3318196256254
 30
0.0
 10
94.61265731141629
 20
-143.3318196256254
 30
0.0
 10
94.61265731141629
 20
-143.3318196256254
 30
0.0
 10
94.7521836785689
 20
-142.4164577551945
 30
0.0
 10
94.7521836785689
 20
-142.4164577551945
 30
0.0
 10
94.7521836785689
 20
-142.4164577551945
 30
0.0
 10
95.65169810976764
 20
-142.4164577551945
 30
0.0
 10
95.65169810976764
 20
-142.4164577551945
 30
0.0
 10
95.65169810976764
 20
-142.4164577551945
 30
0.0
 10
95.65169810976764
 20
-142.6269530893433
 30
0.0
 10
95.65169810976764
 20
-142.6269530893433
 30
0.0
 10
95.65169810976764
 20
-142.6269530893433
 30
0.0
 10
94.94028589206354
 20
-142.6269530893433
 30
0.0
 10
94.94028589206354
 20
-142.6269530893433
 30
0.0
 10
94.94028589206354
 20
-142.6269530893433
 30
0.0
 10
94.86449379138804
 20
-143.0844617697844
 30
0.0
 10
94.86449379138804
 20
-143.0844617697844
 30
0.0
 10
94.93546275838419
 20
-143.0479437576408
 30
0.0
 10
95.03089190332561
 20
-143.0045355545267
 30
0.0
 10
95.16766219409003
 20
-143.0045355545267
 30
0.0
 10
95.4608398198848
 20
-143.0045355545267
 30
0.0
 10
95.73438040141363
 20
-143.2057291308653
 30
0.0
 10
95.73438040141363
 20
-143.5443820170653
 30
0.0
 10
95.73438040141363
 20
-143.8875135273962
 30
0.0
 10
95.47530922092284
 20
-144.1414170646591
 30
0.0
 10
95.1259765387185
 20
-144.1414170646591
 30
0.0
  0
HATCH
  5
FE
330
F7
100
AcDbEntity
  8
_U+30EC_U+30A4_U+30E4_U+30FC 1
 62
   179
420
  2234388
100
AcDbHatch
 10
0.0
 20
0.0
 30
0.0
210
0.0
220
0.0
230
1.0
  2
SOLID
 70
     1
 71
     0
 91
        1
 92
        1
 93
        1
 72
     4
 94
        3
 73
     0
 74
     1
 95
       53
 96
       49
 40
0.0
 40
0.0
 40
0.0
 40
0.0
 40
1.0
 40
1.0
 40
1.0
 40
2.0
 40
2.0
 40
2.0
 40
3.0
 40
3.0
 40
3.0
 40
4.0
 40
4.0
 40
4.0
 40
5.0
 40
5.0
 40
5.0
 40
6.0
 40
6.0
 40
6.0
 40
7.0
 40
7.0
 40
7.0
 40
8.0
 40
8.0
 40
8.0
 40
9.0
 40
9.0
 40
9.0
 40
10.0
 40
10.0
 40
10.0
 40
11.0
 40
11.0
 40
11.0
 40
12.0
 40
12.0
 40
12.0
 40
13.0
 40
13.0
 40
13.0
 40
14.0
 40
14.0
 40
14.0
 40
15.0
 40
15.0
 40
15.0
 40
16.0
 40
16.0
 40
16.0
 40
16.0
 10
95.1259765387185
 20
-144.1414170646591
 10
95.03571503700496
 20
-144.1414170646591
 10
94.91823728095794
 20
-144.1231580585873
 10
94.80110403445946
 20
-144.0546006584308
 10
94.60059947721791
 20
-143.9357448641897
 10
94.57613929927264
 20
-143.7938069301974
 10
94.55409068816704
 20
-143.6770181932474
 10
94.55409068816704
 20
-143.6770181932474
 10
94.81075030181815
 20
-143.6770181932474
 10
94.81075030181815
 20
-143.6770181932474
 10
94.87448456829527
 20
-143.8923366610755
 10
95.0209011264184
 20
-143.9243760490884
 10
95.12873261510671
 20
-143.9243760490884
 10
95.2899630838164
 20
-143.9243760490884
 10
95.46566295356415
 20
-143.8165445604
 10
95.46566295356415
 20
-143.5650525899768
 10
95.46566295356415
 20
-143.2880669129627
 10
95.25826820535211
 20
-143.2126193218357
 10
95.11874183819948
 20
-143.2126193218357
 10
95.08187931650731
 20
-143.2126193218357
 10
94.91823728095794
 20
-143.2126193218357
 10
94.81591794504602
 20
-143.3521456889884
 10
94.81591794504602
 20
-143.3521456889884
 10
94.61265731141629
 20
-143.3318196256254
 10
94.61265731141629
 20
-143.3318196256254
 10
94.61265731141629
 20
-143.3318196256254
 10
94.7521836785689
 20
-142.4164577551945
 10
94.7521836785689
 20
-142.4164577551945
 10
94.7521836785689
 20
-142.4164577551945
 10
95.65169810976764
 20
-142.4164577551945
 10
95.65169810976764
 20
-142.4164577551945
 10
95.65169810976764
 20
-142.4164577551945
 10
95.65169810976764
 20
-142.6269530893433
 10
95.65169810976764
 20
-142.6269530893433
 10
95.65169810976764
 20
-142.6269530893433
 10
94.94028589206354
 20
-142.6269530893433
 10
94.94028589206354
 20
-142.6269530893433
 10
94.94028589206354
 20
-142.6269530893433
 10
94.86449379138804
 20
-143.0844617697844
 10
94.86449379138804
 20
-143.0844617697844
 10
94.93546275838419
 20
-143.0479437576408
 10
95.03089190332561
 20
-143.0045355545267
 10
95.16766219409003
 20
-143.0045355545267
 10
95.4608398198848
 20
-143.0045355545267
 10
95.73438040141363
 20
-143.2057291308653
 10
95.73438040141363
 20
-143.5443820170653
 10
95.73438040141363
 20
-143.8875135273962
 10
95.47530922092284
 20
-144.1414170646591
 10
95.1259765387185
 20
-144.1414170646591
 97
        0
 97
        0
 75
     2
 76
     1
 98
        0
  0
ENDBLK
  5
FA
330
F7
100
AcDbEntity
  8
0
100
AcDbBlockEnd
  0
ENDSEC
  0
SECTION
  2
ENTITIES
  0
POLYLINE
  5
41
330
1F
100
AcDbEntity
  8
_U+30EC_U+30A4_U+30E4_U+30FC 1
370
     0
100
AcDb2dPolyline
 66
     1
 10
0.0
 20
0.0
 30
0.0
  0
VERTEX
  5
42
330
41
100
AcDbEntity
  8
_U+30EC_U+30A4_U+30E4_U+30FC 1
370
     0
100
AcDbVertex
100
AcDb2dVertex
 10
99.54224719733648
 20
-110.2370230279963
 30
0.0
  0
VERTEX
  5
43
330
41
100
AcDbEntity
  8
_U+30EC_U+30A4_U+30E4_U+30FC 1
370
     0
100
AcDbVertex
100
AcDb2dVertex
 10
100.1303277527455
 20
-110.2370230279963
 30
0.0
  0
VERTEX
  5
44
330
41
100
AcDbEntity
  8
_U+30EC_U+30A4_U+30E4_U+30FC 1
370
     0
100
AcDbVertex
100
AcDb2dVertex
 10
100.1303277527455
 20
-128.7578563566994
 30
0.0
  0
VERTEX
  5
45
330
41
100
AcDbEntity
  8
_U+30EC_U+30A4_U+30E4_U+30FC 1
370
     0
100
AcDbVertex
100
AcDb2dVertex
 10
88.54739635207883
 20
-129.2868466343452
 30
0.0
  0
VERTEX
  5
46
330
41
100
AcDbEntity
  8
_U+30EC_U+30A4_U+30E4_U+30FC 1
370
     0
100
AcDbVertex
100
AcDb2dVertex
 10
88.48866108898889
 20
-140.7521244092567
 30
0.0
  0
VERTEX
  5
47
330
41
100
AcDbEntity
  8
_U+30EC_U+30A4_U+30E4_U+30FC 1
370
     0
100
AcDbVertex
100
AcDb2dVertex
 10
88.84143886667847
 20
-140.7521244092567
 30
0.0
  0
VERTEX
  5
48
330
41
100
AcDbEntity
  8
_U+30EC_U+30A4_U+30E4_U+30FC 1
370
     0
100
AcDbVertex
100
AcDb2dVertex
 10
88.7825249778045
 20
-142.163235520015
 30
0.0
  0
VERTEX
  5
49
330
41
100
AcDbEntity
  8
_U+30EC_U+30A4_U+30E4_U+30FC 1
370
     0
100
AcDbVertex
100
AcDb2dVertex
 10
87.95949442245451
 20
-142.1046744089182
 30
0.0
  0
VERTEX
  5
4A
330
41
100
AcDbEntity
  8
_U+30EC_U+30A4_U+30E4_U+30FC 1
370
     0
100
AcDbVertex
100
AcDb2dVertex
 10
87.95949442245451
 20
-128.6992952456029
 30
0.0
  0
VERTEX
  5
4B
330
41
100
AcDbEntity
  8
_U+30EC_U+30A4_U+30E4_U+30FC 1
370
     0
100
AcDbVertex
100
AcDb2dVertex
 10
99.4833333084625
 20
-128.1112146901945
 30
0.0
  0
VERTEX
  5
4C
330
41
100
AcDbEntity
  8
_U+30EC_U+30A4_U+30E4_U+30FC 1
370
     0
100
AcDbVertex
100
AcDb2dVertex
 10
99.54224719733648
 20
-110.2370230279963
 30
0.0
  0
SEQEND
  5
4E
330
41
100
AcDbEntity
  8
_U+30EC_U+30A4_U+30E4_U+30FC 1
370
     0
  0
HATCH
  5
4D
330
1F
100
AcDbEntity
  8
_U+30EC_U+30A4_U+30E4_U+30FC 1
 62
   253
420
 10066329
100
AcDbHatch
 10
0.0
 20
0.0
 30
0.0
210
0.0
220
0.0
230
1.0
  2
SOLID
 70
     1
 71
     0
 91
        1
 92
        1
 93
       10
 72
     1
 10
99.54224719733648
 20
-110.2370230279963
 11
100.1303277527455
 21
-110.2370230279963
 72
     1
 10
100.1303277527455
 20
-110.2370230279963
 11
100.1303277527455
 21
-128.7578563566994
 72
     1
 10
100.1303277527455
 20
-128.7578563566994
 11
88.54739635207883
 21
-129.2868466343452
 72
     1
 10
88.54739635207883
 20
-129.2868466343452
 11
88.48866108898889
 21
-140.7521244092567
 72
     1
 10
88.48866108898889
 20
-140.7521244092567
 11
88.84143886667847
 21
-140.7521244092567
 72
     1
 10
88.84143886667847
 20
-140.7521244092567
 11
88.7825249778045
 21
-142.163235520015
 72
     1
 10
88.7825249778045
 20
-142.163235520015
 11
87.95949442245451
 21
-142.1046744089182
 72
     1
 10
87.95949442245451
 20
-142.1046744089182
 11
87.95949442245451
 21
-128.6992952456029
 72
     1
 10
87.95949442245451
 20
-128.6992952456029
 11
99.4833333084625
 21
-128.1112146901945
 72
     1
 10
99.4833333084625
 20
-128.1112146901945
 11
99.54224719733648
 21
-110.2370230279963
 97
        0
 75
     2
 76
     1
 98
        0
  0
POLYLINE
  5
4F
330
1F
100
AcDbEntity
  8
_U+30EC_U+30A4_U+30E4_U+30FC 1
 62
   179
420
  2234388
370
    25
100
AcDb2dPolyline
 66
     1
 10
0.0
 20
0.0
 30
0.0
  0
VERTEX
  5
50
330
4F
100
AcDbEntity
  8
_U+30EC_U+30A4_U+30E4_U+30FC 1
 62
   179
420
  2234388
370
    25
100
AcDbVertex
100
AcDb2dVertex
 10
87.94347608970834
 20
-128.6390055233957
 30
0.0
  0
VERTEX
  5
51
330
4F
100
AcDbEntity
  8
_U+30EC_U+30A4_U+30E4_U+30FC 1
 62
   179
420
  2234388
370
    25
100
AcDbVertex
100
AcDb2dVertex
 10
87.94347608970834
 20
-142.1391407977985
 30
0.0
  0
SEQEND
  5
52
330
4F
100
AcDbEntity
  8
_U+30EC_U+30A4_U+30E4_U+30FC 1
 62
   179
420
  2234388
370
    25
  0
POLYLINE
  5
53
330
1F
100
AcDbEntity
  8
_U+30EC_U+30A4_U+30E4_U+30FC 1
 62
   179
420
  2234388
370
    25
100
AcDb2dPolyline
 66
     1
 10
0.0
 20
0.0
 30
0.0
  0
VERTEX
  5
54
330
53
100
AcDbEntity
  8
_U+30EC_U+30A4_U+30E4_U+30FC 1
 62
   179
420
  2234388
370
    25
100
AcDbVertex
100
AcDb2dVertex
 10
100.0934599464031
 20
-110.1891510835639
 30
0.0
  0
VERTEX
  5
55
330
53
100
AcDbEntity
  8
_U+30EC_U+30A4_U+30E4_U+30FC 1
 62
   179
420
  2234388
370
    25
100
AcDbVertex
100
AcDb2dVertex
 10
100.0934599464031
 20
-128.751647467812
 30
0.0
  0
SEQEND
  5
56
330
53
100
AcDbEntity
  8
_U+30EC_U+30A4_U+30E4_U+30FC 1
 62
   179
420
  2234388
370
    25
  0
POLYLINE
  5
57
330
1F
100
AcDbEntity
  8
_U+30EC_U+30A4_U+30E4_U+30FC 1
 62
   179
420
  2234388
370
    25
100
AcDb2dPolyline
 66
     1
 10
0.0
 20
0.0
 30
0.0
  0
VERTEX
  5
58
330
57
100
AcDbEntity
  8
_U+30EC_U+30A4_U+30E4_U+30FC 1
 62
   179
420
  2234388
370
    25
100
AcDbVertex
100
AcDb2dVertex
 10
88.84348273341392
 20
-140.7893424648028
 30
0.0
  0
VERTEX
  5
59
330
57
100
AcDbEntity
  8
_U+30EC_U+30A4_U+30E4_U+30FC 1
 62
   179
420
  2234388
370
    25
100
AcDbVertex
100
AcDb2dVertex
 10
88.84348273341392
 20
-142.1391407977985
 30
0.0
  0
SEQEND
  5
5A
330
57
100
AcDbEntity
  8
_U+30EC_U+30A4_U+30E4_U+30FC 1
 62
   179
420
  2234388
370
    25
  0
POLYLINE
  5
5B
330
1F
100
AcDbEntity
  8
_U+30EC_U+30A4_U+30E4_U+30FC 1
 62
   179
420
  2234388
370
    25
100
AcDb2dPolyline
 66
     1
 10
0.0
 20
0.0
 30
0.0
  0
VERTEX
  5
5C
330
5B
100
AcDbEntity
  8
_U+30EC_U+30A4_U+30E4_U+30FC 1
 62
   179
420
  2234388
370
    25
100
AcDbVertex
100
AcDb2dVertex
 10
99.50848385021597
 20
-110.1891510835639
 30
0.0
  0
VERTEX
  5
5D
330
5B
100
AcDbEntity
  8
_U+30EC_U+30A4_U+30E4_U+30FC 1
 62
   179
420
  2234388
370
    25
100
AcDbVertex
100
AcDb2dVertex
 10
99.50848385021597
 20
-128.1890727457306
 30
0.0
  0
SEQEND
  5
5E
330
5B
100
AcDbEntity
  8
_U+30EC_U+30A4_U+30E4_U+30FC 1
 62
   179
420
  2234388
370
    25
  0
POLYLINE
  5
5F
330
1F
100
AcDbEntity
  8
_U+30EC_U+30A4_U+30E4_U+30FC 1
 62
   179
420
  2234388
370
    25
100
AcDb2dPolyline
 66
     1
 10
0.0
 20
0.0
 30
0.0
  0
VERTEX
  5
60
330
5F
100
AcDbEntity
  8
_U+30EC_U+30A4_U+30E4_U+30FC 1
 62
   179
420
  2234388
370
    25
100
AcDbVertex
100
AcDb2dVertex
 10
99.50848385021597
 20
-110.1891510835639
 30
0.0
  0
VERTEX
  5
61
330
5F
100
AcDbEntity
  8
_U+30EC_U+30A4_U+30E4_U+30FC 1
 62
   179
420
  2234388
370
    25
100
AcDbVertex
100
AcDb2dVertex
 10
100.0934599464031
 20
-110.1891510835639
 30
0.0
  0
SEQEND
  5
62
330
5F
100
AcDbEntity
  8
_U+30EC_U+30A4_U+30E4_U+30FC 1
 62
   179
420
  2234388
370
    25
  0
POLYLINE
  5
63
330
1F
100
AcDbEntity
  8
_U+30EC_U+30A4_U+30E4_U+30FC 1
 62
   179
420
  2234388
370
    25
100
AcDb2dPolyline
 66
     1
 10
0.0
 20
0.0
 30
0.0
  0
VERTEX
  5
64
330
63
100
AcDbEntity
  8
_U+30EC_U+30A4_U+30E4_U+30FC 1
 62
   179
420
  2234388
370
    25
100
AcDbVertex
100
AcDb2dVertex
 10
88.52862857477986
 20
-129.2021094121441
 30
0.0
  0
VERTEX
  5
65
330
63
100
AcDbEntity
  8
_U+30EC_U+30A4_U+30E4_U+30FC 1
 62
   179
420
  2234388
370
    25
100
AcDbVertex
100
AcDb2dVertex
 10
88.52862857477986
 20
-140.7893424648028
 30
0.0
  0
SEQEND
  5
66
330
63
100
AcDbEntity
  8
_U+30EC_U+30A4_U+30E4_U+30FC 1
 62
   179
420
  2234388
370
    25
  0
POLYLINE
  5
67
330
1F
100
AcDbEntity
  8
_U+30EC_U+30A4_U+30E4_U+30FC 1
 62
   179
420
  2234388
370
    25
100
AcDb2dPolyline
 66
     1
 10
0.0
 20
0.0
 30
0.0
  0
VERTEX
  5
68
330
67
100
AcDbEntity
  8
_U+30EC_U+30A4_U+30E4_U+30FC 1
 62
   179
420
  2234388
370
    25
100
AcDbVertex
100
AcDb2dVertex
 10
87.94347608970834
 20
-142.1391407977985
 30
0.0
  0
VERTEX
  5
69
330
67
100
AcDbEntity
  8
_U+30EC_U+30A4_U+30E4_U+30FC 1
 62
   179
420
  2234388
370
    25
100
AcDbVertex
100
AcDb2dVertex
 10
88.84348273341392
 20
-142.1391407977985
 30
0.0
  0
SEQEND
  5
6A
330
67
100
AcDbEntity
  8
_U+30EC_U+30A4_U+30E4_U+30FC 1
 62
   179
420
  2234388
370
    25
  0
POLYLINE
  5
6B
330
1F
100
AcDbEntity
  8
_U+30EC_U+30A4_U+30E4_U+30FC 1
 62
   179
420
  2234388
370
    25
100
AcDb2dPolyline
 66
     1
 10
0.0
 20
0.0
 30
0.0
  0
VERTEX
  5
6C
330
6B
100
AcDbEntity
  8
_U+30EC_U+30A4_U+30E4_U+30FC 1
 62
   179
420
  2234388
370
    25
100
AcDbVertex
100
AcDb2dVertex
 10
88.52862857477986
 20
-140.7893424648028
 30
0.0
  0
VERTEX
  5
6D
330
6B
100
AcDbEntity
  8
_U+30EC_U+30A4_U+30E4_U+30FC 1
 62
   179
420
  2234388
370
    25
100
AcDbVertex
100
AcDb2dVertex
 10
88.84348273341392
 20
-140.7893424648028
 30
0.0
  0
SEQEND
  5
6E
330
6B
100
AcDbEntity
  8
_U+30EC_U+30A4_U+30E4_U+30FC 1
 62
   179
420
  2234388
370
    25
  0
POLYLINE
  5
6F
330
1F
100
AcDbEntity
  8
_U+30EC_U+30A4_U+30E4_U+30FC 1
 62
   179
420
  2234388
370
    25
100
AcDb2dPolyline
 66
     1
 10
0.0
 20
0.0
 30
0.0
  0
VERTEX
  5
70
330
6F
100
AcDbEntity
  8
_U+30EC_U+30A4_U+30E4_U+30FC 1
 62
   179
420
  2234388
370
    25
100
AcDbVertex
100
AcDb2dVertex
 10
87.94347608970834
 20
-128.6390055233957
 30
0.0
  0
VERTEX
  5
71
330
6F
100
AcDbEntity
  8
_U+30EC_U+30A4_U+30E4_U+30FC 1
 62
   179
420
  2234388
370
    25
100
AcDbVertex
100
AcDb2dVertex
 10
99.50848385021597
 20
-128.1890727457306
 30
0.0
  0
SEQEND
  5
72
330
6F
100
AcDbEntity
  8
_U+30EC_U+30A4_U+30E4_U+30FC 1
 62
   179
420
  2234388
370
    25
  0
POLYLINE
  5
73
330
1F
100
AcDbEntity
  8
_U+30EC_U+30A4_U+30E4_U+30FC 1
 62
   179
420
  2234388
370
    25
100
AcDb2dPolyline
 66
     1
 10
0.0
 20
0.0
 30
0.0
  0
VERTEX
  5
74
330
73
100
AcDbEntity
  8
_U+30EC_U+30A4_U+30E4_U+30FC 1
 62
   179
420
  2234388
370
    25
100
AcDbVertex
100
AcDb2dVertex
 10
88.52862857477986
 20
-129.2021094121441
 30
0.0
  0
VERTEX
  5
75
330
73
100
AcDbEntity
  8
_U+30EC_U+30A4_U+30E4_U+30FC 1
 62
   179
420
  2234388
370
    25
100
AcDbVertex
100
AcDb2dVertex
 10
100.0934599464031
 20
-128.751647467812
 30
0.0
  0
SEQEND
  5
76
330
73
100
AcDbEntity
  8
_U+30EC_U+30A4_U+30E4_U+30FC 1
 62
   179
420
  2234388
370
    25
  0
SPLINE
  5
77
330
1F
100
AcDbEntity
  8
_U+30EC_U+30A4_U+30E4_U+30FC 1
 62
   179
420
  2234388
370
     9
100
AcDbSpline
210
0.0
220
0.0
230
1.0
 70
    11
 71
     3
 72
    17
 73
    13
 74
     0
 42
0.0000000001
 43
0.0000000001
 12
1.0
 22
0.0
 32
0.0
 13
1.0
 23
0.0
 33
0.0
 40
0.0
 40
0.0
 40
0.0
 40
0.0
 40
1.0
 40
1.0
 40
1.0
 40
2.0
 40
2.0
 40
2.0
 40
3.0
 40
3.0
 40
3.0
 40
4.0
 40
4.0
 40
4.0
 40
4.0
 10
100.1385802230298
 20
-144.7036588527131
 30
0.0
 10
100.1385802230298
 20
-144.6788585749417
 30
0.0
 10
100.1182602235482
 20
-144.658185797169
 30
0.0
 10
100.0934599464031
 20
-144.658185797169
 30
0.0
 10
100.068659669258
 20
-144.658185797169
 30
0.0
 10
100.0486571697683
 20
-144.6788585749417
 30
0.0
 10
100.0486571697683
 20
-144.7036588527131
 30
0.0
 10
100.0486571697683
 20
-144.7284591304845
 30
0.0
 10
100.068659669258
 20
-144.7484263527016
 30
0.0
 10
100.0934599464031
 20
-144.7484263527016
 30
0.0
 10
100.1182602235482
 20
-144.7484263527016
 30
0.0
 10
100.1385802230298
 20
-144.7284591304845
 30
0.0
 10
100.1385802230298
 20
-144.7036588527131
 30
0.0
  0
SPLINE
  5
78
330
1F
100
AcDbEntity
  8
_U+30EC_U+30A4_U+30E4_U+30FC 1
 62
   179
420
  2234388
370
     9
100
AcDbSpline
210
0.0
220
0.0
230
1.0
 70
    11
 71
     3
 72
    17
 73
    13
 74
     0
 42
0.0000000001
 43
0.0000000001
 12
1.0
 22
0.0
 32
0.0
 13
1.0
 23
0.0
 33
0.0
 40
0.0
 40
0.0
 40
0.0
 40
0.0
 40
1.0
 40
1.0
 40
1.0
 40
2.0
 40
2.0
 40
2.0
 40
3.0
 40
3.0
 40
3.0
 40
4.0
 40
4.0
 40
4.0
 40
4.0
 10
88.88846189893307
 20
-144.7036588527131
 30
0.0
 10
88.88846189893307
 20
-144.6788585749417
 30
0.0
 10
88.86831828833587
 20
-144.658185797169
 30
0.0
 10
88.84348273341392
 20
-144.658185797169
 30
0.0
 10
88.81868245626886
 20
-144.658185797169
 30
0.0
 10
88.79853884567164
 20
-144.6788585749417
 30
0.0
 10
88.79853884567164
 20
-144.7036588527131
 30
0.0
 10
88.79853884567164
 20
-144.7284591304845
 30
0.0
 10
88.81868245626886
 20
-144.7484263527016
 30
0.0
 10
88.84348273341392
 20
-144.7484263527016
 30
0.0
 10
88.86831828833587
 20
-144.7484263527016
 30
0.0
 10
88.88846189893307
 20
-144.7284591304845
 30
0.0
 10
88.88846189893307
 20
-144.7036588527131
 30
0.0
  0
SPLINE
  5
79
330
1F
100
AcDbEntity
  8
_U+30EC_U+30A4_U+30E4_U+30FC 1
 62
   179
420
  2234388
370
     9
100
AcDbSpline
210
0.0
220
0.0
230
1.0
 70
    11
 71
     3
 72
    17
 73
    13
 74
     0
 42
0.0000000001
 43
0.0000000001
 12
1.0
 22
0.0
 32
0.0
 13
1.0
 23
0.0
 33
0.0
 40
0.0
 40
0.0
 40
0.0
 40
0.0
 40
1.0
 40
1.0
 40
1.0
 40
2.0
 40
2.0
 40
2.0
 40
3.0
 40
3.0
 40
3.0
 40
4.0
 40
4.0
 40
4.0
 40
4.0
 10
87.98842220022517
 20
-144.7036588527131
 30
0.0
 10
87.98842220022517
 20
-144.6788585749417
 30
0.0
 10
87.9684527557378
 20
-144.658185797169
 30
0.0
 10
87.94347608970834
 20
-144.658185797169
 30
0.0
 10
87.91867581256327
 20
-144.658185797169
 30
0.0
 10
87.89849692418919
 20
-144.6788585749417
 30
0.0
 10
87.89849692418919
 20
-144.7036588527131
 30
0.0
 10
87.89849692418919
 20
-144.7284591304845
 30
0.0
 10
87.91867581256327
 20
-144.7484263527016
 30
0.0
 10
87.94347608970834
 20
-144.7484263527016
 30
0.0
 10
87.9684527557378
 20
-144.7484263527016
 30
0.0
 10
87.98842220022517
 20
-144.7284591304845
 30
0.0
 10
87.98842220022517
 20
-144.7036588527131
 30
0.0
  0
SPLINE
  5
7A
330
1F
100
AcDbEntity
  8
_U+30EC_U+30A4_U+30E4_U+30FC 1
 62
   179
420
  2234388
370
     9
100
AcDbSpline
210
0.0
220
0.0
230
1.0
 70
    11
 71
     3
 72
    17
 73
    13
 74
     0
 42
0.0000000001
 43
0.0000000001
 12
1.0
 22
0.0
 32
0.0
 13
1.0
 23
0.0
 33
0.0
 40
0.0
 40
0.0
 40
0.0
 40
0.0
 40
1.0
 40
1.0
 40
1.0
 40
2.0
 40
2.0
 40
2.0
 40
3.0
 40
3.0
 40
3.0
 40
4.0
 40
4.0
 40
4.0
 40
4.0
 10
91.8055812689556
 20
-142.1391407977985
 30
0.0
 10
91.8055812689556
 20
-142.1143405200272
 30
0.0
 10
91.78561404724279
 20
-142.0943380200318
 30
0.0
 10
91.76081377009773
 20
-142.0943380200318
 30
0.0
 10
91.73566071518387
 20
-142.0943380200318
 30
0.0
 10
91.71534071570228
 20
-142.1143405200272
 30
0.0
 10
91.71534071570228
 20
-142.1391407977985
 30
0.0
 10
91.71534071570228
 20
-142.1639410755699
 30
0.0
 10
91.73566071518387
 20
-142.1839082977871
 30
0.0
 10
91.76081377009773
 20
-142.1839082977871
 30
0.0
 10
91.78561404724279
 20
-142.1839082977871
 30
0.0
 10
91.8055812689556
 20
-142.1639410755699
 30
0.0
 10
91.8055812689556
 20
-142.1391407977985
 30
0.0
  0
SPLINE
  5
7B
330
1F
100
AcDbEntity
  8
_U+30EC_U+30A4_U+30E4_U+30FC 1
 62
   179
420
  2234388
370
     9
100
AcDbSpline
210
0.0
220
0.0
230
1.0
 70
    11
 71
     3
 72
    17
 73
    13
 74
     0
 42
0.0000000001
 43
0.0000000001
 12
1.0
 22
0.0
 32
0.0
 13
1.0
 23
0.0
 33
0.0
 40
0.0
 40
0.0
 40
0.0
 40
0.0
 40
1.0
 40
1.0
 40
1.0
 40
2.0
 40
2.0
 40
2.0
 40
3.0
 40
3.0
 40
3.0
 40
4.0
 40
4.0
 40
4.0
 40
4.0
 10
91.8055812689556
 20
-140.7893424648028
 30
0.0
 10
91.8055812689556
 20
-140.7645421870308
 30
0.0
 10
91.78561404724279
 20
-140.7438694092587
 30
0.0
 10
91.76081377009773
 20
-140.7438694092587
 30
0.0
 10
91.73566071518387
 20
-140.7438694092587
 30
0.0
 10
91.71534071570228
 20
-140.7645421870308
 30
0.0
 10
91.71534071570228
 20
-140.7893424648028
 30
0.0
 10
91.71534071570228
 20
-140.8141427425742
 30
0.0
 10
91.73566071518387
 20
-140.8341099647914
 30
0.0
 10
91.76081377009773
 20
-140.8341099647914
 30
0.0
 10
91.78561404724279
 20
-140.8341099647914
 30
0.0
 10
91.8055812689556
 20
-140.8141427425742
 30
0.0
 10
91.8055812689556
 20
-140.7893424648028
 30
0.0
  0
SPLINE
  5
7C
330
1F
100
AcDbEntity
  8
_U+30EC_U+30A4_U+30E4_U+30FC 1
 62
   179
420
  2234388
370
     9
100
AcDbSpline
210
0.0
220
0.0
230
1.0
 70
    11
 71
     3
 72
    17
 73
    13
 74
     0
 42
0.0000000001
 43
0.0000000001
 12
1.0
 22
0.0
 32
0.0
 13
1.0
 23
0.0
 33
0.0
 40
0.0
 40
0.0
 40
0.0
 40
0.0
 40
1.0
 40
1.0
 40
1.0
 40
2.0
 40
2.0
 40
2.0
 40
3.0
 40
3.0
 40
3.0
 40
4.0
 40
4.0
 40
4.0
 40
4.0
 10
86.18837141226257
 20
-142.1391407977985
 30
0.0
 10
86.18837141226257
 20
-142.1143405200272
 30
0.0
 10
86.16836891277288
 20
-142.0943380200318
 30
0.0
 10
86.1435686356278
 20
-142.0943380200318
 30
0.0
 10
86.11876835848274
 20
-142.0943380200318
 30
0.0
 10
86.09844835900114
 20
-142.1143405200272
 30
0.0
 10
86.09844835900114
 20
-142.1391407977985
 30
0.0
 10
86.09844835900114
 20
-142.1639410755699
 30
0.0
 10
86.11876835848274
 20
-142.1839082977871
 30
0.0
 10
86.1435686356278
 20
-142.1839082977871
 30
0.0
 10
86.16836891277288
 20
-142.1839082977871
 30
0.0
 10
86.18837141226257
 20
-142.1639410755699
 30
0.0
 10
86.18837141226257
 20
-142.1391407977985
 30
0.0
  0
SPLINE
  5
7D
330
1F
100
AcDbEntity
  8
_U+30EC_U+30A4_U+30E4_U+30FC 1
 62
   179
420
  2234388
370
     9
100
AcDbSpline
210
0.0
220
0.0
230
1.0
 70
    11
 71
     3
 72
    17
 73
    13
 74
     0
 42
0.0000000001
 43
0.0000000001
 12
1.0
 22
0.0
 32
0.0
 13
1.0
 23
0.0
 33
0.0
 40
0.0
 40
0.0
 40
0.0
 40
0.0
 40
1.0
 40
1.0
 40
1.0
 40
2.0
 40
2.0
 40
2.0
 40
3.0
 40
3.0
 40
3.0
 40
4.0
 40
4.0
 40
4.0
 40
4.0
 10
86.18837141226257
 20
-128.1890727457306
 30
0.0
 10
86.18837141226257
 20
-128.1642724679589
 30
0.0
 10
86.16836891277288
 20
-128.1439524679639
 30
0.0
 10
86.1435686356278
 20
-128.1439524679639
 30
0.0
 10
86.11876835848274
 20
-128.1439524679639
 30
0.0
 10
86.09844835900114
 20
-128.1642724679589
 30
0.0
 10
86.09844835900114
 20
-128.1890727457306
 30
0.0
 10
86.09844835900114
 20
-128.2138730235019
 30
0.0
 10
86.11876835848274
 20
-128.233875523497
 30
0.0
 10
86.1435686356278
 20
-128.233875523497
 30
0.0
 10
86.16836891277288
 20
-128.233875523497
 30
0.0
 10
86.18837141226257
 20
-128.2138730235019
 30
0.0
 10
86.18837141226257
 20
-128.1890727457306
 30
0.0
  0
SPLINE
  5
7E
330
1F
100
AcDbEntity
  8
_U+30EC_U+30A4_U+30E4_U+30FC 1
 62
   179
420
  2234388
370
     9
100
AcDbSpline
210
0.0
220
0.0
230
1.0
 70
    11
 71
     3
 72
    17
 73
    13
 74
     0
 42
0.0000000001
 43
0.0000000001
 12
1.0
 22
0.0
 32
0.0
 13
1.0
 23
0.0
 33
0.0
 40
0.0
 40
0.0
 40
0.0
 40
0.0
 40
1.0
 40
1.0
 40
1.0
 40
2.0
 40
2.0
 40
2.0
 40
3.0
 40
3.0
 40
3.0
 40
4.0
 40
4.0
 40
4.0
 40
4.0
 10
86.18837141226257
 20
-128.6390055233957
 30
0.0
 10
86.18837141226257
 20
-128.6142052456243
 30
0.0
 10
86.16836891277288
 20
-128.5942027456293
 30
0.0
 10
86.1435686356278
 20
-128.5942027456293
 30
0.0
 10
86.11876835848274
 20
-128.5942027456293
 30
0.0
 10
86.09844835900114
 20
-128.6142052456243
 30
0.0
 10
86.09844835900114
 20
-128.6390055233957
 30
0.0
 10
86.09844835900114
 20
-128.6638058011674
 30
0.0
 10
86.11876835848274
 20
-128.6841258011624
 30
0.0
 10
86.1435686356278
 20
-128.6841258011624
 30
0.0
 10
86.16836891277288
 20
-128.6841258011624
 30
0.0
 10
86.18837141226257
 20
-128.6638058011674
 30
0.0
 10
86.18837141226257
 20
-128.6390055233957
 30
0.0
  0
SPLINE
  5
7F
330
1F
100
AcDbEntity
  8
_U+30EC_U+30A4_U+30E4_U+30FC 1
 62
   179
420
  2234388
370
     9
100
AcDbSpline
210
0.0
220
0.0
230
1.0
 70
    11
 71
     3
 72
    17
 73
    13
 74
     0
 42
0.0000000001
 43
0.0000000001
 12
1.0
 22
0.0
 32
0.0
 13
1.0
 23
0.0
 33
0.0
 40
0.0
 40
0.0
 40
0.0
 40
0.0
 40
1.0
 40
1.0
 40
1.0
 40
2.0
 40
2.0
 40
2.0
 40
3.0
 40
3.0
 40
3.0
 40
4.0
 40
4.0
 40
4.0
 40
4.0
 10
86.18837141226257
 20
-110.1891510835639
 30
0.0
 10
86.18837141226257
 20
-110.1643508057922
 30
0.0
 10
86.16836891277288
 20
-110.1443483057972
 30
0.0
 10
86.1435686356278
 20
-110.1443483057972
 30
0.0
 10
86.11876835848274
 20
-110.1443483057972
 30
0.0
 10
86.09844835900114
 20
-110.1643508057922
 30
0.0
 10
86.09844835900114
 20
-110.1891510835639
 30
0.0
 10
86.09844835900114
 20
-110.2139513613352
 30
0.0
 10
86.11876835848274
 20
-110.2339185835528
 30
0.0
 10
86.1435686356278
 20
-110.2339185835528
 30
0.0
 10
86.16836891277288
 20
-110.2339185835528
 30
0.0
 10
86.18837141226257
 20
-110.2139513613352
 30
0.0
 10
86.18837141226257
 20
-110.1891510835639
 30
0.0
  0
POLYLINE
  5
80
330
1F
100
AcDbEntity
  8
_U+30EC_U+30A4_U+30E4_U+30FC 1
 62
   179
420
  2234388
370
     9
100
AcDb2dPolyline
 66
     1
 10
0.0
 20
0.0
 30
0.0
  0
VERTEX
  5
81
330
80
100
AcDbEntity
  8
_U+30EC_U+30A4_U+30E4_U+30FC 1
 62
   179
420
  2234388
370
     9
100
AcDbVertex
100
AcDb2dVertex
 10
86.1435686356278
 20
-110.1891510835639
 30
0.0
  0
VERTEX
  5
82
330
80
100
AcDbEntity
  8
_U+30EC_U+30A4_U+30E4_U+30FC 1
 62
   179
420
  2234388
370
     9
100
AcDbVertex
100
AcDb2dVertex
 10
86.1435686356278
 20
-128.1890727457306
 30
0.0
  0
SEQEND
  5
83
330
80
100
AcDbEntity
  8
_U+30EC_U+30A4_U+30E4_U+30FC 1
 62
   179
420
  2234388
370
     9
  0
POLYLINE
  5
84
330
1F
100
AcDbEntity
  8
_U+30EC_U+30A4_U+30E4_U+30FC 1
 62
   179
420
  2234388
370
     9
100
AcDb2dPolyline
 66
     1
 10
0.0
 20
0.0
 30
0.0
  0
VERTEX
  5
85
330
84
100
AcDbEntity
  8
_U+30EC_U+30A4_U+30E4_U+30FC 1
 62
   179
420
  2234388
370
     9
100
AcDbVertex
100
AcDb2dVertex
 10
98.36573330874202
 20
-110.1891510835639
 30
0.0
  0
VERTEX
  5
86
330
84
100
AcDbEntity
  8
_U+30EC_U+30A4_U+30E4_U+30FC 1
 62
   179
420
  2234388
370
     9
100
AcDbVertex
100
AcDb2dVertex
 10
85.69345948044437
 20
-110.1891510835639
 30
0.0
  0
SEQEND
  5
87
330
84
100
AcDbEntity
  8
_U+30EC_U+30A4_U+30E4_U+30FC 1
 62
   179
420
  2234388
370
     9
  0
POLYLINE
  5
88
330
1F
100
AcDbEntity
  8
_U+30EC_U+30A4_U+30E4_U+30FC 1
 62
   179
420
  2234388
370
     9
100
AcDb2dPolyline
 66
     1
 10
0.0
 20
0.0
 30
0.0
  0
VERTEX
  5
89
330
88
100
AcDbEntity
  8
_U+30EC_U+30A4_U+30E4_U+30FC 1
 62
   179
420
  2234388
370
     9
100
AcDbVertex
100
AcDb2dVertex
 10
98.36573330874202
 20
-128.1890727457306
 30
0.0
  0
VERTEX
  5
8A
330
88
100
AcDbEntity
  8
_U+30EC_U+30A4_U+30E4_U+30FC 1
 62
   179
420
  2234388
370
     9
100
AcDbVertex
100
AcDb2dVertex
 10
85.69345948044437
 20
-128.1890727457306
 30
0.0
  0
SEQEND
  5
8B
330
88
100
AcDbEntity
  8
_U+30EC_U+30A4_U+30E4_U+30FC 1
 62
   179
420
  2234388
370
     9
  0
INSERT
  5
8D
330
1F
100
AcDbEntity
  8
_U+30EC_U+30A4_U+30E4_U+30FC 1
100
AcDbBlockReference
  2
block 2
 10
0.0
 20
0.0
 30
0.0
  0
POLYLINE
  5
A8
330
1F
100
AcDbEntity
  8
_U+30EC_U+30A4_U+30E4_U+30FC 1
 62
   179
420
  2234388
370
     9
100
AcDb2dPolyline
 66
     1
 10
0.0
 20
0.0
 30
0.0
  0
VERTEX
  5
A9
330
A8
100
AcDbEntity
  8
_U+30EC_U+30A4_U+30E4_U+30FC 1
 62
   179
420
  2234388
370
     9
100
AcDbVertex
100
AcDb2dVertex
 10
86.1435686356278
 20
-128.1890727457306
 30
0.0
  0
VERTEX
  5
AA
330
A8
100
AcDbEntity
  8
_U+30EC_U+30A4_U+30E4_U+30FC 1
 62
   179
420
  2234388
370
     9
100
AcDbVertex
100
AcDb2dVertex
 10
86.1435686356278
 20
-128.6390055233957
 30
0.0
  0
SEQEND
  5
AB
330
A8
100
AcDbEntity
  8
_U+30EC_U+30A4_U+30E4_U+30FC 1
 62
   179
420
  2234388
370
     9
  0
POLYLINE
  5
AC
330
1F
100
AcDbEntity
  8
_U+30EC_U+30A4_U+30E4_U+30FC 1
 62
   179
420
  2234388
370
     9
100
AcDb2dPolyline
 66
     1
 10
0.0
 20
0.0
 30
0.0
  0
VERTEX
  5
AD
330
AC
100
AcDbEntity
  8
_U+30EC_U+30A4_U+30E4_U+30FC 1
 62
   179
420
  2234388
370
     9
100
AcDbVertex
100
AcDb2dVertex
 10
86.80054667442245
 20
-128.6390055233957
 30
0.0
  0
VERTEX
  5
AE
330
AC
100
AcDbEntity
  8
_U+30EC_U+30A4_U+30E4_U+30FC 1
 62
   179
420
  2234388
370
     9
100
AcDbVertex
100
AcDb2dVertex
 10
85.69345948044437
 20
-128.6390055233957
 30
0.0
  0
SEQEND
  5
AF
330
AC
100
AcDbEntity
  8
_U+30EC_U+30A4_U+30E4_U+30FC 1
 62
   179
420
  2234388
370
     9
  0
INSERT
  5
B1
330
1F
100
AcDbEntity
  8
_U+30EC_U+30A4_U+30E4_U+30FC 1
100
AcDbBlockReference
  2
block 3
 10
0.0
 20
0.0
 30
0.0
  0
POLYLINE
  5
B6
330
1F
100
AcDbEntity
  8
_U+30EC_U+30A4_U+30E4_U+30FC 1
 62
   179
420
  2234388
370
     9
100
AcDb2dPolyline
 66
     1
 10
0.0
 20
0.0
 30
0.0
  0
VERTEX
  5
B7
330
B6
100
AcDbEntity
  8
_U+30EC_U+30A4_U+30E4_U+30FC 1
 62
   179
420
  2234388
370
     9
100
AcDbVertex
100
AcDb2dVertex
 10
86.1435686356278
 20
-128.6390055233957
 30
0.0
  0
VERTEX
  5
B8
330
B6
100
AcDbEntity
  8
_U+30EC_U+30A4_U+30E4_U+30FC 1
 62
   179
420
  2234388
370
     9
100
AcDbVertex
100
AcDb2dVertex
 10
86.1435686356278
 20
-142.1391407977985
 30
0.0
  0
SEQEND
  5
B9
330
B6
100
AcDbEntity
  8
_U+30EC_U+30A4_U+30E4_U+30FC 1
 62
   179
420
  2234388
370
     9
  0
POLYLINE
  5
BA
330
1F
100
AcDbEntity
  8
_U+30EC_U+30A4_U+30E4_U+30FC 1
 62
   179
420
  2234388
370
     9
100
AcDb2dPolyline
 66
     1
 10
0.0
 20
0.0
 30
0.0
  0
VERTEX
  5
BB
330
BA
100
AcDbEntity
  8
_U+30EC_U+30A4_U+30E4_U+30FC 1
 62
   179
420
  2234388
370
     9
100
AcDbVertex
100
AcDb2dVertex
 10
86.80054667442245
 20
-128.6390055233957
 30
0.0
  0
VERTEX
  5
BC
330
BA
100
AcDbEntity
  8
_U+30EC_U+30A4_U+30E4_U+30FC 1
 62
   179
420
  2234388
370
     9
100
AcDbVertex
100
AcDb2dVertex
 10
85.69345948044437
 20
-128.6390055233957
 30
0.0
  0
SEQEND
  5
BD
330
BA
100
AcDbEntity
  8
_U+30EC_U+30A4_U+30E4_U+30FC 1
 62
   179
420
  2234388
370
     9
  0
POLYLINE
  5
BE
330
1F
100
AcDbEntity
  8
_U+30EC_U+30A4_U+30E4_U+30FC 1
 62
   179
420
  2234388
370
     9
100
AcDb2dPolyline
 66
     1
 10
0.0
 20
0.0
 30
0.0
  0
VERTEX
  5
BF
330
BE
100
AcDbEntity
  8
_U+30EC_U+30A4_U+30E4_U+30FC 1
 62
   179
420
  2234388
370
     9
100
AcDbVertex
100
AcDb2dVertex
 10
86.80054667442245
 20
-142.1391407977985
 30
0.0
  0
VERTEX
  5
C0
330
BE
100
AcDbEntity
  8
_U+30EC_U+30A4_U+30E4_U+30FC 1
 62
   179
420
  2234388
370
     9
100
AcDbVertex
100
AcDb2dVertex
 10
85.69345948044437
 20
-142.1391407977985
 30
0.0
  0
SEQEND
  5
C1
330
BE
100
AcDbEntity
  8
_U+30EC_U+30A4_U+30E4_U+30FC 1
 62
   179
420
  2234388
370
     9
  0
INSERT
  5
C3
330
1F
100
AcDbEntity
  8
_U+30EC_U+30A4_U+30E4_U+30FC 1
100
AcDbBlockReference
  2
block 4
 10
0.0
 20
0.0
 30
0.0
  0
POLYLINE
  5
CB
330
1F
100
AcDbEntity
  8
_U+30EC_U+30A4_U+30E4_U+30FC 1
 62
   179
420
  2234388
370
     9
100
AcDb2dPolyline
 66
     1
 10
0.0
 20
0.0
 30
0.0
  0
VERTEX
  5
CC
330
CB
100
AcDbEntity
  8
_U+30EC_U+30A4_U+30E4_U+30FC 1
 62
   179
420
  2234388
370
     9
100
AcDbVertex
100
AcDb2dVertex
 10
91.76081377009773
 20
-140.7893424648028
 30
0.0
  0
VERTEX
  5
CD
330
CB
100
AcDbEntity
  8
_U+30EC_U+30A4_U+30E4_U+30FC 1
 62
   179
420
  2234388
370
     9
100
AcDbVertex
100
AcDb2dVertex
 10
91.76081377009773
 20
-142.1391407977985
 30
0.0
  0
SEQEND
  5
CE
330
CB
100
AcDbEntity
  8
_U+30EC_U+30A4_U+30E4_U+30FC 1
 62
   179
420
  2234388
370
     9
  0
POLYLINE
  5
CF
330
1F
100
AcDbEntity
  8
_U+30EC_U+30A4_U+30E4_U+30FC 1
 62
   179
420
  2234388
370
     9
100
AcDb2dPolyline
 66
     1
 10
0.0
 20
0.0
 30
0.0
  0
VERTEX
  5
D0
330
CF
100
AcDbEntity
  8
_U+30EC_U+30A4_U+30E4_U+30FC 1
 62
   179
420
  2234388
370
     9
100
AcDbVertex
100
AcDb2dVertex
 10
91.10365934241868
 20
-140.7893424648028
 30
0.0
  0
VERTEX
  5
D1
330
CF
100
AcDbEntity
  8
_U+30EC_U+30A4_U+30E4_U+30FC 1
 62
   179
420
  2234388
370
     9
100
AcDbVertex
100
AcDb2dVertex
 10
92.21074653639675
 20
-140.7893424648028
 30
0.0
  0
SEQEND
  5
D2
330
CF
100
AcDbEntity
  8
_U+30EC_U+30A4_U+30E4_U+30FC 1
 62
   179
420
  2234388
370
     9
  0
POLYLINE
  5
D3
330
1F
100
AcDbEntity
  8
_U+30EC_U+30A4_U+30E4_U+30FC 1
 62
   179
420
  2234388
370
     9
100
AcDb2dPolyline
 66
     1
 10
0.0
 20
0.0
 30
0.0
  0
VERTEX
  5
D4
330
D3
100
AcDbEntity
  8
_U+30EC_U+30A4_U+30E4_U+30FC 1
 62
   179
420
  2234388
370
     9
100
AcDbVertex
100
AcDb2dVertex
 10
91.10365934241868
 20
-142.1391407977985
 30
0.0
  0
VERTEX
  5
D5
330
D3
100
AcDbEntity
  8
_U+30EC_U+30A4_U+30E4_U+30FC 1
 62
   179
420
  2234388
370
     9
100
AcDbVertex
100
AcDb2dVertex
 10
92.21074653639675
 20
-142.1391407977985
 30
0.0
  0
SEQEND
  5
D6
330
D3
100
AcDbEntity
  8
_U+30EC_U+30A4_U+30E4_U+30FC 1
 62
   179
420
  2234388
370
     9
  0
INSERT
  5
D8
330
1F
100
AcDbEntity
  8
_U+30EC_U+30A4_U+30E4_U+30FC 1
100
AcDbBlockReference
  2
block 5
 10
0.0
 20
0.0
 30
0.0
  0
POLYLINE
  5
DD
330
1F
100
AcDbEntity
  8
_U+30EC_U+30A4_U+30E4_U+30FC 1
 62
   179
420
  2234388
370
     9
100
AcDb2dPolyline
 66
     1
 10
0.0
 20
0.0
 30
0.0
  0
VERTEX
  5
DE
330
DD
100
AcDbEntity
  8
_U+30EC_U+30A4_U+30E4_U+30FC 1
 62
   179
420
  2234388
370
     9
100
AcDbVertex
100
AcDb2dVertex
 10
87.94347608970834
 20
-144.7036588527131
 30
0.0
  0
VERTEX
  5
DF
330
DD
100
AcDbEntity
  8
_U+30EC_U+30A4_U+30E4_U+30FC 1
 62
   179
420
  2234388
370
     9
100
AcDbVertex
100
AcDb2dVertex
 10
88.84348273341392
 20
-144.7036588527131
 30
0.0
  0
SEQEND
  5
E0
330
DD
100
AcDbEntity
  8
_U+30EC_U+30A4_U+30E4_U+30FC 1
 62
   179
420
  2234388
370
     9
  0
POLYLINE
  5
E1
330
1F
100
AcDbEntity
  8
_U+30EC_U+30A4_U+30E4_U+30FC 1
 62
   179
420
  2234388
370
     9
100
AcDb2dPolyline
 66
     1
 10
0.0
 20
0.0
 30
0.0
  0
VERTEX
  5
E2
330
E1
100
AcDbEntity
  8
_U+30EC_U+30A4_U+30E4_U+30FC 1
 62
   179
420
  2234388
370
     9
100
AcDbVertex
100
AcDb2dVertex
 10
87.94347608970834
 20
-144.0463280195438
 30
0.0
  0
VERTEX
  5
E3
330
E1
100
AcDbEntity
  8
_U+30EC_U+30A4_U+30E4_U+30FC 1
 62
   179
420
  2234388
370
     9
100
AcDbVertex
100
AcDb2dVertex
 10
87.94347608970834
 20
-145.1535916303785
 30
0.0
  0
SEQEND
  5
E4
330
E1
100
AcDbEntity
  8
_U+30EC_U+30A4_U+30E4_U+30FC 1
 62
   179
420
  2234388
370
     9
  0
POLYLINE
  5
E5
330
1F
100
AcDbEntity
  8
_U+30EC_U+30A4_U+30E4_U+30FC 1
 62
   179
420
  2234388
370
     9
100
AcDb2dPolyline
 66
     1
 10
0.0
 20
0.0
 30
0.0
  0
VERTEX
  5
E6
330
E5
100
AcDbEntity
  8
_U+30EC_U+30A4_U+30E4_U+30FC 1
 62
   179
420
  2234388
370
     9
100
AcDbVertex
100
AcDb2dVertex
 10
88.84348273341392
 20
-144.0463280195438
 30
0.0
  0
VERTEX
  5
E7
330
E5
100
AcDbEntity
  8
_U+30EC_U+30A4_U+30E4_U+30FC 1
 62
   179
420
  2234388
370
     9
100
AcDbVertex
100
AcDb2dVertex
 10
88.84348273341392
 20
-145.1535916303785
 30
0.0
  0
SEQEND
  5
E8
330
E5
100
AcDbEntity
  8
_U+30EC_U+30A4_U+30E4_U+30FC 1
 62
   179
420
  2234388
370
     9
  0
INSERT
  5
EA
330
1F
100
AcDbEntity
  8
_U+30EC_U+30A4_U+30E4_U+30FC 1
100
AcDbBlockReference
  2
block 6
 10
0.0
 20
0.0
 30
0.0
  0
POLYLINE
  5
EF
330
1F
100
AcDbEntity
  8
_U+30EC_U+30A4_U+30E4_U+30FC 1
 62
   179
420
  2234388
370
     9
100
AcDb2dPolyline
 66
     1
 10
0.0
 20
0.0
 30
0.0
  0
VERTEX
  5
F0
330
EF
100
AcDbEntity
  8
_U+30EC_U+30A4_U+30E4_U+30FC 1
 62
   179
420
  2234388
370
     9
100
AcDbVertex
100
AcDb2dVertex
 10
88.84348273341392
 20
-144.7036588527131
 30
0.0
  0
VERTEX
  5
F1
330
EF
100
AcDbEntity
  8
_U+30EC_U+30A4_U+30E4_U+30FC 1
 62
   179
420
  2234388
370
     9
100
AcDbVertex
100
AcDb2dVertex
 10
100.0934599464031
 20
-144.7036588527131
 30
0.0
  0
SEQEND
  5
F2
330
EF
100
AcDbEntity
  8
_U+30EC_U+30A4_U+30E4_U+30FC 1
 62
   179
420
  2234388
370
     9
  0
POLYLINE
  5
F3
330
1F
100
AcDbEntity
  8
_U+30EC_U+30A4_U+30E4_U+30FC 1
 62
   179
420
  2234388
370
     9
100
AcDb2dPolyline
 66
     1
 10
0.0
 20
0.0
 30
0.0
  0
VERTEX
  5
F4
330
F3
100
AcDbEntity
  8
_U+30EC_U+30A4_U+30E4_U+30FC 1
 62
   179
420
  2234388
370
     9
100
AcDbVertex
100
AcDb2dVertex
 10
100.0934599464031
 20
-129.8945769119705
 30
0.0
  0
VERTEX
  5
F5
330
F3
100
AcDbEntity
  8
_U+30EC_U+30A4_U+30E4_U+30FC 1
 62
   179
420
  2234388
370
     9
100
AcDbVertex
100
AcDb2dVertex
 10
100.0934599464031
 20
-145.1618466303765
 30
0.0
  0
SEQEND
  5
F6
330
F3
100
AcDbEntity
  8
_U+30EC_U+30A4_U+30E4_U+30FC 1
 62
   179
420
  2234388
370
     9
  0
INSERT
  5
F8
330
1F
100
AcDbEntity
  8
_U+30EC_U+30A4_U+30E4_U+30FC 1
100
AcDbBlockReference
  2
block 7
 10
0.0
 20
0.0
 30
0.0
  0
ENDSEC
  0
SECTION
  2
OBJECTS
  0
DICTIONARY
  5
C
330
0
100
AcDbDictionary
281
     1
  3
ACAD_GROUP
350
D
  3
ACAD_LAYOUT
350
1A
  3
ACAD_MATERIAL
350
3B
  3
ACAD_MLEADERSTYLE
350
100
  3
ACAD_MLINESTYLE
350
17
  3
ACAD_PLOTSETTINGS
350
19
  3
ACAD_PLOTSTYLENAME
350
E
  3
ACAD_TABLESTYLE
350
FF
  3
ACAD_VISUALSTYLE
350
2A
  0
SUN
  5
3F
330
29
100
AcDbSun
 90
        1
290
     0
 63
     7
421
 16777215
 40
1.0
291
     1
 91
  2455826
 92
 54000000
292
     0
 70
     2
 71
   256
280
     1
  0
DICTIONARY
  5
D
102
{ACAD_REACTORS
330
C
102
}
330
C
100
AcDbDictionary
281
     1
  0
DICTIONARY
  5
1A
102
{ACAD_REACTORS
330
C
102
}
330
C
100
AcDbDictionary
281
     1
  3
Layout1
350
1E
  3
Layout2
350
26
  3
Model
350
22
  0
DICTIONARY
  5
3B
102
{ACAD_REACTORS
330
C
102
}
330
C
100
AcDbDictionary
281
     1
  3
ByBlock
350
3D
  3
ByLayer
350
3C
  3
Global
350
3E
  0
DICTIONARY
  5
100
102
{ACAD_REACTORS
330
C
102
}
330
C
100
AcDbDictionary
281
     1
  0
DICTIONARY
  5
17
102
{ACAD_REACTORS
330
C
102
}
330
C
100
AcDbDictionary
281
     1
  3
Standard
350
18
  0
DICTIONARY
  5
19
102
{ACAD_REACTORS
330
C
102
}
330
C
100
AcDbDictionary
281
     1
  0
ACDBDICTIONARYWDFLT
  5
E
102
{ACAD_REACTORS
330
C
102
}
330
C
100
AcDbDictionary
281
     1
  3
Normal
350
F
100
AcDbDictionaryWithDefault
340
F
  0
DICTIONARY
  5
FF
102
{ACAD_REACTORS
330
C
102
}
330
C
100
AcDbDictionary
281
     1
  0
DICTIONARY
  5
2A
102
{ACAD_REACTORS
330
C
102
}
330
C
100
AcDbDictionary
281
     1
  3
2dWireframe
350
2F
  3
3D Hidden
350
31
  3
3dWireframe
350
30
  3
Basic
350
32
  3
Brighten
350
36
  3
ColorChange
350
3A
  3
Conceptual
350
34
  3
Dim
350
35
  3
Facepattern
350
39
  3
Flat
350
2B
  3
FlatWithEdges
350
2C
  3
Gouraud
350
2D
  3
GouraudWithEdges
350
2E
  3
Linepattern
350
38
  3
Realistic
350
33
  3
Thicken
350
37
  0
LAYOUT
  5
1E
102
{ACAD_REACTORS
330
1A
102
}
330
1A
100
AcDbPlotSettings
  1

  2
none_device
  4

  6

 40
0.0
 41
0.0
 42
0.0
 43
0.0
 44
0.0
 45
0.0
 46
0.0
 47
0.0
 48
0.0
 49
0.0
140
0.0
141
0.0
142
1.0
143
1.0
 70
   688
 72
     0
 73
     0
 74
     5
  7

 75
    16
 76
     0
 77
     2
 78
   300
147
1.0
148
0.0
149
0.0
100
AcDbLayout
  1
Layout1
 70
     1
 71
     1
 10
0.0
 20
0.0
 11
12.0
 21
9.0
 12
0.0
 22
0.0
 32
0.0
 14
1.000000000000000E+20
 24
1.000000000000000E+20
 34
1.000000000000000E+20
 15
-1.000000000000000E+20
 25
-1.000000000000000E+20
 35
-1.000000000000000E+20
146
0.0
 13
0.0
 23
0.0
 33
0.0
 16
1.0
 26
0.0
 36
0.0
 17
0.0
 27
1.0
 37
0.0
 76
     0
330
1B
  0
LAYOUT
  5
26
102
{ACAD_REACTORS
330
1A
102
}
330
1A
100
AcDbPlotSettings
  1

  2
none_device
  4

  6

 40
0.0
 41
0.0
 42
0.0
 43
0.0
 44
0.0
 45
0.0
 46
0.0
 47
0.0
 48
0.0
 49
0.0
140
0.0
141
0.0
142
1.0
143
1.0
 70
   688
 72
     0
 73
     0
 74
     5
  7

 75
    16
 76
     0
 77
     2
 78
   300
147
1.0
148
0.0
149
0.0
100
AcDbLayout
  1
Layout2
 70
     1
 71
     2
 10
0.0
 20
0.0
 11
0.0
 21
0.0
 12
0.0
 22
0.0
 32
0.0
 14
0.0
 24
0.0
 34
0.0
 15
0.0
 25
0.0
 35
0.0
146
0.0
 13
0.0
 23
0.0
 33
0.0
 16
1.0
 26
0.0
 36
0.0
 17
0.0
 27
1.0
 37
0.0
 76
     0
330
23
  0
LAYOUT
  5
22
102
{ACAD_REACTORS
330
1A
102
}
330
1A
100
AcDbPlotSettings
  1

  2
none_device
  4

  6

 40
0.0
 41
0.0
 42
0.0
 43
0.0
 44
0.0
 45
0.0
 46
0.0
 47
0.0
 48
0.0
 49
0.0
140
0.0
141
0.0
142
1.0
143
1.0
 70
  1712
 72
     0
 73
     0
 74
     0
  7

 75
     0
 76
     0
 77
     2
 78
   300
147
1.0
148
0.0
149
0.0
100
AcDbLayout
  1
Model
 70
     1
 71
     0
 10
0.0
 20
0.0
 11
12.0
 21
9.0
 12
0.0
 22
0.0
 32
0.0
 14
1.000000000000000E+20
 24
1.000000000000000E+20
 34
1.000000000000000E+20
 15
-1.000000000000000E+20
 25
-1.000000000000000E+20
 35
-1.000000000000000E+20
146
0.0
 13
0.0
 23
0.0
 33
0.0
 16
1.0
 26
0.0
 36
0.0
 17
0.0
 27
1.0
 37
0.0
 76
     0
330
1F
331
29
  0
MATERIAL
  5
3D
102
{ACAD_REACTORS
330
3B
102
}
330
3B
100
AcDbMaterial
  1
ByBlock
 72
     1
 94
      127
  0
MATERIAL
  5
3C
102
{ACAD_REACTORS
330
3B
102
}
330
3B
100
AcDbMaterial
  1
ByLayer
 72
     1
 94
      127
  0
MATERIAL
  5
3E
102
{ACAD_REACTORS
330
3B
102
}
330
3B
100
AcDbMaterial
  1
Global
 72
     1
 94
      127
  0
MLINESTYLE
  5
18
102
{ACAD_REACTORS
330
17
102
}
330
17
100
AcDbMlineStyle
  2
Standard
 70
     0
  3

 62
   256
 51
90.0
 52
90.0
 71
     2
 49
0.5
 62
   256
  6
BYLAYER
 49
-0.5
 62
   256
  6
BYLAYER
  0
ACDBPLACEHOLDER
  5
F
102
{ACAD_REACTORS
330
E
102
}
330
E
  0
VISUALSTYLE
  5
2F
102
{ACAD_REACTORS
330
2A
102
}
330
2A
100
AcDbVisualStyle
  2
2dWireframe
 70
     4
177
     2
291
     0
 71
     0
176
     1
 72
     2
176
     1
 73
     0
176
     1
 90
        0
176
     1
 40
-0.6
176
     1
 41
-30.0
176
     1
 62
     5
 63
     7
421
 16777215
176
     1
 74
     1
176
     1
 91
        4
176
     1
 64
     7
176
     1
 65
   257
176
     1
 75
     1
176
     1
175
     1
176
     1
 42
1.0
176
     1
 92
        0
176
     1
 66
   257
176
     1
 43
1.0
176
     1
 76
     1
176
     1
 77
     6
176
     1
 78
     2
176
     1
 67
     7
176
     1
 79
     5
176
     1
170
     0
176
     1
171
     0
176
     1
290
     0
176
     1
 93
        1
176
     1
 44
0.0
176
     1
173
     0
176
     1
  0
VISUALSTYLE
  5
31
102
{ACAD_REACTORS
330
2A
102
}
330
2A
100
AcDbVisualStyle
  2
3D Hidden
 70
     6
177
     2
291
     0
 71
     1
176
     1
 72
     2
176
     1
 73
     2
176
     1
 90
        0
176
     1
 40
-0.6
176
     1
 41
-30.0
176
     1
 62
     5
 63
     7
421
 16777215
176
     1
 74
     2
176
     1
 91
        2
176
     1
 64
     7
176
     1
 65
   257
176
     1
 75
     2
176
     1
175
     1
176
     1
 42
40.0
176
     1
 92
        0
176
     1
 66
   257
176
     1
 43
1.0
176
     1
 76
     1
176
     1
 77
     6
176
     1
 78
     2
176
     1
 67
     7
176
     1
 79
     3
176
     1
170
     0
176
     1
171
     0
176
     1
290
     0
176
     1
 93
        1
176
     1
 44
0.0
176
     1
173
     0
176
     1
  0
VISUALSTYLE
  5
30
102
{ACAD_REACTORS
330
2A
102
}
330
2A
100
AcDbVisualStyle
  2
3dWireframe
 70
     5
177
     2
291
     0
 71
     0
176
     1
 72
     2
176
     1
 73
     0
176
     1
 90
        0
176
     1
 40
-0.6
176
     1
 41
-30.0
176
     1
 62
     5
 63
     7
421
 16777215
176
     1
 74
     1
176
     1
 91
        4
176
     1
 64
     7
176
     1
 65
   257
176
     1
 75
     1
176
     1
175
     1
176
     1
 42
1.0
176
     1
 92
        0
176
     1
 66
   257
176
     1
 43
1.0
176
     1
 76
     1
176
     1
 77
     6
176
     1
 78
     2
176
     1
 67
     7
176
     1
 79
     5
176
     1
170
     0
176
     1
171
     0
176
     1
290
     0
176
     1
 93
        1
176
     1
 44
0.0
176
     1
173
     0
176
     1
  0
VISUALSTYLE
  5
32
102
{ACAD_REACTORS
330
2A
102
}
330
2A
100
AcDbVisualStyle
  2
Basic
 70
     7
177
     2
291
     1
 71
     1
176
     1
 72
     0
176
     1
 73
     1
176
     1
 90
        0
176
     1
 40
-0.6
176
     1
 41
-30.0
176
     1
 62
     5
 63
     7
421
 16777215
176
     1
 74
     0
176
     1
 91
        4
176
     1
 64
     7
176
     1
 65
   257
176
     1
 75
     1
176
     1
175
     1
176
     1
 42
1.0
176
     1
 92
        8
176
     1
 66
     7
176
     1
 43
1.0
176
     1
 76
     1
176
     1
 77
     6
176
     1
 78
     2
176
     1
 67
     7
176
     1
 79
     5
176
     1
170
     0
176
     1
171
     0
176
     1
290
     0
176
     1
 93
        1
176
     1
 44
0.0
176
     1
173
     0
176
     1
  0
VISUALSTYLE
  5
36
102
{ACAD_REACTORS
330
2A
102
}
330
2A
100
AcDbVisualStyle
  2
Brighten
 70
    12
177
     2
291
     1
 71
     2
176
     1
 72
     2
176
     1
 73
     0
176
     1
 90
        0
176
     1
 40
-0.6
176
     1
 41
-30.0
176
     1
 62
     5
 63
     7
421
 16777215
176
     1
 74
     1
176
     1
 91
        4
176
     1
 64
     7
176
     1
 65
   257
176
     1
 75
     1
176
     1
175
     1
176
     1
 42
1.0
176
     1
 92
        8
176
     1
 66
     7
176
     1
 43
1.0
176
     1
 76
     1
176
     1
 77
     6
176
     1
 78
     2
176
     1
 67
     7
176
     1
 79
     5
176
     1
170
     0
176
     1
171
     0
176
     1
290
     0
176
     1
 93
        1
176
     1
 44
50.0
176
     1
173
     0
176
     1
  0
VISUALSTYLE
  5
3A
102
{ACAD_REACTORS
330
2A
102
}
330
2A
100
AcDbVisualStyle
  2
ColorChange
 70
    16
177
     2
291
     1
 71
     2
176
     1
 72
     2
176
     1
 73
     3
176
     1
 90
        0
176
     1
 40
-0.6
176
     1
 41
-30.0
176
     1
 62
     5
 63
     8
421
  8421504
176
     1
 74
     1
176
     1
 91
        4
176
     1
 64
     7
176
     1
 65
   257
176
     1
 75
     1
176
     1
175
     1
176
     1
 42
1.0
176
     1
 92
        8
176
     1
 66
     8
424
  8421504
176
     1
 43
1.0
176
     1
 76
     1
176
     1
 77
     6
176
     1
 78
     2
176
     1
 67
     7
176
     1
 79
     5
176
     1
170
     0
176
     1
171
     0
176
     1
290
     0
176
     1
 93
        1
176
     1
 44
0.0
176
     1
173
     0
176
     1
  0
VISUALSTYLE
  5
34
102
{ACAD_REACTORS
330
2A
102
}
330
2A
100
AcDbVisualStyle
  2
Conceptual
 70
     9
177
     2
291
     0
 71
     3
176
     1
 72
     2
176
     1
 73
     0
176
     1
 90
        0
176
     1
 40
-0.6
176
     1
 41
-30.0
176
     1
 62
     5
 63
     7
421
 16777215
176
     1
 74
     2
176
     1
 91
        2
176
     1
 64
     7
176
     1
 65
   257
176
     1
 75
     1
176
     1
175
     1
176
     1
 42
40.0
176
     1
 92
        8
176
     1
 66
     7
176
     1
 43
1.0
176
     1
 76
     1
176
     1
 77
     6
176
     1
 78
     2
176
     1
 67
     7
176
     1
 79
     3
176
     1
170
     0
176
     1
171
     0
176
     1
290
     0
176
     1
 93
        1
176
     1
 44
0.0
176
     1
173
     0
176
     1
  0
VISUALSTYLE
  5
35
102
{ACAD_REACTORS
330
2A
102
}
330
2A
100
AcDbVisualStyle
  2
Dim
 70
    11
177
     2
291
     1
 71
     2
176
     1
 72
     2
176
     1
 73
     0
176
     1
 90
        0
176
     1
 40
-0.6
176
     1
 41
-30.0
176
     1
 62
     5
 63
     7
421
 16777215
176
     1
 74
     1
176
     1
 91
        4
176
     1
 64
     7
176
     1
 65
   257
176
     1
 75
     1
176
     1
175
     1
176
     1
 42
1.0
176
     1
 92
        8
176
     1
 66
     7
176
     1
 43
1.0
176
     1
 76
     1
176
     1
 77
     6
176
     1
 78
     2
176
     1
 67
     7
176
     1
 79
     5
176
     1
170
     0
176
     1
171
     0
176
     1
290
     0
176
     1
 93
        1
176
     1
 44
-50.0
176
     1
173
     0
176
     1
  0
VISUALSTYLE
  5
39
102
{ACAD_REACTORS
330
2A
102
}
330
2A
100
AcDbVisualStyle
  2
Facepattern
 70
    15
177
     2
291
     1
 71
     2
176
     1
 72
     2
176
     1
 73
     0
176
     1
 90
        0
176
     1
 40
-0.6
176
     1
 41
-30.0
176
     1
 62
     5
 63
     7
421
 16777215
176
     1
 74
     1
176
     1
 91
        4
176
     1
 64
     7
176
     1
 65
   257
176
     1
 75
     1
176
     1
175
     1
176
     1
 42
1.0
176
     1
 92
        8
176
     1
 66
     7
176
     1
 43
1.0
176
     1
 76
     1
176
     1
 77
     6
176
     1
 78
     2
176
     1
 67
     7
176
     1
 79
     5
176
     1
170
     0
176
     1
171
     0
176
     1
290
     0
176
     1
 93
        1
176
     1
 44
0.0
176
     1
173
     0
176
     1
  0
VISUALSTYLE
  5
2B
102
{ACAD_REACTORS
330
2A
102
}
330
2A
100
AcDbVisualStyle
  2
Flat
 70
     0
177
     2
291
     1
 71
     2
176
     1
 72
     1
176
     1
 73
     1
176
     1
 90
        2
176
     1
 40
-0.6
176
     1
 41
30.0
176
     1
 62
     5
 63
     7
421
 16777215
176
     1
 74
     0
176
     1
 91
        4
176
     1
 64
     7
176
     1
 65
   257
176
     1
 75
     1
176
     1
175
     1
176
     1
 42
1.0
176
     1
 92
        8
176
     1
 66
     7
176
     1
 43
1.0
176
     1
 76
     1
176
     1
 77
     6
176
     1
 78
     2
176
     1
 67
     7
176
     1
 79
     5
176
     1
170
     0
176
     1
171
     0
176
     1
290
     0
176
     1
 93
       13
176
     1
 44
0.0
176
     1
173
     0
176
     1
  0
VISUALSTYLE
  5
2C
102
{ACAD_REACTORS
330
2A
102
}
330
2A
100
AcDbVisualStyle
  2
FlatWithEdges
 70
     1
177
     2
291
     1
 71
     2
176
     1
 72
     1
176
     1
 73
     1
176
     1
 90
        2
176
     1
 40
-0.6
176
     1
 41
30.0
176
     1
 62
     5
 63
     7
421
 16777215
176
     1
 74
     1
176
     1
 91
        4
176
     1
 64
     7
176
     1
 65
   257
176
     1
 75
     1
176
     1
175
     1
176
     1
 42
1.0
176
     1
 92
        0
176
     1
 66
   257
176
     1
 43
1.0
176
     1
 76
     1
176
     1
 77
     6
176
     1
 78
     2
176
     1
 67
     7
176
     1
 79
     5
176
     1
170
     0
176
     1
171
     0
176
     1
290
     0
176
     1
 93
       13
176
     1
 44
0.0
176
     1
173
     0
176
     1
  0
VISUALSTYLE
  5
2D
102
{ACAD_REACTORS
330
2A
102
}
330
2A
100
AcDbVisualStyle
  2
Gouraud
 70
     2
177
     2
291
     1
 71
     2
176
     1
 72
     2
176
     1
 73
     1
176
     1
 90
        2
176
     1
 40
-0.6
176
     1
 41
30.0
176
     1
 62
     5
 63
     7
421
 16777215
176
     1
 74
     0
176
     1
 91
        4
176
     1
 64
     7
176
     1
 65
   257
176
     1
 75
     1
176
     1
175
     1
176
     1
 42
1.0
176
     1
 92
        0
176
     1
 66
     7
176
     1
 43
1.0
176
     1
 76
     1
176
     1
 77
     6
176
     1
 78
     2
176
     1
 67
     7
176
     1
 79
     5
176
     1
170
     0
176
     1
171
     0
176
     1
290
     0
176
     1
 93
       13
176
     1
 44
0.0
176
     1
173
     0
176
     1
  0
VISUALSTYLE
  5
2E
102
{ACAD_REACTORS
330
2A
102
}
330
2A
100
AcDbVisualStyle
  2
GouraudWithEdges
 70
     3
177
     2
291
     1
 71
     2
176
     1
 72
     2
176
     1
 73
     1
176
     1
 90
        2
176
     1
 40
-0.6
176
     1
 41
30.0
176
     1
 62
     5
 63
     7
421
 16777215
176
     1
 74
     1
176
     1
 91
        4
176
     1
 64
     7
176
     1
 65
   257
176
     1
 75
     1
176
     1
175
     1
176
     1
 42
1.0
176
     1
 92
        0
176
     1
 66
   257
176
     1
 43
1.0
176
     1
 76
     1
176
     1
 77
     6
176
     1
 78
     2
176
     1
 67
     7
176
     1
 79
     5
176
     1
170
     0
176
     1
171
     0
176
     1
290
     0
176
     1
 93
       13
176
     1
 44
0.0
176
     1
173
     0
176
     1
  0
VISUALSTYLE
  5
38
102
{ACAD_REACTORS
330
2A
102
}
330
2A
100
AcDbVisualStyle
  2
Linepattern
 70
    14
177
     2
291
     1
 71
     2
176
     1
 72
     2
176
     1
 73
     0
176
     1
 90
        0
176
     1
 40
-0.6
176
     1
 41
-30.0
176
     1
 62
     5
 63
     7
421
 16777215
176
     1
 74
     1
176
     1
 91
        4
176
     1
 64
     7
176
     1
 65
   257
176
     1
 75
     7
176
     1
175
     7
176
     1
 42
1.0
176
     1
 92
        8
176
     1
 66
     7
176
     1
 43
1.0
176
     1
 76
     1
176
     1
 77
     6
176
     1
 78
     2
176
     1
 67
     7
176
     1
 79
     5
176
     1
170
     0
176
     1
171
     0
176
     1
290
     0
176
     1
 93
        1
176
     1
 44
0.0
176
     1
173
     0
176
     1
  0
VISUALSTYLE
  5
33
102
{ACAD_REACTORS
330
2A
102
}
330
2A
100
AcDbVisualStyle
  2
Realistic
 70
     8
177
     2
291
     0
 71
     2
176
     1
 72
     2
176
     1
 73
     0
176
     1
 90
        0
176
     1
 40
-0.6
176
     1
 41
-30.0
176
     1
 62
     5
 63
     7
421
 16777215
176
     1
 74
     1
176
     1
 91
        0
176
     1
 64
     7
176
     1
 65
   257
176
     1
 75
     1
176
     1
175
     1
176
     1
 42
1.0
176
     1
 92
        8
176
     1
 66
     8
424
  7895160
176
     1
 43
1.0
176
     1
 76
     1
176
     1
 77
     6
176
     1
 78
     2
176
     1
 67
     7
176
     1
 79
     5
176
     1
170
     0
176
     1
171
     0
176
     1
290
     0
176
     1
 93
       13
176
     1
 44
0.0
176
     1
173
     0
176
     1
  0
VISUALSTYLE
  5
37
102
{ACAD_REACTORS
330
2A
102
}
330
2A
100
AcDbVisualStyle
  2
Thicken
 70
    13
177
     2
291
     1
 71
     2
176
     1
 72
     2
176
     1
 73
     0
176
     1
 90
        0
176
     1
 40
-0.6
176
     1
 41
-30.0
176
     1
 62
     5
 63
     7
421
 16777215
176
     1
 74
     1
176
     1
 91
        4
176
     1
 64
     7
176
     1
 65
   257
176
     1
 75
     1
176
     1
175
     1
176
     1
 42
1.0
176
     1
 92
       12
176
     1
 66
     7
176
     1
 43
1.0
176
     1
 76
     1
176
     1
 77
     6
176
     1
 78
     2
176
     1
 67
     7
176
     1
 79
     5
176
     1
170
     0
176
     1
171
     0
176
     1
290
     0
176
     1
 93
        1
176
     1
 44
0.0
176
     1
173
     0
176
     1
  0
ENDSEC
  0
EOF
