  0
SECTION
  2
HEADER
  9
$ACADVER
  1
AC1024
  9
$ACADMAINTVER
 70
     6
  9
$DWGCODEPAGE
  3
UNDEFINED
  9
$INSBASE
 10
0.0
 20
0.0
 30
0.0
  9
$EXTMIN
 10
1.000000000000000E+20
 20
1.000000000000000E+20
 30
1.000000000000000E+20
  9
$EXTMAX
 10
-1.000000000000000E+20
 20
-1.000000000000000E+20
 30
-1.000000000000000E+20
  9
$LIMMIN
 10
0.0
 20
0.0
  9
$LIMMAX
 10
12.0
 20
9.0
  9
$ORTHOMODE
 70
     0
  9
$REGENMODE
 70
     1
  9
$FILLMODE
 70
     1
  9
$QTEXTMODE
 70
     0
  9
$MIRRTEXT
 70
     1
  9
$LTSCALE
 40
1.0
  9
$ATTMODE
 70
     1
  9
$TEXTSIZE
 40
0.2
  9
$TRACEWID
 40
0.05
  9
$TEXTSTYLE
  7
Standard
  9
$CLAYER
  8
0
  9
$CELTYPE
  6
ByLayer
  9
$CECOLOR
 62
   256
  9
$CELTSCALE
 40
1.0
  9
$DISPSILH
 70
     0
  9
$DIMSCALE
 40
1.0
  9
$DIMASZ
 40
0.18
  9
$DIMEXO
 40
0.0625
  9
$DIMDLI
 40
0.38
  9
$DIMRND
 40
0.0
  9
$DIMDLE
 40
0.0
  9
$DIMEXE
 40
0.18
  9
$DIMTP
 40
0.0
  9
$DIMTM
 40
0.0
  9
$DIMTXT
 40
0.18
  9
$DIMCEN
 40
0.09
  9
$DIMTSZ
 40
0.0
  9
$DIMTOL
 70
     0
  9
$DIMLIM
 70
     0
  9
$DIMTIH
 70
     1
  9
$DIMTOH
 70
     1
  9
$DIMSE1
 70
     0
  9
$DIMSE2
 70
     0
  9
$DIMTAD
 70
     0
  9
$DIMZIN
 70
     0
  9
$DIMBLK
  1

  9
$DIMASO
 70
     1
  9
$DIMSHO
 70
     1
  9
$DIMPOST
  1

  9
$DIMAPOST
  1

  9
$DIMALT
 70
     0
  9
$DIMALTD
 70
     2
  9
$DIMALTF
 40
25.4
  9
$DIMLFAC
 40
1.0
  9
$DIMTOFL
 70
     0
  9
$DIMTVP
 40
0.0
  9
$DIMTIX
 70
     0
  9
$DIMSOXD
 70
     0
  9
$DIMSAH
 70
     0
  9
$DIMBLK1
  1

  9
$DIMBLK2
  1

  9
$DIMSTYLE
  2
Standard
  9
$DIMCLRD
 70
     0
  9
$DIMCLRE
 70
     0
  9
$DIMCLRT
 70
     0
  9
$DIMTFAC
 40
1.0
  9
$DIMGAP
 40
0.09
  9
$DIMJUST
 70
     0
  9
$DIMSD1
 70
     0
  9
$DIMSD2
 70
     0
  9
$DIMTOLJ
 70
     1
  9
$DIMTZIN
 70
     0
  9
$DIMALTZ
 70
     0
  9
$DIMALTTZ
 70
     0
  9
$DIMUPT
 70
     0
  9
$DIMDEC
 70
     4
  9
$DIMTDEC
 70
     4
  9
$DIMALTU
 70
     2
  9
$DIMALTTD
 70
     2
  9
$DIMTXSTY
  7
Standard
  9
$DIMAUNIT
 70
     0
  9
$DIMADEC
 70
     0
  9
$DIMALTRND
 40
0.0
  9
$DIMAZIN
 70
     0
  9
$DIMDSEP
 70
    46
  9
$DIMATFIT
 70
     3
  9
$DIMFRAC
 70
     0
  9
$DIMLDRBLK
  1

  9
$DIMLUNIT
 70
     2
  9
$DIMLWD
 70
    -2
  9
$DIMLWE
 70
    -2
  9
$DIMTMOVE
 70
     0
  9
$DIMFXL
 40
1.0
  9
$DIMFXLON
 70
     0
  9
$DIMJOGANG
 40
0.7853981633974483
  9
$DIMTFILL
 70
     0
  9
$DIMTFILLCLR
 70
     0
  9
$DIMARCSYM
 70
     0
  9
$DIMLTYPE
  6

  9
$DIMLTEX1
  6

  9
$DIMLTEX2
  6

  9
$DIMTXTDIRECTION
 70
     0
  9
$LUNITS
 70
     2
  9
$LUPREC
 70
     4
  9
$SKETCHINC
 40
0.1
  9
$FILLETRAD
 40
0.5
  9
$AUNITS
 70
     0
  9
$AUPREC
 70
     0
  9
$MENU
  1
.
  9
$ELEVATION
 40
0.0
  9
$PELEVATION
 40
0.0
  9
$THICKNESS
 40
0.0
  9
$LIMCHECK
 70
     0
  9
$CHAMFERA
 40
0.5
  9
$CHAMFERB
 40
0.5
  9
$CHAMFERC
 40
1.0
  9
$CHAMFERD
 40
0.0
  9
$SKPOLY
 70
     0
  9
$TDCREATE
 40
2457917.626736099
  9
$TDUCREATE
 40
2457917.251736111
  9
$TDUPDATE
 40
2457917.626736099
  9
$TDUUPDATE
 40
2457917.251736111
  9
$TDINDWG
 40
0.0000000116
  9
$TDUSRTIMER
 40
0.0000000116
  9
$USRTIMER
 70
     1
  9
$ANGBASE
 50
0.0
  9
$ANGDIR
 70
     0
  9
$PDMODE
 70
     0
  9
$PDSIZE
 40
0.0
  9
$PLINEWID
 40
0.0
  9
$SPLFRAME
 70
     0
  9
$SPLINETYPE
 70
     6
  9
$SPLINESEGS
 70
     8
  9
$HANDSEED
  5
122
  9
$SURFTAB1
 70
     6
  9
$SURFTAB2
 70
     6
  9
$SURFTYPE
 70
     6
  9
$SURFU
 70
     6
  9
$SURFV
 70
     6
  9
$UCSBASE
  2

  9
$UCSNAME
  2

  9
$UCSORG
 10
0.0
 20
0.0
 30
0.0
  9
$UCSXDIR
 10
1.0
 20
0.0
 30
0.0
  9
$UCSYDIR
 10
0.0
 20
1.0
 30
0.0
  9
$UCSORTHOREF
  2

  9
$UCSORTHOVIEW
 70
     0
  9
$UCSORGTOP
 10
0.0
 20
0.0
 30
0.0
  9
$UCSORGBOTTOM
 10
0.0
 20
0.0
 30
0.0
  9
$UCSORGLEFT
 10
0.0
 20
0.0
 30
0.0
  9
$UCSORGRIGHT
 10
0.0
 20
0.0
 30
0.0
  9
$UCSORGFRONT
 10
0.0
 20
0.0
 30
0.0
  9
$UCSORGBACK
 10
0.0
 20
0.0
 30
0.0
  9
$PUCSBASE
  2

  9
$PUCSNAME
  2

  9
$PUCSORG
 10
0.0
 20
0.0
 30
0.0
  9
$PUCSXDIR
 10
1.0
 20
0.0
 30
0.0
  9
$PUCSYDIR
 10
0.0
 20
1.0
 30
0.0
  9
$PUCSORTHOREF
  2

  9
$PUCSORTHOVIEW
 70
     0
  9
$PUCSORGTOP
 10
0.0
 20
0.0
 30
0.0
  9
$PUCSORGBOTTOM
 10
0.0
 20
0.0
 30
0.0
  9
$PUCSORGLEFT
 10
0.0
 20
0.0
 30
0.0
  9
$PUCSORGRIGHT
 10
0.0
 20
0.0
 30
0.0
  9
$PUCSORGFRONT
 10
0.0
 20
0.0
 30
0.0
  9
$PUCSORGBACK
 10
0.0
 20
0.0
 30
0.0
  9
$USERI1
 70
     0
  9
$USERI2
 70
     0
  9
$USERI3
 70
     0
  9
$USERI4
 70
     0
  9
$USERI5
 70
     0
  9
$USERR1
 40
0.0
  9
$USERR2
 40
0.0
  9
$USERR3
 40
0.0
  9
$USERR4
 40
0.0
  9
$USERR5
 40
0.0
  9
$WORLDVIEW
 70
     1
  9
$SHADEDGE
 70
     3
  9
$SHADEDIF
 70
    70
  9
$TILEMODE
 70
     1
  9
$MAXACTVP
 70
    64
  9
$PINSBASE
 10
0.0
 20
0.0
 30
0.0
  9
$PLIMCHECK
 70
     0
  9
$PEXTMIN
 10
1.000000000000000E+20
 20
1.000000000000000E+20
 30
1.000000000000000E+20
  9
$PEXTMAX
 10
-1.000000000000000E+20
 20
-1.000000000000000E+20
 30
-1.000000000000000E+20
  9
$PLIMMIN
 10
0.0
 20
0.0
  9
$PLIMMAX
 10
12.0
 20
9.0
  9
$UNITMODE
 70
     0
  9
$VISRETAIN
 70
     1
  9
$PLINEGEN
 70
     0
  9
$PSLTSCALE
 70
     1
  9
$TREEDEPTH
 70
  3020
  9
$CMLSTYLE
  2
Standard
  9
$CMLJUST
 70
     0
  9
$CMLSCALE
 40
1.0
  9
$PROXYGRAPHICS
 70
     1
  9
$MEASUREMENT
 70
     0
  9
$CELWEIGHT
370
    -1
  9
$ENDCAPS
280
     0
  9
$JOINSTYLE
280
     0
  9
$LWDISPLAY
290
     1
  9
$INSUNITS
 70
     1
  9
$HYPERLINKBASE
  1

  9
$STYLESHEET
  1

  9
$XEDIT
290
     1
  9
$CEPSNTYPE
380
     0
  9
$PSTYLEMODE
290
     1
  9
$FINGERPRINTGUID
  2
{723FD916-E2B8-D221-36D8-3FEE0DA63B11}
  9
$VERSIONGUID
  2
{FAEB1C32-E019-11D5-929B-00C0DF256EC4}
  9
$EXTNAMES
290
     1
  9
$PSVPSCALE
 40
0.0
  9
$OLESTARTUP
290
     0
  9
$SORTENTS
280
   127
  9
$INDEXCTL
280
     0
  9
$HIDETEXT
280
     1
  9
$XCLIPFRAME
280
     2
  9
$HALOGAP
280
     0
  9
$OBSCOLOR
 70
   257
  9
$OBSLTYPE
280
     0
  9
$INTERSECTIONDISPLAY
280
     0
  9
$INTERSECTIONCOLOR
 70
   257
  9
$DIMASSOC
280
     2
  9
$PROJECTNAME
  1

  9
$CAMERADISPLAY
290
     0
  9
$LENSLENGTH
 40
50.0
  9
$CAMERAHEIGHT
 40
0.0
  9
$STEPSPERSEC
 40
2.0
  9
$STEPSIZE
 40
6.0
  9
$3DDWFPREC
 40
2.0
  9
$PSOLWIDTH
 40
0.25
  9
$PSOLHEIGHT
 40
4.0
  9
$LOFTANG1
 40
1.570796326794897
  9
$LOFTANG2
 40
1.570796326794897
  9
$LOFTMAG1
 40
0.0
  9
$LOFTMAG2
 40
0.0
  9
$LOFTPARAM
 70
     7
  9
$LOFTNORMALS
280
     1
  9
$LATITUDE
 40
37.795
  9
$LONGITUDE
 40
-122.394
  9
$NORTHDIRECTION
 40
0.0
  9
$TIMEZONE
 70
 -8000
  9
$LIGHTGLYPHDISPLAY
280
     1
  9
$TILEMODELIGHTSYNCH
280
     1
  9
$CMATERIAL
347
3C
  9
$SOLIDHIST
280
     1
  9
$SHOWHIST
280
     1
  9
$DWFFRAME
280
     2
  9
$DGNFRAME
280
     2
  9
$REALWORLDSCALE
290
     1
  9
$INTERFERECOLOR
 62
   256
  9
$CSHADOW
280
     0
  9
$SHADOWPLANELOCATION
 40
0.0
  0
ENDSEC
  0
SECTION
  2
CLASSES
  0
CLASS
  1
ACDBDICTIONARYWDFLT
  2
AcDbDictionaryWithDefault
  3
ObjectDBX Classes
 90
        0
 91
        4
280
     0
281
     0
  0
CLASS
  1
VISUALSTYLE
  2
AcDbVisualStyle
  3
ObjectDBX Classes
 90
     4095
 91
        4
280
     0
281
     0
  0
CLASS
  1
MATERIAL
  2
AcDbMaterial
  3
ObjectDBX Classes
 90
     1153
 91
        4
280
     0
281
     0
  0
CLASS
  1
SUN
  2
AcDbSun
  3
SCENEOE
 90
     1024
 91
        4
280
     0
281
     0
  0
ENDSEC
  0
SECTION
  2
TABLES
  0
TABLE
  2
VPORT
  5
8
330
0
100
AcDbSymbolTable
 70
     1
  0
VPORT
  5
29
330
8
100
AcDbSymbolTableRecord
100
AcDbViewportTableRecord
  2
*Active
 70
     0
 10
0.0
 20
0.0
 11
1.0
 21
1.0
 12
0.0
 22
0.0
 13
0.0
 23
0.0
 14
0.5
 24
0.5
 15
0.5
 25
0.5
 16
0.0
 26
0.0
 36
1.0
 17
91.00082462281999
 27
-128.4993055234307
 37
0.0
 40
256.9986110468615
 41
0.7081814508812795
 42
50.0
 43
0.0
 44
0.0
 50
0.0
 51
0.0
 71
     0
 72
   100
 73
     1
 74
     3
 75
     0
 76
     0
 77
     0
 78
     0
281
     0
 65
     1
110
0.0
120
0.0
130
0.0
111
1.0
121
0.0
131
0.0
112
0.0
122
1.0
132
0.0
 79
     0
146
0.0
 60
     3
 61
     5
292
     1
282
     1
141
0.0
142
0.0
 63
   250
361
3F
  0
ENDTAB
  0
TABLE
  2
LTYPE
  5
5
330
0
100
AcDbSymbolTable
 70
     1
  0
LTYPE
  5
14
330
5
100
AcDbSymbolTableRecord
100
AcDbLinetypeTableRecord
  2
ByBlock
 70
     0
  3

 72
    65
 73
     0
 40
0.0
  0
LTYPE
  5
15
330
5
100
AcDbSymbolTableRecord
100
AcDbLinetypeTableRecord
  2
ByLayer
 70
     0
  3

 72
    65
 73
     0
 40
0.0
  0
LTYPE
  5
16
330
5
100
AcDbSymbolTableRecord
100
AcDbLinetypeTableRecord
  2
Continuous
 70
     0
  3
Solid line
 72
    65
 73
     0
 40
0.0
  0
ENDTAB
  0
TABLE
  2
LAYER
  5
2
330
0
100
AcDbSymbolTable
 70
     2
  0
LAYER
  5
10
330
2
100
AcDbSymbolTableRecord
100
AcDbLayerTableRecord
  2
0
 70
     0
 62
     7
  6
Continuous
370
    -3
390
F
347
3E
  0
LAYER
  5
40
330
2
100
AcDbSymbolTableRecord
100
AcDbLayerTableRecord
  2
_U+30EC_U+30A4_U+30E4_U+30FC 1
 70
     0
 62
     7
  6
Continuous
370
    -3
390
F
347
3E
  0
ENDTAB
  0
TABLE
  2
STYLE
  5
3
330
0
100
AcDbSymbolTable
 70
     1
  0
STYLE
  5
11
330
3
100
AcDbSymbolTableRecord
100
AcDbTextStyleTableRecord
  2
Standard
 70
     0
 40
0.0
 41
1.0
 50
0.0
 71
     0
 42
0.2
  3
txt
  4

  0
ENDTAB
  0
TABLE
  2
VIEW
  5
6
330
0
100
AcDbSymbolTable
 70
     0
  0
ENDTAB
  0
TABLE
  2
UCS
  5
7
330
0
100
AcDbSymbolTable
 70
     0
  0
ENDTAB
  0
TABLE
  2
APPID
  5
9
330
0
100
AcDbSymbolTable
 70
     1
  0
APPID
  5
12
330
9
100
AcDbSymbolTableRecord
100
AcDbRegAppTableRecord
  2
ACAD
 70
     0
  0
ENDTAB
  0
TABLE
  2
DIMSTYLE
  5
A
330
0
100
AcDbSymbolTable
 70
     1
100
AcDbDimStyleTable
  0
DIMSTYLE
105
27
330
A
100
AcDbSymbolTableRecord
100
AcDbDimStyleTableRecord
  2
Standard
 70
     0
178
     0
340
11
  0
ENDTAB
  0
TABLE
  2
BLOCK_RECORD
  5
1
330
0
100
AcDbSymbolTable
 70
     8
  0
BLOCK_RECORD
  5
1F
330
1
100
AcDbSymbolTableRecord
100
AcDbBlockTableRecord
  2
*Model_Space
340
22
 70
     0
280
     1
281
     0
  0
BLOCK_RECORD
  5
1B
330
1
100
AcDbSymbolTableRecord
100
AcDbBlockTableRecord
  2
*Paper_Space
340
1E
 70
     0
280
     1
281
     0
  0
BLOCK_RECORD
  5
23
330
1
100
AcDbSymbolTableRecord
100
AcDbBlockTableRecord
  2
*Paper_Space0
340
26
 70
     0
280
     1
281
     0
  0
BLOCK_RECORD
  5
91
330
1
100
AcDbSymbolTableRecord
100
AcDbBlockTableRecord
  2
block 2
340
0
102
{BLKREFS
331
92
102
}
 70
     0
280
     1
281
     0
  0
BLOCK_RECORD
  5
AB
330
1
100
AcDbSymbolTableRecord
100
AcDbBlockTableRecord
  2
block 3
340
0
102
{BLKREFS
331
AC
102
}
 70
     0
280
     1
281
     0
  0
BLOCK_RECORD
  5
BB
330
1
100
AcDbSymbolTableRecord
100
AcDbBlockTableRecord
  2
block 4
340
0
102
{BLKREFS
331
BC
102
}
 70
     0
280
     1
281
     0
  0
BLOCK_RECORD
  5
CE
330
1
100
AcDbSymbolTableRecord
100
AcDbBlockTableRecord
  2
block 5
340
0
102
{BLKREFS
331
CF
102
}
 70
     0
280
     1
281
     0
  0
BLOCK_RECORD
  5
E3
330
1
100
AcDbSymbolTableRecord
100
AcDbBlockTableRecord
  2
block 6
340
0
102
{BLKREFS
331
E4
102
}
 70
     0
280
     1
281
     0
  0
BLOCK_RECORD
  5
F9
330
1
100
AcDbSymbolTableRecord
100
AcDbBlockTableRecord
  2
block 7
340
0
102
{BLKREFS
331
FA
102
}
 70
     0
280
     1
281
     0
  0
BLOCK_RECORD
  5
10B
330
1
100
AcDbSymbolTableRecord
100
AcDbBlockTableRecord
  2
block 8
340
0
102
{BLKREFS
331
10C
102
}
 70
     0
280
     1
281
     0
  0
ENDTAB
  0
ENDSEC
  0
SECTION
  2
BLOCKS
  0
BLOCK
  5
20
330
1F
100
AcDbEntity
  8
0
100
AcDbBlockBegin
  2
*Model_Space
 70
     0
 10
0.0
 20
0.0
 30
0.0
  3
*Model_Space
  1

  0
ENDBLK
  5
21
330
1F
100
AcDbEntity
  8
0
100
AcDbBlockEnd
  0
BLOCK
  5
1C
330
1B
100
AcDbEntity
 67
     1
  8
0
100
AcDbBlockBegin
  2
*Paper_Space
 70
     0
 10
0.0
 20
0.0
 30
0.0
  3
*Paper_Space
  1

  0
ENDBLK
  5
1D
330
1B
100
AcDbEntity
 67
     1
  8
0
100
AcDbBlockEnd
  0
BLOCK
  5
24
330
23
100
AcDbEntity
  8
0
100
AcDbBlockBegin
  2
*Paper_Space0
 70
     0
 10
0.0
 20
0.0
 30
0.0
  3
*Paper_Space0
  1

  0
ENDBLK
  5
25
330
23
100
AcDbEntity
  8
0
100
AcDbBlockEnd
  0
BLOCK
  5
93
330
91
100
AcDbEntity
  8
0
100
AcDbBlockBegin
  2
block 2
 70
     0
 10
0.0
 20
0.0
 30
0.0
  3
block 2
  1

  0
SPLINE
  5
95
330
91
100
AcDbEntity
  8
_U+30EC_U+30A4_U+30E4_U+30FC 1
370
     0
100
AcDbSpline
210
0.0
220
0.0
230
1.0
 70
    11
 71
     3
 72
    26
 73
    22
 74
     0
 42
0.0000000001
 43
0.0000000001
 12
1.0
 22
0.0
 32
0.0
 13
1.0
 23
0.0
 33
0.0
 40
0.0
 40
0.0
 40
0.0
 40
0.0
 40
1.0
 40
1.0
 40
1.0
 40
2.0
 40
2.0
 40
2.0
 40
3.0
 40
3.0
 40
3.0
 40
4.0
 40
4.0
 40
4.0
 40
5.0
 40
5.0
 40
5.0
 40
6.0
 40
6.0
 40
6.0
 40
7.0
 40
7.0
 40
7.0
 40
7.0
 10
104.7646646873505
 20
-120.7909043751842
 30
0.0
 10
104.7646646873505
 20
-120.7909043751842
 30
0.0
 10
103.5705945921629
 20
-120.7909043751842
 30
0.0
 10
103.5705945921629
 20
-120.7909043751842
 30
0.0
 10
103.5705945921629
 20
-120.7909043751842
 30
0.0
 10
103.5705945921629
 20
-121.1722764454014
 30
0.0
 10
103.5705945921629
 20
-121.1722764454014
 30
0.0
 10
103.5705945921629
 20
-121.1722764454014
 30
0.0
 10
103.4107421616473
 20
-121.1722764454014
 30
0.0
 10
103.4107421616473
 20
-121.1722764454014
 30
0.0
 10
103.3945502128666
 20
-120.7884928083445
 30
0.0
 10
103.2185058335704
 20
-120.7347493187746
 30
0.0
 10
103.0948269056499
 20
-120.7006428734707
 30
0.0
 10
103.0948269056499
 20
-120.7006428734707
 30
0.0
 10
103.0948269056499
 20
-120.5318331946934
 30
0.0
 10
103.0948269056499
 20
-120.5318331946934
 30
0.0
 10
103.0948269056499
 20
-120.5318331946934
 30
0.0
 10
104.7646646873505
 20
-120.5318331946934
 30
0.0
 10
104.7646646873505
 20
-120.5318331946934
 30
0.0
 10
104.7646646873505
 20
-120.5318331946934
 30
0.0
 10
104.7646646873505
 20
-120.7909043751842
 30
0.0
 10
104.7646646873505
 20
-120.7909043751842
 30
0.0
  0
HATCH
  5
96
330
91
100
AcDbEntity
  8
_U+30EC_U+30A4_U+30E4_U+30FC 1
 62
   179
420
  2234388
100
AcDbHatch
 10
0.0
 20
0.0
 30
0.0
210
0.0
220
0.0
230
1.0
  2
SOLID
 70
     1
 71
     0
 91
        1
 92
        1
 93
        1
 72
     4
 94
        3
 73
     0
 74
     1
 95
       26
 96
       22
 40
0.0
 40
0.0
 40
0.0
 40
0.0
 40
1.0
 40
1.0
 40
1.0
 40
2.0
 40
2.0
 40
2.0
 40
3.0
 40
3.0
 40
3.0
 40
4.0
 40
4.0
 40
4.0
 40
5.0
 40
5.0
 40
5.0
 40
6.0
 40
6.0
 40
6.0
 40
7.0
 40
7.0
 40
7.0
 40
7.0
 10
104.7646646873505
 20
-120.7909043751842
 10
104.7646646873505
 20
-120.7909043751842
 10
103.5705945921629
 20
-120.7909043751842
 10
103.5705945921629
 20
-120.7909043751842
 10
103.5705945921629
 20
-120.7909043751842
 10
103.5705945921629
 20
-121.1722764454014
 10
103.5705945921629
 20
-121.1722764454014
 10
103.5705945921629
 20
-121.1722764454014
 10
103.4107421616473
 20
-121.1722764454014
 10
103.4107421616473
 20
-121.1722764454014
 10
103.3945502128666
 20
-120.7884928083445
 10
103.2185058335704
 20
-120.7347493187746
 10
103.0948269056499
 20
-120.7006428734707
 10
103.0948269056499
 20
-120.7006428734707
 10
103.0948269056499
 20
-120.5318331946934
 10
103.0948269056499
 20
-120.5318331946934
 10
103.0948269056499
 20
-120.5318331946934
 10
104.7646646873505
 20
-120.5318331946934
 10
104.7646646873505
 20
-120.5318331946934
 10
104.7646646873505
 20
-120.5318331946934
 10
104.7646646873505
 20
-120.7909043751842
 10
104.7646646873505
 20
-120.7909043751842
 97
        0
 97
        0
 75
     2
 76
     1
 98
        0
  0
POLYLINE
  5
97
330
91
100
AcDbEntity
  8
_U+30EC_U+30A4_U+30E4_U+30FC 1
370
     0
100
AcDb2dPolyline
 66
     1
 10
0.0
 20
0.0
 30
0.0
  0
VERTEX
  5
98
330
97
100
AcDbEntity
  8
_U+30EC_U+30A4_U+30E4_U+30FC 1
370
     0
100
AcDbVertex
100
AcDb2dVertex
 10
104.7646646873505
 20
-119.884499753015
 30
0.0
  0
VERTEX
  5
99
330
97
100
AcDbEntity
  8
_U+30EC_U+30A4_U+30E4_U+30FC 1
370
     0
100
AcDbVertex
100
AcDb2dVertex
 10
104.4925021440158
 20
-119.884499753015
 30
0.0
  0
VERTEX
  5
9A
330
97
100
AcDbEntity
  8
_U+30EC_U+30A4_U+30E4_U+30FC 1
370
     0
100
AcDbVertex
100
AcDb2dVertex
 10
104.4925021440158
 20
-119.5937336940599
 30
0.0
  0
VERTEX
  5
9B
330
97
100
AcDbEntity
  8
_U+30EC_U+30A4_U+30E4_U+30FC 1
370
     0
100
AcDbVertex
100
AcDb2dVertex
 10
104.7646646873505
 20
-119.5937336940599
 30
0.0
  0
VERTEX
  5
9C
330
97
100
AcDbEntity
  8
_U+30EC_U+30A4_U+30E4_U+30FC 1
370
     0
100
AcDbVertex
100
AcDb2dVertex
 10
104.7646646873505
 20
-119.884499753015
 30
0.0
  0
SEQEND
  5
9D
330
97
100
AcDbEntity
  8
_U+30EC_U+30A4_U+30E4_U+30FC 1
370
     0
  0
HATCH
  5
9E
330
91
100
AcDbEntity
  8
_U+30EC_U+30A4_U+30E4_U+30FC 1
 62
   179
420
  2234388
100
AcDbHatch
 10
0.0
 20
0.0
 30
0.0
210
0.0
220
0.0
230
1.0
  2
SOLID
 70
     1
 71
     0
 91
        1
 92
        1
 93
        4
 72
     1
 10
104.7646646873505
 20
-119.884499753015
 11
104.4925021440158
 21
-119.884499753015
 72
     1
 10
104.4925021440158
 20
-119.884499753015
 11
104.4925021440158
 21
-119.5937336940599
 72
     1
 10
104.4925021440158
 20
-119.5937336940599
 11
104.7646646873505
 21
-119.5937336940599
 72
     1
 10
104.7646646873505
 20
-119.5937336940599
 11
104.7646646873505
 21
-119.884499753015
 97
        0
 75
     2
 76
     1
 98
        0
  0
SPLINE
  5
9F
330
91
100
AcDbEntity
  8
_U+30EC_U+30A4_U+30E4_U+30FC 1
370
     0
100
AcDbSpline
210
0.0
220
0.0
230
1.0
 70
    11
 71
     3
 72
    29
 73
    25
 74
     0
 42
0.0000000001
 43
0.0000000001
 12
1.0
 22
0.0
 32
0.0
 13
1.0
 23
0.0
 33
0.0
 40
0.0
 40
0.0
 40
0.0
 40
0.0
 40
1.0
 40
1.0
 40
1.0
 40
2.0
 40
2.0
 40
2.0
 40
3.0
 40
3.0
 40
3.0
 40
4.0
 40
4.0
 40
4.0
 40
5.0
 40
5.0
 40
5.0
 40
6.0
 40
6.0
 40
6.0
 40
7.0
 40
7.0
 40
7.0
 40
8.0
 40
8.0
 40
8.0
 40
8.0
 10
104.8197862151145
 20
-118.7434841283002
 30
0.0
 10
104.8197862151145
 20
-119.0514756646816
 30
0.0
 10
104.6709580901517
 20
-119.3446532904763
 30
0.0
 10
104.2933756249683
 20
-119.3446532904763
 30
0.0
 10
104.0167344575028
 20
-119.3446532904763
 30
0.0
 10
103.9137261024938
 20
-119.181011254927
 30
0.0
 10
103.847580269177
 20
-119.0587103652006
 30
0.0
 10
103.7835014931513
 20
-119.2030598660326
 30
0.0
 10
103.6598225652309
 20
-119.2909098009064
 30
0.0
 10
103.4858452432258
 20
-119.2909098009064
 30
0.0
 10
103.1885335028487
 20
-119.2909098009064
 30
0.0
 10
103.0421169447256
 20
-119.0611219320403
 30
0.0
 10
103.0421169447256
 20
-118.7434841283002
 30
0.0
 10
103.0421169447256
 20
-118.415855547653
 30
0.0
 10
103.1978352606589
 20
-118.196058455694
 30
0.0
 10
103.4858452432258
 20
-118.196058455694
 30
0.0
 10
103.6598225652309
 20
-118.196058455694
 30
0.0
 10
103.7835014931513
 20
-118.2863199574076
 30
0.0
 10
103.847580269177
 20
-118.4306694582396
 30
0.0
 10
103.9023572873925
 20
-118.3280056127791
 30
0.0
 10
104.0053656424014
 20
-118.1447265329638
 30
0.0
 10
104.289241510386
 20
-118.1447265329638
 30
0.0
 10
104.6936957203544
 20
-118.1447265329638
 30
0.0
 10
104.8197862151145
 20
-118.4671874703832
 30
0.0
 10
104.8197862151145
 20
-118.7434841283002
 30
0.0
  0
SPLINE
  5
A0
330
91
100
AcDbEntity
  8
_U+30EC_U+30A4_U+30E4_U+30FC 1
370
     0
100
AcDbSpline
210
0.0
220
0.0
230
1.0
 70
    11
 71
     3
 72
    17
 73
    13
 74
     0
 42
0.0000000001
 43
0.0000000001
 12
1.0
 22
0.0
 32
0.0
 13
1.0
 23
0.0
 33
0.0
 40
0.0
 40
0.0
 40
0.0
 40
0.0
 40
1.0
 40
1.0
 40
1.0
 40
2.0
 40
2.0
 40
2.0
 40
3.0
 40
3.0
 40
3.0
 40
4.0
 40
4.0
 40
4.0
 40
4.0
 10
103.2502007120347
 20
-118.7434841283002
 30
0.0
 10
103.2502007120347
 20
-118.9339979086346
 30
0.0
 10
103.3532090670437
 20
-119.0318386204157
 30
0.0
 10
103.4996256251668
 20
-119.0318386204157
 30
0.0
 10
103.6326063108974
 20
-119.0318386204157
 30
0.0
 10
103.7607638629487
 20
-118.9488118192211
 30
0.0
 10
103.7607638629487
 20
-118.7434841283002
 30
0.0
 10
103.7607638629487
 20
-118.5381564373794
 30
0.0
 10
103.6326063108974
 20
-118.4551296361848
 30
0.0
 10
103.4996256251668
 20
-118.4551296361848
 30
0.0
 10
103.3532090670437
 20
-118.4551296361848
 30
0.0
 10
103.2502007120347
 20
-118.5553819148056
 30
0.0
 10
103.2502007120347
 20
-118.7434841283002
 30
0.0
  0
SPLINE
  5
A1
330
91
100
AcDbEntity
  8
_U+30EC_U+30A4_U+30E4_U+30FC 1
370
     0
100
AcDbSpline
210
0.0
220
0.0
230
1.0
 70
    11
 71
     3
 72
    17
 73
    13
 74
     0
 42
0.0000000001
 43
0.0000000001
 12
1.0
 22
0.0
 32
0.0
 13
1.0
 23
0.0
 33
0.0
 40
0.0
 40
0.0
 40
0.0
 40
0.0
 40
1.0
 40
1.0
 40
1.0
 40
2.0
 40
2.0
 40
2.0
 40
3.0
 40
3.0
 40
3.0
 40
4.0
 40
4.0
 40
4.0
 40
4.0
 10
103.9640244965784
 20
-118.7434841283002
 30
0.0
 10
103.9640244965784
 20
-118.9095377306893
 30
0.0
 10
104.0577310937772
 20
-119.0855821099856
 30
0.0
 10
104.2775281857362
 20
-119.0855821099856
 30
0.0
 10
104.4993923349863
 20
-119.0855821099856
 30
0.0
 10
104.6092908809657
 20
-118.9388210423139
 30
0.0
 10
104.6092908809657
 20
-118.7434841283002
 30
0.0
 10
104.6092908809657
 20
-118.5285101700207
 30
0.0
 10
104.4766547047836
 20
-118.4013861466149
 30
0.0
 10
104.2844183767067
 20
-118.4013861466149
 30
0.0
 10
104.0439507118362
 20
-118.4013861466149
 30
0.0
 10
103.9640244965784
 20
-118.5894883601096
 30
0.0
 10
103.9640244965784
 20
-118.7434841283002
 30
0.0
  0
HATCH
  5
A2
330
91
100
AcDbEntity
  8
_U+30EC_U+30A4_U+30E4_U+30FC 1
 62
   179
420
  2234388
100
AcDbHatch
 10
0.0
 20
0.0
 30
0.0
210
0.0
220
0.0
230
1.0
  2
SOLID
 70
     1
 71
     0
 91
        3
 92
        1
 93
        1
 72
     4
 94
        3
 73
     0
 74
     1
 95
       29
 96
       25
 40
0.0
 40
0.0
 40
0.0
 40
0.0
 40
1.0
 40
1.0
 40
1.0
 40
2.0
 40
2.0
 40
2.0
 40
3.0
 40
3.0
 40
3.0
 40
4.0
 40
4.0
 40
4.0
 40
5.0
 40
5.0
 40
5.0
 40
6.0
 40
6.0
 40
6.0
 40
7.0
 40
7.0
 40
7.0
 40
8.0
 40
8.0
 40
8.0
 40
8.0
 10
104.8197862151145
 20
-118.7434841283002
 10
104.8197862151145
 20
-119.0514756646816
 10
104.6709580901517
 20
-119.3446532904763
 10
104.2933756249683
 20
-119.3446532904763
 10
104.0167344575028
 20
-119.3446532904763
 10
103.9137261024938
 20
-119.181011254927
 10
103.847580269177
 20
-119.0587103652006
 10
103.7835014931513
 20
-119.2030598660326
 10
103.6598225652309
 20
-119.2909098009064
 10
103.4858452432258
 20
-119.2909098009064
 10
103.1885335028487
 20
-119.2909098009064
 10
103.0421169447256
 20
-119.0611219320403
 10
103.0421169447256
 20
-118.7434841283002
 10
103.0421169447256
 20
-118.415855547653
 10
103.1978352606589
 20
-118.196058455694
 10
103.4858452432258
 20
-118.196058455694
 10
103.6598225652309
 20
-118.196058455694
 10
103.7835014931513
 20
-118.2863199574076
 10
103.847580269177
 20
-118.4306694582396
 10
103.9023572873925
 20
-118.3280056127791
 10
104.0053656424014
 20
-118.1447265329638
 10
104.289241510386
 20
-118.1447265329638
 10
104.6936957203544
 20
-118.1447265329638
 10
104.8197862151145
 20
-118.4671874703832
 10
104.8197862151145
 20
-118.7434841283002
 97
        0
 97
        0
 92
        1
 93
        1
 72
     4
 94
        3
 73
     0
 74
     1
 95
       17
 96
       13
 40
0.0
 40
0.0
 40
0.0
 40
0.0
 40
1.0
 40
1.0
 40
1.0
 40
2.0
 40
2.0
 40
2.0
 40
3.0
 40
3.0
 40
3.0
 40
4.0
 40
4.0
 40
4.0
 40
4.0
 10
103.2502007120347
 20
-118.7434841283002
 10
103.2502007120347
 20
-118.9339979086346
 10
103.3532090670437
 20
-119.0318386204157
 10
103.4996256251668
 20
-119.0318386204157
 10
103.6326063108974
 20
-119.0318386204157
 10
103.7607638629487
 20
-118.9488118192211
 10
103.7607638629487
 20
-118.7434841283002
 10
103.7607638629487
 20
-118.5381564373794
 10
103.6326063108974
 20
-118.4551296361848
 10
103.4996256251668
 20
-118.4551296361848
 10
103.3532090670437
 20
-118.4551296361848
 10
103.2502007120347
 20
-118.5553819148056
 10
103.2502007120347
 20
-118.7434841283002
 97
        0
 97
        0
 92
        1
 93
        1
 72
     4
 94
        3
 73
     0
 74
     1
 95
       17
 96
       13
 40
0.0
 40
0.0
 40
0.0
 40
0.0
 40
1.0
 40
1.0
 40
1.0
 40
2.0
 40
2.0
 40
2.0
 40
3.0
 40
3.0
 40
3.0
 40
4.0
 40
4.0
 40
4.0
 40
4.0
 10
103.9640244965784
 20
-118.7434841283002
 10
103.9640244965784
 20
-118.9095377306893
 10
104.0577310937772
 20
-119.0855821099856
 10
104.2775281857362
 20
-119.0855821099856
 10
104.4993923349863
 20
-119.0855821099856
 10
104.6092908809657
 20
-118.9388210423139
 10
104.6092908809657
 20
-118.7434841283002
 10
104.6092908809657
 20
-118.5285101700207
 10
104.4766547047836
 20
-118.4013861466149
 10
104.2844183767067
 20
-118.4013861466149
 10
104.0439507118362
 20
-118.4013861466149
 10
103.9640244965784
 20
-118.5894883601096
 10
103.9640244965784
 20
-118.7434841283002
 97
        0
 97
        0
 75
     2
 76
     1
 98
        0
  0
ENDBLK
  5
94
330
91
100
AcDbEntity
  8
0
100
AcDbBlockEnd
  0
BLOCK
  5
AD
330
AB
100
AcDbEntity
  8
0
100
AcDbBlockBegin
  2
block 3
 70
     0
 10
0.0
 20
0.0
 30
0.0
  3
block 3
  1

  0
SPLINE
  5
AF
330
AB
100
AcDbEntity
  8
_U+30EC_U+30A4_U+30E4_U+30FC 1
370
     0
100
AcDbSpline
210
0.0
220
0.0
230
1.0
 70
    11
 71
     3
 72
    44
 73
    40
 74
     0
 42
0.0000000001
 43
0.0000000001
 12
1.0
 22
0.0
 32
0.0
 13
1.0
 23
0.0
 33
0.0
 40
0.0
 40
0.0
 40
0.0
 40
0.0
 40
1.0
 40
1.0
 40
1.0
 40
2.0
 40
2.0
 40
2.0
 40
3.0
 40
3.0
 40
3.0
 40
4.0
 40
4.0
 40
4.0
 40
5.0
 40
5.0
 40
5.0
 40
6.0
 40
6.0
 40
6.0
 40
7.0
 40
7.0
 40
7.0
 40
8.0
 40
8.0
 40
8.0
 40
9.0
 40
9.0
 40
9.0
 40
10.0
 40
10.0
 40
10.0
 40
11.0
 40
11.0
 40
11.0
 40
12.0
 40
12.0
 40
12.0
 40
13.0
 40
13.0
 40
13.0
 40
13.0
 10
103.9592013628991
 20
-130.1550184136418
 30
0.0
 10
104.1307671180645
 20
-130.4065103840651
 30
0.0
 10
104.2110378428709
 20
-130.5143418727534
 30
0.0
 10
104.3664116492556
 20
-130.5704969291629
 30
0.0
 10
104.3664116492556
 20
-130.5704969291629
 30
0.0
 10
104.3664116492556
 20
-129.6709824979642
 30
0.0
 10
104.3664116492556
 20
-129.6709824979642
 30
0.0
 10
104.3664116492556
 20
-129.6709824979642
 30
0.0
 10
104.5882757985057
 20
-129.6709824979642
 30
0.0
 10
104.5882757985057
 20
-129.6709824979642
 30
0.0
 10
104.5882757985057
 20
-129.6709824979642
 30
0.0
 10
104.5882757985057
 20
-130.8588514212784
 30
0.0
 10
104.5882757985057
 20
-130.8588514212784
 30
0.0
 10
104.2017360850607
 20
-130.8219888995862
 30
0.0
 10
104.1169867361235
 20
-130.7461967989107
 30
0.0
 10
103.7945257987042
 20
-130.3014349717649
 30
0.0
 10
103.5795518404246
 20
-130.0058457791305
 30
0.0
 10
103.5065158161373
 20
-129.930053678455
 30
0.0
 10
103.3576876911745
 20
-129.930053678455
 30
0.0
 10
103.2295301391232
 20
-129.930053678455
 30
0.0
 10
103.0875922051309
 20
-130.0130804796495
 30
0.0
 10
103.0875922051309
 20
-130.240456781676
 30
0.0
 10
103.0875922051309
 20
-130.5412136175383
 30
0.0
 10
103.337017118263
 20
-130.550859884897
 30
0.0
 10
103.4631076130231
 20
-130.5556830185764
 30
0.0
 10
103.4631076130231
 20
-130.5556830185764
 30
0.0
 10
103.4631076130231
 20
-130.8147541990672
 30
0.0
 10
103.4631076130231
 20
-130.8147541990672
 30
0.0
 10
103.3256483031616
 20
-130.8051079317084
 30
0.0
 10
103.2043809420809
 20
-130.7927055879616
 30
0.0
 10
103.0762233900296
 20
-130.7000325194083
 30
0.0
 10
102.9022460680244
 20
-130.5729084960026
 30
0.0
 10
102.8657280558808
 20
-130.357934537723
 30
0.0
 10
102.8657280558808
 20
-130.2232313042498
 30
0.0
 10
102.8657280558808
 20
-129.9031819336701
 30
0.0
 10
103.0648545749282
 20
-129.6637477974452
 30
0.0
 10
103.3597547484656
 20
-129.6637477974452
 30
0.0
 10
103.6071126043066
 20
-129.6637477974452
 30
0.0
 10
103.7145995834464
 20
-129.7981065213699
 30
0.0
 10
103.9592013628991
 20
-130.1550184136418
 30
0.0
  0
HATCH
  5
B0
330
AB
100
AcDbEntity
  8
_U+30EC_U+30A4_U+30E4_U+30FC 1
 62
   179
420
  2234388
100
AcDbHatch
 10
0.0
 20
0.0
 30
0.0
210
0.0
220
0.0
230
1.0
  2
SOLID
 70
     1
 71
     0
 91
        1
 92
        1
 93
        1
 72
     4
 94
        3
 73
     0
 74
     1
 95
       44
 96
       40
 40
0.0
 40
0.0
 40
0.0
 40
0.0
 40
1.0
 40
1.0
 40
1.0
 40
2.0
 40
2.0
 40
2.0
 40
3.0
 40
3.0
 40
3.0
 40
4.0
 40
4.0
 40
4.0
 40
5.0
 40
5.0
 40
5.0
 40
6.0
 40
6.0
 40
6.0
 40
7.0
 40
7.0
 40
7.0
 40
8.0
 40
8.0
 40
8.0
 40
9.0
 40
9.0
 40
9.0
 40
10.0
 40
10.0
 40
10.0
 40
11.0
 40
11.0
 40
11.0
 40
12.0
 40
12.0
 40
12.0
 40
13.0
 40
13.0
 40
13.0
 40
13.0
 10
103.9592013628991
 20
-130.1550184136418
 10
104.1307671180645
 20
-130.4065103840651
 10
104.2110378428709
 20
-130.5143418727534
 10
104.3664116492556
 20
-130.5704969291629
 10
104.3664116492556
 20
-130.5704969291629
 10
104.3664116492556
 20
-129.6709824979642
 10
104.3664116492556
 20
-129.6709824979642
 10
104.3664116492556
 20
-129.6709824979642
 10
104.5882757985057
 20
-129.6709824979642
 10
104.5882757985057
 20
-129.6709824979642
 10
104.5882757985057
 20
-129.6709824979642
 10
104.5882757985057
 20
-130.8588514212784
 10
104.5882757985057
 20
-130.8588514212784
 10
104.2017360850607
 20
-130.8219888995862
 10
104.1169867361235
 20
-130.7461967989107
 10
103.7945257987042
 20
-130.3014349717649
 10
103.5795518404246
 20
-130.0058457791305
 10
103.5065158161373
 20
-129.930053678455
 10
103.3576876911745
 20
-129.930053678455
 10
103.2295301391232
 20
-129.930053678455
 10
103.0875922051309
 20
-130.0130804796495
 10
103.0875922051309
 20
-130.240456781676
 10
103.0875922051309
 20
-130.5412136175383
 10
103.337017118263
 20
-130.550859884897
 10
103.4631076130231
 20
-130.5556830185764
 10
103.4631076130231
 20
-130.5556830185764
 10
103.4631076130231
 20
-130.8147541990672
 10
103.4631076130231
 20
-130.8147541990672
 10
103.3256483031616
 20
-130.8051079317084
 10
103.2043809420809
 20
-130.7927055879616
 10
103.0762233900296
 20
-130.7000325194083
 10
102.9022460680244
 20
-130.5729084960026
 10
102.8657280558808
 20
-130.357934537723
 10
102.8657280558808
 20
-130.2232313042498
 10
102.8657280558808
 20
-129.9031819336701
 10
103.0648545749282
 20
-129.6637477974452
 10
103.3597547484656
 20
-129.6637477974452
 10
103.6071126043066
 20
-129.6637477974452
 10
103.7145995834464
 20
-129.7981065213699
 10
103.9592013628991
 20
-130.1550184136418
 97
        0
 97
        0
 75
     2
 76
     1
 98
        0
  0
SPLINE
  5
B1
330
AB
100
AcDbEntity
  8
_U+30EC_U+30A4_U+30E4_U+30FC 1
370
     0
100
AcDbSpline
210
0.0
220
0.0
230
1.0
 70
    11
 71
     3
 72
    44
 73
    40
 74
     0
 42
0.0000000001
 43
0.0000000001
 12
1.0
 22
0.0
 32
0.0
 13
1.0
 23
0.0
 33
0.0
 40
0.0
 40
0.0
 40
0.0
 40
0.0
 40
1.0
 40
1.0
 40
1.0
 40
2.0
 40
2.0
 40
2.0
 40
3.0
 40
3.0
 40
3.0
 40
4.0
 40
4.0
 40
4.0
 40
5.0
 40
5.0
 40
5.0
 40
6.0
 40
6.0
 40
6.0
 40
7.0
 40
7.0
 40
7.0
 40
8.0
 40
8.0
 40
8.0
 40
9.0
 40
9.0
 40
9.0
 40
10.0
 40
10.0
 40
10.0
 40
11.0
 40
11.0
 40
11.0
 40
12.0
 40
12.0
 40
12.0
 40
13.0
 40
13.0
 40
13.0
 40
13.0
 10
103.9592013628991
 20
-128.7966172638078
 30
0.0
 10
104.1307671180645
 20
-129.048109234231
 30
0.0
 10
104.2110378428709
 20
-129.1559407229194
 30
0.0
 10
104.3664116492556
 20
-129.2120957793289
 30
0.0
 10
104.3664116492556
 20
-129.2120957793289
 30
0.0
 10
104.3664116492556
 20
-128.3125813481302
 30
0.0
 10
104.3664116492556
 20
-128.3125813481302
 30
0.0
 10
104.3664116492556
 20
-128.3125813481302
 30
0.0
 10
104.5882757985057
 20
-128.3125813481302
 30
0.0
 10
104.5882757985057
 20
-128.3125813481302
 30
0.0
 10
104.5882757985057
 20
-128.3125813481302
 30
0.0
 10
104.5882757985057
 20
-129.5004502714444
 30
0.0
 10
104.5882757985057
 20
-129.5004502714444
 30
0.0
 10
104.2017360850607
 20
-129.4635877497522
 30
0.0
 10
104.1169867361235
 20
-129.3881401586252
 30
0.0
 10
103.7945257987042
 20
-128.9430338219309
 30
0.0
 10
103.5795518404246
 20
-128.6474446292965
 30
0.0
 10
103.5065158161373
 20
-128.571652528621
 30
0.0
 10
103.3576876911745
 20
-128.571652528621
 30
0.0
 10
103.2295301391232
 20
-128.571652528621
 30
0.0
 10
103.0875922051309
 20
-128.6546793298155
 30
0.0
 10
103.0875922051309
 20
-128.882055631842
 30
0.0
 10
103.0875922051309
 20
-129.1828124677043
 30
0.0
 10
103.337017118263
 20
-129.192458735063
 30
0.0
 10
103.4631076130231
 20
-129.1972818687424
 30
0.0
 10
103.4631076130231
 20
-129.1972818687424
 30
0.0
 10
103.4631076130231
 20
-129.4563530492331
 30
0.0
 10
103.4631076130231
 20
-129.4563530492331
 30
0.0
 10
103.3256483031616
 20
-129.4467067818744
 30
0.0
 10
103.2043809420809
 20
-129.4343044381276
 30
0.0
 10
103.0762233900296
 20
-129.3416313695743
 30
0.0
 10
102.9022460680244
 20
-129.2145073461686
 30
0.0
 10
102.8657280558808
 20
-128.999533387889
 30
0.0
 10
102.8657280558808
 20
-128.8648301544158
 30
0.0
 10
102.8657280558808
 20
-128.544780783836
 30
0.0
 10
103.0648545749282
 20
-128.3053466476112
 30
0.0
 10
103.3597547484656
 20
-128.3053466476112
 30
0.0
 10
103.6071126043066
 20
-128.3053466476112
 30
0.0
 10
103.7145995834464
 20
-128.4397053715359
 30
0.0
 10
103.9592013628991
 20
-128.7966172638078
 30
0.0
  0
HATCH
  5
B2
330
AB
100
AcDbEntity
  8
_U+30EC_U+30A4_U+30E4_U+30FC 1
 62
   179
420
  2234388
100
AcDbHatch
 10
0.0
 20
0.0
 30
0.0
210
0.0
220
0.0
230
1.0
  2
SOLID
 70
     1
 71
     0
 91
        1
 92
        1
 93
        1
 72
     4
 94
        3
 73
     0
 74
     1
 95
       44
 96
       40
 40
0.0
 40
0.0
 40
0.0
 40
0.0
 40
1.0
 40
1.0
 40
1.0
 40
2.0
 40
2.0
 40
2.0
 40
3.0
 40
3.0
 40
3.0
 40
4.0
 40
4.0
 40
4.0
 40
5.0
 40
5.0
 40
5.0
 40
6.0
 40
6.0
 40
6.0
 40
7.0
 40
7.0
 40
7.0
 40
8.0
 40
8.0
 40
8.0
 40
9.0
 40
9.0
 40
9.0
 40
10.0
 40
10.0
 40
10.0
 40
11.0
 40
11.0
 40
11.0
 40
12.0
 40
12.0
 40
12.0
 40
13.0
 40
13.0
 40
13.0
 40
13.0
 10
103.9592013628991
 20
-128.7966172638078
 10
104.1307671180645
 20
-129.048109234231
 10
104.2110378428709
 20
-129.1559407229194
 10
104.3664116492556
 20
-129.2120957793289
 10
104.3664116492556
 20
-129.2120957793289
 10
104.3664116492556
 20
-128.3125813481302
 10
104.3664116492556
 20
-128.3125813481302
 10
104.3664116492556
 20
-128.3125813481302
 10
104.5882757985057
 20
-128.3125813481302
 10
104.5882757985057
 20
-128.3125813481302
 10
104.5882757985057
 20
-128.3125813481302
 10
104.5882757985057
 20
-129.5004502714444
 10
104.5882757985057
 20
-129.5004502714444
 10
104.2017360850607
 20
-129.4635877497522
 10
104.1169867361235
 20
-129.3881401586252
 10
103.7945257987042
 20
-128.9430338219309
 10
103.5795518404246
 20
-128.6474446292965
 10
103.5065158161373
 20
-128.571652528621
 10
103.3576876911745
 20
-128.571652528621
 10
103.2295301391232
 20
-128.571652528621
 10
103.0875922051309
 20
-128.6546793298155
 10
103.0875922051309
 20
-128.882055631842
 10
103.0875922051309
 20
-129.1828124677043
 10
103.337017118263
 20
-129.192458735063
 10
103.4631076130231
 20
-129.1972818687424
 10
103.4631076130231
 20
-129.1972818687424
 10
103.4631076130231
 20
-129.4563530492331
 10
103.4631076130231
 20
-129.4563530492331
 10
103.3256483031616
 20
-129.4467067818744
 10
103.2043809420809
 20
-129.4343044381276
 10
103.0762233900296
 20
-129.3416313695743
 10
102.9022460680244
 20
-129.2145073461686
 10
102.8657280558808
 20
-128.999533387889
 10
102.8657280558808
 20
-128.8648301544158
 10
102.8657280558808
 20
-128.544780783836
 10
103.0648545749282
 20
-128.3053466476112
 10
103.3597547484656
 20
-128.3053466476112
 10
103.6071126043066
 20
-128.3053466476112
 10
103.7145995834464
 20
-128.4397053715359
 10
103.9592013628991
 20
-128.7966172638078
 97
        0
 97
        0
 75
     2
 76
     1
 98
        0
  0
ENDBLK
  5
AE
330
AB
100
AcDbEntity
  8
0
100
AcDbBlockEnd
  0
BLOCK
  5
BD
330
BB
100
AcDbEntity
  8
0
100
AcDbBlockBegin
  2
block 4
 70
     0
 10
0.0
 20
0.0
 30
0.0
  3
block 4
  1

  0
SPLINE
  5
BF
330
BB
100
AcDbEntity
  8
_U+30EC_U+30A4_U+30E4_U+30FC 1
370
     0
100
AcDbSpline
210
0.0
220
0.0
230
1.0
 70
    11
 71
     3
 72
    32
 73
    28
 74
     0
 42
0.0000000001
 43
0.0000000001
 12
1.0
 22
0.0
 32
0.0
 13
1.0
 23
0.0
 33
0.0
 40
0.0
 40
0.0
 40
0.0
 40
0.0
 40
1.0
 40
1.0
 40
1.0
 40
2.0
 40
2.0
 40
2.0
 40
3.0
 40
3.0
 40
3.0
 40
4.0
 40
4.0
 40
4.0
 40
5.0
 40
5.0
 40
5.0
 40
6.0
 40
6.0
 40
6.0
 40
7.0
 40
7.0
 40
7.0
 40
8.0
 40
8.0
 40
8.0
 40
9.0
 40
9.0
 40
9.0
 40
9.0
 10
104.7319362802406
 20
-135.8787000528359
 30
0.0
 10
104.7319362802406
 20
-136.4750460813326
 30
0.0
 10
104.1324896658072
 20
-136.4846923486913
 30
0.0
 10
103.9013237587469
 20
-136.4846923486913
 30
0.0
 10
103.6518988456148
 20
-136.4846923486913
 30
0.0
 10
102.951855443012
 20
-136.4626437375857
 30
0.0
 10
102.951855443012
 20
-135.8346028306247
 30
0.0
 10
102.951855443012
 20
-135.6340982733832
 30
0.0
 10
103.0276475436875
 20
-135.3509114244956
 30
0.0
 10
103.3866264932506
 20
-135.3068142022844
 30
0.0
 10
103.3866264932506
 20
-135.3068142022844
 30
0.0
 10
103.3866264932506
 20
-135.5534830390283
 30
0.0
 10
103.3866264932506
 20
-135.5534830390283
 30
0.0
 10
103.3249592840646
 20
-135.5658853827752
 30
0.0
 10
103.1647623440005
 20
-135.6024033949188
 30
0.0
 10
103.1647623440005
 20
-135.8370143974644
 30
0.0
 10
103.1647623440005
 20
-136.1742892454703
 30
0.0
 10
103.5196071789812
 20
-136.2207980345212
 30
0.0
 10
103.7414713282313
 20
-136.2352674355593
 30
0.0
 10
103.6567219792942
 20
-136.1277804564195
 30
0.0
 10
103.5926432032685
 20
-136.0495767889043
 30
0.0
 10
103.5926432032685
 20
-135.839425964304
 30
0.0
 10
103.5926432032685
 20
-135.6316867065435
 30
0.0
 10
103.70908743067
 20
-135.2823540243391
 30
0.0
 10
104.1486816145878
 20
-135.2823540243391
 30
0.0
 10
104.4938801822099
 20
-135.2823540243391
 30
0.0
 10
104.7319362802406
 20
-135.5121418932053
 30
0.0
 10
104.7319362802406
 20
-135.8787000528359
 30
0.0
  0
SPLINE
  5
C0
330
BB
100
AcDbEntity
  8
_U+30EC_U+30A4_U+30E4_U+30FC 1
370
     0
100
AcDbSpline
210
0.0
220
0.0
230
1.0
 70
    11
 71
     3
 72
    17
 73
    13
 74
     0
 42
0.0000000001
 43
0.0000000001
 12
1.0
 22
0.0
 32
0.0
 13
1.0
 23
0.0
 33
0.0
 40
0.0
 40
0.0
 40
0.0
 40
0.0
 40
1.0
 40
1.0
 40
1.0
 40
2.0
 40
2.0
 40
2.0
 40
3.0
 40
3.0
 40
3.0
 40
4.0
 40
4.0
 40
4.0
 40
4.0
 10
103.8031385374173
 20
-135.85906300857
 30
0.0
 10
103.8031385374173
 20
-136.162231411272
 30
0.0
 10
104.0318928776379
 20
-136.2059841239346
 30
0.0
 10
104.1576388628495
 20
-136.2059841239346
 30
0.0
 10
104.3478081336353
 20
-136.2059841239346
 30
0.0
 10
104.523508003383
 20
-136.0960855779552
 30
0.0
 10
104.523508003383
 20
-135.8835231865152
 30
0.0
 10
104.523508003383
 20
-135.7443413289111
 30
0.0
 10
104.4594292273574
 20
-135.5414252048299
 30
0.0
 10
104.150748671879
 20
-135.5414252048299
 30
0.0
 10
103.9082139497174
 20
-135.5414252048299
 30
0.0
 10
103.8031385374173
 20
-135.7026556735396
 30
0.0
 10
103.8031385374173
 20
-135.85906300857
 30
0.0
  0
HATCH
  5
C1
330
BB
100
AcDbEntity
  8
_U+30EC_U+30A4_U+30E4_U+30FC 1
 62
   179
420
  2234388
100
AcDbHatch
 10
0.0
 20
0.0
 30
0.0
210
0.0
220
0.0
230
1.0
  2
SOLID
 70
     1
 71
     0
 91
        2
 92
        1
 93
        1
 72
     4
 94
        3
 73
     0
 74
     1
 95
       32
 96
       28
 40
0.0
 40
0.0
 40
0.0
 40
0.0
 40
1.0
 40
1.0
 40
1.0
 40
2.0
 40
2.0
 40
2.0
 40
3.0
 40
3.0
 40
3.0
 40
4.0
 40
4.0
 40
4.0
 40
5.0
 40
5.0
 40
5.0
 40
6.0
 40
6.0
 40
6.0
 40
7.0
 40
7.0
 40
7.0
 40
8.0
 40
8.0
 40
8.0
 40
9.0
 40
9.0
 40
9.0
 40
9.0
 10
104.7319362802406
 20
-135.8787000528359
 10
104.7319362802406
 20
-136.4750460813326
 10
104.1324896658072
 20
-136.4846923486913
 10
103.9013237587469
 20
-136.4846923486913
 10
103.6518988456148
 20
-136.4846923486913
 10
102.951855443012
 20
-136.4626437375857
 10
102.951855443012
 20
-135.8346028306247
 10
102.951855443012
 20
-135.6340982733832
 10
103.0276475436875
 20
-135.3509114244956
 10
103.3866264932506
 20
-135.3068142022844
 10
103.3866264932506
 20
-135.3068142022844
 10
103.3866264932506
 20
-135.5534830390283
 10
103.3866264932506
 20
-135.5534830390283
 10
103.3249592840646
 20
-135.5658853827752
 10
103.1647623440005
 20
-135.6024033949188
 10
103.1647623440005
 20
-135.8370143974644
 10
103.1647623440005
 20
-136.1742892454703
 10
103.5196071789812
 20
-136.2207980345212
 10
103.7414713282313
 20
-136.2352674355593
 10
103.6567219792942
 20
-136.1277804564195
 10
103.5926432032685
 20
-136.0495767889043
 10
103.5926432032685
 20
-135.839425964304
 10
103.5926432032685
 20
-135.6316867065435
 10
103.70908743067
 20
-135.2823540243391
 10
104.1486816145878
 20
-135.2823540243391
 10
104.4938801822099
 20
-135.2823540243391
 10
104.7319362802406
 20
-135.5121418932053
 10
104.7319362802406
 20
-135.8787000528359
 97
        0
 97
        0
 92
        1
 93
        1
 72
     4
 94
        3
 73
     0
 74
     1
 95
       17
 96
       13
 40
0.0
 40
0.0
 40
0.0
 40
0.0
 40
1.0
 40
1.0
 40
1.0
 40
2.0
 40
2.0
 40
2.0
 40
3.0
 40
3.0
 40
3.0
 40
4.0
 40
4.0
 40
4.0
 40
4.0
 10
103.8031385374173
 20
-135.85906300857
 10
103.8031385374173
 20
-136.162231411272
 10
104.0318928776379
 20
-136.2059841239346
 10
104.1576388628495
 20
-136.2059841239346
 10
104.3478081336353
 20
-136.2059841239346
 10
104.523508003383
 20
-136.0960855779552
 10
104.523508003383
 20
-135.8835231865152
 10
104.523508003383
 20
-135.7443413289111
 10
104.4594292273574
 20
-135.5414252048299
 10
104.150748671879
 20
-135.5414252048299
 10
103.9082139497174
 20
-135.5414252048299
 10
103.8031385374173
 20
-135.7026556735396
 10
103.8031385374173
 20
-135.85906300857
 97
        0
 97
        0
 75
     2
 76
     1
 98
        0
  0
ENDBLK
  5
BE
330
BB
100
AcDbEntity
  8
0
100
AcDbBlockEnd
  0
BLOCK
  5
D0
330
CE
100
AcDbEntity
  8
0
100
AcDbBlockBegin
  2
block 5
 70
     0
 10
0.0
 20
0.0
 30
0.0
  3
block 5
  1

  0
SPLINE
  5
D2
330
CE
100
AcDbEntity
  8
_U+30EC_U+30A4_U+30E4_U+30FC 1
370
     0
100
AcDbSpline
210
0.0
220
0.0
230
1.0
 70
    11
 71
     3
 72
    53
 73
    49
 74
     0
 42
0.0000000001
 43
0.0000000001
 12
1.0
 22
0.0
 32
0.0
 13
1.0
 23
0.0
 33
0.0
 40
0.0
 40
0.0
 40
0.0
 40
0.0
 40
1.0
 40
1.0
 40
1.0
 40
2.0
 40
2.0
 40
2.0
 40
3.0
 40
3.0
 40
3.0
 40
4.0
 40
4.0
 40
4.0
 40
5.0
 40
5.0
 40
5.0
 40
6.0
 40
6.0
 40
6.0
 40
7.0
 40
7.0
 40
7.0
 40
8.0
 40
8.0
 40
8.0
 40
9.0
 40
9.0
 40
9.0
 40
10.0
 40
10.0
 40
10.0
 40
11.0
 40
11.0
 40
11.0
 40
12.0
 40
12.0
 40
12.0
 40
13.0
 40
13.0
 40
13.0
 40
14.0
 40
14.0
 40
14.0
 40
15.0
 40
15.0
 40
15.0
 40
16.0
 40
16.0
 40
16.0
 40
16.0
 10
91.27780488169444
 20
-120.932497799628
 30
0.0
 10
91.18737112520664
 20
-120.932497799628
 30
0.0
 10
91.07023787870814
 20
-120.9142387935562
 30
0.0
 10
90.95276012266112
 20
-120.8456813933997
 30
0.0
 10
90.75242782019384
 20
-120.7268255991586
 30
0.0
 10
90.72796764224857
 20
-120.5848876651663
 30
0.0
 10
90.70609128591722
 20
-120.4680989282163
 30
0.0
 10
90.70609128591722
 20
-120.4680989282163
 30
0.0
 10
90.96257864479408
 20
-120.4680989282163
 30
0.0
 10
90.96257864479408
 20
-120.4680989282163
 30
0.0
 10
91.02614065649693
 20
-120.6834173960444
 30
0.0
 10
91.17272946939433
 20
-120.7154567840573
 30
0.0
 10
91.28038870330838
 20
-120.7154567840573
 30
0.0
 10
91.44179142679234
 20
-120.7154567840573
 30
0.0
 10
91.61749129654008
 20
-120.6076252953689
 30
0.0
 10
91.61749129654008
 20
-120.3561333249457
 30
0.0
 10
91.61749129654008
 20
-120.0791476479316
 30
0.0
 10
91.41009654832804
 20
-120.0037000568046
 30
0.0
 10
91.27057018117542
 20
-120.0037000568046
 30
0.0
 10
91.2338799142575
 20
-120.0037000568046
 30
0.0
 10
91.07023787870814
 20
-120.0037000568046
 30
0.0
 10
90.9675740332477
 20
-120.1432264239573
 30
0.0
 10
90.9675740332477
 20
-120.1432264239573
 30
0.0
 10
90.76465790916647
 20
-120.1229003605943
 30
0.0
 10
90.76465790916647
 20
-120.1229003605943
 30
0.0
 10
90.76465790916647
 20
-120.1229003605943
 30
0.0
 10
90.90401202154483
 20
-119.2075384901634
 30
0.0
 10
90.90401202154483
 20
-119.2075384901634
 30
0.0
 10
90.90401202154483
 20
-119.2075384901634
 30
0.0
 10
91.80352645274357
 20
-119.2075384901634
 30
0.0
 10
91.80352645274357
 20
-119.2075384901634
 30
0.0
 10
91.80352645274357
 20
-119.2075384901634
 30
0.0
 10
91.80352645274357
 20
-119.4180338243122
 30
0.0
 10
91.80352645274357
 20
-119.4180338243122
 30
0.0
 10
91.80352645274357
 20
-119.4180338243122
 30
0.0
 10
91.09211423503947
 20
-119.4180338243122
 30
0.0
 10
91.09211423503947
 20
-119.4180338243122
 30
0.0
 10
91.09211423503947
 20
-119.4180338243122
 30
0.0
 10
91.01632213436397
 20
-119.8755425047533
 30
0.0
 10
91.01632213436397
 20
-119.8755425047533
 30
0.0
 10
91.08729110136012
 20
-119.8390244926097
 30
0.0
 10
91.18254799152729
 20
-119.7956162894955
 30
0.0
 10
91.31949053706596
 20
-119.7956162894955
 30
0.0
 10
91.61266816286073
 20
-119.7956162894955
 30
0.0
 10
91.88620874438956
 20
-119.9968098658341
 30
0.0
 10
91.88620874438956
 20
-120.3354627520342
 30
0.0
 10
91.88620874438956
 20
-120.6785942623651
 30
0.0
 10
91.62713756389877
 20
-120.932497799628
 30
0.0
 10
91.27780488169444
 20
-120.932497799628
 30
0.0
  0
HATCH
  5
D3
330
CE
100
AcDbEntity
  8
_U+30EC_U+30A4_U+30E4_U+30FC 1
 62
   179
420
  2234388
100
AcDbHatch
 10
0.0
 20
0.0
 30
0.0
210
0.0
220
0.0
230
1.0
  2
SOLID
 70
     1
 71
     0
 91
        1
 92
        1
 93
        1
 72
     4
 94
        3
 73
     0
 74
     1
 95
       53
 96
       49
 40
0.0
 40
0.0
 40
0.0
 40
0.0
 40
1.0
 40
1.0
 40
1.0
 40
2.0
 40
2.0
 40
2.0
 40
3.0
 40
3.0
 40
3.0
 40
4.0
 40
4.0
 40
4.0
 40
5.0
 40
5.0
 40
5.0
 40
6.0
 40
6.0
 40
6.0
 40
7.0
 40
7.0
 40
7.0
 40
8.0
 40
8.0
 40
8.0
 40
9.0
 40
9.0
 40
9.0
 40
10.0
 40
10.0
 40
10.0
 40
11.0
 40
11.0
 40
11.0
 40
12.0
 40
12.0
 40
12.0
 40
13.0
 40
13.0
 40
13.0
 40
14.0
 40
14.0
 40
14.0
 40
15.0
 40
15.0
 40
15.0
 40
16.0
 40
16.0
 40
16.0
 40
16.0
 10
91.27780488169444
 20
-120.932497799628
 10
91.18737112520664
 20
-120.932497799628
 10
91.07023787870814
 20
-120.9142387935562
 10
90.95276012266112
 20
-120.8456813933997
 10
90.75242782019384
 20
-120.7268255991586
 10
90.72796764224857
 20
-120.5848876651663
 10
90.70609128591722
 20
-120.4680989282163
 10
90.70609128591722
 20
-120.4680989282163
 10
90.96257864479408
 20
-120.4680989282163
 10
90.96257864479408
 20
-120.4680989282163
 10
91.02614065649693
 20
-120.6834173960444
 10
91.17272946939433
 20
-120.7154567840573
 10
91.28038870330838
 20
-120.7154567840573
 10
91.44179142679234
 20
-120.7154567840573
 10
91.61749129654008
 20
-120.6076252953689
 10
91.61749129654008
 20
-120.3561333249457
 10
91.61749129654008
 20
-120.0791476479316
 10
91.41009654832804
 20
-120.0037000568046
 10
91.27057018117542
 20
-120.0037000568046
 10
91.2338799142575
 20
-120.0037000568046
 10
91.07023787870814
 20
-120.0037000568046
 10
90.9675740332477
 20
-120.1432264239573
 10
90.9675740332477
 20
-120.1432264239573
 10
90.76465790916647
 20
-120.1229003605943
 10
90.76465790916647
 20
-120.1229003605943
 10
90.76465790916647
 20
-120.1229003605943
 10
90.90401202154483
 20
-119.2075384901634
 10
90.90401202154483
 20
-119.2075384901634
 10
90.90401202154483
 20
-119.2075384901634
 10
91.80352645274357
 20
-119.2075384901634
 10
91.80352645274357
 20
-119.2075384901634
 10
91.80352645274357
 20
-119.2075384901634
 10
91.80352645274357
 20
-119.4180338243122
 10
91.80352645274357
 20
-119.4180338243122
 10
91.80352645274357
 20
-119.4180338243122
 10
91.09211423503947
 20
-119.4180338243122
 10
91.09211423503947
 20
-119.4180338243122
 10
91.09211423503947
 20
-119.4180338243122
 10
91.01632213436397
 20
-119.8755425047533
 10
91.01632213436397
 20
-119.8755425047533
 10
91.08729110136012
 20
-119.8390244926097
 10
91.18254799152729
 20
-119.7956162894955
 10
91.31949053706596
 20
-119.7956162894955
 10
91.61266816286073
 20
-119.7956162894955
 10
91.88620874438956
 20
-119.9968098658341
 10
91.88620874438956
 20
-120.3354627520342
 10
91.88620874438956
 20
-120.6785942623651
 10
91.62713756389877
 20
-120.932497799628
 10
91.27780488169444
 20
-120.932497799628
 97
        0
 97
        0
 75
     2
 76
     1
 98
        0
  0
SPLINE
  5
D4
330
CE
100
AcDbEntity
  8
_U+30EC_U+30A4_U+30E4_U+30FC 1
370
     0
100
AcDbSpline
210
0.0
220
0.0
230
1.0
 70
    11
 71
     3
 72
    29
 73
    25
 74
     0
 42
0.0000000001
 43
0.0000000001
 12
1.0
 22
0.0
 32
0.0
 13
1.0
 23
0.0
 33
0.0
 40
0.0
 40
0.0
 40
0.0
 40
0.0
 40
1.0
 40
1.0
 40
1.0
 40
2.0
 40
2.0
 40
2.0
 40
3.0
 40
3.0
 40
3.0
 40
4.0
 40
4.0
 40
4.0
 40
5.0
 40
5.0
 40
5.0
 40
6.0
 40
6.0
 40
6.0
 40
7.0
 40
7.0
 40
7.0
 40
8.0
 40
8.0
 40
8.0
 40
8.0
 10
93.11748587081786
 20
-120.6854844533356
 30
0.0
 10
92.99311792380034
 20
-120.912171736265
 30
0.0
 10
92.7926133665588
 20
-120.932497799628
 30
0.0
 10
92.65825464263405
 20
-120.932497799628
 30
0.0
 10
92.47256399597909
 20
-120.932497799628
 30
0.0
 10
92.30857745088119
 20
-120.8821994055433
 30
0.0
 10
92.19902341445025
 20
-120.6854844533356
 30
0.0
 10
92.07913409156356
 20
-120.4749891191868
 30
0.0
 10
92.05708548045796
 20
-120.2186740150842
 30
0.0
 10
92.05708548045796
 20
-120.042629635788
 30
0.0
 10
92.05708548045796
 20
-119.8872558294032
 30
0.0
 10
92.07637801517535
 20
-119.6147487765199
 30
0.0
 10
92.19902341445025
 20
-119.3997748182403
 30
0.0
 10
92.32339136146777
 20
-119.1803222358299
 30
0.0
 10
92.50908200812273
 20
-119.1551730387876
 30
0.0
 10
92.65825464263405
 20
-119.1551730387876
 30
0.0
 10
92.84153372244934
 20
-119.1551730387876
 30
0.0
 10
93.00793183438691
 20
-119.2030598660326
 30
0.0
 10
93.11748587081786
 20
-119.3997748182403
 30
0.0
 10
93.2325520600252
 20
-119.6078585855494
 30
0.0
 10
93.25942380481015
 20
-119.8552164413904
 30
0.0
 10
93.25942380481015
 20
-120.042629635788
 30
0.0
 10
93.25942380481015
 20
-120.2279757728944
 30
0.0
 10
93.23496362686487
 20
-120.4774006860265
 30
0.0
 10
93.11748587081786
 20
-120.6854844533356
 30
0.0
  0
SPLINE
  5
D5
330
CE
100
AcDbEntity
  8
_U+30EC_U+30A4_U+30E4_U+30FC 1
370
     0
100
AcDbSpline
210
0.0
220
0.0
230
1.0
 70
    11
 71
     3
 72
    17
 73
    13
 74
     0
 42
0.0000000001
 43
0.0000000001
 12
1.0
 22
0.0
 32
0.0
 13
1.0
 23
0.0
 33
0.0
 40
0.0
 40
0.0
 40
0.0
 40
0.0
 40
1.0
 40
1.0
 40
1.0
 40
2.0
 40
2.0
 40
2.0
 40
3.0
 40
3.0
 40
3.0
 40
4.0
 40
4.0
 40
4.0
 40
4.0
 10
92.65825464263405
 20
-119.3632568060967
 30
0.0
 10
92.36990015051865
 20
-119.3632568060967
 30
0.0
 10
92.31615666094875
 20
-119.6698703042839
 30
0.0
 10
92.31615666094875
 20
-120.042629635788
 30
0.0
 10
92.31615666094875
 20
-120.3881727129585
 30
0.0
 10
92.35749780677175
 20
-120.7220024654792
 30
0.0
 10
92.65825464263405
 20
-120.7220024654792
 30
0.0
 10
92.94419756790978
 20
-120.7220024654792
 30
0.0
 10
93.00035262431936
 20
-120.4178005341317
 30
0.0
 10
93.00035262431936
 20
-120.042629635788
 30
0.0
 10
93.00035262431936
 20
-119.6970865586174
 30
0.0
 10
92.95625540210817
 20
-119.3632568060967
 30
0.0
 10
92.65825464263405
 20
-119.3632568060967
 30
0.0
  0
HATCH
  5
D6
330
CE
100
AcDbEntity
  8
_U+30EC_U+30A4_U+30E4_U+30FC 1
 62
   179
420
  2234388
100
AcDbHatch
 10
0.0
 20
0.0
 30
0.0
210
0.0
220
0.0
230
1.0
  2
SOLID
 70
     1
 71
     0
 91
        2
 92
        1
 93
        1
 72
     4
 94
        3
 73
     0
 74
     1
 95
       29
 96
       25
 40
0.0
 40
0.0
 40
0.0
 40
0.0
 40
1.0
 40
1.0
 40
1.0
 40
2.0
 40
2.0
 40
2.0
 40
3.0
 40
3.0
 40
3.0
 40
4.0
 40
4.0
 40
4.0
 40
5.0
 40
5.0
 40
5.0
 40
6.0
 40
6.0
 40
6.0
 40
7.0
 40
7.0
 40
7.0
 40
8.0
 40
8.0
 40
8.0
 40
8.0
 10
93.11748587081786
 20
-120.6854844533356
 10
92.99311792380034
 20
-120.912171736265
 10
92.7926133665588
 20
-120.932497799628
 10
92.65825464263405
 20
-120.932497799628
 10
92.47256399597909
 20
-120.932497799628
 10
92.30857745088119
 20
-120.8821994055433
 10
92.19902341445025
 20
-120.6854844533356
 10
92.07913409156356
 20
-120.4749891191868
 10
92.05708548045796
 20
-120.2186740150842
 10
92.05708548045796
 20
-120.042629635788
 10
92.05708548045796
 20
-119.8872558294032
 10
92.07637801517535
 20
-119.6147487765199
 10
92.19902341445025
 20
-119.3997748182403
 10
92.32339136146777
 20
-119.1803222358299
 10
92.50908200812273
 20
-119.1551730387876
 10
92.65825464263405
 20
-119.1551730387876
 10
92.84153372244934
 20
-119.1551730387876
 10
93.00793183438691
 20
-119.2030598660326
 10
93.11748587081786
 20
-119.3997748182403
 10
93.2325520600252
 20
-119.6078585855494
 10
93.25942380481015
 20
-119.8552164413904
 10
93.25942380481015
 20
-120.042629635788
 10
93.25942380481015
 20
-120.2279757728944
 10
93.23496362686487
 20
-120.4774006860265
 10
93.11748587081786
 20
-120.6854844533356
 97
        0
 97
        0
 92
        1
 93
        1
 72
     4
 94
        3
 73
     0
 74
     1
 95
       17
 96
       13
 40
0.0
 40
0.0
 40
0.0
 40
0.0
 40
1.0
 40
1.0
 40
1.0
 40
2.0
 40
2.0
 40
2.0
 40
3.0
 40
3.0
 40
3.0
 40
4.0
 40
4.0
 40
4.0
 40
4.0
 10
92.65825464263405
 20
-119.3632568060967
 10
92.36990015051865
 20
-119.3632568060967
 10
92.31615666094875
 20
-119.6698703042839
 10
92.31615666094875
 20
-120.042629635788
 10
92.31615666094875
 20
-120.3881727129585
 10
92.35749780677175
 20
-120.7220024654792
 10
92.65825464263405
 20
-120.7220024654792
 10
92.94419756790978
 20
-120.7220024654792
 10
93.00035262431936
 20
-120.4178005341317
 10
93.00035262431936
 20
-120.042629635788
 10
93.00035262431936
 20
-119.6970865586174
 10
92.95625540210817
 20
-119.3632568060967
 10
92.65825464263405
 20
-119.3632568060967
 97
        0
 97
        0
 75
     2
 76
     1
 98
        0
  0
ENDBLK
  5
D1
330
CE
100
AcDbEntity
  8
0
100
AcDbBlockEnd
  0
BLOCK
  5
E5
330
E3
100
AcDbEntity
  8
0
100
AcDbBlockBegin
  2
block 6
 70
     0
 10
0.0
 20
0.0
 30
0.0
  3
block 6
  1

  0
SPLINE
  5
E7
330
E3
100
AcDbEntity
  8
_U+30EC_U+30A4_U+30E4_U+30FC 1
370
     0
100
AcDbSpline
210
0.0
220
0.0
230
1.0
 70
    11
 71
     3
 72
    44
 73
    40
 74
     0
 42
0.0000000001
 43
0.0000000001
 12
1.0
 22
0.0
 32
0.0
 13
1.0
 23
0.0
 33
0.0
 40
0.0
 40
0.0
 40
0.0
 40
0.0
 40
1.0
 40
1.0
 40
1.0
 40
2.0
 40
2.0
 40
2.0
 40
3.0
 40
3.0
 40
3.0
 40
4.0
 40
4.0
 40
4.0
 40
5.0
 40
5.0
 40
5.0
 40
6.0
 40
6.0
 40
6.0
 40
7.0
 40
7.0
 40
7.0
 40
8.0
 40
8.0
 40
8.0
 40
9.0
 40
9.0
 40
9.0
 40
10.0
 40
10.0
 40
10.0
 40
11.0
 40
11.0
 40
11.0
 40
12.0
 40
12.0
 40
12.0
 40
13.0
 40
13.0
 40
13.0
 40
13.0
 10
85.7821885636239
 20
-138.6399440842636
 30
0.0
 10
85.5305243384264
 20
-138.8115098394291
 30
0.0
 10
85.42303735928661
 20
-138.8914360546869
 30
0.0
 10
85.36688230287703
 20
-139.0471543706201
 30
0.0
 10
85.36688230287703
 20
-139.0471543706201
 30
0.0
 10
86.26605222452724
 20
-139.0471543706201
 30
0.0
 10
86.26605222452724
 20
-139.0471543706201
 30
0.0
 10
86.26605222452724
 20
-139.0471543706201
 30
0.0
 10
86.26605222452724
 20
-139.2690185198703
 30
0.0
 10
86.26605222452724
 20
-139.2690185198703
 30
0.0
 10
86.26605222452724
 20
-139.2690185198703
 30
0.0
 10
85.07835555598736
 20
-139.2690185198703
 30
0.0
 10
85.07835555598736
 20
-139.2690185198703
 30
0.0
 10
85.11504582290527
 20
-138.8824788064252
 30
0.0
 10
85.19083792358077
 20
-138.7977294574881
 30
0.0
 10
85.63559975072653
 20
-138.4752685200687
 30
0.0
 10
85.93136119813522
 20
-138.2599500522406
 30
0.0
 10
86.00715329881072
 20
-138.1869140279533
 30
0.0
 10
86.00715329881072
 20
-138.0380859029905
 30
0.0
 10
86.00715329881072
 20
-137.9099283509392
 30
0.0
 10
85.92395424284193
 20
-137.7683349264954
 30
0.0
 10
85.6967501955897
 20
-137.7683349264954
 30
0.0
 10
85.39616561450165
 20
-137.7683349264954
 30
0.0
 10
85.3863470923687
 20
-138.0177598396275
 30
0.0
 10
85.38152395868934
 20
-138.1435058248391
 30
0.0
 10
85.38152395868934
 20
-138.1435058248391
 30
0.0
 10
85.12245277819856
 20
-138.1435058248391
 30
0.0
 10
85.12245277819856
 20
-138.1435058248391
 30
0.0
 10
85.13227130033152
 20
-138.0060465149777
 30
0.0
 10
85.1443291345299
 20
-137.8847791538969
 30
0.0
 10
85.23734671263163
 20
-137.7569661113941
 30
0.0
 10
85.36429848126309
 20
-137.582988789389
 30
0.0
 10
85.57944469431695
 20
-137.5464707772453
 30
0.0
 10
85.7138034182417
 20
-137.5464707772453
 30
0.0
 10
86.03402504359566
 20
-137.5464707772453
 30
0.0
 10
86.27345917982053
 20
-137.7452527867443
 30
0.0
 10
86.27345917982053
 20
-138.0404974698302
 30
0.0
 10
86.27345917982053
 20
-138.2875108161226
 30
0.0
 10
86.13910045589579
 20
-138.3949977952624
 30
0.0
 10
85.7821885636239
 20
-138.6399440842636
 30
0.0
  0
HATCH
  5
E8
330
E3
100
AcDbEntity
  8
_U+30EC_U+30A4_U+30E4_U+30FC 1
 62
   179
420
  2234388
100
AcDbHatch
 10
0.0
 20
0.0
 30
0.0
210
0.0
220
0.0
230
1.0
  2
SOLID
 70
     1
 71
     0
 91
        1
 92
        1
 93
        1
 72
     4
 94
        3
 73
     0
 74
     1
 95
       44
 96
       40
 40
0.0
 40
0.0
 40
0.0
 40
0.0
 40
1.0
 40
1.0
 40
1.0
 40
2.0
 40
2.0
 40
2.0
 40
3.0
 40
3.0
 40
3.0
 40
4.0
 40
4.0
 40
4.0
 40
5.0
 40
5.0
 40
5.0
 40
6.0
 40
6.0
 40
6.0
 40
7.0
 40
7.0
 40
7.0
 40
8.0
 40
8.0
 40
8.0
 40
9.0
 40
9.0
 40
9.0
 40
10.0
 40
10.0
 40
10.0
 40
11.0
 40
11.0
 40
11.0
 40
12.0
 40
12.0
 40
12.0
 40
13.0
 40
13.0
 40
13.0
 40
13.0
 10
85.7821885636239
 20
-138.6399440842636
 10
85.5305243384264
 20
-138.8115098394291
 10
85.42303735928661
 20
-138.8914360546869
 10
85.36688230287703
 20
-139.0471543706201
 10
85.36688230287703
 20
-139.0471543706201
 10
86.26605222452724
 20
-139.0471543706201
 10
86.26605222452724
 20
-139.0471543706201
 10
86.26605222452724
 20
-139.0471543706201
 10
86.26605222452724
 20
-139.2690185198703
 10
86.26605222452724
 20
-139.2690185198703
 10
86.26605222452724
 20
-139.2690185198703
 10
85.07835555598736
 20
-139.2690185198703
 10
85.07835555598736
 20
-139.2690185198703
 10
85.11504582290527
 20
-138.8824788064252
 10
85.19083792358077
 20
-138.7977294574881
 10
85.63559975072653
 20
-138.4752685200687
 10
85.93136119813522
 20
-138.2599500522406
 10
86.00715329881072
 20
-138.1869140279533
 10
86.00715329881072
 20
-138.0380859029905
 10
86.00715329881072
 20
-137.9099283509392
 10
85.92395424284193
 20
-137.7683349264954
 10
85.6967501955897
 20
-137.7683349264954
 10
85.39616561450165
 20
-137.7683349264954
 10
85.3863470923687
 20
-138.0177598396275
 10
85.38152395868934
 20
-138.1435058248391
 10
85.38152395868934
 20
-138.1435058248391
 10
85.12245277819856
 20
-138.1435058248391
 10
85.12245277819856
 20
-138.1435058248391
 10
85.13227130033152
 20
-138.0060465149777
 10
85.1443291345299
 20
-137.8847791538969
 10
85.23734671263163
 20
-137.7569661113941
 10
85.36429848126309
 20
-137.582988789389
 10
85.57944469431695
 20
-137.5464707772453
 10
85.7138034182417
 20
-137.5464707772453
 10
86.03402504359566
 20
-137.5464707772453
 10
86.27345917982053
 20
-137.7452527867443
 10
86.27345917982053
 20
-138.0404974698302
 10
86.27345917982053
 20
-138.2875108161226
 10
86.13910045589579
 20
-138.3949977952624
 10
85.7821885636239
 20
-138.6399440842636
 97
        0
 97
        0
 75
     2
 76
     1
 98
        0
  0
SPLINE
  5
E9
330
E3
100
AcDbEntity
  8
_U+30EC_U+30A4_U+30E4_U+30FC 1
370
     0
100
AcDbSpline
210
0.0
220
0.0
230
1.0
 70
    11
 71
     3
 72
    53
 73
    49
 74
     0
 42
0.0000000001
 43
0.0000000001
 12
1.0
 22
0.0
 32
0.0
 13
1.0
 23
0.0
 33
0.0
 40
0.0
 40
0.0
 40
0.0
 40
0.0
 40
1.0
 40
1.0
 40
1.0
 40
2.0
 40
2.0
 40
2.0
 40
3.0
 40
3.0
 40
3.0
 40
4.0
 40
4.0
 40
4.0
 40
5.0
 40
5.0
 40
5.0
 40
6.0
 40
6.0
 40
6.0
 40
7.0
 40
7.0
 40
7.0
 40
8.0
 40
8.0
 40
8.0
 40
9.0
 40
9.0
 40
9.0
 40
10.0
 40
10.0
 40
10.0
 40
11.0
 40
11.0
 40
11.0
 40
12.0
 40
12.0
 40
12.0
 40
13.0
 40
13.0
 40
13.0
 40
14.0
 40
14.0
 40
14.0
 40
15.0
 40
15.0
 40
15.0
 40
16.0
 40
16.0
 40
16.0
 40
16.0
 10
87.01105412321252
 20
-139.3237955380857
 30
0.0
 10
86.9206203667247
 20
-139.3237955380857
 30
0.0
 10
86.80348712022622
 20
-139.3055365320139
 30
0.0
 10
86.6860093641792
 20
-139.2369791318574
 30
0.0
 10
86.48567706171191
 20
-139.1181233376163
 30
0.0
 10
86.46121688376664
 20
-138.976185403624
 30
0.0
 10
86.4393405274353
 20
-138.8593966666741
 30
0.0
 10
86.4393405274353
 20
-138.8593966666741
 30
0.0
 10
86.69582788631216
 20
-138.8593966666741
 30
0.0
 10
86.69582788631216
 20
-138.8593966666741
 30
0.0
 10
86.75938989801502
 20
-139.0747151345022
 30
0.0
 10
86.9059787109124
 20
-139.106754522515
 30
0.0
 10
87.01363794482646
 20
-139.106754522515
 30
0.0
 10
87.17486841353615
 20
-139.106754522515
 30
0.0
 10
87.35091279283242
 20
-138.9989230338267
 30
0.0
 10
87.35091279283242
 20
-138.7474310634034
 30
0.0
 10
87.35091279283242
 20
-138.4704453863893
 30
0.0
 10
87.14317353507185
 20
-138.3949977952624
 30
0.0
 10
87.0038194226935
 20
-138.3949977952624
 30
0.0
 10
86.96712915577558
 20
-138.3949977952624
 30
0.0
 10
86.80348712022622
 20
-138.3949977952624
 30
0.0
 10
86.70082327476577
 20
-138.534524162415
 30
0.0
 10
86.70082327476577
 20
-138.534524162415
 30
0.0
 10
86.49790715068455
 20
-138.514198099052
 30
0.0
 10
86.49790715068455
 20
-138.514198099052
 30
0.0
 10
86.49790715068455
 20
-138.514198099052
 30
0.0
 10
86.63726126306291
 20
-137.5988362286211
 30
0.0
 10
86.63726126306291
 20
-137.5988362286211
 30
0.0
 10
86.63726126306291
 20
-137.5988362286211
 30
0.0
 10
87.53660343948738
 20
-137.5988362286211
 30
0.0
 10
87.53660343948738
 20
-137.5988362286211
 30
0.0
 10
87.53660343948738
 20
-137.5988362286211
 30
0.0
 10
87.53660343948738
 20
-137.8093315627699
 30
0.0
 10
87.53660343948738
 20
-137.8093315627699
 30
0.0
 10
87.53660343948738
 20
-137.8093315627699
 30
0.0
 10
86.82536347655756
 20
-137.8093315627699
 30
0.0
 10
86.82536347655756
 20
-137.8093315627699
 30
0.0
 10
86.82536347655756
 20
-137.8093315627699
 30
0.0
 10
86.74957137588206
 20
-138.2668402432111
 30
0.0
 10
86.74957137588206
 20
-138.2668402432111
 30
0.0
 10
86.8205403428782
 20
-138.2303222310674
 30
0.0
 10
86.91579723304535
 20
-138.1869140279533
 30
0.0
 10
87.05273977858404
 20
-138.1869140279533
 30
0.0
 10
87.3459174043788
 20
-138.1869140279533
 30
0.0
 10
87.6196302406819
 20
-138.3881076042919
 30
0.0
 10
87.6196302406819
 20
-138.7267604904919
 30
0.0
 10
87.6196302406819
 20
-139.0698920008228
 30
0.0
 10
87.36055906019111
 20
-139.3237955380857
 30
0.0
 10
87.01105412321252
 20
-139.3237955380857
 30
0.0
  0
HATCH
  5
EA
330
E3
100
AcDbEntity
  8
_U+30EC_U+30A4_U+30E4_U+30FC 1
 62
   179
420
  2234388
100
AcDbHatch
 10
0.0
 20
0.0
 30
0.0
210
0.0
220
0.0
230
1.0
  2
SOLID
 70
     1
 71
     0
 91
        1
 92
        1
 93
        1
 72
     4
 94
        3
 73
     0
 74
     1
 95
       53
 96
       49
 40
0.0
 40
0.0
 40
0.0
 40
0.0
 40
1.0
 40
1.0
 40
1.0
 40
2.0
 40
2.0
 40
2.0
 40
3.0
 40
3.0
 40
3.0
 40
4.0
 40
4.0
 40
4.0
 40
5.0
 40
5.0
 40
5.0
 40
6.0
 40
6.0
 40
6.0
 40
7.0
 40
7.0
 40
7.0
 40
8.0
 40
8.0
 40
8.0
 40
9.0
 40
9.0
 40
9.0
 40
10.0
 40
10.0
 40
10.0
 40
11.0
 40
11.0
 40
11.0
 40
12.0
 40
12.0
 40
12.0
 40
13.0
 40
13.0
 40
13.0
 40
14.0
 40
14.0
 40
14.0
 40
15.0
 40
15.0
 40
15.0
 40
16.0
 40
16.0
 40
16.0
 40
16.0
 10
87.01105412321252
 20
-139.3237955380857
 10
86.9206203667247
 20
-139.3237955380857
 10
86.80348712022622
 20
-139.3055365320139
 10
86.6860093641792
 20
-139.2369791318574
 10
86.48567706171191
 20
-139.1181233376163
 10
86.46121688376664
 20
-138.976185403624
 10
86.4393405274353
 20
-138.8593966666741
 10
86.4393405274353
 20
-138.8593966666741
 10
86.69582788631216
 20
-138.8593966666741
 10
86.69582788631216
 20
-138.8593966666741
 10
86.75938989801502
 20
-139.0747151345022
 10
86.9059787109124
 20
-139.106754522515
 10
87.01363794482646
 20
-139.106754522515
 10
87.17486841353615
 20
-139.106754522515
 10
87.35091279283242
 20
-138.9989230338267
 10
87.35091279283242
 20
-138.7474310634034
 10
87.35091279283242
 20
-138.4704453863893
 10
87.14317353507185
 20
-138.3949977952624
 10
87.0038194226935
 20
-138.3949977952624
 10
86.96712915577558
 20
-138.3949977952624
 10
86.80348712022622
 20
-138.3949977952624
 10
86.70082327476577
 20
-138.534524162415
 10
86.70082327476577
 20
-138.534524162415
 10
86.49790715068455
 20
-138.514198099052
 10
86.49790715068455
 20
-138.514198099052
 10
86.49790715068455
 20
-138.514198099052
 10
86.63726126306291
 20
-137.5988362286211
 10
86.63726126306291
 20
-137.5988362286211
 10
86.63726126306291
 20
-137.5988362286211
 10
87.53660343948738
 20
-137.5988362286211
 10
87.53660343948738
 20
-137.5988362286211
 10
87.53660343948738
 20
-137.5988362286211
 10
87.53660343948738
 20
-137.8093315627699
 10
87.53660343948738
 20
-137.8093315627699
 10
87.53660343948738
 20
-137.8093315627699
 10
86.82536347655756
 20
-137.8093315627699
 10
86.82536347655756
 20
-137.8093315627699
 10
86.82536347655756
 20
-137.8093315627699
 10
86.74957137588206
 20
-138.2668402432111
 10
86.74957137588206
 20
-138.2668402432111
 10
86.8205403428782
 20
-138.2303222310674
 10
86.91579723304535
 20
-138.1869140279533
 10
87.05273977858404
 20
-138.1869140279533
 10
87.3459174043788
 20
-138.1869140279533
 10
87.6196302406819
 20
-138.3881076042919
 10
87.6196302406819
 20
-138.7267604904919
 10
87.6196302406819
 20
-139.0698920008228
 10
87.36055906019111
 20
-139.3237955380857
 10
87.01105412321252
 20
-139.3237955380857
 97
        0
 97
        0
 75
     2
 76
     1
 98
        0
  0
ENDBLK
  5
E6
330
E3
100
AcDbEntity
  8
0
100
AcDbBlockEnd
  0
BLOCK
  5
FB
330
F9
100
AcDbEntity
  8
0
100
AcDbBlockBegin
  2
block 7
 70
     0
 10
0.0
 20
0.0
 30
0.0
  3
block 7
  1

  0
SPLINE
  5
FD
330
F9
100
AcDbEntity
  8
_U+30EC_U+30A4_U+30E4_U+30FC 1
370
     0
100
AcDbSpline
210
0.0
220
0.0
230
1.0
 70
    11
 71
     3
 72
    62
 73
    58
 74
     0
 42
0.0000000001
 43
0.0000000001
 12
1.0
 22
0.0
 32
0.0
 13
1.0
 23
0.0
 33
0.0
 40
0.0
 40
0.0
 40
0.0
 40
0.0
 40
1.0
 40
1.0
 40
1.0
 40
2.0
 40
2.0
 40
2.0
 40
3.0
 40
3.0
 40
3.0
 40
4.0
 40
4.0
 40
4.0
 40
5.0
 40
5.0
 40
5.0
 40
6.0
 40
6.0
 40
6.0
 40
7.0
 40
7.0
 40
7.0
 40
8.0
 40
8.0
 40
8.0
 40
9.0
 40
9.0
 40
9.0
 40
10.0
 40
10.0
 40
10.0
 40
11.0
 40
11.0
 40
11.0
 40
12.0
 40
12.0
 40
12.0
 40
13.0
 40
13.0
 40
13.0
 40
14.0
 40
14.0
 40
14.0
 40
15.0
 40
15.0
 40
15.0
 40
16.0
 40
16.0
 40
16.0
 40
17.0
 40
17.0
 40
17.0
 40
18.0
 40
18.0
 40
18.0
 40
19.0
 40
19.0
 40
19.0
 40
19.0
 10
91.25196666555507
 20
-131.9926323454741
 30
0.0
 10
91.1420681195756
 20
-131.9926323454741
 30
0.0
 10
90.8904038943781
 20
-131.9698947152714
 30
0.0
 10
90.74622664832039
 20
-131.7687011389328
 30
0.0
 10
90.66061602551193
 20
-131.647433777852
 30
0.0
 10
90.65579289183259
 20
-131.5399467987122
 30
0.0
 10
90.65079750337897
 20
-131.4483072588046
 30
0.0
 10
90.65079750337897
 20
-131.4483072588046
 30
0.0
 10
90.90504555019041
 20
-131.4483072588046
 30
0.0
 10
90.90504555019041
 20
-131.4483072588046
 30
0.0
 10
90.90745711703009
 20
-131.5282334740624
 30
0.0
 10
90.91968720600272
 20
-131.7821370113253
 30
0.0
 10
91.24714353187572
 20
-131.7821370113253
 30
0.0
 10
91.40596243374574
 20
-131.7821370113253
 30
0.0
 10
91.582006813042
 20
-131.7066894201983
 30
0.0
 10
91.582006813042
 20
-131.4596760739059
 30
0.0
 10
91.582006813042
 20
-131.3339300886943
 30
0.0
 10
91.53790959083081
 20
-131.28122012777
 30
0.0
 10
91.50104706913864
 20
-131.247113682466
 30
0.0
 10
91.41560870110443
 20
-131.1668429576597
 30
0.0
 10
91.28142223195395
 20
-131.1530625757187
 30
0.0
 10
91.2178602202511
 20
-131.1530625757187
 30
0.0
 10
91.1958116091455
 20
-131.1530625757187
 30
0.0
 10
91.15429820854824
 20
-131.1554741425583
 30
0.0
 10
91.12243107530968
 20
-131.1599527666892
 30
0.0
 10
91.12243107530968
 20
-131.1599527666892
 30
0.0
 10
91.12243107530968
 20
-130.9494574325404
 30
0.0
 10
91.12243107530968
 20
-130.9494574325404
 30
0.0
 10
91.16652829752087
 20
-130.9563476235109
 30
0.0
 10
91.21544865341141
 20
-130.9587591903506
 30
0.0
 10
91.22268335393045
 20
-130.9587591903506
 30
0.0
 10
91.29847545460593
 20
-130.9587591903506
 30
0.0
 10
91.5282633234721
 20
-130.9356770505994
 30
0.0
 10
91.5282633234721
 20
-130.6797064560454
 30
0.0
 10
91.5282633234721
 20
-130.4874701279684
 30
0.0
 10
91.37667912212112
 20
-130.4278699760736
 30
0.0
 10
91.24955509871539
 20
-130.4278699760736
 30
0.0
 10
90.94414738394799
 20
-130.4278699760736
 30
0.0
 10
90.93432886181503
 20
-130.6797064560454
 30
0.0
 10
90.92950572813568
 20
-130.7572211044635
 30
0.0
 10
90.92950572813568
 20
-130.7572211044635
 30
0.0
 10
90.69489472559017
 20
-130.7572211044635
 30
0.0
 10
90.69489472559017
 20
-130.7572211044635
 30
0.0
 10
90.70454099294886
 20
-130.6225178709902
 30
0.0
 10
90.73640812618743
 20
-130.2153075846337
 30
0.0
 10
91.2641967545277
 20
-130.2153075846337
 30
0.0
 10
91.52309568024423
 20
-130.2153075846337
 30
0.0
 10
91.80214841454946
 20
-130.3524223849466
 30
0.0
 10
91.80214841454946
 20
-130.6728162650749
 30
0.0
 10
91.80214841454946
 20
-130.8740098414135
 30
0.0
 10
91.69190535902148
 20
-130.9632378144814
 30
0.0
 10
91.57683916981412
 20
-131.0297281573467
 30
0.0
 10
91.64780813681027
 20
-131.0593559785199
 30
0.0
 10
91.85795896141052
 20
-131.1461723847482
 30
0.0
 10
91.85795896141052
 20
-131.4458956919649
 30
0.0
 10
91.85795896141052
 20
-131.812109342047
 30
0.0
 10
91.57201603613478
 20
-131.9926323454741
 30
0.0
 10
91.25196666555507
 20
-131.9926323454741
 30
0.0
  0
HATCH
  5
FE
330
F9
100
AcDbEntity
  8
_U+30EC_U+30A4_U+30E4_U+30FC 1
 62
   179
420
  2234388
100
AcDbHatch
 10
0.0
 20
0.0
 30
0.0
210
0.0
220
0.0
230
1.0
  2
SOLID
 70
     1
 71
     0
 91
        1
 92
        1
 93
        1
 72
     4
 94
        3
 73
     0
 74
     1
 95
       62
 96
       58
 40
0.0
 40
0.0
 40
0.0
 40
0.0
 40
1.0
 40
1.0
 40
1.0
 40
2.0
 40
2.0
 40
2.0
 40
3.0
 40
3.0
 40
3.0
 40
4.0
 40
4.0
 40
4.0
 40
5.0
 40
5.0
 40
5.0
 40
6.0
 40
6.0
 40
6.0
 40
7.0
 40
7.0
 40
7.0
 40
8.0
 40
8.0
 40
8.0
 40
9.0
 40
9.0
 40
9.0
 40
10.0
 40
10.0
 40
10.0
 40
11.0
 40
11.0
 40
11.0
 40
12.0
 40
12.0
 40
12.0
 40
13.0
 40
13.0
 40
13.0
 40
14.0
 40
14.0
 40
14.0
 40
15.0
 40
15.0
 40
15.0
 40
16.0
 40
16.0
 40
16.0
 40
17.0
 40
17.0
 40
17.0
 40
18.0
 40
18.0
 40
18.0
 40
19.0
 40
19.0
 40
19.0
 40
19.0
 10
91.25196666555507
 20
-131.9926323454741
 10
91.1420681195756
 20
-131.9926323454741
 10
90.8904038943781
 20
-131.9698947152714
 10
90.74622664832039
 20
-131.7687011389328
 10
90.66061602551193
 20
-131.647433777852
 10
90.65579289183259
 20
-131.5399467987122
 10
90.65079750337897
 20
-131.4483072588046
 10
90.65079750337897
 20
-131.4483072588046
 10
90.90504555019041
 20
-131.4483072588046
 10
90.90504555019041
 20
-131.4483072588046
 10
90.90745711703009
 20
-131.5282334740624
 10
90.91968720600272
 20
-131.7821370113253
 10
91.24714353187572
 20
-131.7821370113253
 10
91.40596243374574
 20
-131.7821370113253
 10
91.582006813042
 20
-131.7066894201983
 10
91.582006813042
 20
-131.4596760739059
 10
91.582006813042
 20
-131.3339300886943
 10
91.53790959083081
 20
-131.28122012777
 10
91.50104706913864
 20
-131.247113682466
 10
91.41560870110443
 20
-131.1668429576597
 10
91.28142223195395
 20
-131.1530625757187
 10
91.2178602202511
 20
-131.1530625757187
 10
91.1958116091455
 20
-131.1530625757187
 10
91.15429820854824
 20
-131.1554741425583
 10
91.12243107530968
 20
-131.1599527666892
 10
91.12243107530968
 20
-131.1599527666892
 10
91.12243107530968
 20
-130.9494574325404
 10
91.12243107530968
 20
-130.9494574325404
 10
91.16652829752087
 20
-130.9563476235109
 10
91.21544865341141
 20
-130.9587591903506
 10
91.22268335393045
 20
-130.9587591903506
 10
91.29847545460593
 20
-130.9587591903506
 10
91.5282633234721
 20
-130.9356770505994
 10
91.5282633234721
 20
-130.6797064560454
 10
91.5282633234721
 20
-130.4874701279684
 10
91.37667912212112
 20
-130.4278699760736
 10
91.24955509871539
 20
-130.4278699760736
 10
90.94414738394799
 20
-130.4278699760736
 10
90.93432886181503
 20
-130.6797064560454
 10
90.92950572813568
 20
-130.7572211044635
 10
90.92950572813568
 20
-130.7572211044635
 10
90.69489472559017
 20
-130.7572211044635
 10
90.69489472559017
 20
-130.7572211044635
 10
90.70454099294886
 20
-130.6225178709902
 10
90.73640812618743
 20
-130.2153075846337
 10
91.2641967545277
 20
-130.2153075846337
 10
91.52309568024423
 20
-130.2153075846337
 10
91.80214841454946
 20
-130.3524223849466
 10
91.80214841454946
 20
-130.6728162650749
 10
91.80214841454946
 20
-130.8740098414135
 10
91.69190535902148
 20
-130.9632378144814
 10
91.57683916981412
 20
-131.0297281573467
 10
91.64780813681027
 20
-131.0593559785199
 10
91.85795896141052
 20
-131.1461723847482
 10
91.85795896141052
 20
-131.4458956919649
 10
91.85795896141052
 20
-131.812109342047
 10
91.57201603613478
 20
-131.9926323454741
 10
91.25196666555507
 20
-131.9926323454741
 97
        0
 97
        0
 75
     2
 76
     1
 98
        0
  0
ENDBLK
  5
FC
330
F9
100
AcDbEntity
  8
0
100
AcDbBlockEnd
  0
BLOCK
  5
10D
330
10B
100
AcDbEntity
  8
0
100
AcDbBlockBegin
  2
block 8
 70
     0
 10
0.0
 20
0.0
 30
0.0
  3
block 8
  1

  0
SPLINE
  5
10F
330
10B
100
AcDbEntity
  8
_U+30EC_U+30A4_U+30E4_U+30FC 1
370
     0
100
AcDbSpline
210
0.0
220
0.0
230
1.0
 70
    11
 71
     3
 72
    44
 73
    40
 74
     0
 42
0.0000000001
 43
0.0000000001
 12
1.0
 22
0.0
 32
0.0
 13
1.0
 23
0.0
 33
0.0
 40
0.0
 40
0.0
 40
0.0
 40
0.0
 40
1.0
 40
1.0
 40
1.0
 40
2.0
 40
2.0
 40
2.0
 40
3.0
 40
3.0
 40
3.0
 40
4.0
 40
4.0
 40
4.0
 40
5.0
 40
5.0
 40
5.0
 40
6.0
 40
6.0
 40
6.0
 40
7.0
 40
7.0
 40
7.0
 40
8.0
 40
8.0
 40
8.0
 40
9.0
 40
9.0
 40
9.0
 40
10.0
 40
10.0
 40
10.0
 40
11.0
 40
11.0
 40
11.0
 40
12.0
 40
12.0
 40
12.0
 40
13.0
 40
13.0
 40
13.0
 40
13.0
 10
78.0360636198139
 20
-132.095640700483
 30
0.0
 10
78.20762937497935
 20
-132.3471326709063
 30
0.0
 10
78.2877278450114
 20
-132.4549641595946
 30
0.0
 10
78.44327390617043
 20
-132.5111192160042
 30
0.0
 10
78.44327390617043
 20
-132.5111192160042
 30
0.0
 10
78.44327390617043
 20
-131.6116047848055
 30
0.0
 10
78.44327390617043
 20
-131.6116047848055
 30
0.0
 10
78.44327390617043
 20
-131.6116047848055
 30
0.0
 10
78.66513805542053
 20
-131.6116047848055
 30
0.0
 10
78.66513805542053
 20
-131.6116047848055
 30
0.0
 10
78.66513805542053
 20
-131.6116047848055
 30
0.0
 10
78.66513805542053
 20
-132.7994737081196
 30
0.0
 10
78.66513805542053
 20
-132.7994737081196
 30
0.0
 10
78.27842608720123
 20
-132.7626111864274
 30
0.0
 10
78.19384899303834
 20
-132.6871635953004
 30
0.0
 10
77.8712158008447
 20
-132.2420572586062
 30
0.0
 10
77.65624184256511
 20
-131.9464680659717
 30
0.0
 10
77.58303356350355
 20
-131.8706759652962
 30
0.0
 10
77.43437769331501
 20
-131.8706759652962
 30
0.0
 10
77.30622014126372
 20
-131.8706759652962
 30
0.0
 10
77.1644544620457
 20
-131.9537027664907
 30
0.0
 10
77.1644544620457
 20
-132.1810790685172
 30
0.0
 10
77.1644544620457
 20
-132.4818359043796
 30
0.0
 10
77.41370712040352
 20
-132.4914821717383
 30
0.0
 10
77.53962536038941
 20
-132.4963053054176
 30
0.0
 10
77.53962536038941
 20
-132.4963053054176
 30
0.0
 10
77.53962536038941
 20
-132.7553764859084
 30
0.0
 10
77.53962536038941
 20
-132.7553764859084
 30
0.0
 10
77.4023383053022
 20
-132.7457302185497
 30
0.0
 10
77.2810709442214
 20
-132.7333278748028
 30
0.0
 10
77.1529133921701
 20
-132.6406548062496
 30
0.0
 10
76.97910832493925
 20
-132.5135307828438
 30
0.0
 10
76.94241805802135
 20
-132.2985568245643
 30
0.0
 10
76.94241805802135
 20
-132.163853591091
 30
0.0
 10
76.94241805802135
 20
-131.8438042205113
 30
0.0
 10
77.14154457706879
 20
-131.6043700842864
 30
0.0
 10
77.43661700538043
 20
-131.6043700842864
 30
0.0
 10
77.68363035167285
 20
-131.6043700842864
 30
0.0
 10
77.79128958558691
 20
-131.7387288082112
 30
0.0
 10
78.0360636198139
 20
-132.095640700483
 30
0.0
  0
HATCH
  5
110
330
10B
100
AcDbEntity
  8
_U+30EC_U+30A4_U+30E4_U+30FC 1
 62
   179
420
  2234388
100
AcDbHatch
 10
0.0
 20
0.0
 30
0.0
210
0.0
220
0.0
230
1.0
  2
SOLID
 70
     1
 71
     0
 91
        1
 92
        1
 93
        1
 72
     4
 94
        3
 73
     0
 74
     1
 95
       44
 96
       40
 40
0.0
 40
0.0
 40
0.0
 40
0.0
 40
1.0
 40
1.0
 40
1.0
 40
2.0
 40
2.0
 40
2.0
 40
3.0
 40
3.0
 40
3.0
 40
4.0
 40
4.0
 40
4.0
 40
5.0
 40
5.0
 40
5.0
 40
6.0
 40
6.0
 40
6.0
 40
7.0
 40
7.0
 40
7.0
 40
8.0
 40
8.0
 40
8.0
 40
9.0
 40
9.0
 40
9.0
 40
10.0
 40
10.0
 40
10.0
 40
11.0
 40
11.0
 40
11.0
 40
12.0
 40
12.0
 40
12.0
 40
13.0
 40
13.0
 40
13.0
 40
13.0
 10
78.0360636198139
 20
-132.095640700483
 10
78.20762937497935
 20
-132.3471326709063
 10
78.2877278450114
 20
-132.4549641595946
 10
78.44327390617043
 20
-132.5111192160042
 10
78.44327390617043
 20
-132.5111192160042
 10
78.44327390617043
 20
-131.6116047848055
 10
78.44327390617043
 20
-131.6116047848055
 10
78.44327390617043
 20
-131.6116047848055
 10
78.66513805542053
 20
-131.6116047848055
 10
78.66513805542053
 20
-131.6116047848055
 10
78.66513805542053
 20
-131.6116047848055
 10
78.66513805542053
 20
-132.7994737081196
 10
78.66513805542053
 20
-132.7994737081196
 10
78.27842608720123
 20
-132.7626111864274
 10
78.19384899303834
 20
-132.6871635953004
 10
77.8712158008447
 20
-132.2420572586062
 10
77.65624184256511
 20
-131.9464680659717
 10
77.58303356350355
 20
-131.8706759652962
 10
77.43437769331501
 20
-131.8706759652962
 10
77.30622014126372
 20
-131.8706759652962
 10
77.1644544620457
 20
-131.9537027664907
 10
77.1644544620457
 20
-132.1810790685172
 10
77.1644544620457
 20
-132.4818359043796
 10
77.41370712040352
 20
-132.4914821717383
 10
77.53962536038941
 20
-132.4963053054176
 10
77.53962536038941
 20
-132.4963053054176
 10
77.53962536038941
 20
-132.7553764859084
 10
77.53962536038941
 20
-132.7553764859084
 10
77.4023383053022
 20
-132.7457302185497
 10
77.2810709442214
 20
-132.7333278748028
 10
77.1529133921701
 20
-132.6406548062496
 10
76.97910832493925
 20
-132.5135307828438
 10
76.94241805802135
 20
-132.2985568245643
 10
76.94241805802135
 20
-132.163853591091
 10
76.94241805802135
 20
-131.8438042205113
 10
77.14154457706879
 20
-131.6043700842864
 10
77.43661700538043
 20
-131.6043700842864
 10
77.68363035167285
 20
-131.6043700842864
 10
77.79128958558691
 20
-131.7387288082112
 10
78.0360636198139
 20
-132.095640700483
 97
        0
 97
        0
 75
     2
 76
     1
 98
        0
  0
SPLINE
  5
111
330
10B
100
AcDbEntity
  8
_U+30EC_U+30A4_U+30E4_U+30FC 1
370
     0
100
AcDbSpline
210
0.0
220
0.0
230
1.0
 70
    11
 71
     3
 72
    32
 73
    28
 74
     0
 42
0.0000000001
 43
0.0000000001
 12
1.0
 22
0.0
 32
0.0
 13
1.0
 23
0.0
 33
0.0
 40
0.0
 40
0.0
 40
0.0
 40
0.0
 40
1.0
 40
1.0
 40
1.0
 40
2.0
 40
2.0
 40
2.0
 40
3.0
 40
3.0
 40
3.0
 40
4.0
 40
4.0
 40
4.0
 40
5.0
 40
5.0
 40
5.0
 40
6.0
 40
6.0
 40
6.0
 40
7.0
 40
7.0
 40
7.0
 40
8.0
 40
8.0
 40
8.0
 40
9.0
 40
9.0
 40
9.0
 40
9.0
 10
78.72008732841026
 20
-130.8936468856794
 30
0.0
 10
78.72008732841026
 20
-131.0941514429209
 30
0.0
 10
78.64446748250903
 20
-131.3773382918085
 30
0.0
 10
78.28531627817173
 20
-131.4214355140196
 30
0.0
 10
78.28531627817173
 20
-131.4214355140196
 30
0.0
 10
78.28531627817173
 20
-131.1747666772758
 30
0.0
 10
78.28531627817173
 20
-131.1747666772758
 30
0.0
 10
78.34939505419737
 20
-131.1623643335289
 30
0.0
 10
78.5095919942615
 20
-131.1258463213852
 30
0.0
 10
78.5095919942615
 20
-130.8912353188397
 30
0.0
 10
78.5095919942615
 20
-130.5539604708337
 30
0.0
 10
78.15268010198962
 20
-130.5098632486225
 30
0.0
 10
77.93081595273952
 20
-130.4953938475845
 30
0.0
 10
78.01763235896782
 20
-130.6004692598846
 30
0.0
 10
78.07947182292806
 20
-130.6786729273998
 30
0.0
 10
78.07947182292806
 20
-130.888823752
 30
0.0
 10
78.07947182292806
 20
-131.0965630097606
 30
0.0
 10
77.96509465281775
 20
-131.4458956919649
 30
0.0
 10
77.5258449784484
 20
-131.4458956919649
 30
0.0
 10
77.18030190127784
 20
-131.4458956919649
 30
0.0
 10
76.94241805802135
 20
-131.2161078230988
 30
0.0
 10
76.94241805802135
 20
-130.8495496634682
 30
0.0
 10
76.94241805802135
 20
-130.2556152018111
 30
0.0
 10
77.54186467245482
 20
-130.2435573676127
 30
0.0
 10
77.77285832474082
 20
-130.2435573676127
 30
0.0
 10
78.0222832378729
 20
-130.2435573676127
 30
0.0
 10
78.72008732841026
 20
-130.2656059787183
 30
0.0
 10
78.72008732841026
 20
-130.8936468856794
 30
0.0
  0
SPLINE
  5
112
330
10B
100
AcDbEntity
  8
_U+30EC_U+30A4_U+30E4_U+30FC 1
370
     0
100
AcDbSpline
210
0.0
220
0.0
230
1.0
 70
    11
 71
     3
 72
    17
 73
    13
 74
     0
 42
0.0000000001
 43
0.0000000001
 12
1.0
 22
0.0
 32
0.0
 13
1.0
 23
0.0
 33
0.0
 40
0.0
 40
0.0
 40
0.0
 40
0.0
 40
1.0
 40
1.0
 40
1.0
 40
2.0
 40
2.0
 40
2.0
 40
3.0
 40
3.0
 40
3.0
 40
4.0
 40
4.0
 40
4.0
 40
4.0
 10
77.1506740801047
 20
-130.8471380966285
 30
0.0
 10
77.1506740801047
 20
-130.9839083873929
 30
0.0
 10
77.21234128929066
 20
-131.1868245114741
 30
0.0
 10
77.52119409954332
 20
-131.1868245114741
 30
0.0
 10
77.76596813377031
 20
-131.1868245114741
 30
0.0
 10
77.86897648877928
 20
-131.0255940427645
 30
0.0
 10
77.86897648877928
 20
-130.8691867077341
 30
0.0
 10
77.86897648877928
 20
-130.5660183050321
 30
0.0
 10
77.6424614606241
 20
-130.5222655923695
 30
0.0
 10
77.5167154754125
 20
-130.5222655923695
 30
0.0
 10
77.32671845940096
 20
-130.5222655923695
 30
0.0
 10
77.1506740801047
 20
-130.6321641383489
 30
0.0
 10
77.1506740801047
 20
-130.8471380966285
 30
0.0
  0
HATCH
  5
113
330
10B
100
AcDbEntity
  8
_U+30EC_U+30A4_U+30E4_U+30FC 1
 62
   179
420
  2234388
100
AcDbHatch
 10
0.0
 20
0.0
 30
0.0
210
0.0
220
0.0
230
1.0
  2
SOLID
 70
     1
 71
     0
 91
        2
 92
        1
 93
        1
 72
     4
 94
        3
 73
     0
 74
     1
 95
       32
 96
       28
 40
0.0
 40
0.0
 40
0.0
 40
0.0
 40
1.0
 40
1.0
 40
1.0
 40
2.0
 40
2.0
 40
2.0
 40
3.0
 40
3.0
 40
3.0
 40
4.0
 40
4.0
 40
4.0
 40
5.0
 40
5.0
 40
5.0
 40
6.0
 40
6.0
 40
6.0
 40
7.0
 40
7.0
 40
7.0
 40
8.0
 40
8.0
 40
8.0
 40
9.0
 40
9.0
 40
9.0
 40
9.0
 10
78.72008732841026
 20
-130.8936468856794
 10
78.72008732841026
 20
-131.0941514429209
 10
78.64446748250903
 20
-131.3773382918085
 10
78.28531627817173
 20
-131.4214355140196
 10
78.28531627817173
 20
-131.4214355140196
 10
78.28531627817173
 20
-131.1747666772758
 10
78.28531627817173
 20
-131.1747666772758
 10
78.34939505419737
 20
-131.1623643335289
 10
78.5095919942615
 20
-131.1258463213852
 10
78.5095919942615
 20
-130.8912353188397
 10
78.5095919942615
 20
-130.5539604708337
 10
78.15268010198962
 20
-130.5098632486225
 10
77.93081595273952
 20
-130.4953938475845
 10
78.01763235896782
 20
-130.6004692598846
 10
78.07947182292806
 20
-130.6786729273998
 10
78.07947182292806
 20
-130.888823752
 10
78.07947182292806
 20
-131.0965630097606
 10
77.96509465281775
 20
-131.4458956919649
 10
77.5258449784484
 20
-131.4458956919649
 10
77.18030190127784
 20
-131.4458956919649
 10
76.94241805802135
 20
-131.2161078230988
 10
76.94241805802135
 20
-130.8495496634682
 10
76.94241805802135
 20
-130.2556152018111
 10
77.54186467245482
 20
-130.2435573676127
 10
77.77285832474082
 20
-130.2435573676127
 10
78.0222832378729
 20
-130.2435573676127
 10
78.72008732841026
 20
-130.2656059787183
 10
78.72008732841026
 20
-130.8936468856794
 97
        0
 97
        0
 92
        1
 93
        1
 72
     4
 94
        3
 73
     0
 74
     1
 95
       17
 96
       13
 40
0.0
 40
0.0
 40
0.0
 40
0.0
 40
1.0
 40
1.0
 40
1.0
 40
2.0
 40
2.0
 40
2.0
 40
3.0
 40
3.0
 40
3.0
 40
4.0
 40
4.0
 40
4.0
 40
4.0
 10
77.1506740801047
 20
-130.8471380966285
 10
77.1506740801047
 20
-130.9839083873929
 10
77.21234128929066
 20
-131.1868245114741
 10
77.52119409954332
 20
-131.1868245114741
 10
77.76596813377031
 20
-131.1868245114741
 10
77.86897648877928
 20
-131.0255940427645
 10
77.86897648877928
 20
-130.8691867077341
 10
77.86897648877928
 20
-130.5660183050321
 10
77.6424614606241
 20
-130.5222655923695
 10
77.5167154754125
 20
-130.5222655923695
 10
77.32671845940096
 20
-130.5222655923695
 10
77.1506740801047
 20
-130.6321641383489
 10
77.1506740801047
 20
-130.8471380966285
 97
        0
 97
        0
 75
     2
 76
     1
 98
        0
  0
POLYLINE
  5
114
330
10B
100
AcDbEntity
  8
_U+30EC_U+30A4_U+30E4_U+30FC 1
370
     0
100
AcDb2dPolyline
 66
     1
 10
0.0
 20
0.0
 30
0.0
  0
VERTEX
  5
115
330
114
100
AcDbEntity
  8
_U+30EC_U+30A4_U+30E4_U+30FC 1
370
     0
100
AcDbVertex
100
AcDb2dVertex
 10
78.66513805542053
 20
-129.9944769640292
 30
0.0
  0
VERTEX
  5
116
330
114
100
AcDbEntity
  8
_U+30EC_U+30A4_U+30E4_U+30FC 1
370
     0
100
AcDbVertex
100
AcDb2dVertex
 10
78.39297551208578
 20
-129.9944769640292
 30
0.0
  0
VERTEX
  5
117
330
114
100
AcDbEntity
  8
_U+30EC_U+30A4_U+30E4_U+30FC 1
370
     0
100
AcDbVertex
100
AcDb2dVertex
 10
78.39297551208578
 20
-129.7037109050741
 30
0.0
  0
VERTEX
  5
118
330
114
100
AcDbEntity
  8
_U+30EC_U+30A4_U+30E4_U+30FC 1
370
     0
100
AcDbVertex
100
AcDb2dVertex
 10
78.66513805542053
 20
-129.7037109050741
 30
0.0
  0
VERTEX
  5
119
330
114
100
AcDbEntity
  8
_U+30EC_U+30A4_U+30E4_U+30FC 1
370
     0
100
AcDbVertex
100
AcDb2dVertex
 10
78.66513805542053
 20
-129.9944769640292
 30
0.0
  0
SEQEND
  5
11A
330
114
100
AcDbEntity
  8
_U+30EC_U+30A4_U+30E4_U+30FC 1
370
     0
  0
HATCH
  5
11B
330
10B
100
AcDbEntity
  8
_U+30EC_U+30A4_U+30E4_U+30FC 1
 62
   179
420
  2234388
100
AcDbHatch
 10
0.0
 20
0.0
 30
0.0
210
0.0
220
0.0
230
1.0
  2
SOLID
 70
     1
 71
     0
 91
        1
 92
        1
 93
        4
 72
     1
 10
78.66513805542053
 20
-129.9944769640292
 11
78.39297551208578
 21
-129.9944769640292
 72
     1
 10
78.39297551208578
 20
-129.9944769640292
 11
78.39297551208578
 21
-129.7037109050741
 72
     1
 10
78.39297551208578
 20
-129.7037109050741
 11
78.66513805542053
 21
-129.7037109050741
 72
     1
 10
78.66513805542053
 20
-129.7037109050741
 11
78.66513805542053
 21
-129.9944769640292
 97
        0
 75
     2
 76
     1
 98
        0
  0
SPLINE
  5
11C
330
10B
100
AcDbEntity
  8
_U+30EC_U+30A4_U+30E4_U+30FC 1
370
     0
100
AcDbSpline
210
0.0
220
0.0
230
1.0
 70
    11
 71
     3
 72
    29
 73
    25
 74
     0
 42
0.0000000001
 43
0.0000000001
 12
1.0
 22
0.0
 32
0.0
 13
1.0
 23
0.0
 33
0.0
 40
0.0
 40
0.0
 40
0.0
 40
0.0
 40
1.0
 40
1.0
 40
1.0
 40
2.0
 40
2.0
 40
2.0
 40
3.0
 40
3.0
 40
3.0
 40
4.0
 40
4.0
 40
4.0
 40
5.0
 40
5.0
 40
5.0
 40
6.0
 40
6.0
 40
6.0
 40
7.0
 40
7.0
 40
7.0
 40
8.0
 40
8.0
 40
8.0
 40
8.0
 10
78.72008732841026
 20
-128.8534613393144
 30
0.0
 10
78.72008732841026
 20
-129.1614528756957
 30
0.0
 10
78.57125920344747
 20
-129.4546305014905
 30
0.0
 10
78.19384899303834
 20
-129.4546305014905
 30
0.0
 10
77.91703557079852
 20
-129.4546305014905
 30
0.0
 10
77.81402721578955
 20
-129.2909884659412
 30
0.0
 10
77.7477091276985
 20
-129.1686875762148
 30
0.0
 10
77.68363035167285
 20
-129.3130370770467
 30
0.0
 10
77.56012367852664
 20
-129.4008870119206
 30
0.0
 10
77.38631861129579
 20
-129.4008870119206
 30
0.0
 10
77.08883461614447
 20
-129.4008870119206
 30
0.0
 10
76.94241805802135
 20
-129.1710991430544
 30
0.0
 10
76.94241805802135
 20
-128.8534613393144
 30
0.0
 10
76.94241805802135
 20
-128.5258327586671
 30
0.0
 10
77.09796411918038
 20
-128.3060356667082
 30
0.0
 10
77.38631861129579
 20
-128.3060356667082
 30
0.0
 10
77.56012367852664
 20
-128.3060356667082
 30
0.0
 10
77.68363035167285
 20
-128.3962971684218
 30
0.0
 10
77.7477091276985
 20
-128.5406466692537
 30
0.0
 10
77.80265840068823
 20
-128.4379828237933
 30
0.0
 10
77.9056667556972
 20
-128.254703743978
 30
0.0
 10
78.18937036890752
 20
-128.254703743978
 30
0.0
 10
78.59416908842438
 20
-128.254703743978
 30
0.0
 10
78.72008732841026
 20
-128.5771646813974
 30
0.0
 10
78.72008732841026
 20
-128.8534613393144
 30
0.0
  0
SPLINE
  5
11D
330
10B
100
AcDbEntity
  8
_U+30EC_U+30A4_U+30E4_U+30FC 1
370
     0
100
AcDbSpline
210
0.0
220
0.0
230
1.0
 70
    11
 71
     3
 72
    17
 73
    13
 74
     0
 42
0.0000000001
 43
0.0000000001
 12
1.0
 22
0.0
 32
0.0
 13
1.0
 23
0.0
 33
0.0
 40
0.0
 40
0.0
 40
0.0
 40
0.0
 40
1.0
 40
1.0
 40
1.0
 40
2.0
 40
2.0
 40
2.0
 40
3.0
 40
3.0
 40
3.0
 40
4.0
 40
4.0
 40
4.0
 40
4.0
 10
77.1506740801047
 20
-128.8534613393144
 30
0.0
 10
77.1506740801047
 20
-129.0439751196487
 30
0.0
 10
77.2535101803394
 20
-129.1418158314298
 30
0.0
 10
77.39992673846253
 20
-129.1418158314298
 30
0.0
 10
77.5327351694189
 20
-129.1418158314298
 30
0.0
 10
77.66089272147019
 20
-129.0587890302353
 30
0.0
 10
77.66089272147019
 20
-128.8534613393144
 30
0.0
 10
77.66089272147019
 20
-128.6481336483935
 30
0.0
 10
77.5327351694189
 20
-128.565106847199
 30
0.0
 10
77.39992673846253
 20
-128.565106847199
 30
0.0
 10
77.2535101803394
 20
-128.565106847199
 30
0.0
 10
77.1506740801047
 20
-128.6653591258198
 30
0.0
 10
77.1506740801047
 20
-128.8534613393144
 30
0.0
  0
SPLINE
  5
11E
330
10B
100
AcDbEntity
  8
_U+30EC_U+30A4_U+30E4_U+30FC 1
370
     0
100
AcDbSpline
210
0.0
220
0.0
230
1.0
 70
    11
 71
     3
 72
    17
 73
    13
 74
     0
 42
0.0000000001
 43
0.0000000001
 12
1.0
 22
0.0
 32
0.0
 13
1.0
 23
0.0
 33
0.0
 40
0.0
 40
0.0
 40
0.0
 40
0.0
 40
1.0
 40
1.0
 40
1.0
 40
2.0
 40
2.0
 40
2.0
 40
3.0
 40
3.0
 40
3.0
 40
4.0
 40
4.0
 40
4.0
 40
4.0
 10
77.86449786464846
 20
-128.8534613393144
 30
0.0
 10
77.86449786464846
 20
-129.0195149417034
 30
0.0
 10
77.95820446184726
 20
-129.1955593209997
 30
0.0
 10
78.17782929903194
 20
-129.1955593209997
 30
0.0
 10
78.39969344828202
 20
-129.1955593209997
 30
0.0
 10
78.5095919942615
 20
-129.0487982533281
 30
0.0
 10
78.5095919942615
 20
-128.8534613393144
 30
0.0
 10
78.5095919942615
 20
-128.6384873810348
 30
0.0
 10
78.37695581807938
 20
-128.5113633576291
 30
0.0
 10
78.18471949000244
 20
-128.5113633576291
 30
0.0
 10
77.94442407990626
 20
-128.5113633576291
 30
0.0
 10
77.86449786464846
 20
-128.6994655711237
 30
0.0
 10
77.86449786464846
 20
-128.8534613393144
 30
0.0
  0
HATCH
  5
11F
330
10B
100
AcDbEntity
  8
_U+30EC_U+30A4_U+30E4_U+30FC 1
 62
   179
420
  2234388
100
AcDbHatch
 10
0.0
 20
0.0
 30
0.0
210
0.0
220
0.0
230
1.0
  2
SOLID
 70
     1
 71
     0
 91
        3
 92
        1
 93
        1
 72
     4
 94
        3
 73
     0
 74
     1
 95
       29
 96
       25
 40
0.0
 40
0.0
 40
0.0
 40
0.0
 40
1.0
 40
1.0
 40
1.0
 40
2.0
 40
2.0
 40
2.0
 40
3.0
 40
3.0
 40
3.0
 40
4.0
 40
4.0
 40
4.0
 40
5.0
 40
5.0
 40
5.0
 40
6.0
 40
6.0
 40
6.0
 40
7.0
 40
7.0
 40
7.0
 40
8.0
 40
8.0
 40
8.0
 40
8.0
 10
78.72008732841026
 20
-128.8534613393144
 10
78.72008732841026
 20
-129.1614528756957
 10
78.57125920344747
 20
-129.4546305014905
 10
78.19384899303834
 20
-129.4546305014905
 10
77.91703557079852
 20
-129.4546305014905
 10
77.81402721578955
 20
-129.2909884659412
 10
77.7477091276985
 20
-129.1686875762148
 10
77.68363035167285
 20
-129.3130370770467
 10
77.56012367852664
 20
-129.4008870119206
 10
77.38631861129579
 20
-129.4008870119206
 10
77.08883461614447
 20
-129.4008870119206
 10
76.94241805802135
 20
-129.1710991430544
 10
76.94241805802135
 20
-128.8534613393144
 10
76.94241805802135
 20
-128.5258327586671
 10
77.09796411918038
 20
-128.3060356667082
 10
77.38631861129579
 20
-128.3060356667082
 10
77.56012367852664
 20
-128.3060356667082
 10
77.68363035167285
 20
-128.3962971684218
 10
77.7477091276985
 20
-128.5406466692537
 10
77.80265840068823
 20
-128.4379828237933
 10
77.9056667556972
 20
-128.254703743978
 10
78.18937036890752
 20
-128.254703743978
 10
78.59416908842438
 20
-128.254703743978
 10
78.72008732841026
 20
-128.5771646813974
 10
78.72008732841026
 20
-128.8534613393144
 97
        0
 97
        0
 92
        1
 93
        1
 72
     4
 94
        3
 73
     0
 74
     1
 95
       17
 96
       13
 40
0.0
 40
0.0
 40
0.0
 40
0.0
 40
1.0
 40
1.0
 40
1.0
 40
2.0
 40
2.0
 40
2.0
 40
3.0
 40
3.0
 40
3.0
 40
4.0
 40
4.0
 40
4.0
 40
4.0
 10
77.1506740801047
 20
-128.8534613393144
 10
77.1506740801047
 20
-129.0439751196487
 10
77.2535101803394
 20
-129.1418158314298
 10
77.39992673846253
 20
-129.1418158314298
 10
77.5327351694189
 20
-129.1418158314298
 10
77.66089272147019
 20
-129.0587890302353
 10
77.66089272147019
 20
-128.8534613393144
 10
77.66089272147019
 20
-128.6481336483935
 10
77.5327351694189
 20
-128.565106847199
 10
77.39992673846253
 20
-128.565106847199
 10
77.2535101803394
 20
-128.565106847199
 10
77.1506740801047
 20
-128.6653591258198
 10
77.1506740801047
 20
-128.8534613393144
 97
        0
 97
        0
 92
        1
 93
        1
 72
     4
 94
        3
 73
     0
 74
     1
 95
       17
 96
       13
 40
0.0
 40
0.0
 40
0.0
 40
0.0
 40
1.0
 40
1.0
 40
1.0
 40
2.0
 40
2.0
 40
2.0
 40
3.0
 40
3.0
 40
3.0
 40
4.0
 40
4.0
 40
4.0
 40
4.0
 10
77.86449786464846
 20
-128.8534613393144
 10
77.86449786464846
 20
-129.0195149417034
 10
77.95820446184726
 20
-129.1955593209997
 10
78.17782929903194
 20
-129.1955593209997
 10
78.39969344828202
 20
-129.1955593209997
 10
78.5095919942615
 20
-129.0487982533281
 10
78.5095919942615
 20
-128.8534613393144
 10
78.5095919942615
 20
-128.6384873810348
 10
78.37695581807938
 20
-128.5113633576291
 10
78.18471949000244
 20
-128.5113633576291
 10
77.94442407990626
 20
-128.5113633576291
 10
77.86449786464846
 20
-128.6994655711237
 10
77.86449786464846
 20
-128.8534613393144
 97
        0
 97
        0
 75
     2
 76
     1
 98
        0
  0
ENDBLK
  5
10E
330
10B
100
AcDbEntity
  8
0
100
AcDbBlockEnd
  0
ENDSEC
  0
SECTION
  2
ENTITIES
  0
POLYLINE
  5
41
330
1F
100
AcDbEntity
  8
_U+30EC_U+30A4_U+30E4_U+30FC 1
370
     0
100
AcDb2dPolyline
 66
     1
 10
0.0
 20
0.0
 30
0.0
  0
VERTEX
  5
42
330
41
100
AcDbEntity
  8
_U+30EC_U+30A4_U+30E4_U+30FC 1
370
     0
100
AcDbVertex
100
AcDb2dVertex
 10
80.66845766419841
 20
-123.8189674690452
 30
0.0
  0
VERTEX
  5
43
330
41
100
AcDbEntity
  8
_U+30EC_U+30A4_U+30E4_U+30FC 1
370
     0
100
AcDbVertex
100
AcDb2dVertex
 10
103.2460610852993
 20
-123.8189674690452
 30
0.0
  0
VERTEX
  5
44
330
41
100
AcDbEntity
  8
_U+30EC_U+30A4_U+30E4_U+30FC 1
370
     0
100
AcDbVertex
100
AcDb2dVertex
 10
103.2460610852993
 20
-124.5834369132987
 30
0.0
  0
VERTEX
  5
45
330
41
100
AcDbEntity
  8
_U+30EC_U+30A4_U+30E4_U+30FC 1
370
     0
100
AcDbVertex
100
AcDb2dVertex
 10
81.31527775744897
 20
-124.5834369132987
 30
0.0
  0
VERTEX
  5
46
330
41
100
AcDbEntity
  8
_U+30EC_U+30A4_U+30E4_U+30FC 1
370
     0
100
AcDbVertex
100
AcDb2dVertex
 10
81.31527775744897
 20
-136.5780577436334
 30
0.0
  0
VERTEX
  5
47
330
41
100
AcDbEntity
  8
_U+30EC_U+30A4_U+30E4_U+30FC 1
370
     0
100
AcDbVertex
100
AcDb2dVertex
 10
90.66388886622292
 20
-136.5780577436334
 30
0.0
  0
VERTEX
  5
48
330
41
100
AcDbEntity
  8
_U+30EC_U+30A4_U+30E4_U+30FC 1
370
     0
100
AcDbVertex
100
AcDb2dVertex
 10
90.66388886622292
 20
-134.578513299689
 30
0.0
  0
VERTEX
  5
49
330
41
100
AcDbEntity
  8
_U+30EC_U+30A4_U+30E4_U+30FC 1
370
     0
100
AcDbVertex
100
AcDb2dVertex
 10
91.95717219923267
 20
-134.578513299689
 30
0.0
  0
VERTEX
  5
4A
330
41
100
AcDbEntity
  8
_U+30EC_U+30A4_U+30E4_U+30FC 1
370
     0
100
AcDbVertex
100
AcDb2dVertex
 10
91.95717219923267
 20
-137.2836132990126
 30
0.0
  0
VERTEX
  5
4B
330
41
100
AcDbEntity
  8
_U+30EC_U+30A4_U+30E4_U+30FC 1
370
     0
100
AcDbVertex
100
AcDb2dVertex
 10
80.72737155158428
 20
-137.2836132990126
 30
0.0
  0
VERTEX
  5
4C
330
41
100
AcDbEntity
  8
_U+30EC_U+30A4_U+30E4_U+30FC 1
370
     0
100
AcDbVertex
100
AcDb2dVertex
 10
80.66845766419841
 20
-123.8189674690452
 30
0.0
  0
SEQEND
  5
4E
330
41
100
AcDbEntity
  8
_U+30EC_U+30A4_U+30E4_U+30FC 1
370
     0
  0
HATCH
  5
4D
330
1F
100
AcDbEntity
  8
_U+30EC_U+30A4_U+30E4_U+30FC 1
 62
   253
420
 10066329
100
AcDbHatch
 10
0.0
 20
0.0
 30
0.0
210
0.0
220
0.0
230
1.0
  2
SOLID
 70
     1
 71
     0
 91
        1
 92
        1
 93
       10
 72
     1
 10
80.66845766419841
 20
-123.8189674690452
 11
103.2460610852993
 21
-123.8189674690452
 72
     1
 10
103.2460610852993
 20
-123.8189674690452
 11
103.2460610852993
 21
-124.5834369132987
 72
     1
 10
103.2460610852993
 20
-124.5834369132987
 11
81.31527775744897
 21
-124.5834369132987
 72
     1
 10
81.31527775744897
 20
-124.5834369132987
 11
81.31527775744897
 21
-136.5780577436334
 72
     1
 10
81.31527775744897
 20
-136.5780577436334
 11
90.66388886622292
 21
-136.5780577436334
 72
     1
 10
90.66388886622292
 20
-136.5780577436334
 11
90.66388886622292
 21
-134.578513299689
 72
     1
 10
90.66388886622292
 20
-134.578513299689
 11
91.95717219923267
 21
-134.578513299689
 72
     1
 10
91.95717219923267
 20
-134.578513299689
 11
91.95717219923267
 21
-137.2836132990126
 72
     1
 10
91.95717219923267
 20
-137.2836132990126
 11
80.72737155158428
 21
-137.2836132990126
 72
     1
 10
80.72737155158428
 20
-137.2836132990126
 11
80.66845766419841
 21
-123.8189674690452
 97
        0
 75
     2
 76
     1
 98
        0
  0
POLYLINE
  5
4F
330
1F
100
AcDbEntity
  8
_U+30EC_U+30A4_U+30E4_U+30FC 1
 62
   179
420
  2234388
370
    25
100
AcDb2dPolyline
 66
     1
 10
0.0
 20
0.0
 30
0.0
  0
VERTEX
  5
50
330
4F
100
AcDbEntity
  8
_U+30EC_U+30A4_U+30E4_U+30FC 1
 62
   179
420
  2234388
370
    25
100
AcDbVertex
100
AcDb2dVertex
 10
80.72874738488251
 20
-123.823447746822
 30
0.0
  0
VERTEX
  5
51
330
4F
100
AcDbEntity
  8
_U+30EC_U+30A4_U+30E4_U+30FC 1
 62
   179
420
  2234388
370
    25
100
AcDbVertex
100
AcDb2dVertex
 10
103.2288429219684
 20
-123.823447746822
 30
0.0
  0
SEQEND
  5
52
330
4F
100
AcDbEntity
  8
_U+30EC_U+30A4_U+30E4_U+30FC 1
 62
   179
420
  2234388
370
    25
  0
POLYLINE
  5
53
330
1F
100
AcDbEntity
  8
_U+30EC_U+30A4_U+30E4_U+30FC 1
 62
   179
420
  2234388
370
    25
100
AcDb2dPolyline
 66
     1
 10
0.0
 20
0.0
 30
0.0
  0
VERTEX
  5
54
330
53
100
AcDbEntity
  8
_U+30EC_U+30A4_U+30E4_U+30FC 1
 62
   179
420
  2234388
370
    25
100
AcDbVertex
100
AcDb2dVertex
 10
91.9788657089792
 20
-134.5337457996998
 30
0.0
  0
VERTEX
  5
55
330
53
100
AcDbEntity
  8
_U+30EC_U+30A4_U+30E4_U+30FC 1
 62
   179
420
  2234388
370
    25
100
AcDbVertex
100
AcDb2dVertex
 10
91.9788657089792
 20
-137.2333071879137
 30
0.0
  0
SEQEND
  5
56
330
53
100
AcDbEntity
  8
_U+30EC_U+30A4_U+30E4_U+30FC 1
 62
   179
420
  2234388
370
    25
  0
POLYLINE
  5
57
330
1F
100
AcDbEntity
  8
_U+30EC_U+30A4_U+30E4_U+30FC 1
 62
   179
420
  2234388
370
    25
100
AcDb2dPolyline
 66
     1
 10
0.0
 20
0.0
 30
0.0
  0
VERTEX
  5
58
330
57
100
AcDbEntity
  8
_U+30EC_U+30A4_U+30E4_U+30FC 1
 62
   179
420
  2234388
370
    25
100
AcDbVertex
100
AcDb2dVertex
 10
80.72874738488251
 20
-123.823447746822
 30
0.0
  0
VERTEX
  5
59
330
57
100
AcDbEntity
  8
_U+30EC_U+30A4_U+30E4_U+30FC 1
 62
   179
420
  2234388
370
    25
100
AcDbVertex
100
AcDb2dVertex
 10
80.72874738488251
 20
-137.2333071879137
 30
0.0
  0
SEQEND
  5
5A
330
57
100
AcDbEntity
  8
_U+30EC_U+30A4_U+30E4_U+30FC 1
 62
   179
420
  2234388
370
    25
  0
POLYLINE
  5
5B
330
1F
100
AcDbEntity
  8
_U+30EC_U+30A4_U+30E4_U+30FC 1
 62
   179
420
  2234388
370
    25
100
AcDb2dPolyline
 66
     1
 10
0.0
 20
0.0
 30
0.0
  0
VERTEX
  5
5C
330
5B
100
AcDbEntity
  8
_U+30EC_U+30A4_U+30E4_U+30FC 1
 62
   179
420
  2234388
370
    25
100
AcDbVertex
100
AcDb2dVertex
 10
103.2288429219684
 20
-123.823447746822
 30
0.0
  0
VERTEX
  5
5D
330
5B
100
AcDbEntity
  8
_U+30EC_U+30A4_U+30E4_U+30FC 1
 62
   179
420
  2234388
370
    25
100
AcDbVertex
100
AcDb2dVertex
 10
103.2288429219684
 20
-124.6333902466195
 30
0.0
  0
SEQEND
  5
5E
330
5B
100
AcDbEntity
  8
_U+30EC_U+30A4_U+30E4_U+30FC 1
 62
   179
420
  2234388
370
    25
  0
POLYLINE
  5
5F
330
1F
100
AcDbEntity
  8
_U+30EC_U+30A4_U+30E4_U+30FC 1
 62
   179
420
  2234388
370
    25
100
AcDb2dPolyline
 66
     1
 10
0.0
 20
0.0
 30
0.0
  0
VERTEX
  5
60
330
5F
100
AcDbEntity
  8
_U+30EC_U+30A4_U+30E4_U+30FC 1
 62
   179
420
  2234388
370
    25
100
AcDbVertex
100
AcDb2dVertex
 10
80.72874738488251
 20
-137.2333071879137
 30
0.0
  0
VERTEX
  5
61
330
5F
100
AcDbEntity
  8
_U+30EC_U+30A4_U+30E4_U+30FC 1
 62
   179
420
  2234388
370
    25
100
AcDbVertex
100
AcDb2dVertex
 10
91.9788657089792
 20
-137.2333071879137
 30
0.0
  0
SEQEND
  5
62
330
5F
100
AcDbEntity
  8
_U+30EC_U+30A4_U+30E4_U+30FC 1
 62
   179
420
  2234388
370
    25
  0
POLYLINE
  5
63
330
1F
100
AcDbEntity
  8
_U+30EC_U+30A4_U+30E4_U+30FC 1
 62
   179
420
  2234388
370
    25
100
AcDb2dPolyline
 66
     1
 10
0.0
 20
0.0
 30
0.0
  0
VERTEX
  5
64
330
63
100
AcDbEntity
  8
_U+30EC_U+30A4_U+30E4_U+30FC 1
 62
   179
420
  2234388
370
    25
100
AcDbVertex
100
AcDb2dVertex
 10
81.31372348106964
 20
-124.6333902466195
 30
0.0
  0
VERTEX
  5
65
330
63
100
AcDbEntity
  8
_U+30EC_U+30A4_U+30E4_U+30FC 1
 62
   179
420
  2234388
370
    25
100
AcDbVertex
100
AcDb2dVertex
 10
103.2288429219684
 20
-124.6333902466195
 30
0.0
  0
SEQEND
  5
66
330
63
100
AcDbEntity
  8
_U+30EC_U+30A4_U+30E4_U+30FC 1
 62
   179
420
  2234388
370
    25
  0
POLYLINE
  5
67
330
1F
100
AcDbEntity
  8
_U+30EC_U+30A4_U+30E4_U+30FC 1
 62
   179
420
  2234388
370
    25
100
AcDb2dPolyline
 66
     1
 10
0.0
 20
0.0
 30
0.0
  0
VERTEX
  5
68
330
67
100
AcDbEntity
  8
_U+30EC_U+30A4_U+30E4_U+30FC 1
 62
   179
420
  2234388
370
    25
100
AcDbVertex
100
AcDb2dVertex
 10
90.62892629897458
 20
-134.5337457996998
 30
0.0
  0
VERTEX
  5
69
330
67
100
AcDbEntity
  8
_U+30EC_U+30A4_U+30E4_U+30FC 1
 62
   179
420
  2234388
370
    25
100
AcDbVertex
100
AcDb2dVertex
 10
91.9788657089792
 20
-134.5337457996998
 30
0.0
  0
SEQEND
  5
6A
330
67
100
AcDbEntity
  8
_U+30EC_U+30A4_U+30E4_U+30FC 1
 62
   179
420
  2234388
370
    25
  0
POLYLINE
  5
6B
330
1F
100
AcDbEntity
  8
_U+30EC_U+30A4_U+30E4_U+30FC 1
 62
   179
420
  2234388
370
    25
100
AcDb2dPolyline
 66
     1
 10
0.0
 20
0.0
 30
0.0
  0
VERTEX
  5
6C
330
6B
100
AcDbEntity
  8
_U+30EC_U+30A4_U+30E4_U+30FC 1
 62
   179
420
  2234388
370
    25
100
AcDbVertex
100
AcDb2dVertex
 10
81.31372348106964
 20
-124.6333902466195
 30
0.0
  0
VERTEX
  5
6D
330
6B
100
AcDbEntity
  8
_U+30EC_U+30A4_U+30E4_U+30FC 1
 62
   179
420
  2234388
370
    25
100
AcDbVertex
100
AcDb2dVertex
 10
81.31372348106964
 20
-136.6483310769489
 30
0.0
  0
SEQEND
  5
6E
330
6B
100
AcDbEntity
  8
_U+30EC_U+30A4_U+30E4_U+30FC 1
 62
   179
420
  2234388
370
    25
  0
POLYLINE
  5
6F
330
1F
100
AcDbEntity
  8
_U+30EC_U+30A4_U+30E4_U+30FC 1
 62
   179
420
  2234388
370
    25
100
AcDb2dPolyline
 66
     1
 10
0.0
 20
0.0
 30
0.0
  0
VERTEX
  5
70
330
6F
100
AcDbEntity
  8
_U+30EC_U+30A4_U+30E4_U+30FC 1
 62
   179
420
  2234388
370
    25
100
AcDbVertex
100
AcDb2dVertex
 10
81.31372348106964
 20
-136.6483310769489
 30
0.0
  0
VERTEX
  5
71
330
6F
100
AcDbEntity
  8
_U+30EC_U+30A4_U+30E4_U+30FC 1
 62
   179
420
  2234388
370
    25
100
AcDbVertex
100
AcDb2dVertex
 10
90.62892629897458
 20
-136.6483310769489
 30
0.0
  0
SEQEND
  5
72
330
6F
100
AcDbEntity
  8
_U+30EC_U+30A4_U+30E4_U+30FC 1
 62
   179
420
  2234388
370
    25
  0
POLYLINE
  5
73
330
1F
100
AcDbEntity
  8
_U+30EC_U+30A4_U+30E4_U+30FC 1
 62
   179
420
  2234388
370
    25
100
AcDb2dPolyline
 66
     1
 10
0.0
 20
0.0
 30
0.0
  0
VERTEX
  5
74
330
73
100
AcDbEntity
  8
_U+30EC_U+30A4_U+30E4_U+30FC 1
 62
   179
420
  2234388
370
    25
100
AcDbVertex
100
AcDb2dVertex
 10
90.62892629897458
 20
-134.5337457996998
 30
0.0
  0
VERTEX
  5
75
330
73
100
AcDbEntity
  8
_U+30EC_U+30A4_U+30E4_U+30FC 1
 62
   179
420
  2234388
370
    25
100
AcDbVertex
100
AcDb2dVertex
 10
90.62892629897458
 20
-136.6483310769489
 30
0.0
  0
SEQEND
  5
76
330
73
100
AcDbEntity
  8
_U+30EC_U+30A4_U+30E4_U+30FC 1
 62
   179
420
  2234388
370
    25
  0
SPLINE
  5
77
330
1F
100
AcDbEntity
  8
_U+30EC_U+30A4_U+30E4_U+30FC 1
 62
   179
420
  2234388
370
     9
100
AcDbSpline
210
0.0
220
0.0
230
1.0
 70
    11
 71
     3
 72
    17
 73
    13
 74
     0
 42
0.0000000001
 43
0.0000000001
 12
1.0
 22
0.0
 32
0.0
 13
1.0
 23
0.0
 33
0.0
 40
0.0
 40
0.0
 40
0.0
 40
0.0
 40
1.0
 40
1.0
 40
1.0
 40
2.0
 40
2.0
 40
2.0
 40
3.0
 40
3.0
 40
3.0
 40
4.0
 40
4.0
 40
4.0
 40
4.0
 10
78.97381909632114
 20
-137.2333071879137
 30
0.0
 10
78.97381909632114
 20
-137.2085069101423
 30
0.0
 10
78.95385187460832
 20
-137.1885396879251
 30
0.0
 10
78.92887520857886
 20
-137.1885396879251
 30
0.0
 10
78.9038985425494
 20
-137.1885396879251
 30
0.0
 10
78.8838960430597
 20
-137.2085069101423
 30
0.0
 10
78.8838960430597
 20
-137.2333071879137
 30
0.0
 10
78.8838960430597
 20
-137.2581074656857
 30
0.0
 10
78.9038985425494
 20
-137.2787802434578
 30
0.0
 10
78.92887520857886
 20
-137.2787802434578
 30
0.0
 10
78.95385187460832
 20
-137.2787802434578
 30
0.0
 10
78.97381909632114
 20
-137.2581074656857
 30
0.0
 10
78.97381909632114
 20
-137.2333071879137
 30
0.0
  0
SPLINE
  5
78
330
1F
100
AcDbEntity
  8
_U+30EC_U+30A4_U+30E4_U+30FC 1
 62
   179
420
  2234388
370
     9
100
AcDbSpline
210
0.0
220
0.0
230
1.0
 70
    11
 71
     3
 72
    17
 73
    13
 74
     0
 42
0.0000000001
 43
0.0000000001
 12
1.0
 22
0.0
 32
0.0
 13
1.0
 23
0.0
 33
0.0
 40
0.0
 40
0.0
 40
0.0
 40
0.0
 40
1.0
 40
1.0
 40
1.0
 40
2.0
 40
2.0
 40
2.0
 40
3.0
 40
3.0
 40
3.0
 40
4.0
 40
4.0
 40
4.0
 40
4.0
 10
80.77386766150917
 20
-139.6214363539835
 30
0.0
 10
80.77386766150917
 20
-139.5966360762121
 30
0.0
 10
80.75372405091197
 20
-139.5766688539949
 30
0.0
 10
80.72874738488251
 20
-139.5766688539949
 30
0.0
 10
80.70394710773745
 20
-139.5766688539949
 30
0.0
 10
80.68394460824776
 20
-139.5966360762121
 30
0.0
 10
80.68394460824776
 20
-139.6214363539835
 30
0.0
 10
80.68394460824776
 20
-139.646271909533
 30
0.0
 10
80.70394710773745
 20
-139.6662391317502
 30
0.0
 10
80.72874738488251
 20
-139.6662391317502
 30
0.0
 10
80.75372405091197
 20
-139.6662391317502
 30
0.0
 10
80.77386766150917
 20
-139.646271909533
 30
0.0
 10
80.77386766150917
 20
-139.6214363539835
 30
0.0
  0
SPLINE
  5
79
330
1F
100
AcDbEntity
  8
_U+30EC_U+30A4_U+30E4_U+30FC 1
 62
   179
420
  2234388
370
     9
100
AcDbSpline
210
0.0
220
0.0
230
1.0
 70
    11
 71
     3
 72
    17
 73
    13
 74
     0
 42
0.0000000001
 43
0.0000000001
 12
1.0
 22
0.0
 32
0.0
 13
1.0
 23
0.0
 33
0.0
 40
0.0
 40
0.0
 40
0.0
 40
0.0
 40
1.0
 40
1.0
 40
1.0
 40
2.0
 40
2.0
 40
2.0
 40
3.0
 40
3.0
 40
3.0
 40
4.0
 40
4.0
 40
4.0
 40
4.0
 10
78.97381909632114
 20
-123.823447746822
 30
0.0
 10
78.97381909632114
 20
-123.7986474690503
 30
0.0
 10
78.95385187460832
 20
-123.7783274690553
 30
0.0
 10
78.92887520857886
 20
-123.7783274690553
 30
0.0
 10
78.9038985425494
 20
-123.7783274690553
 30
0.0
 10
78.8838960430597
 20
-123.7986474690503
 30
0.0
 10
78.8838960430597
 20
-123.823447746822
 30
0.0
 10
78.8838960430597
 20
-123.8482480245934
 30
0.0
 10
78.9038985425494
 20
-123.8682505245884
 30
0.0
 10
78.92887520857886
 20
-123.8682505245884
 30
0.0
 10
78.95385187460832
 20
-123.8682505245884
 30
0.0
 10
78.97381909632114
 20
-123.8482480245934
 30
0.0
 10
78.97381909632114
 20
-123.823447746822
 30
0.0
  0
SPLINE
  5
7A
330
1F
100
AcDbEntity
  8
_U+30EC_U+30A4_U+30E4_U+30FC 1
 62
   179
420
  2234388
370
     9
100
AcDbSpline
210
0.0
220
0.0
230
1.0
 70
    11
 71
     3
 72
    17
 73
    13
 74
     0
 42
0.0000000001
 43
0.0000000001
 12
1.0
 22
0.0
 32
0.0
 13
1.0
 23
0.0
 33
0.0
 40
0.0
 40
0.0
 40
0.0
 40
0.0
 40
1.0
 40
1.0
 40
1.0
 40
2.0
 40
2.0
 40
2.0
 40
3.0
 40
3.0
 40
3.0
 40
4.0
 40
4.0
 40
4.0
 40
4.0
 10
80.77386766150917
 20
-122.0233991361609
 30
0.0
 10
80.77386766150917
 20
-121.9985988583892
 30
0.0
 10
80.75372405091197
 20
-121.9782435806164
 30
0.0
 10
80.72874738488251
 20
-121.9782435806164
 30
0.0
 10
80.70394710773745
 20
-121.9782435806164
 30
0.0
 10
80.68394460824776
 20
-121.9985988583892
 30
0.0
 10
80.68394460824776
 20
-122.0233991361609
 30
0.0
 10
80.68394460824776
 20
-122.0481994139323
 30
0.0
 10
80.70394710773745
 20
-122.0685194139272
 30
0.0
 10
80.72874738488251
 20
-122.0685194139272
 30
0.0
 10
80.75372405091197
 20
-122.0685194139272
 30
0.0
 10
80.77386766150917
 20
-122.0481994139323
 30
0.0
 10
80.77386766150917
 20
-122.0233991361609
 30
0.0
  0
SPLINE
  5
7B
330
1F
100
AcDbEntity
  8
_U+30EC_U+30A4_U+30E4_U+30FC 1
 62
   179
420
  2234388
370
     9
100
AcDbSpline
210
0.0
220
0.0
230
1.0
 70
    11
 71
     3
 72
    17
 73
    13
 74
     0
 42
0.0000000001
 43
0.0000000001
 12
1.0
 22
0.0
 32
0.0
 13
1.0
 23
0.0
 33
0.0
 40
0.0
 40
0.0
 40
0.0
 40
0.0
 40
1.0
 40
1.0
 40
1.0
 40
2.0
 40
2.0
 40
2.0
 40
3.0
 40
3.0
 40
3.0
 40
4.0
 40
4.0
 40
4.0
 40
4.0
 10
103.2736104208263
 20
-122.0233991361609
 30
0.0
 10
103.2736104208263
 20
-121.9985988583892
 30
0.0
 10
103.2536431991134
 20
-121.9782435806164
 30
0.0
 10
103.2288429219684
 20
-121.9782435806164
 30
0.0
 10
103.2040426448233
 20
-121.9782435806164
 30
0.0
 10
103.1840401453336
 20
-121.9985988583892
 30
0.0
 10
103.1840401453336
 20
-122.0233991361609
 30
0.0
 10
103.1840401453336
 20
-122.0481994139323
 30
0.0
 10
103.2040426448233
 20
-122.0685194139272
 30
0.0
 10
103.2288429219684
 20
-122.0685194139272
 30
0.0
 10
103.2536431991134
 20
-122.0685194139272
 30
0.0
 10
103.2736104208263
 20
-122.0481994139323
 30
0.0
 10
103.2736104208263
 20
-122.0233991361609
 30
0.0
  0
SPLINE
  5
7C
330
1F
100
AcDbEntity
  8
_U+30EC_U+30A4_U+30E4_U+30FC 1
 62
   179
420
  2234388
370
     9
100
AcDbSpline
210
0.0
220
0.0
230
1.0
 70
    11
 71
     3
 72
    17
 73
    13
 74
     0
 42
0.0000000001
 43
0.0000000001
 12
1.0
 22
0.0
 32
0.0
 13
1.0
 23
0.0
 33
0.0
 40
0.0
 40
0.0
 40
0.0
 40
0.0
 40
1.0
 40
1.0
 40
1.0
 40
2.0
 40
2.0
 40
2.0
 40
3.0
 40
3.0
 40
3.0
 40
4.0
 40
4.0
 40
4.0
 40
4.0
 10
105.07404704156
 20
-123.823447746822
 30
0.0
 10
105.07404704156
 20
-123.7986474690503
 30
0.0
 10
105.0540471959584
 20
-123.7783274690553
 30
0.0
 10
105.0285739871645
 20
-123.7783274690553
 30
0.0
 10
105.0037384322426
 20
-123.7783274690553
 30
0.0
 10
104.9837712105298
 20
-123.7986474690503
 30
0.0
 10
104.9837712105298
 20
-123.823447746822
 30
0.0
 10
104.9837712105298
 20
-123.8482480245934
 30
0.0
 10
105.0037384322426
 20
-123.8682505245884
 30
0.0
 10
105.0285739871645
 20
-123.8682505245884
 30
0.0
 10
105.0540471959584
 20
-123.8682505245884
 30
0.0
 10
105.07404704156
 20
-123.8482480245934
 30
0.0
 10
105.07404704156
 20
-123.823447746822
 30
0.0
  0
SPLINE
  5
7D
330
1F
100
AcDbEntity
  8
_U+30EC_U+30A4_U+30E4_U+30FC 1
 62
   179
420
  2234388
370
     9
100
AcDbSpline
210
0.0
220
0.0
230
1.0
 70
    11
 71
     3
 72
    17
 73
    13
 74
     0
 42
0.0000000001
 43
0.0000000001
 12
1.0
 22
0.0
 32
0.0
 13
1.0
 23
0.0
 33
0.0
 40
0.0
 40
0.0
 40
0.0
 40
0.0
 40
1.0
 40
1.0
 40
1.0
 40
2.0
 40
2.0
 40
2.0
 40
3.0
 40
3.0
 40
3.0
 40
4.0
 40
4.0
 40
4.0
 40
4.0
 10
105.07404704156
 20
-124.6333902466195
 30
0.0
 10
105.07404704156
 20
-124.6085899688478
 30
0.0
 10
105.0540471959584
 20
-124.5882699688529
 30
0.0
 10
105.0285739871645
 20
-124.5882699688529
 30
0.0
 10
105.0037384322426
 20
-124.5882699688529
 30
0.0
 10
104.9837712105298
 20
-124.6085899688478
 30
0.0
 10
104.9837712105298
 20
-124.6333902466195
 30
0.0
 10
104.9837712105298
 20
-124.6581905243909
 30
0.0
 10
105.0037384322426
 20
-124.6785105243859
 30
0.0
 10
105.0285739871645
 20
-124.6785105243859
 30
0.0
 10
105.0540471959584
 20
-124.6785105243859
 30
0.0
 10
105.07404704156
 20
-124.6581905243909
 30
0.0
 10
105.07404704156
 20
-124.6333902466195
 30
0.0
  0
SPLINE
  5
7E
330
1F
100
AcDbEntity
  8
_U+30EC_U+30A4_U+30E4_U+30FC 1
 62
   179
420
  2234388
370
     9
100
AcDbSpline
210
0.0
220
0.0
230
1.0
 70
    11
 71
     3
 72
    17
 73
    13
 74
     0
 42
0.0000000001
 43
0.0000000001
 12
1.0
 22
0.0
 32
0.0
 13
1.0
 23
0.0
 33
0.0
 40
0.0
 40
0.0
 40
0.0
 40
0.0
 40
1.0
 40
1.0
 40
1.0
 40
2.0
 40
2.0
 40
2.0
 40
3.0
 40
3.0
 40
3.0
 40
4.0
 40
4.0
 40
4.0
 40
4.0
 10
105.07404704156
 20
-134.5337457996998
 30
0.0
 10
105.07404704156
 20
-134.5082399663729
 30
0.0
 10
105.0540471959584
 20
-134.4882727441557
 30
0.0
 10
105.0285739871645
 20
-134.4882727441557
 30
0.0
 10
105.0037384322426
 20
-134.4882727441557
 30
0.0
 10
104.9837712105298
 20
-134.5082399663729
 30
0.0
 10
104.9837712105298
 20
-134.5337457996998
 30
0.0
 10
104.9837712105298
 20
-134.5585460774718
 30
0.0
 10
105.0037384322426
 20
-134.578513299689
 30
0.0
 10
105.0285739871645
 20
-134.578513299689
 30
0.0
 10
105.0540471959584
 20
-134.578513299689
 30
0.0
 10
105.07404704156
 20
-134.5585460774718
 30
0.0
 10
105.07404704156
 20
-134.5337457996998
 30
0.0
  0
SPLINE
  5
7F
330
1F
100
AcDbEntity
  8
_U+30EC_U+30A4_U+30E4_U+30FC 1
 62
   179
420
  2234388
370
     9
100
AcDbSpline
210
0.0
220
0.0
230
1.0
 70
    11
 71
     3
 72
    17
 73
    13
 74
     0
 42
0.0000000001
 43
0.0000000001
 12
1.0
 22
0.0
 32
0.0
 13
1.0
 23
0.0
 33
0.0
 40
0.0
 40
0.0
 40
0.0
 40
0.0
 40
1.0
 40
1.0
 40
1.0
 40
2.0
 40
2.0
 40
2.0
 40
3.0
 40
3.0
 40
3.0
 40
4.0
 40
4.0
 40
4.0
 40
4.0
 10
105.07404704156
 20
-137.2333071879137
 30
0.0
 10
105.07404704156
 20
-137.2085069101423
 30
0.0
 10
105.0540471959584
 20
-137.1885396879251
 30
0.0
 10
105.0285739871645
 20
-137.1885396879251
 30
0.0
 10
105.0037384322426
 20
-137.1885396879251
 30
0.0
 10
104.9837712105298
 20
-137.2085069101423
 30
0.0
 10
104.9837712105298
 20
-137.2333071879137
 30
0.0
 10
104.9837712105298
 20
-137.2581074656857
 30
0.0
 10
105.0037384322426
 20
-137.2787802434578
 30
0.0
 10
105.0285739871645
 20
-137.2787802434578
 30
0.0
 10
105.0540471959584
 20
-137.2787802434578
 30
0.0
 10
105.07404704156
 20
-137.2581074656857
 30
0.0
 10
105.07404704156
 20
-137.2333071879137
 30
0.0
  0
SPLINE
  5
80
330
1F
100
AcDbEntity
  8
_U+30EC_U+30A4_U+30E4_U+30FC 1
 62
   179
420
  2234388
370
     9
100
AcDbSpline
210
0.0
220
0.0
230
1.0
 70
    11
 71
     3
 72
    17
 73
    13
 74
     0
 42
0.0000000001
 43
0.0000000001
 12
1.0
 22
0.0
 32
0.0
 13
1.0
 23
0.0
 33
0.0
 40
0.0
 40
0.0
 40
0.0
 40
0.0
 40
1.0
 40
1.0
 40
1.0
 40
2.0
 40
2.0
 40
2.0
 40
3.0
 40
3.0
 40
3.0
 40
4.0
 40
4.0
 40
4.0
 40
4.0
 10
92.02402126338274
 20
-139.6214363539835
 30
0.0
 10
92.02402126338274
 20
-139.5966360762121
 30
0.0
 10
92.00370126390115
 20
-139.5766688539949
 30
0.0
 10
91.9788657089792
 20
-139.5766688539949
 30
0.0
 10
91.95406543183412
 20
-139.5766688539949
 30
0.0
 10
91.93374543235254
 20
-139.5966360762121
 30
0.0
 10
91.93374543235254
 20
-139.6214363539835
 30
0.0
 10
91.93374543235254
 20
-139.646271909533
 30
0.0
 10
91.95406543183412
 20
-139.6662391317502
 30
0.0
 10
91.9788657089792
 20
-139.6662391317502
 30
0.0
 10
92.00370126390115
 20
-139.6662391317502
 30
0.0
 10
92.02402126338274
 20
-139.646271909533
 30
0.0
 10
92.02402126338274
 20
-139.6214363539835
 30
0.0
  0
POLYLINE
  5
81
330
1F
100
AcDbEntity
  8
_U+30EC_U+30A4_U+30E4_U+30FC 1
 62
   179
420
  2234388
370
     9
100
AcDb2dPolyline
 66
     1
 10
0.0
 20
0.0
 30
0.0
  0
VERTEX
  5
82
330
81
100
AcDbEntity
  8
_U+30EC_U+30A4_U+30E4_U+30FC 1
 62
   179
420
  2234388
370
     9
100
AcDbVertex
100
AcDb2dVertex
 10
105.0285739871645
 20
-123.823447746822
 30
0.0
  0
VERTEX
  5
83
330
81
100
AcDbEntity
  8
_U+30EC_U+30A4_U+30E4_U+30FC 1
 62
   179
420
  2234388
370
     9
100
AcDbVertex
100
AcDb2dVertex
 10
105.0285739871645
 20
-121.4573671918578
 30
0.0
  0
SEQEND
  5
84
330
81
100
AcDbEntity
  8
_U+30EC_U+30A4_U+30E4_U+30FC 1
 62
   179
420
  2234388
370
     9
  0
POLYLINE
  5
85
330
1F
100
AcDbEntity
  8
_U+30EC_U+30A4_U+30E4_U+30FC 1
 62
   179
420
  2234388
370
     9
100
AcDb2dPolyline
 66
     1
 10
0.0
 20
0.0
 30
0.0
  0
VERTEX
  5
86
330
85
100
AcDbEntity
  8
_U+30EC_U+30A4_U+30E4_U+30FC 1
 62
   179
420
  2234388
370
     9
100
AcDbVertex
100
AcDb2dVertex
 10
105.0285739871645
 20
-123.823447746822
 30
0.0
  0
VERTEX
  5
87
330
85
100
AcDbEntity
  8
_U+30EC_U+30A4_U+30E4_U+30FC 1
 62
   179
420
  2234388
370
     9
100
AcDbVertex
100
AcDb2dVertex
 10
105.0285739871645
 20
-124.6333902466195
 30
0.0
  0
SEQEND
  5
88
330
85
100
AcDbEntity
  8
_U+30EC_U+30A4_U+30E4_U+30FC 1
 62
   179
420
  2234388
370
     9
  0
POLYLINE
  5
89
330
1F
100
AcDbEntity
  8
_U+30EC_U+30A4_U+30E4_U+30FC 1
 62
   179
420
  2234388
370
     9
100
AcDb2dPolyline
 66
     1
 10
0.0
 20
0.0
 30
0.0
  0
VERTEX
  5
8A
330
89
100
AcDbEntity
  8
_U+30EC_U+30A4_U+30E4_U+30FC 1
 62
   179
420
  2234388
370
     9
100
AcDbVertex
100
AcDb2dVertex
 10
104.3719134483618
 20
-123.823447746822
 30
0.0
  0
VERTEX
  5
8B
330
89
100
AcDbEntity
  8
_U+30EC_U+30A4_U+30E4_U+30FC 1
 62
   179
420
  2234388
370
     9
100
AcDbVertex
100
AcDb2dVertex
 10
105.4788242534554
 20
-123.823447746822
 30
0.0
  0
SEQEND
  5
8C
330
89
100
AcDbEntity
  8
_U+30EC_U+30A4_U+30E4_U+30FC 1
 62
   179
420
  2234388
370
     9
  0
POLYLINE
  5
8D
330
1F
100
AcDbEntity
  8
_U+30EC_U+30A4_U+30E4_U+30FC 1
 62
   179
420
  2234388
370
     9
100
AcDb2dPolyline
 66
     1
 10
0.0
 20
0.0
 30
0.0
  0
VERTEX
  5
8E
330
8D
100
AcDbEntity
  8
_U+30EC_U+30A4_U+30E4_U+30FC 1
 62
   179
420
  2234388
370
     9
100
AcDbVertex
100
AcDb2dVertex
 10
104.3719134483618
 20
-124.6333902466195
 30
0.0
  0
VERTEX
  5
8F
330
8D
100
AcDbEntity
  8
_U+30EC_U+30A4_U+30E4_U+30FC 1
 62
   179
420
  2234388
370
     9
100
AcDbVertex
100
AcDb2dVertex
 10
105.4788242534554
 20
-124.6333902466195
 30
0.0
  0
SEQEND
  5
90
330
8D
100
AcDbEntity
  8
_U+30EC_U+30A4_U+30E4_U+30FC 1
 62
   179
420
  2234388
370
     9
  0
INSERT
  5
92
330
1F
100
AcDbEntity
  8
_U+30EC_U+30A4_U+30E4_U+30FC 1
100
AcDbBlockReference
  2
block 2
 10
0.0
 20
0.0
 30
0.0
  0
POLYLINE
  5
A3
330
1F
100
AcDbEntity
  8
_U+30EC_U+30A4_U+30E4_U+30FC 1
 62
   179
420
  2234388
370
     9
100
AcDb2dPolyline
 66
     1
 10
0.0
 20
0.0
 30
0.0
  0
VERTEX
  5
A4
330
A3
100
AcDbEntity
  8
_U+30EC_U+30A4_U+30E4_U+30FC 1
 62
   179
420
  2234388
370
     9
100
AcDbVertex
100
AcDb2dVertex
 10
105.0285739871645
 20
-124.6333902466195
 30
0.0
  0
VERTEX
  5
A5
330
A3
100
AcDbEntity
  8
_U+30EC_U+30A4_U+30E4_U+30FC 1
 62
   179
420
  2234388
370
     9
100
AcDbVertex
100
AcDb2dVertex
 10
105.0285739871645
 20
-134.5337457996998
 30
0.0
  0
SEQEND
  5
A6
330
A3
100
AcDbEntity
  8
_U+30EC_U+30A4_U+30E4_U+30FC 1
 62
   179
420
  2234388
370
     9
  0
POLYLINE
  5
A7
330
1F
100
AcDbEntity
  8
_U+30EC_U+30A4_U+30E4_U+30FC 1
 62
   179
420
  2234388
370
     9
100
AcDb2dPolyline
 66
     1
 10
0.0
 20
0.0
 30
0.0
  0
VERTEX
  5
A8
330
A7
100
AcDbEntity
  8
_U+30EC_U+30A4_U+30E4_U+30FC 1
 62
   179
420
  2234388
370
     9
100
AcDbVertex
100
AcDb2dVertex
 10
93.1216187353807
 20
-134.5337457996998
 30
0.0
  0
VERTEX
  5
A9
330
A7
100
AcDbEntity
  8
_U+30EC_U+30A4_U+30E4_U+30FC 1
 62
   179
420
  2234388
370
     9
100
AcDbVertex
100
AcDb2dVertex
 10
105.4788242534554
 20
-134.5337457996998
 30
0.0
  0
SEQEND
  5
AA
330
A7
100
AcDbEntity
  8
_U+30EC_U+30A4_U+30E4_U+30FC 1
 62
   179
420
  2234388
370
     9
  0
INSERT
  5
AC
330
1F
100
AcDbEntity
  8
_U+30EC_U+30A4_U+30E4_U+30FC 1
100
AcDbBlockReference
  2
block 3
 10
0.0
 20
0.0
 30
0.0
  0
POLYLINE
  5
B3
330
1F
100
AcDbEntity
  8
_U+30EC_U+30A4_U+30E4_U+30FC 1
 62
   179
420
  2234388
370
     9
100
AcDb2dPolyline
 66
     1
 10
0.0
 20
0.0
 30
0.0
  0
VERTEX
  5
B4
330
B3
100
AcDbEntity
  8
_U+30EC_U+30A4_U+30E4_U+30FC 1
 62
   179
420
  2234388
370
     9
100
AcDbVertex
100
AcDb2dVertex
 10
105.0285739871645
 20
-134.5337457996998
 30
0.0
  0
VERTEX
  5
B5
330
B3
100
AcDbEntity
  8
_U+30EC_U+30A4_U+30E4_U+30FC 1
 62
   179
420
  2234388
370
     9
100
AcDbVertex
100
AcDb2dVertex
 10
105.0285739871645
 20
-137.2333071879137
 30
0.0
  0
SEQEND
  5
B6
330
B3
100
AcDbEntity
  8
_U+30EC_U+30A4_U+30E4_U+30FC 1
 62
   179
420
  2234388
370
     9
  0
POLYLINE
  5
B7
330
1F
100
AcDbEntity
  8
_U+30EC_U+30A4_U+30E4_U+30FC 1
 62
   179
420
  2234388
370
     9
100
AcDb2dPolyline
 66
     1
 10
0.0
 20
0.0
 30
0.0
  0
VERTEX
  5
B8
330
B7
100
AcDbEntity
  8
_U+30EC_U+30A4_U+30E4_U+30FC 1
 62
   179
420
  2234388
370
     9
100
AcDbVertex
100
AcDb2dVertex
 10
93.1216187353807
 20
-137.2333071879137
 30
0.0
  0
VERTEX
  5
B9
330
B7
100
AcDbEntity
  8
_U+30EC_U+30A4_U+30E4_U+30FC 1
 62
   179
420
  2234388
370
     9
100
AcDbVertex
100
AcDb2dVertex
 10
105.4788242534554
 20
-137.2333071879137
 30
0.0
  0
SEQEND
  5
BA
330
B7
100
AcDbEntity
  8
_U+30EC_U+30A4_U+30E4_U+30FC 1
 62
   179
420
  2234388
370
     9
  0
INSERT
  5
BC
330
1F
100
AcDbEntity
  8
_U+30EC_U+30A4_U+30E4_U+30FC 1
100
AcDbBlockReference
  2
block 4
 10
0.0
 20
0.0
 30
0.0
  0
POLYLINE
  5
C2
330
1F
100
AcDbEntity
  8
_U+30EC_U+30A4_U+30E4_U+30FC 1
 62
   179
420
  2234388
370
     9
100
AcDb2dPolyline
 66
     1
 10
0.0
 20
0.0
 30
0.0
  0
VERTEX
  5
C3
330
C2
100
AcDbEntity
  8
_U+30EC_U+30A4_U+30E4_U+30FC 1
 62
   179
420
  2234388
370
     9
100
AcDbVertex
100
AcDb2dVertex
 10
80.72874738488251
 20
-122.0233991361609
 30
0.0
  0
VERTEX
  5
C4
330
C2
100
AcDbEntity
  8
_U+30EC_U+30A4_U+30E4_U+30FC 1
 62
   179
420
  2234388
370
     9
100
AcDbVertex
100
AcDb2dVertex
 10
103.2288429219684
 20
-122.0233991361609
 30
0.0
  0
SEQEND
  5
C5
330
C2
100
AcDbEntity
  8
_U+30EC_U+30A4_U+30E4_U+30FC 1
 62
   179
420
  2234388
370
     9
  0
POLYLINE
  5
C6
330
1F
100
AcDbEntity
  8
_U+30EC_U+30A4_U+30E4_U+30FC 1
 62
   179
420
  2234388
370
     9
100
AcDb2dPolyline
 66
     1
 10
0.0
 20
0.0
 30
0.0
  0
VERTEX
  5
C7
330
C6
100
AcDbEntity
  8
_U+30EC_U+30A4_U+30E4_U+30FC 1
 62
   179
420
  2234388
370
     9
100
AcDbVertex
100
AcDb2dVertex
 10
80.72874738488251
 20
-122.6803771915521
 30
0.0
  0
VERTEX
  5
C8
330
C6
100
AcDbEntity
  8
_U+30EC_U+30A4_U+30E4_U+30FC 1
 62
   179
420
  2234388
370
     9
100
AcDbVertex
100
AcDb2dVertex
 10
80.72874738488251
 20
-121.5734663584955
 30
0.0
  0
SEQEND
  5
C9
330
C6
100
AcDbEntity
  8
_U+30EC_U+30A4_U+30E4_U+30FC 1
 62
   179
420
  2234388
370
     9
  0
POLYLINE
  5
CA
330
1F
100
AcDbEntity
  8
_U+30EC_U+30A4_U+30E4_U+30FC 1
 62
   179
420
  2234388
370
     9
100
AcDb2dPolyline
 66
     1
 10
0.0
 20
0.0
 30
0.0
  0
VERTEX
  5
CB
330
CA
100
AcDbEntity
  8
_U+30EC_U+30A4_U+30E4_U+30FC 1
 62
   179
420
  2234388
370
     9
100
AcDbVertex
100
AcDb2dVertex
 10
103.2288429219684
 20
-122.6803771915521
 30
0.0
  0
VERTEX
  5
CC
330
CA
100
AcDbEntity
  8
_U+30EC_U+30A4_U+30E4_U+30FC 1
 62
   179
420
  2234388
370
     9
100
AcDbVertex
100
AcDb2dVertex
 10
103.2288429219684
 20
-121.5734663584955
 30
0.0
  0
SEQEND
  5
CD
330
CA
100
AcDbEntity
  8
_U+30EC_U+30A4_U+30E4_U+30FC 1
 62
   179
420
  2234388
370
     9
  0
INSERT
  5
CF
330
1F
100
AcDbEntity
  8
_U+30EC_U+30A4_U+30E4_U+30FC 1
100
AcDbBlockReference
  2
block 5
 10
0.0
 20
0.0
 30
0.0
  0
POLYLINE
  5
D7
330
1F
100
AcDbEntity
  8
_U+30EC_U+30A4_U+30E4_U+30FC 1
 62
   179
420
  2234388
370
     9
100
AcDb2dPolyline
 66
     1
 10
0.0
 20
0.0
 30
0.0
  0
VERTEX
  5
D8
330
D7
100
AcDbEntity
  8
_U+30EC_U+30A4_U+30E4_U+30FC 1
 62
   179
420
  2234388
370
     9
100
AcDbVertex
100
AcDb2dVertex
 10
80.72874738488251
 20
-139.6214363539835
 30
0.0
  0
VERTEX
  5
D9
330
D7
100
AcDbEntity
  8
_U+30EC_U+30A4_U+30E4_U+30FC 1
 62
   179
420
  2234388
370
     9
100
AcDbVertex
100
AcDb2dVertex
 10
91.9788657089792
 20
-139.6214363539835
 30
0.0
  0
SEQEND
  5
DA
330
D7
100
AcDbEntity
  8
_U+30EC_U+30A4_U+30E4_U+30FC 1
 62
   179
420
  2234388
370
     9
  0
POLYLINE
  5
DB
330
1F
100
AcDbEntity
  8
_U+30EC_U+30A4_U+30E4_U+30FC 1
 62
   179
420
  2234388
370
     9
100
AcDb2dPolyline
 66
     1
 10
0.0
 20
0.0
 30
0.0
  0
VERTEX
  5
DC
330
DB
100
AcDbEntity
  8
_U+30EC_U+30A4_U+30E4_U+30FC 1
 62
   179
420
  2234388
370
     9
100
AcDbVertex
100
AcDb2dVertex
 10
80.72874738488251
 20
-138.9641407985923
 30
0.0
  0
VERTEX
  5
DD
330
DB
100
AcDbEntity
  8
_U+30EC_U+30A4_U+30E4_U+30FC 1
 62
   179
420
  2234388
370
     9
100
AcDbVertex
100
AcDb2dVertex
 10
80.72874738488251
 20
-140.0713691316489
 30
0.0
  0
SEQEND
  5
DE
330
DB
100
AcDbEntity
  8
_U+30EC_U+30A4_U+30E4_U+30FC 1
 62
   179
420
  2234388
370
     9
  0
POLYLINE
  5
DF
330
1F
100
AcDbEntity
  8
_U+30EC_U+30A4_U+30E4_U+30FC 1
 62
   179
420
  2234388
370
     9
100
AcDb2dPolyline
 66
     1
 10
0.0
 20
0.0
 30
0.0
  0
VERTEX
  5
E0
330
DF
100
AcDbEntity
  8
_U+30EC_U+30A4_U+30E4_U+30FC 1
 62
   179
420
  2234388
370
     9
100
AcDbVertex
100
AcDb2dVertex
 10
91.9788657089792
 20
-138.9641407985923
 30
0.0
  0
VERTEX
  5
E1
330
DF
100
AcDbEntity
  8
_U+30EC_U+30A4_U+30E4_U+30FC 1
 62
   179
420
  2234388
370
     9
100
AcDbVertex
100
AcDb2dVertex
 10
91.9788657089792
 20
-140.0713691316489
 30
0.0
  0
SEQEND
  5
E2
330
DF
100
AcDbEntity
  8
_U+30EC_U+30A4_U+30E4_U+30FC 1
 62
   179
420
  2234388
370
     9
  0
INSERT
  5
E4
330
1F
100
AcDbEntity
  8
_U+30EC_U+30A4_U+30E4_U+30FC 1
100
AcDbBlockReference
  2
block 6
 10
0.0
 20
0.0
 30
0.0
  0
SPLINE
  5
EB
330
1F
100
AcDbEntity
  8
_U+30EC_U+30A4_U+30E4_U+30FC 1
 62
   179
420
  2234388
370
     9
100
AcDbSpline
210
0.0
220
0.0
230
1.0
 70
    11
 71
     3
 72
    17
 73
    13
 74
     0
 42
0.0000000001
 43
0.0000000001
 12
1.0
 22
0.0
 32
0.0
 13
1.0
 23
0.0
 33
0.0
 40
0.0
 40
0.0
 40
0.0
 40
0.0
 40
1.0
 40
1.0
 40
1.0
 40
2.0
 40
2.0
 40
2.0
 40
3.0
 40
3.0
 40
3.0
 40
4.0
 40
4.0
 40
4.0
 40
4.0
 10
90.68180768651435
 20
-133.2900630222328
 30
0.0
 10
90.68180768651435
 20
-133.2652627444614
 30
0.0
 10
90.66166407591714
 20
-133.2445899666887
 30
0.0
 10
90.63668740988768
 20
-133.2445899666887
 30
0.0
 10
90.61185185496574
 20
-133.2445899666887
 30
0.0
 10
90.59188463325292
 20
-133.2652627444614
 30
0.0
 10
90.59188463325292
 20
-133.2900630222328
 30
0.0
 10
90.59188463325292
 20
-133.3148633000048
 30
0.0
 10
90.61185185496574
 20
-133.334830522222
 30
0.0
 10
90.63668740988768
 20
-133.334830522222
 30
0.0
 10
90.66166407591714
 20
-133.334830522222
 30
0.0
 10
90.68180768651435
 20
-133.3148633000048
 30
0.0
 10
90.68180768651435
 20
-133.2900630222328
 30
0.0
  0
SPLINE
  5
EC
330
1F
100
AcDbEntity
  8
_U+30EC_U+30A4_U+30E4_U+30FC 1
 62
   179
420
  2234388
370
     9
100
AcDbSpline
210
0.0
220
0.0
230
1.0
 70
    11
 71
     3
 72
    17
 73
    13
 74
     0
 42
0.0000000001
 43
0.0000000001
 12
1.0
 22
0.0
 32
0.0
 13
1.0
 23
0.0
 33
0.0
 40
0.0
 40
0.0
 40
0.0
 40
0.0
 40
1.0
 40
1.0
 40
1.0
 40
2.0
 40
2.0
 40
2.0
 40
3.0
 40
3.0
 40
3.0
 40
4.0
 40
4.0
 40
4.0
 40
4.0
 10
92.02402126338274
 20
-133.2900630222328
 30
0.0
 10
92.02402126338274
 20
-133.2652627444614
 30
0.0
 10
92.00370126390115
 20
-133.2445899666887
 30
0.0
 10
91.9788657089792
 20
-133.2445899666887
 30
0.0
 10
91.95406543183412
 20
-133.2445899666887
 30
0.0
 10
91.93374543235254
 20
-133.2652627444614
 30
0.0
 10
91.93374543235254
 20
-133.2900630222328
 30
0.0
 10
91.93374543235254
 20
-133.3148633000048
 30
0.0
 10
91.95406543183412
 20
-133.334830522222
 30
0.0
 10
91.9788657089792
 20
-133.334830522222
 30
0.0
 10
92.00370126390115
 20
-133.334830522222
 30
0.0
 10
92.02402126338274
 20
-133.3148633000048
 30
0.0
 10
92.02402126338274
 20
-133.2900630222328
 30
0.0
  0
POLYLINE
  5
ED
330
1F
100
AcDbEntity
  8
_U+30EC_U+30A4_U+30E4_U+30FC 1
 62
   179
420
  2234388
370
     9
100
AcDb2dPolyline
 66
     1
 10
0.0
 20
0.0
 30
0.0
  0
VERTEX
  5
EE
330
ED
100
AcDbEntity
  8
_U+30EC_U+30A4_U+30E4_U+30FC 1
 62
   179
420
  2234388
370
     9
100
AcDbVertex
100
AcDb2dVertex
 10
90.63668740988768
 20
-133.2900630222328
 30
0.0
  0
VERTEX
  5
EF
330
ED
100
AcDbEntity
  8
_U+30EC_U+30A4_U+30E4_U+30FC 1
 62
   179
420
  2234388
370
     9
100
AcDbVertex
100
AcDb2dVertex
 10
91.9788657089792
 20
-133.2900630222328
 30
0.0
  0
SEQEND
  5
F0
330
ED
100
AcDbEntity
  8
_U+30EC_U+30A4_U+30E4_U+30FC 1
 62
   179
420
  2234388
370
     9
  0
POLYLINE
  5
F1
330
1F
100
AcDbEntity
  8
_U+30EC_U+30A4_U+30E4_U+30FC 1
 62
   179
420
  2234388
370
     9
100
AcDb2dPolyline
 66
     1
 10
0.0
 20
0.0
 30
0.0
  0
VERTEX
  5
F2
330
F1
100
AcDbEntity
  8
_U+30EC_U+30A4_U+30E4_U+30FC 1
 62
   179
420
  2234388
370
     9
100
AcDbVertex
100
AcDb2dVertex
 10
90.63668740988768
 20
-132.6327321890641
 30
0.0
  0
VERTEX
  5
F3
330
F1
100
AcDbEntity
  8
_U+30EC_U+30A4_U+30E4_U+30FC 1
 62
   179
420
  2234388
370
     9
100
AcDbVertex
100
AcDb2dVertex
 10
90.63668740988768
 20
-133.7399957998982
 30
0.0
  0
SEQEND
  5
F4
330
F1
100
AcDbEntity
  8
_U+30EC_U+30A4_U+30E4_U+30FC 1
 62
   179
420
  2234388
370
     9
  0
POLYLINE
  5
F5
330
1F
100
AcDbEntity
  8
_U+30EC_U+30A4_U+30E4_U+30FC 1
 62
   179
420
  2234388
370
     9
100
AcDb2dPolyline
 66
     1
 10
0.0
 20
0.0
 30
0.0
  0
VERTEX
  5
F6
330
F5
100
AcDbEntity
  8
_U+30EC_U+30A4_U+30E4_U+30FC 1
 62
   179
420
  2234388
370
     9
100
AcDbVertex
100
AcDb2dVertex
 10
91.9788657089792
 20
-132.6327321890641
 30
0.0
  0
VERTEX
  5
F7
330
F5
100
AcDbEntity
  8
_U+30EC_U+30A4_U+30E4_U+30FC 1
 62
   179
420
  2234388
370
     9
100
AcDbVertex
100
AcDb2dVertex
 10
91.9788657089792
 20
-133.7399957998982
 30
0.0
  0
SEQEND
  5
F8
330
F5
100
AcDbEntity
  8
_U+30EC_U+30A4_U+30E4_U+30FC 1
 62
   179
420
  2234388
370
     9
  0
INSERT
  5
FA
330
1F
100
AcDbEntity
  8
_U+30EC_U+30A4_U+30E4_U+30FC 1
100
AcDbBlockReference
  2
block 7
 10
0.0
 20
0.0
 30
0.0
  0
POLYLINE
  5
FF
330
1F
100
AcDbEntity
  8
_U+30EC_U+30A4_U+30E4_U+30FC 1
 62
   179
420
  2234388
370
     9
100
AcDb2dPolyline
 66
     1
 10
0.0
 20
0.0
 30
0.0
  0
VERTEX
  5
100
330
FF
100
AcDbEntity
  8
_U+30EC_U+30A4_U+30E4_U+30FC 1
 62
   179
420
  2234388
370
     9
100
AcDbVertex
100
AcDb2dVertex
 10
78.92887520857886
 20
-123.823447746822
 30
0.0
  0
VERTEX
  5
101
330
FF
100
AcDbEntity
  8
_U+30EC_U+30A4_U+30E4_U+30FC 1
 62
   179
420
  2234388
370
     9
100
AcDbVertex
100
AcDb2dVertex
 10
78.92887520857886
 20
-137.2333071879137
 30
0.0
  0
SEQEND
  5
102
330
FF
100
AcDbEntity
  8
_U+30EC_U+30A4_U+30E4_U+30FC 1
 62
   179
420
  2234388
370
     9
  0
POLYLINE
  5
103
330
1F
100
AcDbEntity
  8
_U+30EC_U+30A4_U+30E4_U+30FC 1
 62
   179
420
  2234388
370
     9
100
AcDb2dPolyline
 66
     1
 10
0.0
 20
0.0
 30
0.0
  0
VERTEX
  5
104
330
103
100
AcDbEntity
  8
_U+30EC_U+30A4_U+30E4_U+30FC 1
 62
   179
420
  2234388
370
     9
100
AcDbVertex
100
AcDb2dVertex
 10
79.5858532473735
 20
-123.823447746822
 30
0.0
  0
VERTEX
  5
105
330
103
100
AcDbEntity
  8
_U+30EC_U+30A4_U+30E4_U+30FC 1
 62
   179
420
  2234388
370
     9
100
AcDbVertex
100
AcDb2dVertex
 10
78.47894442482472
 20
-123.823447746822
 30
0.0
  0
SEQEND
  5
106
330
103
100
AcDbEntity
  8
_U+30EC_U+30A4_U+30E4_U+30FC 1
 62
   179
420
  2234388
370
     9
  0
POLYLINE
  5
107
330
1F
100
AcDbEntity
  8
_U+30EC_U+30A4_U+30E4_U+30FC 1
 62
   179
420
  2234388
370
     9
100
AcDb2dPolyline
 66
     1
 10
0.0
 20
0.0
 30
0.0
  0
VERTEX
  5
108
330
107
100
AcDbEntity
  8
_U+30EC_U+30A4_U+30E4_U+30FC 1
 62
   179
420
  2234388
370
     9
100
AcDbVertex
100
AcDb2dVertex
 10
79.5858532473735
 20
-137.2333071879137
 30
0.0
  0
VERTEX
  5
109
330
107
100
AcDbEntity
  8
_U+30EC_U+30A4_U+30E4_U+30FC 1
 62
   179
420
  2234388
370
     9
100
AcDbVertex
100
AcDb2dVertex
 10
78.47894442482472
 20
-137.2333071879137
 30
0.0
  0
SEQEND
  5
10A
330
107
100
AcDbEntity
  8
_U+30EC_U+30A4_U+30E4_U+30FC 1
 62
   179
420
  2234388
370
     9
  0
INSERT
  5
10C
330
1F
100
AcDbEntity
  8
_U+30EC_U+30A4_U+30E4_U+30FC 1
100
AcDbBlockReference
  2
block 8
 10
0.0
 20
0.0
 30
0.0
  0
ENDSEC
  0
SECTION
  2
OBJECTS
  0
DICTIONARY
  5
C
330
0
100
AcDbDictionary
281
     1
  3
ACAD_GROUP
350
D
  3
ACAD_LAYOUT
350
1A
  3
ACAD_MATERIAL
350
3B
  3
ACAD_MLEADERSTYLE
350
121
  3
ACAD_MLINESTYLE
350
17
  3
ACAD_PLOTSETTINGS
350
19
  3
ACAD_PLOTSTYLENAME
350
E
  3
ACAD_TABLESTYLE
350
120
  3
ACAD_VISUALSTYLE
350
2A
  0
SUN
  5
3F
330
29
100
AcDbSun
 90
        1
290
     0
 63
     7
421
 16777215
 40
1.0
291
     1
 91
  2455826
 92
 54000000
292
     0
 70
     2
 71
   256
280
     1
  0
DICTIONARY
  5
D
102
{ACAD_REACTORS
330
C
102
}
330
C
100
AcDbDictionary
281
     1
  0
DICTIONARY
  5
1A
102
{ACAD_REACTORS
330
C
102
}
330
C
100
AcDbDictionary
281
     1
  3
Layout1
350
1E
  3
Layout2
350
26
  3
Model
350
22
  0
DICTIONARY
  5
3B
102
{ACAD_REACTORS
330
C
102
}
330
C
100
AcDbDictionary
281
     1
  3
ByBlock
350
3D
  3
ByLayer
350
3C
  3
Global
350
3E
  0
DICTIONARY
  5
121
102
{ACAD_REACTORS
330
C
102
}
330
C
100
AcDbDictionary
281
     1
  0
DICTIONARY
  5
17
102
{ACAD_REACTORS
330
C
102
}
330
C
100
AcDbDictionary
281
     1
  3
Standard
350
18
  0
DICTIONARY
  5
19
102
{ACAD_REACTORS
330
C
102
}
330
C
100
AcDbDictionary
281
     1
  0
ACDBDICTIONARYWDFLT
  5
E
102
{ACAD_REACTORS
330
C
102
}
330
C
100
AcDbDictionary
281
     1
  3
Normal
350
F
100
AcDbDictionaryWithDefault
340
F
  0
DICTIONARY
  5
120
102
{ACAD_REACTORS
330
C
102
}
330
C
100
AcDbDictionary
281
     1
  0
DICTIONARY
  5
2A
102
{ACAD_REACTORS
330
C
102
}
330
C
100
AcDbDictionary
281
     1
  3
2dWireframe
350
2F
  3
3D Hidden
350
31
  3
3dWireframe
350
30
  3
Basic
350
32
  3
Brighten
350
36
  3
ColorChange
350
3A
  3
Conceptual
350
34
  3
Dim
350
35
  3
Facepattern
350
39
  3
Flat
350
2B
  3
FlatWithEdges
350
2C
  3
Gouraud
350
2D
  3
GouraudWithEdges
350
2E
  3
Linepattern
350
38
  3
Realistic
350
33
  3
Thicken
350
37
  0
LAYOUT
  5
1E
102
{ACAD_REACTORS
330
1A
102
}
330
1A
100
AcDbPlotSettings
  1

  2
none_device
  4

  6

 40
0.0
 41
0.0
 42
0.0
 43
0.0
 44
0.0
 45
0.0
 46
0.0
 47
0.0
 48
0.0
 49
0.0
140
0.0
141
0.0
142
1.0
143
1.0
 70
   688
 72
     0
 73
     0
 74
     5
  7

 75
    16
 76
     0
 77
     2
 78
   300
147
1.0
148
0.0
149
0.0
100
AcDbLayout
  1
Layout1
 70
     1
 71
     1
 10
0.0
 20
0.0
 11
12.0
 21
9.0
 12
0.0
 22
0.0
 32
0.0
 14
1.000000000000000E+20
 24
1.000000000000000E+20
 34
1.000000000000000E+20
 15
-1.000000000000000E+20
 25
-1.000000000000000E+20
 35
-1.000000000000000E+20
146
0.0
 13
0.0
 23
0.0
 33
0.0
 16
1.0
 26
0.0
 36
0.0
 17
0.0
 27
1.0
 37
0.0
 76
     0
330
1B
  0
LAYOUT
  5
26
102
{ACAD_REACTORS
330
1A
102
}
330
1A
100
AcDbPlotSettings
  1

  2
none_device
  4

  6

 40
0.0
 41
0.0
 42
0.0
 43
0.0
 44
0.0
 45
0.0
 46
0.0
 47
0.0
 48
0.0
 49
0.0
140
0.0
141
0.0
142
1.0
143
1.0
 70
   688
 72
     0
 73
     0
 74
     5
  7

 75
    16
 76
     0
 77
     2
 78
   300
147
1.0
148
0.0
149
0.0
100
AcDbLayout
  1
Layout2
 70
     1
 71
     2
 10
0.0
 20
0.0
 11
0.0
 21
0.0
 12
0.0
 22
0.0
 32
0.0
 14
0.0
 24
0.0
 34
0.0
 15
0.0
 25
0.0
 35
0.0
146
0.0
 13
0.0
 23
0.0
 33
0.0
 16
1.0
 26
0.0
 36
0.0
 17
0.0
 27
1.0
 37
0.0
 76
     0
330
23
  0
LAYOUT
  5
22
102
{ACAD_REACTORS
330
1A
102
}
330
1A
100
AcDbPlotSettings
  1

  2
none_device
  4

  6

 40
0.0
 41
0.0
 42
0.0
 43
0.0
 44
0.0
 45
0.0
 46
0.0
 47
0.0
 48
0.0
 49
0.0
140
0.0
141
0.0
142
1.0
143
1.0
 70
  1712
 72
     0
 73
     0
 74
     0
  7

 75
     0
 76
     0
 77
     2
 78
   300
147
1.0
148
0.0
149
0.0
100
AcDbLayout
  1
Model
 70
     1
 71
     0
 10
0.0
 20
0.0
 11
12.0
 21
9.0
 12
0.0
 22
0.0
 32
0.0
 14
1.000000000000000E+20
 24
1.000000000000000E+20
 34
1.000000000000000E+20
 15
-1.000000000000000E+20
 25
-1.000000000000000E+20
 35
-1.000000000000000E+20
146
0.0
 13
0.0
 23
0.0
 33
0.0
 16
1.0
 26
0.0
 36
0.0
 17
0.0
 27
1.0
 37
0.0
 76
     0
330
1F
331
29
  0
MATERIAL
  5
3D
102
{ACAD_REACTORS
330
3B
102
}
330
3B
100
AcDbMaterial
  1
ByBlock
 72
     1
 94
      127
  0
MATERIAL
  5
3C
102
{ACAD_REACTORS
330
3B
102
}
330
3B
100
AcDbMaterial
  1
ByLayer
 72
     1
 94
      127
  0
MATERIAL
  5
3E
102
{ACAD_REACTORS
330
3B
102
}
330
3B
100
AcDbMaterial
  1
Global
 72
     1
 94
      127
  0
MLINESTYLE
  5
18
102
{ACAD_REACTORS
330
17
102
}
330
17
100
AcDbMlineStyle
  2
Standard
 70
     0
  3

 62
   256
 51
90.0
 52
90.0
 71
     2
 49
0.5
 62
   256
  6
BYLAYER
 49
-0.5
 62
   256
  6
BYLAYER
  0
ACDBPLACEHOLDER
  5
F
102
{ACAD_REACTORS
330
E
102
}
330
E
  0
VISUALSTYLE
  5
2F
102
{ACAD_REACTORS
330
2A
102
}
330
2A
100
AcDbVisualStyle
  2
2dWireframe
 70
     4
177
     2
291
     0
 71
     0
176
     1
 72
     2
176
     1
 73
     0
176
     1
 90
        0
176
     1
 40
-0.6
176
     1
 41
-30.0
176
     1
 62
     5
 63
     7
421
 16777215
176
     1
 74
     1
176
     1
 91
        4
176
     1
 64
     7
176
     1
 65
   257
176
     1
 75
     1
176
     1
175
     1
176
     1
 42
1.0
176
     1
 92
        0
176
     1
 66
   257
176
     1
 43
1.0
176
     1
 76
     1
176
     1
 77
     6
176
     1
 78
     2
176
     1
 67
     7
176
     1
 79
     5
176
     1
170
     0
176
     1
171
     0
176
     1
290
     0
176
     1
 93
        1
176
     1
 44
0.0
176
     1
173
     0
176
     1
  0
VISUALSTYLE
  5
31
102
{ACAD_REACTORS
330
2A
102
}
330
2A
100
AcDbVisualStyle
  2
3D Hidden
 70
     6
177
     2
291
     0
 71
     1
176
     1
 72
     2
176
     1
 73
     2
176
     1
 90
        0
176
     1
 40
-0.6
176
     1
 41
-30.0
176
     1
 62
     5
 63
     7
421
 16777215
176
     1
 74
     2
176
     1
 91
        2
176
     1
 64
     7
176
     1
 65
   257
176
     1
 75
     2
176
     1
175
     1
176
     1
 42
40.0
176
     1
 92
        0
176
     1
 66
   257
176
     1
 43
1.0
176
     1
 76
     1
176
     1
 77
     6
176
     1
 78
     2
176
     1
 67
     7
176
     1
 79
     3
176
     1
170
     0
176
     1
171
     0
176
     1
290
     0
176
     1
 93
        1
176
     1
 44
0.0
176
     1
173
     0
176
     1
  0
VISUALSTYLE
  5
30
102
{ACAD_REACTORS
330
2A
102
}
330
2A
100
AcDbVisualStyle
  2
3dWireframe
 70
     5
177
     2
291
     0
 71
     0
176
     1
 72
     2
176
     1
 73
     0
176
     1
 90
        0
176
     1
 40
-0.6
176
     1
 41
-30.0
176
     1
 62
     5
 63
     7
421
 16777215
176
     1
 74
     1
176
     1
 91
        4
176
     1
 64
     7
176
     1
 65
   257
176
     1
 75
     1
176
     1
175
     1
176
     1
 42
1.0
176
     1
 92
        0
176
     1
 66
   257
176
     1
 43
1.0
176
     1
 76
     1
176
     1
 77
     6
176
     1
 78
     2
176
     1
 67
     7
176
     1
 79
     5
176
     1
170
     0
176
     1
171
     0
176
     1
290
     0
176
     1
 93
        1
176
     1
 44
0.0
176
     1
173
     0
176
     1
  0
VISUALSTYLE
  5
32
102
{ACAD_REACTORS
330
2A
102
}
330
2A
100
AcDbVisualStyle
  2
Basic
 70
     7
177
     2
291
     1
 71
     1
176
     1
 72
     0
176
     1
 73
     1
176
     1
 90
        0
176
     1
 40
-0.6
176
     1
 41
-30.0
176
     1
 62
     5
 63
     7
421
 16777215
176
     1
 74
     0
176
     1
 91
        4
176
     1
 64
     7
176
     1
 65
   257
176
     1
 75
     1
176
     1
175
     1
176
     1
 42
1.0
176
     1
 92
        8
176
     1
 66
     7
176
     1
 43
1.0
176
     1
 76
     1
176
     1
 77
     6
176
     1
 78
     2
176
     1
 67
     7
176
     1
 79
     5
176
     1
170
     0
176
     1
171
     0
176
     1
290
     0
176
     1
 93
        1
176
     1
 44
0.0
176
     1
173
     0
176
     1
  0
VISUALSTYLE
  5
36
102
{ACAD_REACTORS
330
2A
102
}
330
2A
100
AcDbVisualStyle
  2
Brighten
 70
    12
177
     2
291
     1
 71
     2
176
     1
 72
     2
176
     1
 73
     0
176
     1
 90
        0
176
     1
 40
-0.6
176
     1
 41
-30.0
176
     1
 62
     5
 63
     7
421
 16777215
176
     1
 74
     1
176
     1
 91
        4
176
     1
 64
     7
176
     1
 65
   257
176
     1
 75
     1
176
     1
175
     1
176
     1
 42
1.0
176
     1
 92
        8
176
     1
 66
     7
176
     1
 43
1.0
176
     1
 76
     1
176
     1
 77
     6
176
     1
 78
     2
176
     1
 67
     7
176
     1
 79
     5
176
     1
170
     0
176
     1
171
     0
176
     1
290
     0
176
     1
 93
        1
176
     1
 44
50.0
176
     1
173
     0
176
     1
  0
VISUALSTYLE
  5
3A
102
{ACAD_REACTORS
330
2A
102
}
330
2A
100
AcDbVisualStyle
  2
ColorChange
 70
    16
177
     2
291
     1
 71
     2
176
     1
 72
     2
176
     1
 73
     3
176
     1
 90
        0
176
     1
 40
-0.6
176
     1
 41
-30.0
176
     1
 62
     5
 63
     8
421
  8421504
176
     1
 74
     1
176
     1
 91
        4
176
     1
 64
     7
176
     1
 65
   257
176
     1
 75
     1
176
     1
175
     1
176
     1
 42
1.0
176
     1
 92
        8
176
     1
 66
     8
424
  8421504
176
     1
 43
1.0
176
     1
 76
     1
176
     1
 77
     6
176
     1
 78
     2
176
     1
 67
     7
176
     1
 79
     5
176
     1
170
     0
176
     1
171
     0
176
     1
290
     0
176
     1
 93
        1
176
     1
 44
0.0
176
     1
173
     0
176
     1
  0
VISUALSTYLE
  5
34
102
{ACAD_REACTORS
330
2A
102
}
330
2A
100
AcDbVisualStyle
  2
Conceptual
 70
     9
177
     2
291
     0
 71
     3
176
     1
 72
     2
176
     1
 73
     0
176
     1
 90
        0
176
     1
 40
-0.6
176
     1
 41
-30.0
176
     1
 62
     5
 63
     7
421
 16777215
176
     1
 74
     2
176
     1
 91
        2
176
     1
 64
     7
176
     1
 65
   257
176
     1
 75
     1
176
     1
175
     1
176
     1
 42
40.0
176
     1
 92
        8
176
     1
 66
     7
176
     1
 43
1.0
176
     1
 76
     1
176
     1
 77
     6
176
     1
 78
     2
176
     1
 67
     7
176
     1
 79
     3
176
     1
170
     0
176
     1
171
     0
176
     1
290
     0
176
     1
 93
        1
176
     1
 44
0.0
176
     1
173
     0
176
     1
  0
VISUALSTYLE
  5
35
102
{ACAD_REACTORS
330
2A
102
}
330
2A
100
AcDbVisualStyle
  2
Dim
 70
    11
177
     2
291
     1
 71
     2
176
     1
 72
     2
176
     1
 73
     0
176
     1
 90
        0
176
     1
 40
-0.6
176
     1
 41
-30.0
176
     1
 62
     5
 63
     7
421
 16777215
176
     1
 74
     1
176
     1
 91
        4
176
     1
 64
     7
176
     1
 65
   257
176
     1
 75
     1
176
     1
175
     1
176
     1
 42
1.0
176
     1
 92
        8
176
     1
 66
     7
176
     1
 43
1.0
176
     1
 76
     1
176
     1
 77
     6
176
     1
 78
     2
176
     1
 67
     7
176
     1
 79
     5
176
     1
170
     0
176
     1
171
     0
176
     1
290
     0
176
     1
 93
        1
176
     1
 44
-50.0
176
     1
173
     0
176
     1
  0
VISUALSTYLE
  5
39
102
{ACAD_REACTORS
330
2A
102
}
330
2A
100
AcDbVisualStyle
  2
Facepattern
 70
    15
177
     2
291
     1
 71
     2
176
     1
 72
     2
176
     1
 73
     0
176
     1
 90
        0
176
     1
 40
-0.6
176
     1
 41
-30.0
176
     1
 62
     5
 63
     7
421
 16777215
176
     1
 74
     1
176
     1
 91
        4
176
     1
 64
     7
176
     1
 65
   257
176
     1
 75
     1
176
     1
175
     1
176
     1
 42
1.0
176
     1
 92
        8
176
     1
 66
     7
176
     1
 43
1.0
176
     1
 76
     1
176
     1
 77
     6
176
     1
 78
     2
176
     1
 67
     7
176
     1
 79
     5
176
     1
170
     0
176
     1
171
     0
176
     1
290
     0
176
     1
 93
        1
176
     1
 44
0.0
176
     1
173
     0
176
     1
  0
VISUALSTYLE
  5
2B
102
{ACAD_REACTORS
330
2A
102
}
330
2A
100
AcDbVisualStyle
  2
Flat
 70
     0
177
     2
291
     1
 71
     2
176
     1
 72
     1
176
     1
 73
     1
176
     1
 90
        2
176
     1
 40
-0.6
176
     1
 41
30.0
176
     1
 62
     5
 63
     7
421
 16777215
176
     1
 74
     0
176
     1
 91
        4
176
     1
 64
     7
176
     1
 65
   257
176
     1
 75
     1
176
     1
175
     1
176
     1
 42
1.0
176
     1
 92
        8
176
     1
 66
     7
176
     1
 43
1.0
176
     1
 76
     1
176
     1
 77
     6
176
     1
 78
     2
176
     1
 67
     7
176
     1
 79
     5
176
     1
170
     0
176
     1
171
     0
176
     1
290
     0
176
     1
 93
       13
176
     1
 44
0.0
176
     1
173
     0
176
     1
  0
VISUALSTYLE
  5
2C
102
{ACAD_REACTORS
330
2A
102
}
330
2A
100
AcDbVisualStyle
  2
FlatWithEdges
 70
     1
177
     2
291
     1
 71
     2
176
     1
 72
     1
176
     1
 73
     1
176
     1
 90
        2
176
     1
 40
-0.6
176
     1
 41
30.0
176
     1
 62
     5
 63
     7
421
 16777215
176
     1
 74
     1
176
     1
 91
        4
176
     1
 64
     7
176
     1
 65
   257
176
     1
 75
     1
176
     1
175
     1
176
     1
 42
1.0
176
     1
 92
        0
176
     1
 66
   257
176
     1
 43
1.0
176
     1
 76
     1
176
     1
 77
     6
176
     1
 78
     2
176
     1
 67
     7
176
     1
 79
     5
176
     1
170
     0
176
     1
171
     0
176
     1
290
     0
176
     1
 93
       13
176
     1
 44
0.0
176
     1
173
     0
176
     1
  0
VISUALSTYLE
  5
2D
102
{ACAD_REACTORS
330
2A
102
}
330
2A
100
AcDbVisualStyle
  2
Gouraud
 70
     2
177
     2
291
     1
 71
     2
176
     1
 72
     2
176
     1
 73
     1
176
     1
 90
        2
176
     1
 40
-0.6
176
     1
 41
30.0
176
     1
 62
     5
 63
     7
421
 16777215
176
     1
 74
     0
176
     1
 91
        4
176
     1
 64
     7
176
     1
 65
   257
176
     1
 75
     1
176
     1
175
     1
176
     1
 42
1.0
176
     1
 92
        0
176
     1
 66
     7
176
     1
 43
1.0
176
     1
 76
     1
176
     1
 77
     6
176
     1
 78
     2
176
     1
 67
     7
176
     1
 79
     5
176
     1
170
     0
176
     1
171
     0
176
     1
290
     0
176
     1
 93
       13
176
     1
 44
0.0
176
     1
173
     0
176
     1
  0
VISUALSTYLE
  5
2E
102
{ACAD_REACTORS
330
2A
102
}
330
2A
100
AcDbVisualStyle
  2
GouraudWithEdges
 70
     3
177
     2
291
     1
 71
     2
176
     1
 72
     2
176
     1
 73
     1
176
     1
 90
        2
176
     1
 40
-0.6
176
     1
 41
30.0
176
     1
 62
     5
 63
     7
421
 16777215
176
     1
 74
     1
176
     1
 91
        4
176
     1
 64
     7
176
     1
 65
   257
176
     1
 75
     1
176
     1
175
     1
176
     1
 42
1.0
176
     1
 92
        0
176
     1
 66
   257
176
     1
 43
1.0
176
     1
 76
     1
176
     1
 77
     6
176
     1
 78
     2
176
     1
 67
     7
176
     1
 79
     5
176
     1
170
     0
176
     1
171
     0
176
     1
290
     0
176
     1
 93
       13
176
     1
 44
0.0
176
     1
173
     0
176
     1
  0
VISUALSTYLE
  5
38
102
{ACAD_REACTORS
330
2A
102
}
330
2A
100
AcDbVisualStyle
  2
Linepattern
 70
    14
177
     2
291
     1
 71
     2
176
     1
 72
     2
176
     1
 73
     0
176
     1
 90
        0
176
     1
 40
-0.6
176
     1
 41
-30.0
176
     1
 62
     5
 63
     7
421
 16777215
176
     1
 74
     1
176
     1
 91
        4
176
     1
 64
     7
176
     1
 65
   257
176
     1
 75
     7
176
     1
175
     7
176
     1
 42
1.0
176
     1
 92
        8
176
     1
 66
     7
176
     1
 43
1.0
176
     1
 76
     1
176
     1
 77
     6
176
     1
 78
     2
176
     1
 67
     7
176
     1
 79
     5
176
     1
170
     0
176
     1
171
     0
176
     1
290
     0
176
     1
 93
        1
176
     1
 44
0.0
176
     1
173
     0
176
     1
  0
VISUALSTYLE
  5
33
102
{ACAD_REACTORS
330
2A
102
}
330
2A
100
AcDbVisualStyle
  2
Realistic
 70
     8
177
     2
291
     0
 71
     2
176
     1
 72
     2
176
     1
 73
     0
176
     1
 90
        0
176
     1
 40
-0.6
176
     1
 41
-30.0
176
     1
 62
     5
 63
     7
421
 16777215
176
     1
 74
     1
176
     1
 91
        0
176
     1
 64
     7
176
     1
 65
   257
176
     1
 75
     1
176
     1
175
     1
176
     1
 42
1.0
176
     1
 92
        8
176
     1
 66
     8
424
  7895160
176
     1
 43
1.0
176
     1
 76
     1
176
     1
 77
     6
176
     1
 78
     2
176
     1
 67
     7
176
     1
 79
     5
176
     1
170
     0
176
     1
171
     0
176
     1
290
     0
176
     1
 93
       13
176
     1
 44
0.0
176
     1
173
     0
176
     1
  0
VISUALSTYLE
  5
37
102
{ACAD_REACTORS
330
2A
102
}
330
2A
100
AcDbVisualStyle
  2
Thicken
 70
    13
177
     2
291
     1
 71
     2
176
     1
 72
     2
176
     1
 73
     0
176
     1
 90
        0
176
     1
 40
-0.6
176
     1
 41
-30.0
176
     1
 62
     5
 63
     7
421
 16777215
176
     1
 74
     1
176
     1
 91
        4
176
     1
 64
     7
176
     1
 65
   257
176
     1
 75
     1
176
     1
175
     1
176
     1
 42
1.0
176
     1
 92
       12
176
     1
 66
     7
176
     1
 43
1.0
176
     1
 76
     1
176
     1
 77
     6
176
     1
 78
     2
176
     1
 67
     7
176
     1
 79
     5
176
     1
170
     0
176
     1
171
     0
176
     1
290
     0
176
     1
 93
        1
176
     1
 44
0.0
176
     1
173
     0
176
     1
  0
ENDSEC
  0
EOF
