  0
SECTION
  2
HEADER
  9
$ACADVER
  1
AC1024
  9
$ACADMAINTVER
 70
     6
  9
$DWGCODEPAGE
  3
UNDEFINED
  9
$INSBASE
 10
0.0
 20
0.0
 30
0.0
  9
$EXTMIN
 10
1.000000000000000E+20
 20
1.000000000000000E+20
 30
1.000000000000000E+20
  9
$EXTMAX
 10
-1.000000000000000E+20
 20
-1.000000000000000E+20
 30
-1.000000000000000E+20
  9
$LIMMIN
 10
0.0
 20
0.0
  9
$LIMMAX
 10
12.0
 20
9.0
  9
$ORTHOMODE
 70
     0
  9
$REGENMODE
 70
     1
  9
$FILLMODE
 70
     1
  9
$QTEXTMODE
 70
     0
  9
$MIRRTEXT
 70
     1
  9
$LTSCALE
 40
1.0
  9
$ATTMODE
 70
     1
  9
$TEXTSIZE
 40
0.2
  9
$TRACEWID
 40
0.05
  9
$TEXTSTYLE
  7
Standard
  9
$CLAYER
  8
0
  9
$CELTYPE
  6
ByLayer
  9
$CECOLOR
 62
   256
  9
$CELTSCALE
 40
1.0
  9
$DISPSILH
 70
     0
  9
$DIMSCALE
 40
1.0
  9
$DIMASZ
 40
0.18
  9
$DIMEXO
 40
0.0625
  9
$DIMDLI
 40
0.38
  9
$DIMRND
 40
0.0
  9
$DIMDLE
 40
0.0
  9
$DIMEXE
 40
0.18
  9
$DIMTP
 40
0.0
  9
$DIMTM
 40
0.0
  9
$DIMTXT
 40
0.18
  9
$DIMCEN
 40
0.09
  9
$DIMTSZ
 40
0.0
  9
$DIMTOL
 70
     0
  9
$DIMLIM
 70
     0
  9
$DIMTIH
 70
     1
  9
$DIMTOH
 70
     1
  9
$DIMSE1
 70
     0
  9
$DIMSE2
 70
     0
  9
$DIMTAD
 70
     0
  9
$DIMZIN
 70
     0
  9
$DIMBLK
  1

  9
$DIMASO
 70
     1
  9
$DIMSHO
 70
     1
  9
$DIMPOST
  1

  9
$DIMAPOST
  1

  9
$DIMALT
 70
     0
  9
$DIMALTD
 70
     2
  9
$DIMALTF
 40
25.4
  9
$DIMLFAC
 40
1.0
  9
$DIMTOFL
 70
     0
  9
$DIMTVP
 40
0.0
  9
$DIMTIX
 70
     0
  9
$DIMSOXD
 70
     0
  9
$DIMSAH
 70
     0
  9
$DIMBLK1
  1

  9
$DIMBLK2
  1

  9
$DIMSTYLE
  2
Standard
  9
$DIMCLRD
 70
     0
  9
$DIMCLRE
 70
     0
  9
$DIMCLRT
 70
     0
  9
$DIMTFAC
 40
1.0
  9
$DIMGAP
 40
0.09
  9
$DIMJUST
 70
     0
  9
$DIMSD1
 70
     0
  9
$DIMSD2
 70
     0
  9
$DIMTOLJ
 70
     1
  9
$DIMTZIN
 70
     0
  9
$DIMALTZ
 70
     0
  9
$DIMALTTZ
 70
     0
  9
$DIMUPT
 70
     0
  9
$DIMDEC
 70
     4
  9
$DIMTDEC
 70
     4
  9
$DIMALTU
 70
     2
  9
$DIMALTTD
 70
     2
  9
$DIMTXSTY
  7
Standard
  9
$DIMAUNIT
 70
     0
  9
$DIMADEC
 70
     0
  9
$DIMALTRND
 40
0.0
  9
$DIMAZIN
 70
     0
  9
$DIMDSEP
 70
    46
  9
$DIMATFIT
 70
     3
  9
$DIMFRAC
 70
     0
  9
$DIMLDRBLK
  1

  9
$DIMLUNIT
 70
     2
  9
$DIMLWD
 70
    -2
  9
$DIMLWE
 70
    -2
  9
$DIMTMOVE
 70
     0
  9
$DIMFXL
 40
1.0
  9
$DIMFXLON
 70
     0
  9
$DIMJOGANG
 40
0.7853981633974483
  9
$DIMTFILL
 70
     0
  9
$DIMTFILLCLR
 70
     0
  9
$DIMARCSYM
 70
     0
  9
$DIMLTYPE
  6

  9
$DIMLTEX1
  6

  9
$DIMLTEX2
  6

  9
$DIMTXTDIRECTION
 70
     0
  9
$LUNITS
 70
     2
  9
$LUPREC
 70
     4
  9
$SKETCHINC
 40
0.1
  9
$FILLETRAD
 40
0.5
  9
$AUNITS
 70
     0
  9
$AUPREC
 70
     0
  9
$MENU
  1
.
  9
$ELEVATION
 40
0.0
  9
$PELEVATION
 40
0.0
  9
$THICKNESS
 40
0.0
  9
$LIMCHECK
 70
     0
  9
$CHAMFERA
 40
0.5
  9
$CHAMFERB
 40
0.5
  9
$CHAMFERC
 40
1.0
  9
$CHAMFERD
 40
0.0
  9
$SKPOLY
 70
     0
  9
$TDCREATE
 40
2457917.626550914
  9
$TDUCREATE
 40
2457917.251550926
  9
$TDUPDATE
 40
2457917.626550914
  9
$TDUUPDATE
 40
2457917.251550926
  9
$TDINDWG
 40
0.0000000116
  9
$TDUSRTIMER
 40
0.0000000116
  9
$USRTIMER
 70
     1
  9
$ANGBASE
 50
0.0
  9
$ANGDIR
 70
     0
  9
$PDMODE
 70
     0
  9
$PDSIZE
 40
0.0
  9
$PLINEWID
 40
0.0
  9
$SPLFRAME
 70
     0
  9
$SPLINETYPE
 70
     6
  9
$SPLINESEGS
 70
     8
  9
$HANDSEED
  5
1F6
  9
$SURFTAB1
 70
     6
  9
$SURFTAB2
 70
     6
  9
$SURFTYPE
 70
     6
  9
$SURFU
 70
     6
  9
$SURFV
 70
     6
  9
$UCSBASE
  2

  9
$UCSNAME
  2

  9
$UCSORG
 10
0.0
 20
0.0
 30
0.0
  9
$UCSXDIR
 10
1.0
 20
0.0
 30
0.0
  9
$UCSYDIR
 10
0.0
 20
1.0
 30
0.0
  9
$UCSORTHOREF
  2

  9
$UCSORTHOVIEW
 70
     0
  9
$UCSORGTOP
 10
0.0
 20
0.0
 30
0.0
  9
$UCSORGBOTTOM
 10
0.0
 20
0.0
 30
0.0
  9
$UCSORGLEFT
 10
0.0
 20
0.0
 30
0.0
  9
$UCSORGRIGHT
 10
0.0
 20
0.0
 30
0.0
  9
$UCSORGFRONT
 10
0.0
 20
0.0
 30
0.0
  9
$UCSORGBACK
 10
0.0
 20
0.0
 30
0.0
  9
$PUCSBASE
  2

  9
$PUCSNAME
  2

  9
$PUCSORG
 10
0.0
 20
0.0
 30
0.0
  9
$PUCSXDIR
 10
1.0
 20
0.0
 30
0.0
  9
$PUCSYDIR
 10
0.0
 20
1.0
 30
0.0
  9
$PUCSORTHOREF
  2

  9
$PUCSORTHOVIEW
 70
     0
  9
$PUCSORGTOP
 10
0.0
 20
0.0
 30
0.0
  9
$PUCSORGBOTTOM
 10
0.0
 20
0.0
 30
0.0
  9
$PUCSORGLEFT
 10
0.0
 20
0.0
 30
0.0
  9
$PUCSORGRIGHT
 10
0.0
 20
0.0
 30
0.0
  9
$PUCSORGFRONT
 10
0.0
 20
0.0
 30
0.0
  9
$PUCSORGBACK
 10
0.0
 20
0.0
 30
0.0
  9
$USERI1
 70
     0
  9
$USERI2
 70
     0
  9
$USERI3
 70
     0
  9
$USERI4
 70
     0
  9
$USERI5
 70
     0
  9
$USERR1
 40
0.0
  9
$USERR2
 40
0.0
  9
$USERR3
 40
0.0
  9
$USERR4
 40
0.0
  9
$USERR5
 40
0.0
  9
$WORLDVIEW
 70
     1
  9
$SHADEDGE
 70
     3
  9
$SHADEDIF
 70
    70
  9
$TILEMODE
 70
     1
  9
$MAXACTVP
 70
    64
  9
$PINSBASE
 10
0.0
 20
0.0
 30
0.0
  9
$PLIMCHECK
 70
     0
  9
$PEXTMIN
 10
1.000000000000000E+20
 20
1.000000000000000E+20
 30
1.000000000000000E+20
  9
$PEXTMAX
 10
-1.000000000000000E+20
 20
-1.000000000000000E+20
 30
-1.000000000000000E+20
  9
$PLIMMIN
 10
0.0
 20
0.0
  9
$PLIMMAX
 10
12.0
 20
9.0
  9
$UNITMODE
 70
     0
  9
$VISRETAIN
 70
     1
  9
$PLINEGEN
 70
     0
  9
$PSLTSCALE
 70
     1
  9
$TREEDEPTH
 70
  3020
  9
$CMLSTYLE
  2
Standard
  9
$CMLJUST
 70
     0
  9
$CMLSCALE
 40
1.0
  9
$PROXYGRAPHICS
 70
     1
  9
$MEASUREMENT
 70
     0
  9
$CELWEIGHT
370
    -1
  9
$ENDCAPS
280
     0
  9
$JOINSTYLE
280
     0
  9
$LWDISPLAY
290
     1
  9
$INSUNITS
 70
     1
  9
$HYPERLINKBASE
  1

  9
$STYLESHEET
  1

  9
$XEDIT
290
     1
  9
$CEPSNTYPE
380
     0
  9
$PSTYLEMODE
290
     1
  9
$FINGERPRINTGUID
  2
{1D2D9FB4-0A0C-6F25-8F2E-70C8F312689F}
  9
$VERSIONGUID
  2
{FAEB1C32-E019-11D5-929B-00C0DF256EC4}
  9
$EXTNAMES
290
     1
  9
$PSVPSCALE
 40
0.0
  9
$OLESTARTUP
290
     0
  9
$SORTENTS
280
   127
  9
$INDEXCTL
280
     0
  9
$HIDETEXT
280
     1
  9
$XCLIPFRAME
280
     2
  9
$HALOGAP
280
     0
  9
$OBSCOLOR
 70
   257
  9
$OBSLTYPE
280
     0
  9
$INTERSECTIONDISPLAY
280
     0
  9
$INTERSECTIONCOLOR
 70
   257
  9
$DIMASSOC
280
     2
  9
$PROJECTNAME
  1

  9
$CAMERADISPLAY
290
     0
  9
$LENSLENGTH
 40
50.0
  9
$CAMERAHEIGHT
 40
0.0
  9
$STEPSPERSEC
 40
2.0
  9
$STEPSIZE
 40
6.0
  9
$3DDWFPREC
 40
2.0
  9
$PSOLWIDTH
 40
0.25
  9
$PSOLHEIGHT
 40
4.0
  9
$LOFTANG1
 40
1.570796326794897
  9
$LOFTANG2
 40
1.570796326794897
  9
$LOFTMAG1
 40
0.0
  9
$LOFTMAG2
 40
0.0
  9
$LOFTPARAM
 70
     7
  9
$LOFTNORMALS
280
     1
  9
$LATITUDE
 40
37.795
  9
$LONGITUDE
 40
-122.394
  9
$NORTHDIRECTION
 40
0.0
  9
$TIMEZONE
 70
 -8000
  9
$LIGHTGLYPHDISPLAY
280
     1
  9
$TILEMODELIGHTSYNCH
280
     1
  9
$CMATERIAL
347
3C
  9
$SOLIDHIST
280
     1
  9
$SHOWHIST
280
     1
  9
$DWFFRAME
280
     2
  9
$DGNFRAME
280
     2
  9
$REALWORLDSCALE
290
     1
  9
$INTERFERECOLOR
 62
   256
  9
$CSHADOW
280
     0
  9
$SHADOWPLANELOCATION
 40
0.0
  0
ENDSEC
  0
SECTION
  2
CLASSES
  0
CLASS
  1
ACDBDICTIONARYWDFLT
  2
AcDbDictionaryWithDefault
  3
ObjectDBX Classes
 90
        0
 91
        4
280
     0
281
     0
  0
CLASS
  1
VISUALSTYLE
  2
AcDbVisualStyle
  3
ObjectDBX Classes
 90
     4095
 91
        4
280
     0
281
     0
  0
CLASS
  1
MATERIAL
  2
AcDbMaterial
  3
ObjectDBX Classes
 90
     1153
 91
        4
280
     0
281
     0
  0
CLASS
  1
SUN
  2
AcDbSun
  3
SCENEOE
 90
     1024
 91
        4
280
     0
281
     0
  0
ENDSEC
  0
SECTION
  2
TABLES
  0
TABLE
  2
VPORT
  5
8
330
0
100
AcDbSymbolTable
 70
     1
  0
VPORT
  5
29
330
8
100
AcDbSymbolTableRecord
100
AcDbViewportTableRecord
  2
*Active
 70
     0
 10
0.0
 20
0.0
 11
1.0
 21
1.0
 12
0.0
 22
0.0
 13
0.0
 23
0.0
 14
0.5
 24
0.5
 15
0.5
 25
0.5
 16
0.0
 26
0.0
 36
1.0
 17
91.00082462281999
 27
-128.4993055234307
 37
0.0
 40
256.9986110468615
 41
0.7081814508812795
 42
50.0
 43
0.0
 44
0.0
 50
0.0
 51
0.0
 71
     0
 72
   100
 73
     1
 74
     3
 75
     0
 76
     0
 77
     0
 78
     0
281
     0
 65
     1
110
0.0
120
0.0
130
0.0
111
1.0
121
0.0
131
0.0
112
0.0
122
1.0
132
0.0
 79
     0
146
0.0
 60
     3
 61
     5
292
     1
282
     1
141
0.0
142
0.0
 63
   250
361
3F
  0
ENDTAB
  0
TABLE
  2
LTYPE
  5
5
330
0
100
AcDbSymbolTable
 70
    11
  0
LTYPE
  5
14
330
5
100
AcDbSymbolTableRecord
100
AcDbLinetypeTableRecord
  2
ByBlock
 70
     0
  3

 72
    65
 73
     0
 40
0.0
  0
LTYPE
  5
15
330
5
100
AcDbSymbolTableRecord
100
AcDbLinetypeTableRecord
  2
ByLayer
 70
     0
  3

 72
    65
 73
     0
 40
0.0
  0
LTYPE
  5
16
330
5
100
AcDbSymbolTableRecord
100
AcDbLinetypeTableRecord
  2
Continuous
 70
     0
  3
Solid line
 72
    65
 73
     0
 40
0.0
  0
LTYPE
  5
10B
330
5
100
AcDbSymbolTableRecord
100
AcDbLinetypeTableRecord
  2
AI-Linetype-1
 70
     0
  3
Adobe Illustrator Linetype No. 1
 72
    65
 73
     2
 40
3.500014142644928
 49
2.000003083046956
 74
     0
 49
-1.500011059597972
 74
     0
  0
LTYPE
  5
110
330
5
100
AcDbSymbolTableRecord
100
AcDbLinetypeTableRecord
  2
AI-Linetype-2
 70
     0
  3
Adobe Illustrator Linetype No. 2
 72
    65
 73
     2
 40
3.500014142644928
 49
2.000003083046956
 74
     0
 49
-1.500011059597972
 74
     0
  0
LTYPE
  5
115
330
5
100
AcDbSymbolTableRecord
100
AcDbLinetypeTableRecord
  2
AI-Linetype-3
 70
     0
  3
Adobe Illustrator Linetype No. 3
 72
    65
 73
     2
 40
3.500014142644928
 49
2.000003083046956
 74
     0
 49
-1.500011059597972
 74
     0
  0
LTYPE
  5
11A
330
5
100
AcDbSymbolTableRecord
100
AcDbLinetypeTableRecord
  2
AI-Linetype-4
 70
     0
  3
Adobe Illustrator Linetype No. 4
 72
    65
 73
     2
 40
3.500014142644928
 49
2.000003083046956
 74
     0
 49
-1.500011059597972
 74
     0
  0
LTYPE
  5
11F
330
5
100
AcDbSymbolTableRecord
100
AcDbLinetypeTableRecord
  2
AI-Linetype-5
 70
     0
  3
Adobe Illustrator Linetype No. 5
 72
    65
 73
     2
 40
3.500014142644928
 49
2.000003083046956
 74
     0
 49
-1.500011059597972
 74
     0
  0
LTYPE
  5
124
330
5
100
AcDbSymbolTableRecord
100
AcDbLinetypeTableRecord
  2
AI-Linetype-6
 70
     0
  3
Adobe Illustrator Linetype No. 6
 72
    65
 73
     2
 40
3.500014142644928
 49
2.000003083046956
 74
     0
 49
-1.500011059597972
 74
     0
  0
LTYPE
  5
138
330
5
100
AcDbSymbolTableRecord
100
AcDbLinetypeTableRecord
  2
AI-Linetype-7
 70
     0
  3
Adobe Illustrator Linetype No. 7
 72
    65
 73
     2
 40
3.500014142644928
 49
2.000003083046956
 74
     0
 49
-1.500011059597972
 74
     0
  0
LTYPE
  5
13A
330
5
100
AcDbSymbolTableRecord
100
AcDbLinetypeTableRecord
  2
AI-Linetype-8
 70
     0
  3
Adobe Illustrator Linetype No. 8
 72
    65
 73
     2
 40
3.500014142644928
 49
2.000003083046956
 74
     0
 49
-1.500011059597972
 74
     0
  0
LTYPE
  5
13C
330
5
100
AcDbSymbolTableRecord
100
AcDbLinetypeTableRecord
  2
AI-Linetype-9
 70
     0
  3
Adobe Illustrator Linetype No. 9
 72
    65
 73
     2
 40
3.500014142644928
 49
2.000003083046956
 74
     0
 49
-1.500011059597972
 74
     0
  0
LTYPE
  5
13E
330
5
100
AcDbSymbolTableRecord
100
AcDbLinetypeTableRecord
  2
AI-Linetype-10
 70
     0
  3
Adobe Illustrator Linetype No. 10
 72
    65
 73
     2
 40
3.500014142644928
 49
2.000003083046956
 74
     0
 49
-1.500011059597972
 74
     0
  0
ENDTAB
  0
TABLE
  2
LAYER
  5
2
330
0
100
AcDbSymbolTable
 70
     2
  0
LAYER
  5
10
330
2
100
AcDbSymbolTableRecord
100
AcDbLayerTableRecord
  2
0
 70
     0
 62
     7
  6
Continuous
370
    -3
390
F
347
3E
  0
LAYER
  5
40
330
2
100
AcDbSymbolTableRecord
100
AcDbLayerTableRecord
  2
_U+30EC_U+30A4_U+30E4_U+30FC 1
 70
     0
 62
     7
  6
Continuous
370
    -3
390
F
347
3E
  0
ENDTAB
  0
TABLE
  2
STYLE
  5
3
330
0
100
AcDbSymbolTable
 70
     1
  0
STYLE
  5
11
330
3
100
AcDbSymbolTableRecord
100
AcDbTextStyleTableRecord
  2
Standard
 70
     0
 40
0.0
 41
1.0
 50
0.0
 71
     0
 42
0.2
  3
txt
  4

  0
ENDTAB
  0
TABLE
  2
VIEW
  5
6
330
0
100
AcDbSymbolTable
 70
     0
  0
ENDTAB
  0
TABLE
  2
UCS
  5
7
330
0
100
AcDbSymbolTable
 70
     0
  0
ENDTAB
  0
TABLE
  2
APPID
  5
9
330
0
100
AcDbSymbolTable
 70
     1
  0
APPID
  5
12
330
9
100
AcDbSymbolTableRecord
100
AcDbRegAppTableRecord
  2
ACAD
 70
     0
  0
ENDTAB
  0
TABLE
  2
DIMSTYLE
  5
A
330
0
100
AcDbSymbolTable
 70
     1
100
AcDbDimStyleTable
  0
DIMSTYLE
105
27
330
A
100
AcDbSymbolTableRecord
100
AcDbDimStyleTableRecord
  2
Standard
 70
     0
178
     0
340
11
  0
ENDTAB
  0
TABLE
  2
BLOCK_RECORD
  5
1
330
0
100
AcDbSymbolTable
 70
     9
  0
BLOCK_RECORD
  5
1F
330
1
100
AcDbSymbolTableRecord
100
AcDbBlockTableRecord
  2
*Model_Space
340
22
 70
     0
280
     1
281
     0
  0
BLOCK_RECORD
  5
1B
330
1
100
AcDbSymbolTableRecord
100
AcDbBlockTableRecord
  2
*Paper_Space
340
1E
 70
     0
280
     1
281
     0
  0
BLOCK_RECORD
  5
23
330
1
100
AcDbSymbolTableRecord
100
AcDbBlockTableRecord
  2
*Paper_Space0
340
26
 70
     0
280
     1
281
     0
  0
BLOCK_RECORD
  5
41
330
1
100
AcDbSymbolTableRecord
100
AcDbBlockTableRecord
  2
block 2
340
0
102
{BLKREFS
331
42
102
}
 70
     0
280
     1
281
     0
  0
BLOCK_RECORD
  5
14E
330
1
100
AcDbSymbolTableRecord
100
AcDbBlockTableRecord
  2
block 3
340
0
102
{BLKREFS
331
14F
102
}
 70
     0
280
     1
281
     0
  0
BLOCK_RECORD
  5
182
330
1
100
AcDbSymbolTableRecord
100
AcDbBlockTableRecord
  2
block 4
340
0
102
{BLKREFS
331
183
102
}
 70
     0
280
     1
281
     0
  0
BLOCK_RECORD
  5
1A5
330
1
100
AcDbSymbolTableRecord
100
AcDbBlockTableRecord
  2
block 5
340
0
102
{BLKREFS
331
1A6
102
}
 70
     0
280
     1
281
     0
  0
BLOCK_RECORD
  5
1B9
330
1
100
AcDbSymbolTableRecord
100
AcDbBlockTableRecord
  2
block 6
340
0
102
{BLKREFS
331
1BA
102
}
 70
     0
280
     1
281
     0
  0
BLOCK_RECORD
  5
1C9
330
1
100
AcDbSymbolTableRecord
100
AcDbBlockTableRecord
  2
block 7
340
0
102
{BLKREFS
331
1CA
102
}
 70
     0
280
     1
281
     0
  0
BLOCK_RECORD
  5
1D9
330
1
100
AcDbSymbolTableRecord
100
AcDbBlockTableRecord
  2
block 8
340
0
102
{BLKREFS
331
1DA
102
}
 70
     0
280
     1
281
     0
  0
BLOCK_RECORD
  5
1EC
330
1
100
AcDbSymbolTableRecord
100
AcDbBlockTableRecord
  2
block 9
340
0
102
{BLKREFS
331
1ED
102
}
 70
     0
280
     1
281
     0
  0
ENDTAB
  0
ENDSEC
  0
SECTION
  2
BLOCKS
  0
BLOCK
  5
20
330
1F
100
AcDbEntity
  8
0
100
AcDbBlockBegin
  2
*Model_Space
 70
     0
 10
0.0
 20
0.0
 30
0.0
  3
*Model_Space
  1

  0
ENDBLK
  5
21
330
1F
100
AcDbEntity
  8
0
100
AcDbBlockEnd
  0
BLOCK
  5
1C
330
1B
100
AcDbEntity
 67
     1
  8
0
100
AcDbBlockBegin
  2
*Paper_Space
 70
     0
 10
0.0
 20
0.0
 30
0.0
  3
*Paper_Space
  1

  0
ENDBLK
  5
1D
330
1B
100
AcDbEntity
 67
     1
  8
0
100
AcDbBlockEnd
  0
BLOCK
  5
24
330
23
100
AcDbEntity
  8
0
100
AcDbBlockBegin
  2
*Paper_Space0
 70
     0
 10
0.0
 20
0.0
 30
0.0
  3
*Paper_Space0
  1

  0
ENDBLK
  5
25
330
23
100
AcDbEntity
  8
0
100
AcDbBlockEnd
  0
BLOCK
  5
43
330
41
100
AcDbEntity
  8
0
100
AcDbBlockBegin
  2
block 2
 70
     0
 10
0.0
 20
0.0
 30
0.0
  3
block 2
  1

  0
POLYLINE
  5
45
330
41
100
AcDbEntity
  8
_U+30EC_U+30A4_U+30E4_U+30FC 1
370
     0
100
AcDb2dPolyline
 66
     1
 10
0.0
 20
0.0
 30
0.0
  0
VERTEX
  5
46
330
45
100
AcDbEntity
  8
_U+30EC_U+30A4_U+30E4_U+30FC 1
370
     0
100
AcDbVertex
100
AcDb2dVertex
 10
49.66242945807051
 20
-122.4988104619968
 30
0.0
  0
VERTEX
  5
47
330
45
100
AcDbEntity
  8
_U+30EC_U+30A4_U+30E4_U+30FC 1
370
     0
100
AcDbVertex
100
AcDb2dVertex
 10
49.66242945807051
 20
-122.8993028121571
 30
0.0
  0
VERTEX
  5
48
330
45
100
AcDbEntity
  8
_U+30EC_U+30A4_U+30E4_U+30FC 1
370
     0
100
AcDbVertex
100
AcDb2dVertex
 10
48.68074949954857
 20
-122.8993028121571
 30
0.0
  0
VERTEX
  5
49
330
45
100
AcDbEntity
  8
_U+30EC_U+30A4_U+30E4_U+30FC 1
370
     0
100
AcDbVertex
100
AcDb2dVertex
 10
48.68074949954857
 20
-123.7709119699253
 30
0.0
  0
VERTEX
  5
4A
330
45
100
AcDbEntity
  8
_U+30EC_U+30A4_U+30E4_U+30FC 1
370
     0
100
AcDbVertex
100
AcDb2dVertex
 10
48.173114679797
 20
-123.7709119699253
 30
0.0
  0
VERTEX
  5
4B
330
45
100
AcDbEntity
  8
_U+30EC_U+30A4_U+30E4_U+30FC 1
370
     0
100
AcDbVertex
100
AcDb2dVertex
 10
48.173114679797
 20
-121.5481363628421
 30
0.0
  0
VERTEX
  5
4C
330
45
100
AcDbEntity
  8
_U+30EC_U+30A4_U+30E4_U+30FC 1
370
     0
100
AcDbVertex
100
AcDb2dVertex
 10
49.82038708606921
 20
-121.5481363628421
 30
0.0
  0
VERTEX
  5
4D
330
45
100
AcDbEntity
  8
_U+30EC_U+30A4_U+30E4_U+30FC 1
370
     0
100
AcDbVertex
100
AcDb2dVertex
 10
49.82038708606921
 20
-121.9629258592662
 30
0.0
  0
VERTEX
  5
4E
330
45
100
AcDbEntity
  8
_U+30EC_U+30A4_U+30E4_U+30FC 1
370
     0
100
AcDbVertex
100
AcDb2dVertex
 10
48.68074949954857
 20
-121.9629258592662
 30
0.0
  0
VERTEX
  5
4F
330
45
100
AcDbEntity
  8
_U+30EC_U+30A4_U+30E4_U+30FC 1
370
     0
100
AcDbVertex
100
AcDb2dVertex
 10
48.68074949954857
 20
-122.4988104619968
 30
0.0
  0
VERTEX
  5
50
330
45
100
AcDbEntity
  8
_U+30EC_U+30A4_U+30E4_U+30FC 1
370
     0
100
AcDbVertex
100
AcDb2dVertex
 10
49.66242945807051
 20
-122.4988104619968
 30
0.0
  0
SEQEND
  5
51
330
45
100
AcDbEntity
  8
_U+30EC_U+30A4_U+30E4_U+30FC 1
370
     0
  0
HATCH
  5
52
330
41
100
AcDbEntity
  8
_U+30EC_U+30A4_U+30E4_U+30FC 1
 62
   179
420
  2234388
100
AcDbHatch
 10
0.0
 20
0.0
 30
0.0
210
0.0
220
0.0
230
1.0
  2
SOLID
 70
     1
 71
     0
 91
        1
 92
        1
 93
       10
 72
     1
 10
49.66242945807051
 20
-122.4988104619968
 11
49.66242945807051
 21
-122.8993028121571
 72
     1
 10
49.66242945807051
 20
-122.8993028121571
 11
48.68074949954857
 21
-122.8993028121571
 72
     1
 10
48.68074949954857
 20
-122.8993028121571
 11
48.68074949954857
 21
-123.7709119699253
 72
     1
 10
48.68074949954857
 20
-123.7709119699253
 11
48.173114679797
 21
-123.7709119699253
 72
     1
 10
48.173114679797
 20
-123.7709119699253
 11
48.173114679797
 21
-121.5481363628421
 72
     1
 10
48.173114679797
 20
-121.5481363628421
 11
49.82038708606921
 21
-121.5481363628421
 72
     1
 10
49.82038708606921
 20
-121.5481363628421
 11
49.82038708606921
 21
-121.9629258592662
 72
     1
 10
49.82038708606921
 20
-121.9629258592662
 11
48.68074949954857
 21
-121.9629258592662
 72
     1
 10
48.68074949954857
 20
-121.9629258592662
 11
48.68074949954857
 21
-122.4988104619968
 72
     1
 10
48.68074949954857
 20
-122.4988104619968
 11
49.66242945807051
 21
-122.4988104619968
 97
        0
 75
     2
 76
     1
 98
        0
  0
SPLINE
  5
53
330
41
100
AcDbEntity
  8
_U+30EC_U+30A4_U+30E4_U+30FC 1
370
     0
100
AcDbSpline
210
0.0
220
0.0
230
1.0
 70
    11
 71
     3
 72
   119
 73
   115
 74
     0
 42
0.0000000001
 43
0.0000000001
 12
1.0
 22
0.0
 32
0.0
 13
1.0
 23
0.0
 33
0.0
 40
0.0
 40
0.0
 40
0.0
 40
0.0
 40
1.0
 40
1.0
 40
1.0
 40
2.0
 40
2.0
 40
2.0
 40
3.0
 40
3.0
 40
3.0
 40
4.0
 40
4.0
 40
4.0
 40
5.0
 40
5.0
 40
5.0
 40
6.0
 40
6.0
 40
6.0
 40
7.0
 40
7.0
 40
7.0
 40
8.0
 40
8.0
 40
8.0
 40
9.0
 40
9.0
 40
9.0
 40
10.0
 40
10.0
 40
10.0
 40
11.0
 40
11.0
 40
11.0
 40
12.0
 40
12.0
 40
12.0
 40
13.0
 40
13.0
 40
13.0
 40
14.0
 40
14.0
 40
14.0
 40
15.0
 40
15.0
 40
15.0
 40
16.0
 40
16.0
 40
16.0
 40
17.0
 40
17.0
 40
17.0
 40
18.0
 40
18.0
 40
18.0
 40
19.0
 40
19.0
 40
19.0
 40
20.0
 40
20.0
 40
20.0
 40
21.0
 40
21.0
 40
21.0
 40
22.0
 40
22.0
 40
22.0
 40
23.0
 40
23.0
 40
23.0
 40
24.0
 40
24.0
 40
24.0
 40
25.0
 40
25.0
 40
25.0
 40
26.0
 40
26.0
 40
26.0
 40
27.0
 40
27.0
 40
27.0
 40
28.0
 40
28.0
 40
28.0
 40
29.0
 40
29.0
 40
29.0
 40
30.0
 40
30.0
 40
30.0
 40
31.0
 40
31.0
 40
31.0
 40
32.0
 40
32.0
 40
32.0
 40
33.0
 40
33.0
 40
33.0
 40
34.0
 40
34.0
 40
34.0
 40
35.0
 40
35.0
 40
35.0
 40
36.0
 40
36.0
 40
36.0
 40
37.0
 40
37.0
 40
37.0
 40
38.0
 40
38.0
 40
38.0
 40
38.0
 10
51.22322996766295
 20
-122.0192531704501
 30
0.0
 10
51.22322996766295
 20
-122.0192531704501
 30
0.0
 10
51.44044323800794
 20
-122.0192531704501
 30
0.0
 10
51.44044323800794
 20
-122.0192531704501
 30
0.0
 10
51.44044323800794
 20
-122.0192531704501
 30
0.0
 10
51.44044323800794
 20
-122.3634182094265
 30
0.0
 10
51.44044323800794
 20
-122.3634182094265
 30
0.0
 10
51.44044323800794
 20
-122.3634182094265
 30
0.0
 10
51.22322996766295
 20
-122.3634182094265
 30
0.0
 10
51.22322996766295
 20
-122.3634182094265
 30
0.0
 10
51.22322996766295
 20
-122.3634182094265
 30
0.0
 10
51.22322996766295
 20
-122.8514159849122
 30
0.0
 10
51.22322996766295
 20
-122.8514159849122
 30
0.0
 10
51.22322996766295
 20
-122.8514159849122
 30
0.0
 10
51.55051403876168
 20
-122.8626125452392
 30
0.0
 10
51.55051403876168
 20
-122.8626125452392
 30
0.0
 10
51.5701510830276
 20
-122.8626125452392
 30
0.0
 10
51.59840086600665
 20
-122.8682969527899
 30
0.0
 10
51.59840086600665
 20
-122.8965467357689
 30
0.0
 10
51.59840086600665
 20
-122.9161837800348
 30
0.0
 10
51.59271645845599
 20
-122.9218681875855
 30
0.0
 10
51.5334608161097
 20
-122.9613145308916
 30
0.0
 10
51.5334608161097
 20
-122.9613145308916
 30
0.0
 10
51.5334608161097
 20
-123.0572604401558
 30
0.0
 10
51.5334608161097
 20
-123.0572604401558
 30
0.0
 10
51.5334608161097
 20
-123.0572604401558
 30
0.0
 10
52.26416556853118
 20
-123.0572604401558
 30
0.0
 10
52.26416556853118
 20
-123.0572604401558
 30
0.0
 10
52.26416556853118
 20
-123.0572604401558
 30
0.0
 10
52.26416556853118
 20
-123.3984971479698
 30
0.0
 10
52.26416556853118
 20
-123.3984971479698
 30
0.0
 10
52.26416556853118
 20
-123.3984971479698
 30
0.0
 10
51.5334608161097
 20
-123.3984971479698
 30
0.0
 10
51.5334608161097
 20
-123.3984971479698
 30
0.0
 10
51.5334608161097
 20
-123.3984971479698
 30
0.0
 10
51.5334608161097
 20
-123.5678235910699
 30
0.0
 10
51.5334608161097
 20
-123.5678235910699
 30
0.0
 10
51.5334608161097
 20
-123.5678235910699
 30
0.0
 10
52.59420571601812
 20
-123.5678235910699
 30
0.0
 10
52.59420571601812
 20
-123.5678235910699
 30
0.0
 10
52.59420571601812
 20
-123.5678235910699
 30
0.0
 10
52.59420571601812
 20
-123.9231851903734
 30
0.0
 10
52.59420571601812
 20
-123.9231851903734
 30
0.0
 10
52.59420571601812
 20
-123.9231851903734
 30
0.0
 10
50.06119926048817
 20
-123.9231851903734
 30
0.0
 10
50.06119926048817
 20
-123.9231851903734
 30
0.0
 10
50.06119926048817
 20
-123.9231851903734
 30
0.0
 10
50.06119926048817
 20
-123.5678235910699
 30
0.0
 10
50.06119926048817
 20
-123.5678235910699
 30
0.0
 10
50.06119926048817
 20
-123.5678235910699
 30
0.0
 10
51.1302123895612
 20
-123.5678235910699
 30
0.0
 10
51.1302123895612
 20
-123.5678235910699
 30
0.0
 10
51.1302123895612
 20
-123.5678235910699
 30
0.0
 10
51.1302123895612
 20
-123.3984971479698
 30
0.0
 10
51.1302123895612
 20
-123.3984971479698
 30
0.0
 10
51.1302123895612
 20
-123.3984971479698
 30
0.0
 10
50.38555500042445
 20
-123.3984971479698
 30
0.0
 10
50.38555500042445
 20
-123.3984971479698
 30
0.0
 10
50.38555500042445
 20
-123.3984971479698
 30
0.0
 10
50.38555500042445
 20
-123.0572604401558
 30
0.0
 10
50.38555500042445
 20
-123.0572604401558
 30
0.0
 10
50.38555500042445
 20
-123.0572604401558
 30
0.0
 10
51.1302123895612
 20
-123.0572604401558
 30
0.0
 10
51.1302123895612
 20
-123.0572604401558
 30
0.0
 10
51.1302123895612
 20
-123.0572604401558
 30
0.0
 10
51.1302123895612
 20
-122.9218681875855
 30
0.0
 10
51.1302123895612
 20
-122.9218681875855
 30
0.0
 10
51.1302123895612
 20
-122.9218681875855
 30
0.0
 10
50.83410643260397
 20
-122.9218681875855
 30
0.0
 10
50.83410643260397
 20
-122.9218681875855
 30
0.0
 10
50.83410643260397
 20
-122.9218681875855
 30
0.0
 10
50.83410643260397
 20
-122.3634182094265
 30
0.0
 10
50.83410643260397
 20
-122.3634182094265
 30
0.0
 10
50.83410643260397
 20
-122.3634182094265
 30
0.0
 10
50.67597654983101
 20
-122.3634182094265
 30
0.0
 10
50.67597654983101
 20
-122.3634182094265
 30
0.0
 10
50.60845267832011
 20
-122.7413451841584
 30
0.0
 10
50.44481064277075
 20
-122.935993079075
 30
0.0
 10
50.37711451648558
 20
-123.0205701732379
 30
0.0
 10
50.25584715540479
 20
-122.935993079075
 30
0.0
 10
50.13440753954973
 20
-122.8796657678912
 30
0.0
 10
49.99901528697941
 20
-122.8345350170344
 30
0.0
 10
50.19659151305849
 20
-122.6285183070165
 30
0.0
 10
50.25291882424233
 20
-122.5156914298746
 30
0.0
 10
50.28685301477204
 20
-122.3634182094265
 30
0.0
 10
50.28685301477204
 20
-122.3634182094265
 30
0.0
 10
50.06688366803883
 20
-122.3634182094265
 30
0.0
 10
50.06688366803883
 20
-122.3634182094265
 30
0.0
 10
50.06688366803883
 20
-122.3634182094265
 30
0.0
 10
50.06688366803883
 20
-122.0192531704501
 30
0.0
 10
50.06688366803883
 20
-122.0192531704501
 30
0.0
 10
50.06688366803883
 20
-122.0192531704501
 30
0.0
 10
50.31785887413929
 20
-122.0192531704501
 30
0.0
 10
50.31785887413929
 20
-122.0192531704501
 30
0.0
 10
50.31785887413929
 20
-122.0192531704501
 30
0.0
 10
50.31785887413929
 20
-121.8275336066959
 30
0.0
 10
50.31785887413929
 20
-121.8275336066959
 30
0.0
 10
50.31785887413929
 20
-121.8275336066959
 30
0.0
 10
50.14009194710039
 20
-121.8275336066959
 30
0.0
 10
50.14009194710039
 20
-121.8275336066959
 30
0.0
 10
50.14009194710039
 20
-121.8275336066959
 30
0.0
 10
50.14009194710039
 20
-121.4918090516583
 30
0.0
 10
50.14009194710039
 20
-121.4918090516583
 30
0.0
 10
50.14009194710039
 20
-121.4918090516583
 30
0.0
 10
51.37567544288525
 20
-121.4918090516583
 30
0.0
 10
51.37567544288525
 20
-121.4918090516583
 30
0.0
 10
51.37567544288525
 20
-121.4918090516583
 30
0.0
 10
51.37567544288525
 20
-121.8275336066959
 30
0.0
 10
51.37567544288525
 20
-121.8275336066959
 30
0.0
 10
51.37567544288525
 20
-121.8275336066959
 30
0.0
 10
51.22322996766295
 20
-121.8275336066959
 30
0.0
 10
51.22322996766295
 20
-121.8275336066959
 30
0.0
 10
51.22322996766295
 20
-121.8275336066959
 30
0.0
 10
51.22322996766295
 20
-122.0192531704501
 30
0.0
 10
51.22322996766295
 20
-122.0192531704501
 30
0.0
  0
POLYLINE
  5
54
330
41
100
AcDbEntity
  8
_U+30EC_U+30A4_U+30E4_U+30FC 1
370
     0
100
AcDb2dPolyline
 66
     1
 10
0.0
 20
0.0
 30
0.0
  0
VERTEX
  5
55
330
54
100
AcDbEntity
  8
_U+30EC_U+30A4_U+30E4_U+30FC 1
370
     0
100
AcDbVertex
100
AcDb2dVertex
 10
50.83410643260397
 20
-121.8275336066959
 30
0.0
  0
VERTEX
  5
56
330
54
100
AcDbEntity
  8
_U+30EC_U+30A4_U+30E4_U+30FC 1
370
     0
100
AcDbVertex
100
AcDb2dVertex
 10
50.69302977248299
 20
-121.8275336066959
 30
0.0
  0
VERTEX
  5
57
330
54
100
AcDbEntity
  8
_U+30EC_U+30A4_U+30E4_U+30FC 1
370
     0
100
AcDbVertex
100
AcDb2dVertex
 10
50.69302977248299
 20
-122.0192531704501
 30
0.0
  0
VERTEX
  5
58
330
54
100
AcDbEntity
  8
_U+30EC_U+30A4_U+30E4_U+30FC 1
370
     0
100
AcDbVertex
100
AcDb2dVertex
 10
50.83410643260397
 20
-122.0192531704501
 30
0.0
  0
VERTEX
  5
59
330
54
100
AcDbEntity
  8
_U+30EC_U+30A4_U+30E4_U+30FC 1
370
     0
100
AcDbVertex
100
AcDb2dVertex
 10
50.83410643260397
 20
-121.8275336066959
 30
0.0
  0
SEQEND
  5
5A
330
54
100
AcDbEntity
  8
_U+30EC_U+30A4_U+30E4_U+30FC 1
370
     0
  0
SPLINE
  5
5B
330
41
100
AcDbEntity
  8
_U+30EC_U+30A4_U+30E4_U+30FC 1
370
     0
100
AcDbSpline
210
0.0
220
0.0
230
1.0
 70
    11
 71
     3
 72
    50
 73
    46
 74
     0
 42
0.0000000001
 43
0.0000000001
 12
1.0
 22
0.0
 32
0.0
 13
1.0
 23
0.0
 33
0.0
 40
0.0
 40
0.0
 40
0.0
 40
0.0
 40
1.0
 40
1.0
 40
1.0
 40
2.0
 40
2.0
 40
2.0
 40
3.0
 40
3.0
 40
3.0
 40
4.0
 40
4.0
 40
4.0
 40
5.0
 40
5.0
 40
5.0
 40
6.0
 40
6.0
 40
6.0
 40
7.0
 40
7.0
 40
7.0
 40
8.0
 40
8.0
 40
8.0
 40
9.0
 40
9.0
 40
9.0
 40
10.0
 40
10.0
 40
10.0
 40
11.0
 40
11.0
 40
11.0
 40
12.0
 40
12.0
 40
12.0
 40
13.0
 40
13.0
 40
13.0
 40
14.0
 40
14.0
 40
14.0
 40
15.0
 40
15.0
 40
15.0
 40
15.0
 10
52.13428546873727
 20
-121.4127441102718
 30
0.0
 10
52.13428546873727
 20
-121.4127441102718
 30
0.0
 10
52.54614663399888
 20
-121.4382378168627
 30
0.0
 10
52.54614663399888
 20
-121.4382378168627
 30
0.0
 10
52.56595593303907
 20
-121.4382378168627
 30
0.0
 10
52.5828369009168
 20
-121.4439222244133
 30
0.0
 10
52.5828369009168
 20
-121.4635592686792
 30
0.0
 10
52.5828369009168
 20
-121.4806124913312
 30
0.0
 10
52.57439641697793
 20
-121.4918090516583
 30
0.0
 10
52.53202174250936
 20
-121.5228149110255
 30
0.0
 10
52.53202174250936
 20
-121.5228149110255
 30
0.0
 10
52.53202174250936
 20
-122.7215358851182
 30
0.0
 10
52.53202174250936
 20
-122.7215358851182
 30
0.0
 10
52.53202174250936
 20
-122.9161837800348
 30
0.0
 10
52.49825980675391
 20
-123.0178140968497
 30
0.0
 10
52.01870251520713
 20
-123.0150580204615
 30
0.0
 10
51.99889321616695
 20
-122.8626125452392
 30
0.0
 10
51.95669079647264
 20
-122.71877980873
 30
0.0
 10
51.89743515412633
 20
-122.614393415527
 30
0.0
 10
51.89743515412633
 20
-122.614393415527
 30
0.0
 10
51.5673950066394
 20
-122.614393415527
 30
0.0
 10
51.5673950066394
 20
-122.614393415527
 30
0.0
 10
51.5673950066394
 20
-122.614393415527
 30
0.0
 10
51.5673950066394
 20
-121.601879852412
 30
0.0
 10
51.5673950066394
 20
-121.601879852412
 30
0.0
 10
51.5673950066394
 20
-121.601879852412
 30
0.0
 10
51.9651312804115
 20
-121.6244452278404
 30
0.0
 10
51.9651312804115
 20
-121.6244452278404
 30
0.0
 10
51.99045273222809
 20
-121.6272013042286
 30
0.0
 10
52.01594643881893
 20
-121.6272013042286
 30
0.0
 10
52.01594643881893
 20
-121.6525227560452
 30
0.0
 10
52.01594643881893
 20
-121.6864569465749
 30
0.0
 10
51.98201224828922
 20
-121.7005818380644
 30
0.0
 10
51.95100638892198
 20
-121.7117783983915
 30
0.0
 10
51.95100638892198
 20
-121.7117783983915
 30
0.0
 10
51.95100638892198
 20
-122.594756371261
 30
0.0
 10
51.95100638892198
 20
-122.594756371261
 30
0.0
 10
51.95944687286084
 20
-122.594756371261
 30
0.0
 10
52.03558348308486
 20
-122.6002685240374
 30
0.0
 10
52.05539278212504
 20
-122.6002685240374
 30
0.0
 10
52.13428546873727
 20
-122.6002685240374
 30
0.0
 10
52.13428546873727
 20
-122.566506588282
 30
0.0
 10
52.13428546873727
 20
-122.4678046026296
 30
0.0
 10
52.13428546873727
 20
-122.4678046026296
 30
0.0
 10
52.13428546873727
 20
-121.4127441102718
 30
0.0
 10
52.13428546873727
 20
-121.4127441102718
 30
0.0
  0
HATCH
  5
5C
330
41
100
AcDbEntity
  8
_U+30EC_U+30A4_U+30E4_U+30FC 1
 62
   179
420
  2234388
100
AcDbHatch
 10
0.0
 20
0.0
 30
0.0
210
0.0
220
0.0
230
1.0
  2
SOLID
 70
     1
 71
     0
 91
        3
 92
        1
 93
        1
 72
     4
 94
        3
 73
     0
 74
     1
 95
      119
 96
      115
 40
0.0
 40
0.0
 40
0.0
 40
0.0
 40
1.0
 40
1.0
 40
1.0
 40
2.0
 40
2.0
 40
2.0
 40
3.0
 40
3.0
 40
3.0
 40
4.0
 40
4.0
 40
4.0
 40
5.0
 40
5.0
 40
5.0
 40
6.0
 40
6.0
 40
6.0
 40
7.0
 40
7.0
 40
7.0
 40
8.0
 40
8.0
 40
8.0
 40
9.0
 40
9.0
 40
9.0
 40
10.0
 40
10.0
 40
10.0
 40
11.0
 40
11.0
 40
11.0
 40
12.0
 40
12.0
 40
12.0
 40
13.0
 40
13.0
 40
13.0
 40
14.0
 40
14.0
 40
14.0
 40
15.0
 40
15.0
 40
15.0
 40
16.0
 40
16.0
 40
16.0
 40
17.0
 40
17.0
 40
17.0
 40
18.0
 40
18.0
 40
18.0
 40
19.0
 40
19.0
 40
19.0
 40
20.0
 40
20.0
 40
20.0
 40
21.0
 40
21.0
 40
21.0
 40
22.0
 40
22.0
 40
22.0
 40
23.0
 40
23.0
 40
23.0
 40
24.0
 40
24.0
 40
24.0
 40
25.0
 40
25.0
 40
25.0
 40
26.0
 40
26.0
 40
26.0
 40
27.0
 40
27.0
 40
27.0
 40
28.0
 40
28.0
 40
28.0
 40
29.0
 40
29.0
 40
29.0
 40
30.0
 40
30.0
 40
30.0
 40
31.0
 40
31.0
 40
31.0
 40
32.0
 40
32.0
 40
32.0
 40
33.0
 40
33.0
 40
33.0
 40
34.0
 40
34.0
 40
34.0
 40
35.0
 40
35.0
 40
35.0
 40
36.0
 40
36.0
 40
36.0
 40
37.0
 40
37.0
 40
37.0
 40
38.0
 40
38.0
 40
38.0
 40
38.0
 10
51.22322996766295
 20
-122.0192531704501
 10
51.22322996766295
 20
-122.0192531704501
 10
51.44044323800794
 20
-122.0192531704501
 10
51.44044323800794
 20
-122.0192531704501
 10
51.44044323800794
 20
-122.0192531704501
 10
51.44044323800794
 20
-122.3634182094265
 10
51.44044323800794
 20
-122.3634182094265
 10
51.44044323800794
 20
-122.3634182094265
 10
51.22322996766295
 20
-122.3634182094265
 10
51.22322996766295
 20
-122.3634182094265
 10
51.22322996766295
 20
-122.3634182094265
 10
51.22322996766295
 20
-122.8514159849122
 10
51.22322996766295
 20
-122.8514159849122
 10
51.22322996766295
 20
-122.8514159849122
 10
51.55051403876168
 20
-122.8626125452392
 10
51.55051403876168
 20
-122.8626125452392
 10
51.5701510830276
 20
-122.8626125452392
 10
51.59840086600665
 20
-122.8682969527899
 10
51.59840086600665
 20
-122.8965467357689
 10
51.59840086600665
 20
-122.9161837800348
 10
51.59271645845599
 20
-122.9218681875855
 10
51.5334608161097
 20
-122.9613145308916
 10
51.5334608161097
 20
-122.9613145308916
 10
51.5334608161097
 20
-123.0572604401558
 10
51.5334608161097
 20
-123.0572604401558
 10
51.5334608161097
 20
-123.0572604401558
 10
52.26416556853118
 20
-123.0572604401558
 10
52.26416556853118
 20
-123.0572604401558
 10
52.26416556853118
 20
-123.0572604401558
 10
52.26416556853118
 20
-123.3984971479698
 10
52.26416556853118
 20
-123.3984971479698
 10
52.26416556853118
 20
-123.3984971479698
 10
51.5334608161097
 20
-123.3984971479698
 10
51.5334608161097
 20
-123.3984971479698
 10
51.5334608161097
 20
-123.3984971479698
 10
51.5334608161097
 20
-123.5678235910699
 10
51.5334608161097
 20
-123.5678235910699
 10
51.5334608161097
 20
-123.5678235910699
 10
52.59420571601812
 20
-123.5678235910699
 10
52.59420571601812
 20
-123.5678235910699
 10
52.59420571601812
 20
-123.5678235910699
 10
52.59420571601812
 20
-123.9231851903734
 10
52.59420571601812
 20
-123.9231851903734
 10
52.59420571601812
 20
-123.9231851903734
 10
50.06119926048817
 20
-123.9231851903734
 10
50.06119926048817
 20
-123.9231851903734
 10
50.06119926048817
 20
-123.9231851903734
 10
50.06119926048817
 20
-123.5678235910699
 10
50.06119926048817
 20
-123.5678235910699
 10
50.06119926048817
 20
-123.5678235910699
 10
51.1302123895612
 20
-123.5678235910699
 10
51.1302123895612
 20
-123.5678235910699
 10
51.1302123895612
 20
-123.5678235910699
 10
51.1302123895612
 20
-123.3984971479698
 10
51.1302123895612
 20
-123.3984971479698
 10
51.1302123895612
 20
-123.3984971479698
 10
50.38555500042445
 20
-123.3984971479698
 10
50.38555500042445
 20
-123.3984971479698
 10
50.38555500042445
 20
-123.3984971479698
 10
50.38555500042445
 20
-123.0572604401558
 10
50.38555500042445
 20
-123.0572604401558
 10
50.38555500042445
 20
-123.0572604401558
 10
51.1302123895612
 20
-123.0572604401558
 10
51.1302123895612
 20
-123.0572604401558
 10
51.1302123895612
 20
-123.0572604401558
 10
51.1302123895612
 20
-122.9218681875855
 10
51.1302123895612
 20
-122.9218681875855
 10
51.1302123895612
 20
-122.9218681875855
 10
50.83410643260397
 20
-122.9218681875855
 10
50.83410643260397
 20
-122.9218681875855
 10
50.83410643260397
 20
-122.9218681875855
 10
50.83410643260397
 20
-122.3634182094265
 10
50.83410643260397
 20
-122.3634182094265
 10
50.83410643260397
 20
-122.3634182094265
 10
50.67597654983101
 20
-122.3634182094265
 10
50.67597654983101
 20
-122.3634182094265
 10
50.60845267832011
 20
-122.7413451841584
 10
50.44481064277075
 20
-122.935993079075
 10
50.37711451648558
 20
-123.0205701732379
 10
50.25584715540479
 20
-122.935993079075
 10
50.13440753954973
 20
-122.8796657678912
 10
49.99901528697941
 20
-122.8345350170344
 10
50.19659151305849
 20
-122.6285183070165
 10
50.25291882424233
 20
-122.5156914298746
 10
50.28685301477204
 20
-122.3634182094265
 10
50.28685301477204
 20
-122.3634182094265
 10
50.06688366803883
 20
-122.3634182094265
 10
50.06688366803883
 20
-122.3634182094265
 10
50.06688366803883
 20
-122.3634182094265
 10
50.06688366803883
 20
-122.0192531704501
 10
50.06688366803883
 20
-122.0192531704501
 10
50.06688366803883
 20
-122.0192531704501
 10
50.31785887413929
 20
-122.0192531704501
 10
50.31785887413929
 20
-122.0192531704501
 10
50.31785887413929
 20
-122.0192531704501
 10
50.31785887413929
 20
-121.8275336066959
 10
50.31785887413929
 20
-121.8275336066959
 10
50.31785887413929
 20
-121.8275336066959
 10
50.14009194710039
 20
-121.8275336066959
 10
50.14009194710039
 20
-121.8275336066959
 10
50.14009194710039
 20
-121.8275336066959
 10
50.14009194710039
 20
-121.4918090516583
 10
50.14009194710039
 20
-121.4918090516583
 10
50.14009194710039
 20
-121.4918090516583
 10
51.37567544288525
 20
-121.4918090516583
 10
51.37567544288525
 20
-121.4918090516583
 10
51.37567544288525
 20
-121.4918090516583
 10
51.37567544288525
 20
-121.8275336066959
 10
51.37567544288525
 20
-121.8275336066959
 10
51.37567544288525
 20
-121.8275336066959
 10
51.22322996766295
 20
-121.8275336066959
 10
51.22322996766295
 20
-121.8275336066959
 10
51.22322996766295
 20
-121.8275336066959
 10
51.22322996766295
 20
-122.0192531704501
 10
51.22322996766295
 20
-122.0192531704501
 97
        0
 97
        0
 92
        1
 93
        4
 72
     1
 10
50.83410643260397
 20
-121.8275336066959
 11
50.69302977248299
 21
-121.8275336066959
 72
     1
 10
50.69302977248299
 20
-121.8275336066959
 11
50.69302977248299
 21
-122.0192531704501
 72
     1
 10
50.69302977248299
 20
-122.0192531704501
 11
50.83410643260397
 21
-122.0192531704501
 72
     1
 10
50.83410643260397
 20
-122.0192531704501
 11
50.83410643260397
 21
-121.8275336066959
 97
        0
 92
        1
 93
        1
 72
     4
 94
        3
 73
     0
 74
     1
 95
       50
 96
       46
 40
0.0
 40
0.0
 40
0.0
 40
0.0
 40
1.0
 40
1.0
 40
1.0
 40
2.0
 40
2.0
 40
2.0
 40
3.0
 40
3.0
 40
3.0
 40
4.0
 40
4.0
 40
4.0
 40
5.0
 40
5.0
 40
5.0
 40
6.0
 40
6.0
 40
6.0
 40
7.0
 40
7.0
 40
7.0
 40
8.0
 40
8.0
 40
8.0
 40
9.0
 40
9.0
 40
9.0
 40
10.0
 40
10.0
 40
10.0
 40
11.0
 40
11.0
 40
11.0
 40
12.0
 40
12.0
 40
12.0
 40
13.0
 40
13.0
 40
13.0
 40
14.0
 40
14.0
 40
14.0
 40
15.0
 40
15.0
 40
15.0
 40
15.0
 10
52.13428546873727
 20
-121.4127441102718
 10
52.13428546873727
 20
-121.4127441102718
 10
52.54614663399888
 20
-121.4382378168627
 10
52.54614663399888
 20
-121.4382378168627
 10
52.56595593303907
 20
-121.4382378168627
 10
52.5828369009168
 20
-121.4439222244133
 10
52.5828369009168
 20
-121.4635592686792
 10
52.5828369009168
 20
-121.4806124913312
 10
52.57439641697793
 20
-121.4918090516583
 10
52.53202174250936
 20
-121.5228149110255
 10
52.53202174250936
 20
-121.5228149110255
 10
52.53202174250936
 20
-122.7215358851182
 10
52.53202174250936
 20
-122.7215358851182
 10
52.53202174250936
 20
-122.9161837800348
 10
52.49825980675391
 20
-123.0178140968497
 10
52.01870251520713
 20
-123.0150580204615
 10
51.99889321616695
 20
-122.8626125452392
 10
51.95669079647264
 20
-122.71877980873
 10
51.89743515412633
 20
-122.614393415527
 10
51.89743515412633
 20
-122.614393415527
 10
51.5673950066394
 20
-122.614393415527
 10
51.5673950066394
 20
-122.614393415527
 10
51.5673950066394
 20
-122.614393415527
 10
51.5673950066394
 20
-121.601879852412
 10
51.5673950066394
 20
-121.601879852412
 10
51.5673950066394
 20
-121.601879852412
 10
51.9651312804115
 20
-121.6244452278404
 10
51.9651312804115
 20
-121.6244452278404
 10
51.99045273222809
 20
-121.6272013042286
 10
52.01594643881893
 20
-121.6272013042286
 10
52.01594643881893
 20
-121.6525227560452
 10
52.01594643881893
 20
-121.6864569465749
 10
51.98201224828922
 20
-121.7005818380644
 10
51.95100638892198
 20
-121.7117783983915
 10
51.95100638892198
 20
-121.7117783983915
 10
51.95100638892198
 20
-122.594756371261
 10
51.95100638892198
 20
-122.594756371261
 10
51.95944687286084
 20
-122.594756371261
 10
52.03558348308486
 20
-122.6002685240374
 10
52.05539278212504
 20
-122.6002685240374
 10
52.13428546873727
 20
-122.6002685240374
 10
52.13428546873727
 20
-122.566506588282
 10
52.13428546873727
 20
-122.4678046026296
 10
52.13428546873727
 20
-122.4678046026296
 10
52.13428546873727
 20
-121.4127441102718
 10
52.13428546873727
 20
-121.4127441102718
 97
        0
 97
        0
 75
     2
 76
     1
 98
        0
  0
SPLINE
  5
5D
330
41
100
AcDbEntity
  8
_U+30EC_U+30A4_U+30E4_U+30FC 1
370
     0
100
AcDbSpline
210
0.0
220
0.0
230
1.0
 70
    11
 71
     3
 72
    23
 73
    19
 74
     0
 42
0.0000000001
 43
0.0000000001
 12
1.0
 22
0.0
 32
0.0
 13
1.0
 23
0.0
 33
0.0
 40
0.0
 40
0.0
 40
0.0
 40
0.0
 40
1.0
 40
1.0
 40
1.0
 40
2.0
 40
2.0
 40
2.0
 40
3.0
 40
3.0
 40
3.0
 40
4.0
 40
4.0
 40
4.0
 40
5.0
 40
5.0
 40
5.0
 40
6.0
 40
6.0
 40
6.0
 40
6.0
 10
54.16051837838695
 20
-121.5679456618823
 30
0.0
 10
54.01944171826597
 20
-121.7372721049824
 30
0.0
 10
53.72902016885941
 20
-122.0926337042859
 30
0.0
 10
53.72902016885941
 20
-122.6991427644641
 30
0.0
 10
53.72902016885941
 20
-123.3054795698681
 30
0.0
 10
54.01944171826597
 20
-123.6608411691716
 30
0.0
 10
54.16051837838695
 20
-123.8301676122716
 30
0.0
 10
54.16051837838695
 20
-123.8301676122716
 30
0.0
 10
53.9095431722865
 20
-124.0473808826166
 30
0.0
 10
53.9095431722865
 20
-124.0473808826166
 30
0.0
 10
53.74021672918648
 20
-123.8442925037612
 30
0.0
 10
53.39036728265935
 20
-123.41830644701
 30
0.0
 10
53.39036728265935
 20
-122.6991427644641
 30
0.0
 10
53.39036728265935
 20
-121.9798068271439
 30
0.0
 10
53.74021672918648
 20
-121.5538207703928
 30
0.0
 10
53.9095431722865
 20
-121.3507323915373
 30
0.0
 10
53.9095431722865
 20
-121.3507323915373
 30
0.0
 10
54.16051837838695
 20
-121.5679456618823
 30
0.0
 10
54.16051837838695
 20
-121.5679456618823
 30
0.0
  0
HATCH
  5
5E
330
41
100
AcDbEntity
  8
_U+30EC_U+30A4_U+30E4_U+30FC 1
 62
   179
420
  2234388
100
AcDbHatch
 10
0.0
 20
0.0
 30
0.0
210
0.0
220
0.0
230
1.0
  2
SOLID
 70
     1
 71
     0
 91
        1
 92
        1
 93
        1
 72
     4
 94
        3
 73
     0
 74
     1
 95
       23
 96
       19
 40
0.0
 40
0.0
 40
0.0
 40
0.0
 40
1.0
 40
1.0
 40
1.0
 40
2.0
 40
2.0
 40
2.0
 40
3.0
 40
3.0
 40
3.0
 40
4.0
 40
4.0
 40
4.0
 40
5.0
 40
5.0
 40
5.0
 40
6.0
 40
6.0
 40
6.0
 40
6.0
 10
54.16051837838695
 20
-121.5679456618823
 10
54.01944171826597
 20
-121.7372721049824
 10
53.72902016885941
 20
-122.0926337042859
 10
53.72902016885941
 20
-122.6991427644641
 10
53.72902016885941
 20
-123.3054795698681
 10
54.01944171826597
 20
-123.6608411691716
 10
54.16051837838695
 20
-123.8301676122716
 10
54.16051837838695
 20
-123.8301676122716
 10
53.9095431722865
 20
-124.0473808826166
 10
53.9095431722865
 20
-124.0473808826166
 10
53.74021672918648
 20
-123.8442925037612
 10
53.39036728265935
 20
-123.41830644701
 10
53.39036728265935
 20
-122.6991427644641
 10
53.39036728265935
 20
-121.9798068271439
 10
53.74021672918648
 20
-121.5538207703928
 10
53.9095431722865
 20
-121.3507323915373
 10
53.9095431722865
 20
-121.3507323915373
 10
54.16051837838695
 20
-121.5679456618823
 10
54.16051837838695
 20
-121.5679456618823
 97
        0
 97
        0
 75
     2
 76
     1
 98
        0
  0
POLYLINE
  5
5F
330
41
100
AcDbEntity
  8
_U+30EC_U+30A4_U+30E4_U+30FC 1
370
     0
100
AcDb2dPolyline
 66
     1
 10
0.0
 20
0.0
 30
0.0
  0
VERTEX
  5
60
330
5F
100
AcDbEntity
  8
_U+30EC_U+30A4_U+30E4_U+30FC 1
370
     0
100
AcDbVertex
100
AcDb2dVertex
 10
55.0250650904104
 20
-123.8639295480271
 30
0.0
  0
VERTEX
  5
61
330
5F
100
AcDbEntity
  8
_U+30EC_U+30A4_U+30E4_U+30FC 1
370
     0
100
AcDbVertex
100
AcDb2dVertex
 10
55.0250650904104
 20
-123.9683159412301
 30
0.0
  0
VERTEX
  5
62
330
5F
100
AcDbEntity
  8
_U+30EC_U+30A4_U+30E4_U+30FC 1
370
     0
100
AcDbVertex
100
AcDb2dVertex
 10
54.59356688088286
 20
-123.9683159412301
 30
0.0
  0
VERTEX
  5
63
330
5F
100
AcDbEntity
  8
_U+30EC_U+30A4_U+30E4_U+30FC 1
370
     0
100
AcDbVertex
100
AcDb2dVertex
 10
54.59356688088286
 20
-121.4806124913312
 30
0.0
  0
VERTEX
  5
64
330
5F
100
AcDbEntity
  8
_U+30EC_U+30A4_U+30E4_U+30FC 1
370
     0
100
AcDbVertex
100
AcDb2dVertex
 10
56.63289115337651
 20
-121.4806124913312
 30
0.0
  0
VERTEX
  5
65
330
5F
100
AcDbEntity
  8
_U+30EC_U+30A4_U+30E4_U+30FC 1
370
     0
100
AcDbVertex
100
AcDb2dVertex
 10
56.63289115337651
 20
-123.9683159412301
 30
0.0
  0
VERTEX
  5
66
330
5F
100
AcDbEntity
  8
_U+30EC_U+30A4_U+30E4_U+30FC 1
370
     0
100
AcDbVertex
100
AcDb2dVertex
 10
56.21827391172668
 20
-123.9683159412301
 30
0.0
  0
VERTEX
  5
67
330
5F
100
AcDbEntity
  8
_U+30EC_U+30A4_U+30E4_U+30FC 1
370
     0
100
AcDbVertex
100
AcDb2dVertex
 10
56.21827391172668
 20
-123.8639295480271
 30
0.0
  0
VERTEX
  5
68
330
5F
100
AcDbEntity
  8
_U+30EC_U+30A4_U+30E4_U+30FC 1
370
     0
100
AcDbVertex
100
AcDb2dVertex
 10
55.0250650904104
 20
-123.8639295480271
 30
0.0
  0
SEQEND
  5
69
330
5F
100
AcDbEntity
  8
_U+30EC_U+30A4_U+30E4_U+30FC 1
370
     0
  0
POLYLINE
  5
6A
330
41
100
AcDbEntity
  8
_U+30EC_U+30A4_U+30E4_U+30FC 1
370
     0
100
AcDb2dPolyline
 66
     1
 10
0.0
 20
0.0
 30
0.0
  0
VERTEX
  5
6B
330
6A
100
AcDbEntity
  8
_U+30EC_U+30A4_U+30E4_U+30FC 1
370
     0
100
AcDbVertex
100
AcDb2dVertex
 10
56.21827391172668
 20
-122.1434488626933
 30
0.0
  0
VERTEX
  5
6C
330
6A
100
AcDbEntity
  8
_U+30EC_U+30A4_U+30E4_U+30FC 1
370
     0
100
AcDbVertex
100
AcDb2dVertex
 10
56.21827391172668
 20
-121.8585394660631
 30
0.0
  0
VERTEX
  5
6D
330
6A
100
AcDbEntity
  8
_U+30EC_U+30A4_U+30E4_U+30FC 1
370
     0
100
AcDbVertex
100
AcDb2dVertex
 10
55.0250650904104
 20
-121.8585394660631
 30
0.0
  0
VERTEX
  5
6E
330
6A
100
AcDbEntity
  8
_U+30EC_U+30A4_U+30E4_U+30FC 1
370
     0
100
AcDbVertex
100
AcDb2dVertex
 10
55.0250650904104
 20
-122.1434488626933
 30
0.0
  0
VERTEX
  5
6F
330
6A
100
AcDbEntity
  8
_U+30EC_U+30A4_U+30E4_U+30FC 1
370
     0
100
AcDbVertex
100
AcDb2dVertex
 10
56.21827391172668
 20
-122.1434488626933
 30
0.0
  0
SEQEND
  5
70
330
6A
100
AcDbEntity
  8
_U+30EC_U+30A4_U+30E4_U+30FC 1
370
     0
  0
POLYLINE
  5
71
330
41
100
AcDbEntity
  8
_U+30EC_U+30A4_U+30E4_U+30FC 1
370
     0
100
AcDb2dPolyline
 66
     1
 10
0.0
 20
0.0
 30
0.0
  0
VERTEX
  5
72
330
71
100
AcDbEntity
  8
_U+30EC_U+30A4_U+30E4_U+30FC 1
370
     0
100
AcDbVertex
100
AcDb2dVertex
 10
56.21827391172668
 20
-122.8117973868318
 30
0.0
  0
VERTEX
  5
73
330
71
100
AcDbEntity
  8
_U+30EC_U+30A4_U+30E4_U+30FC 1
370
     0
100
AcDbVertex
100
AcDb2dVertex
 10
56.21827391172668
 20
-122.518619761037
 30
0.0
  0
VERTEX
  5
74
330
71
100
AcDbEntity
  8
_U+30EC_U+30A4_U+30E4_U+30FC 1
370
     0
100
AcDbVertex
100
AcDb2dVertex
 10
55.0250650904104
 20
-122.518619761037
 30
0.0
  0
VERTEX
  5
75
330
71
100
AcDbEntity
  8
_U+30EC_U+30A4_U+30E4_U+30FC 1
370
     0
100
AcDbVertex
100
AcDb2dVertex
 10
55.0250650904104
 20
-122.8117973868318
 30
0.0
  0
VERTEX
  5
76
330
71
100
AcDbEntity
  8
_U+30EC_U+30A4_U+30E4_U+30FC 1
370
     0
100
AcDbVertex
100
AcDb2dVertex
 10
56.21827391172668
 20
-122.8117973868318
 30
0.0
  0
SEQEND
  5
77
330
71
100
AcDbEntity
  8
_U+30EC_U+30A4_U+30E4_U+30FC 1
370
     0
  0
POLYLINE
  5
78
330
41
100
AcDbEntity
  8
_U+30EC_U+30A4_U+30E4_U+30FC 1
370
     0
100
AcDb2dPolyline
 66
     1
 10
0.0
 20
0.0
 30
0.0
  0
VERTEX
  5
79
330
78
100
AcDbEntity
  8
_U+30EC_U+30A4_U+30E4_U+30FC 1
370
     0
100
AcDbVertex
100
AcDb2dVertex
 10
56.21827391172668
 20
-123.494443057234
 30
0.0
  0
VERTEX
  5
7A
330
78
100
AcDbEntity
  8
_U+30EC_U+30A4_U+30E4_U+30FC 1
370
     0
100
AcDbVertex
100
AcDb2dVertex
 10
56.21827391172668
 20
-123.1955810238886
 30
0.0
  0
VERTEX
  5
7B
330
78
100
AcDbEntity
  8
_U+30EC_U+30A4_U+30E4_U+30FC 1
370
     0
100
AcDbVertex
100
AcDb2dVertex
 10
55.0250650904104
 20
-123.1955810238886
 30
0.0
  0
VERTEX
  5
7C
330
78
100
AcDbEntity
  8
_U+30EC_U+30A4_U+30E4_U+30FC 1
370
     0
100
AcDbVertex
100
AcDb2dVertex
 10
55.0250650904104
 20
-123.494443057234
 30
0.0
  0
VERTEX
  5
7D
330
78
100
AcDbEntity
  8
_U+30EC_U+30A4_U+30E4_U+30FC 1
370
     0
100
AcDbVertex
100
AcDb2dVertex
 10
56.21827391172668
 20
-123.494443057234
 30
0.0
  0
SEQEND
  5
7E
330
78
100
AcDbEntity
  8
_U+30EC_U+30A4_U+30E4_U+30FC 1
370
     0
  0
HATCH
  5
7F
330
41
100
AcDbEntity
  8
_U+30EC_U+30A4_U+30E4_U+30FC 1
 62
   179
420
  2234388
100
AcDbHatch
 10
0.0
 20
0.0
 30
0.0
210
0.0
220
0.0
230
1.0
  2
SOLID
 70
     1
 71
     0
 91
        4
 92
        1
 93
        8
 72
     1
 10
55.0250650904104
 20
-123.8639295480271
 11
55.0250650904104
 21
-123.9683159412301
 72
     1
 10
55.0250650904104
 20
-123.9683159412301
 11
54.59356688088286
 21
-123.9683159412301
 72
     1
 10
54.59356688088286
 20
-123.9683159412301
 11
54.59356688088286
 21
-121.4806124913312
 72
     1
 10
54.59356688088286
 20
-121.4806124913312
 11
56.63289115337651
 21
-121.4806124913312
 72
     1
 10
56.63289115337651
 20
-121.4806124913312
 11
56.63289115337651
 21
-123.9683159412301
 72
     1
 10
56.63289115337651
 20
-123.9683159412301
 11
56.21827391172668
 21
-123.9683159412301
 72
     1
 10
56.21827391172668
 20
-123.9683159412301
 11
56.21827391172668
 21
-123.8639295480271
 72
     1
 10
56.21827391172668
 20
-123.8639295480271
 11
55.0250650904104
 21
-123.8639295480271
 97
        0
 92
        1
 93
        4
 72
     1
 10
56.21827391172668
 20
-122.1434488626933
 11
56.21827391172668
 21
-121.8585394660631
 72
     1
 10
56.21827391172668
 20
-121.8585394660631
 11
55.0250650904104
 21
-121.8585394660631
 72
     1
 10
55.0250650904104
 20
-121.8585394660631
 11
55.0250650904104
 21
-122.1434488626933
 72
     1
 10
55.0250650904104
 20
-122.1434488626933
 11
56.21827391172668
 21
-122.1434488626933
 97
        0
 92
        1
 93
        4
 72
     1
 10
56.21827391172668
 20
-122.8117973868318
 11
56.21827391172668
 21
-122.518619761037
 72
     1
 10
56.21827391172668
 20
-122.518619761037
 11
55.0250650904104
 21
-122.518619761037
 72
     1
 10
55.0250650904104
 20
-122.518619761037
 11
55.0250650904104
 21
-122.8117973868318
 72
     1
 10
55.0250650904104
 20
-122.8117973868318
 11
56.21827391172668
 21
-122.8117973868318
 97
        0
 92
        1
 93
        4
 72
     1
 10
56.21827391172668
 20
-123.494443057234
 11
56.21827391172668
 21
-123.1955810238886
 72
     1
 10
56.21827391172668
 20
-123.1955810238886
 11
55.0250650904104
 21
-123.1955810238886
 72
     1
 10
55.0250650904104
 20
-123.1955810238886
 11
55.0250650904104
 21
-123.494443057234
 72
     1
 10
55.0250650904104
 20
-123.494443057234
 11
56.21827391172668
 21
-123.494443057234
 97
        0
 75
     2
 76
     1
 98
        0
  0
SPLINE
  5
80
330
41
100
AcDbEntity
  8
_U+30EC_U+30A4_U+30E4_U+30FC 1
370
     0
100
AcDbSpline
210
0.0
220
0.0
230
1.0
 70
    11
 71
     3
 72
    68
 73
    64
 74
     0
 42
0.0000000001
 43
0.0000000001
 12
1.0
 22
0.0
 32
0.0
 13
1.0
 23
0.0
 33
0.0
 40
0.0
 40
0.0
 40
0.0
 40
0.0
 40
1.0
 40
1.0
 40
1.0
 40
2.0
 40
2.0
 40
2.0
 40
3.0
 40
3.0
 40
3.0
 40
4.0
 40
4.0
 40
4.0
 40
5.0
 40
5.0
 40
5.0
 40
6.0
 40
6.0
 40
6.0
 40
7.0
 40
7.0
 40
7.0
 40
8.0
 40
8.0
 40
8.0
 40
9.0
 40
9.0
 40
9.0
 40
10.0
 40
10.0
 40
10.0
 40
11.0
 40
11.0
 40
11.0
 40
12.0
 40
12.0
 40
12.0
 40
13.0
 40
13.0
 40
13.0
 40
14.0
 40
14.0
 40
14.0
 40
15.0
 40
15.0
 40
15.0
 40
16.0
 40
16.0
 40
16.0
 40
17.0
 40
17.0
 40
17.0
 40
18.0
 40
18.0
 40
18.0
 40
19.0
 40
19.0
 40
19.0
 40
20.0
 40
20.0
 40
20.0
 40
21.0
 40
21.0
 40
21.0
 40
21.0
 10
57.94598929757948
 20
-122.1236395636531
 30
0.0
 10
57.94598929757948
 20
-122.1236395636531
 30
0.0
 10
57.94598929757948
 20
-122.490369978058
 30
0.0
 10
57.94598929757948
 20
-122.490369978058
 30
0.0
 10
57.94598929757948
 20
-122.490369978058
 30
0.0
 10
57.69501409147902
 20
-122.490369978058
 30
0.0
 10
57.69501409147902
 20
-122.490369978058
 30
0.0
 10
57.69501409147902
 20
-122.490369978058
 30
0.0
 10
57.69501409147902
 20
-123.2829141944397
 30
0.0
 10
57.69501409147902
 20
-123.2829141944397
 30
0.0
 10
57.80784096862096
 20
-123.2462239275218
 30
0.0
 10
57.88397757884498
 20
-123.2179741445427
 30
0.0
 10
57.97423908055853
 20
-123.1842122087873
 30
0.0
 10
57.9573581126808
 20
-123.3111639774187
 30
0.0
 10
57.94598929757948
 20
-123.3929849951934
 30
0.0
 10
57.94598929757948
 20
-123.483246496907
 30
0.0
 10
57.94598929757948
 20
-123.5199367638249
 30
0.0
 10
57.94891762874194
 20
-123.5452582156415
 30
0.0
 10
57.95167370513014
 20
-123.5790201513969
 30
0.0
 10
57.72601995084627
 20
-123.6692816531105
 30
0.0
 10
57.26058755078902
 20
-123.8132866443939
 30
0.0
 10
57.17601045662614
 20
-123.8386080962105
 30
0.0
 10
57.15620115758595
 20
-123.8978637385568
 30
0.0
 10
57.14776067364709
 20
-123.9147447064345
 30
0.0
 10
57.1279513746069
 20
-123.9147447064345
 30
0.0
 10
57.09987384640212
 20
-123.9147447064345
 30
0.0
 10
57.09143336246326
 20
-123.8894232546179
 30
0.0
 10
57.0857489549126
 20
-123.8668578791895
 30
0.0
 10
57.0857489549126
 20
-123.8668578791895
 30
0.0
 10
56.97860648532132
 20
-123.4634371978668
 30
0.0
 10
56.97860648532132
 20
-123.4634371978668
 30
0.0
 10
57.15912948874841
 20
-123.4267469309489
 30
0.0
 10
57.22389728387111
 20
-123.4098659630712
 30
0.0
 10
57.28039684982921
 20
-123.3957410715816
 30
0.0
 10
57.28039684982921
 20
-123.3957410715816
 30
0.0
 10
57.28039684982921
 20
-122.490369978058
 30
0.0
 10
57.28039684982921
 20
-122.490369978058
 30
0.0
 10
57.28039684982921
 20
-122.490369978058
 30
0.0
 10
57.04630261160649
 20
-122.490369978058
 30
0.0
 10
57.04630261160649
 20
-122.490369978058
 30
0.0
 10
57.04630261160649
 20
-122.490369978058
 30
0.0
 10
57.04630261160649
 20
-122.1236395636531
 30
0.0
 10
57.04630261160649
 20
-122.1236395636531
 30
0.0
 10
57.04630261160649
 20
-122.1236395636531
 30
0.0
 10
57.28039684982921
 20
-122.1236395636531
 30
0.0
 10
57.28039684982921
 20
-122.1236395636531
 30
0.0
 10
57.28039684982921
 20
-122.1236395636531
 30
0.0
 10
57.28039684982921
 20
-121.4608031922911
 30
0.0
 10
57.28039684982921
 20
-121.4608031922911
 30
0.0
 10
57.28039684982921
 20
-121.4608031922911
 30
0.0
 10
57.7373887659476
 20
-121.4890529752701
 30
0.0
 10
57.7373887659476
 20
-121.4890529752701
 30
0.0
 10
57.75702581021353
 20
-121.4890529752701
 30
0.0
 10
57.77390677809124
 20
-121.5002495355972
 30
0.0
 10
57.77390677809124
 20
-121.5200588346374
 30
0.0
 10
57.77390677809124
 20
-121.5426242100657
 30
0.0
 10
57.75426973382532
 20
-121.5510646940046
 30
0.0
 10
57.69501409147902
 20
-121.5708739930448
 30
0.0
 10
57.69501409147902
 20
-121.5708739930448
 30
0.0
 10
57.69501409147902
 20
-122.1236395636531
 30
0.0
 10
57.69501409147902
 20
-122.1236395636531
 30
0.0
 10
57.69501409147902
 20
-122.1236395636531
 30
0.0
 10
57.94598929757948
 20
-122.1236395636531
 30
0.0
 10
57.94598929757948
 20
-122.1236395636531
 30
0.0
  0
SPLINE
  5
81
330
41
100
AcDbEntity
  8
_U+30EC_U+30A4_U+30E4_U+30FC 1
370
     0
100
AcDbSpline
210
0.0
220
0.0
230
1.0
 70
    11
 71
     3
 72
    74
 73
    70
 74
     0
 42
0.0000000001
 43
0.0000000001
 12
1.0
 22
0.0
 32
0.0
 13
1.0
 23
0.0
 33
0.0
 40
0.0
 40
0.0
 40
0.0
 40
0.0
 40
1.0
 40
1.0
 40
1.0
 40
2.0
 40
2.0
 40
2.0
 40
3.0
 40
3.0
 40
3.0
 40
4.0
 40
4.0
 40
4.0
 40
5.0
 40
5.0
 40
5.0
 40
6.0
 40
6.0
 40
6.0
 40
7.0
 40
7.0
 40
7.0
 40
8.0
 40
8.0
 40
8.0
 40
9.0
 40
9.0
 40
9.0
 40
10.0
 40
10.0
 40
10.0
 40
11.0
 40
11.0
 40
11.0
 40
12.0
 40
12.0
 40
12.0
 40
13.0
 40
13.0
 40
13.0
 40
14.0
 40
14.0
 40
14.0
 40
15.0
 40
15.0
 40
15.0
 40
16.0
 40
16.0
 40
16.0
 40
17.0
 40
17.0
 40
17.0
 40
18.0
 40
18.0
 40
18.0
 40
19.0
 40
19.0
 40
19.0
 40
20.0
 40
20.0
 40
20.0
 40
21.0
 40
21.0
 40
21.0
 40
22.0
 40
22.0
 40
22.0
 40
23.0
 40
23.0
 40
23.0
 40
23.0
 10
58.62863496798173
 20
-122.2702283765505
 30
0.0
 10
58.62863496798173
 20
-122.2702283765505
 30
0.0
 10
58.62863496798173
 20
-121.4241129253731
 30
0.0
 10
58.62863496798173
 20
-121.4241129253731
 30
0.0
 10
58.62863496798173
 20
-121.4241129253731
 30
0.0
 10
59.04325220963155
 20
-121.4494343771897
 30
0.0
 10
59.04325220963155
 20
-121.4494343771897
 30
0.0
 10
59.06013317750927
 20
-121.4494343771897
 30
0.0
 10
59.08562688410012
 20
-121.4578748611286
 30
0.0
 10
59.08562688410012
 20
-121.4806124913312
 30
0.0
 10
59.08562688410012
 20
-121.5030056119854
 30
0.0
 10
59.0715019926106
 20
-121.508690019536
 30
0.0
 10
59.01793075781497
 20
-121.5312553949644
 30
0.0
 10
59.01793075781497
 20
-121.5312553949644
 30
0.0
 10
59.01793075781497
 20
-122.1095146721636
 30
0.0
 10
59.01793075781497
 20
-122.1095146721636
 30
0.0
 10
59.01793075781497
 20
-122.1095146721636
 30
0.0
 10
59.40154214009753
 20
-121.9488009677767
 30
0.0
 10
59.40154214009753
 20
-121.9488009677767
 30
0.0
 10
59.40154214009753
 20
-121.9488009677767
 30
0.0
 10
59.57362465958576
 20
-122.0306219855514
 30
0.0
 10
59.57362465958576
 20
-122.0306219855514
 30
0.0
 10
59.57362465958576
 20
-122.0306219855514
 30
0.0
 10
59.57362465958576
 20
-123.0572604401558
 30
0.0
 10
59.57362465958576
 20
-123.0572604401558
 30
0.0
 10
59.57362465958576
 20
-123.1447658654812
 30
0.0
 10
59.57362465958576
 20
-123.2885986019904
 30
0.0
 10
59.40429821648573
 20
-123.3506103207249
 30
0.0
 10
59.48887531064862
 20
-123.41830644701
 30
0.0
 10
59.54261880021851
 20
-123.4465562299891
 30
0.0
 10
59.68076712917703
 20
-123.5028835411729
 30
0.0
 10
59.61014267172941
 20
-123.8978637385568
 30
0.0
 10
59.47199434277089
 20
-123.9655598648419
 30
0.0
 10
59.15883516316168
 20
-123.9655598648419
 30
0.0
 10
59.15883516316168
 20
-123.9655598648419
 30
0.0
 10
58.50736760690094
 20
-123.9655598648419
 30
0.0
 10
58.50736760690094
 20
-123.9655598648419
 30
0.0
 10
58.32116019592318
 20
-123.9655598648419
 30
0.0
 10
58.08430988131226
 20
-123.9400661582511
 30
0.0
 10
58.08430988131226
 20
-123.5988294504371
 30
0.0
 10
58.08430988131226
 20
-123.5988294504371
 30
0.0
 10
58.08430988131226
 20
-122.907743296096
 30
0.0
 10
58.08430988131226
 20
-122.907743296096
 30
0.0
 10
58.08430988131226
 20
-122.907743296096
 30
0.0
 10
57.88122150245678
 20
-122.9923203902589
 30
0.0
 10
57.88122150245678
 20
-122.9923203902589
 30
0.0
 10
57.88122150245678
 20
-122.9923203902589
 30
0.0
 10
57.742900918724
 20
-122.6398871221178
 30
0.0
 10
57.742900918724
 20
-122.6398871221178
 30
0.0
 10
57.742900918724
 20
-122.6398871221178
 30
0.0
 10
58.08430988131226
 20
-122.4988104619968
 30
0.0
 10
58.08430988131226
 20
-122.4988104619968
 30
0.0
 10
58.08430988131226
 20
-122.4988104619968
 30
0.0
 10
58.08430988131226
 20
-121.6160047439016
 30
0.0
 10
58.08430988131226
 20
-121.6160047439016
 30
0.0
 10
58.08430988131226
 20
-121.6160047439016
 30
0.0
 10
58.52149249839047
 20
-121.6470106032688
 30
0.0
 10
58.52149249839047
 20
-121.6470106032688
 30
0.0
 10
58.53561738987999
 20
-121.6470106032688
 30
0.0
 10
58.56662324924724
 20
-121.649766679657
 30
0.0
 10
58.56662324924724
 20
-121.6780164626361
 30
0.0
 10
58.56662324924724
 20
-121.7033379144526
 30
0.0
 10
58.55249835775771
 20
-121.7062662456151
 30
0.0
 10
58.49324271541141
 20
-121.7286593662692
 30
0.0
 10
58.49324271541141
 20
-121.7286593662692
 30
0.0
 10
58.49324271541141
 20
-122.3267279425086
 30
0.0
 10
58.49324271541141
 20
-122.3267279425086
 30
0.0
 10
58.49324271541141
 20
-122.3267279425086
 30
0.0
 10
58.62863496798173
 20
-122.2702283765505
 30
0.0
 10
58.62863496798173
 20
-122.2702283765505
 30
0.0
  0
SPLINE
  5
82
330
41
100
AcDbEntity
  8
_U+30EC_U+30A4_U+30E4_U+30FC 1
370
     0
100
AcDbSpline
210
0.0
220
0.0
230
1.0
 70
    11
 71
     3
 72
    35
 73
    31
 74
     0
 42
0.0000000001
 43
0.0000000001
 12
1.0
 22
0.0
 32
0.0
 13
1.0
 23
0.0
 33
0.0
 40
0.0
 40
0.0
 40
0.0
 40
0.0
 40
1.0
 40
1.0
 40
1.0
 40
2.0
 40
2.0
 40
2.0
 40
3.0
 40
3.0
 40
3.0
 40
4.0
 40
4.0
 40
4.0
 40
5.0
 40
5.0
 40
5.0
 40
6.0
 40
6.0
 40
6.0
 40
7.0
 40
7.0
 40
7.0
 40
8.0
 40
8.0
 40
8.0
 40
9.0
 40
9.0
 40
9.0
 40
10.0
 40
10.0
 40
10.0
 40
10.0
 10
58.49324271541141
 20
-122.7356607766078
 30
0.0
 10
58.49324271541141
 20
-122.7356607766078
 30
0.0
 10
58.49324271541141
 20
-123.4577527903161
 30
0.0
 10
58.49324271541141
 20
-123.4577527903161
 30
0.0
 10
58.49324271541141
 20
-123.5170084326624
 30
0.0
 10
58.49324271541141
 20
-123.5988294504371
 30
0.0
 10
58.60606959255335
 20
-123.5988294504371
 30
0.0
 10
58.60606959255335
 20
-123.5988294504371
 30
0.0
 10
59.0742580689988
 20
-123.5988294504371
 30
0.0
 10
59.0742580689988
 20
-123.5988294504371
 30
0.0
 10
59.23221569699751
 20
-123.5988294504371
 30
0.0
 10
59.28303085540494
 20
-123.5452582156415
 30
0.0
 10
59.30835230722153
 20
-123.3674912886026
 30
0.0
 10
59.24909666487523
 20
-123.3731756961532
 30
0.0
 10
59.21533472911978
 20
-123.3761040273157
 30
0.0
 10
59.14195419528396
 20
-123.3761040273157
 30
0.0
 10
59.11938881985557
 20
-123.2236585520934
 30
0.0
 10
59.10526392836605
 20
-123.1306409739916
 30
0.0
 10
59.01793075781497
 20
-122.98387990632
 30
0.0
 10
59.01793075781497
 20
-122.98387990632
 30
0.0
 10
59.01793075781497
 20
-123.3761040273157
 30
0.0
 10
59.01793075781497
 20
-123.3761040273157
 30
0.0
 10
59.01793075781497
 20
-123.3761040273157
 30
0.0
 10
58.62863496798173
 20
-123.3761040273157
 30
0.0
 10
58.62863496798173
 20
-123.3761040273157
 30
0.0
 10
58.62863496798173
 20
-123.3761040273157
 30
0.0
 10
58.62863496798173
 20
-122.6793334654239
 30
0.0
 10
58.62863496798173
 20
-122.6793334654239
 30
0.0
 10
58.62863496798173
 20
-122.6793334654239
 30
0.0
 10
58.49324271541141
 20
-122.7356607766078
 30
0.0
 10
58.49324271541141
 20
-122.7356607766078
 30
0.0
  0
SPLINE
  5
83
330
41
100
AcDbEntity
  8
_U+30EC_U+30A4_U+30E4_U+30FC 1
370
     0
100
AcDbSpline
210
0.0
220
0.0
230
1.0
 70
    11
 71
     3
 72
    20
 73
    16
 74
     0
 42
0.0000000001
 43
0.0000000001
 12
1.0
 22
0.0
 32
0.0
 13
1.0
 23
0.0
 33
0.0
 40
0.0
 40
0.0
 40
0.0
 40
0.0
 40
1.0
 40
1.0
 40
1.0
 40
2.0
 40
2.0
 40
2.0
 40
3.0
 40
3.0
 40
3.0
 40
4.0
 40
4.0
 40
4.0
 40
5.0
 40
5.0
 40
5.0
 40
5.0
 10
59.01793075781497
 20
-122.5156914298746
 30
0.0
 10
59.01793075781497
 20
-122.5156914298746
 30
0.0
 10
59.01793075781497
 20
-122.9754394223811
 30
0.0
 10
59.01793075781497
 20
-122.9754394223811
 30
0.0
 10
59.05169269357042
 20
-122.9811238299318
 30
0.0
 10
59.07994247654946
 20
-122.98387990632
 30
0.0
 10
59.10526392836605
 20
-122.98387990632
 30
0.0
 10
59.17588838581367
 20
-122.98387990632
 30
0.0
 10
59.17588838581367
 20
-122.9444335630139
 30
0.0
 10
59.17588838581367
 20
-122.8936184046065
 30
0.0
 10
59.17588838581367
 20
-122.8936184046065
 30
0.0
 10
59.17588838581367
 20
-122.4507513799776
 30
0.0
 10
59.17588838581367
 20
-122.4507513799776
 30
0.0
 10
59.17588838581367
 20
-122.4507513799776
 30
0.0
 10
59.01793075781497
 20
-122.5156914298746
 30
0.0
 10
59.01793075781497
 20
-122.5156914298746
 30
0.0
  0
HATCH
  5
84
330
41
100
AcDbEntity
  8
_U+30EC_U+30A4_U+30E4_U+30FC 1
 62
   179
420
  2234388
100
AcDbHatch
 10
0.0
 20
0.0
 30
0.0
210
0.0
220
0.0
230
1.0
  2
SOLID
 70
     1
 71
     0
 91
        4
 92
        1
 93
        1
 72
     4
 94
        3
 73
     0
 74
     1
 95
       68
 96
       64
 40
0.0
 40
0.0
 40
0.0
 40
0.0
 40
1.0
 40
1.0
 40
1.0
 40
2.0
 40
2.0
 40
2.0
 40
3.0
 40
3.0
 40
3.0
 40
4.0
 40
4.0
 40
4.0
 40
5.0
 40
5.0
 40
5.0
 40
6.0
 40
6.0
 40
6.0
 40
7.0
 40
7.0
 40
7.0
 40
8.0
 40
8.0
 40
8.0
 40
9.0
 40
9.0
 40
9.0
 40
10.0
 40
10.0
 40
10.0
 40
11.0
 40
11.0
 40
11.0
 40
12.0
 40
12.0
 40
12.0
 40
13.0
 40
13.0
 40
13.0
 40
14.0
 40
14.0
 40
14.0
 40
15.0
 40
15.0
 40
15.0
 40
16.0
 40
16.0
 40
16.0
 40
17.0
 40
17.0
 40
17.0
 40
18.0
 40
18.0
 40
18.0
 40
19.0
 40
19.0
 40
19.0
 40
20.0
 40
20.0
 40
20.0
 40
21.0
 40
21.0
 40
21.0
 40
21.0
 10
57.94598929757948
 20
-122.1236395636531
 10
57.94598929757948
 20
-122.1236395636531
 10
57.94598929757948
 20
-122.490369978058
 10
57.94598929757948
 20
-122.490369978058
 10
57.94598929757948
 20
-122.490369978058
 10
57.69501409147902
 20
-122.490369978058
 10
57.69501409147902
 20
-122.490369978058
 10
57.69501409147902
 20
-122.490369978058
 10
57.69501409147902
 20
-123.2829141944397
 10
57.69501409147902
 20
-123.2829141944397
 10
57.80784096862096
 20
-123.2462239275218
 10
57.88397757884498
 20
-123.2179741445427
 10
57.97423908055853
 20
-123.1842122087873
 10
57.9573581126808
 20
-123.3111639774187
 10
57.94598929757948
 20
-123.3929849951934
 10
57.94598929757948
 20
-123.483246496907
 10
57.94598929757948
 20
-123.5199367638249
 10
57.94891762874194
 20
-123.5452582156415
 10
57.95167370513014
 20
-123.5790201513969
 10
57.72601995084627
 20
-123.6692816531105
 10
57.26058755078902
 20
-123.8132866443939
 10
57.17601045662614
 20
-123.8386080962105
 10
57.15620115758595
 20
-123.8978637385568
 10
57.14776067364709
 20
-123.9147447064345
 10
57.1279513746069
 20
-123.9147447064345
 10
57.09987384640212
 20
-123.9147447064345
 10
57.09143336246326
 20
-123.8894232546179
 10
57.0857489549126
 20
-123.8668578791895
 10
57.0857489549126
 20
-123.8668578791895
 10
56.97860648532132
 20
-123.4634371978668
 10
56.97860648532132
 20
-123.4634371978668
 10
57.15912948874841
 20
-123.4267469309489
 10
57.22389728387111
 20
-123.4098659630712
 10
57.28039684982921
 20
-123.3957410715816
 10
57.28039684982921
 20
-123.3957410715816
 10
57.28039684982921
 20
-122.490369978058
 10
57.28039684982921
 20
-122.490369978058
 10
57.28039684982921
 20
-122.490369978058
 10
57.04630261160649
 20
-122.490369978058
 10
57.04630261160649
 20
-122.490369978058
 10
57.04630261160649
 20
-122.490369978058
 10
57.04630261160649
 20
-122.1236395636531
 10
57.04630261160649
 20
-122.1236395636531
 10
57.04630261160649
 20
-122.1236395636531
 10
57.28039684982921
 20
-122.1236395636531
 10
57.28039684982921
 20
-122.1236395636531
 10
57.28039684982921
 20
-122.1236395636531
 10
57.28039684982921
 20
-121.4608031922911
 10
57.28039684982921
 20
-121.4608031922911
 10
57.28039684982921
 20
-121.4608031922911
 10
57.7373887659476
 20
-121.4890529752701
 10
57.7373887659476
 20
-121.4890529752701
 10
57.75702581021353
 20
-121.4890529752701
 10
57.77390677809124
 20
-121.5002495355972
 10
57.77390677809124
 20
-121.5200588346374
 10
57.77390677809124
 20
-121.5426242100657
 10
57.75426973382532
 20
-121.5510646940046
 10
57.69501409147902
 20
-121.5708739930448
 10
57.69501409147902
 20
-121.5708739930448
 10
57.69501409147902
 20
-122.1236395636531
 10
57.69501409147902
 20
-122.1236395636531
 10
57.69501409147902
 20
-122.1236395636531
 10
57.94598929757948
 20
-122.1236395636531
 10
57.94598929757948
 20
-122.1236395636531
 97
        0
 97
        0
 92
        1
 93
        1
 72
     4
 94
        3
 73
     0
 74
     1
 95
       74
 96
       70
 40
0.0
 40
0.0
 40
0.0
 40
0.0
 40
1.0
 40
1.0
 40
1.0
 40
2.0
 40
2.0
 40
2.0
 40
3.0
 40
3.0
 40
3.0
 40
4.0
 40
4.0
 40
4.0
 40
5.0
 40
5.0
 40
5.0
 40
6.0
 40
6.0
 40
6.0
 40
7.0
 40
7.0
 40
7.0
 40
8.0
 40
8.0
 40
8.0
 40
9.0
 40
9.0
 40
9.0
 40
10.0
 40
10.0
 40
10.0
 40
11.0
 40
11.0
 40
11.0
 40
12.0
 40
12.0
 40
12.0
 40
13.0
 40
13.0
 40
13.0
 40
14.0
 40
14.0
 40
14.0
 40
15.0
 40
15.0
 40
15.0
 40
16.0
 40
16.0
 40
16.0
 40
17.0
 40
17.0
 40
17.0
 40
18.0
 40
18.0
 40
18.0
 40
19.0
 40
19.0
 40
19.0
 40
20.0
 40
20.0
 40
20.0
 40
21.0
 40
21.0
 40
21.0
 40
22.0
 40
22.0
 40
22.0
 40
23.0
 40
23.0
 40
23.0
 40
23.0
 10
58.62863496798173
 20
-122.2702283765505
 10
58.62863496798173
 20
-122.2702283765505
 10
58.62863496798173
 20
-121.4241129253731
 10
58.62863496798173
 20
-121.4241129253731
 10
58.62863496798173
 20
-121.4241129253731
 10
59.04325220963155
 20
-121.4494343771897
 10
59.04325220963155
 20
-121.4494343771897
 10
59.06013317750927
 20
-121.4494343771897
 10
59.08562688410012
 20
-121.4578748611286
 10
59.08562688410012
 20
-121.4806124913312
 10
59.08562688410012
 20
-121.5030056119854
 10
59.0715019926106
 20
-121.508690019536
 10
59.01793075781497
 20
-121.5312553949644
 10
59.01793075781497
 20
-121.5312553949644
 10
59.01793075781497
 20
-122.1095146721636
 10
59.01793075781497
 20
-122.1095146721636
 10
59.01793075781497
 20
-122.1095146721636
 10
59.40154214009753
 20
-121.9488009677767
 10
59.40154214009753
 20
-121.9488009677767
 10
59.40154214009753
 20
-121.9488009677767
 10
59.57362465958576
 20
-122.0306219855514
 10
59.57362465958576
 20
-122.0306219855514
 10
59.57362465958576
 20
-122.0306219855514
 10
59.57362465958576
 20
-123.0572604401558
 10
59.57362465958576
 20
-123.0572604401558
 10
59.57362465958576
 20
-123.1447658654812
 10
59.57362465958576
 20
-123.2885986019904
 10
59.40429821648573
 20
-123.3506103207249
 10
59.48887531064862
 20
-123.41830644701
 10
59.54261880021851
 20
-123.4465562299891
 10
59.68076712917703
 20
-123.5028835411729
 10
59.61014267172941
 20
-123.8978637385568
 10
59.47199434277089
 20
-123.9655598648419
 10
59.15883516316168
 20
-123.9655598648419
 10
59.15883516316168
 20
-123.9655598648419
 10
58.50736760690094
 20
-123.9655598648419
 10
58.50736760690094
 20
-123.9655598648419
 10
58.32116019592318
 20
-123.9655598648419
 10
58.08430988131226
 20
-123.9400661582511
 10
58.08430988131226
 20
-123.5988294504371
 10
58.08430988131226
 20
-123.5988294504371
 10
58.08430988131226
 20
-122.907743296096
 10
58.08430988131226
 20
-122.907743296096
 10
58.08430988131226
 20
-122.907743296096
 10
57.88122150245678
 20
-122.9923203902589
 10
57.88122150245678
 20
-122.9923203902589
 10
57.88122150245678
 20
-122.9923203902589
 10
57.742900918724
 20
-122.6398871221178
 10
57.742900918724
 20
-122.6398871221178
 10
57.742900918724
 20
-122.6398871221178
 10
58.08430988131226
 20
-122.4988104619968
 10
58.08430988131226
 20
-122.4988104619968
 10
58.08430988131226
 20
-122.4988104619968
 10
58.08430988131226
 20
-121.6160047439016
 10
58.08430988131226
 20
-121.6160047439016
 10
58.08430988131226
 20
-121.6160047439016
 10
58.52149249839047
 20
-121.6470106032688
 10
58.52149249839047
 20
-121.6470106032688
 10
58.53561738987999
 20
-121.6470106032688
 10
58.56662324924724
 20
-121.649766679657
 10
58.56662324924724
 20
-121.6780164626361
 10
58.56662324924724
 20
-121.7033379144526
 10
58.55249835775771
 20
-121.7062662456151
 10
58.49324271541141
 20
-121.7286593662692
 10
58.49324271541141
 20
-121.7286593662692
 10
58.49324271541141
 20
-122.3267279425086
 10
58.49324271541141
 20
-122.3267279425086
 10
58.49324271541141
 20
-122.3267279425086
 10
58.62863496798173
 20
-122.2702283765505
 10
58.62863496798173
 20
-122.2702283765505
 97
        0
 97
        0
 92
        1
 93
        1
 72
     4
 94
        3
 73
     0
 74
     1
 95
       35
 96
       31
 40
0.0
 40
0.0
 40
0.0
 40
0.0
 40
1.0
 40
1.0
 40
1.0
 40
2.0
 40
2.0
 40
2.0
 40
3.0
 40
3.0
 40
3.0
 40
4.0
 40
4.0
 40
4.0
 40
5.0
 40
5.0
 40
5.0
 40
6.0
 40
6.0
 40
6.0
 40
7.0
 40
7.0
 40
7.0
 40
8.0
 40
8.0
 40
8.0
 40
9.0
 40
9.0
 40
9.0
 40
10.0
 40
10.0
 40
10.0
 40
10.0
 10
58.49324271541141
 20
-122.7356607766078
 10
58.49324271541141
 20
-122.7356607766078
 10
58.49324271541141
 20
-123.4577527903161
 10
58.49324271541141
 20
-123.4577527903161
 10
58.49324271541141
 20
-123.5170084326624
 10
58.49324271541141
 20
-123.5988294504371
 10
58.60606959255335
 20
-123.5988294504371
 10
58.60606959255335
 20
-123.5988294504371
 10
59.0742580689988
 20
-123.5988294504371
 10
59.0742580689988
 20
-123.5988294504371
 10
59.23221569699751
 20
-123.5988294504371
 10
59.28303085540494
 20
-123.5452582156415
 10
59.30835230722153
 20
-123.3674912886026
 10
59.24909666487523
 20
-123.3731756961532
 10
59.21533472911978
 20
-123.3761040273157
 10
59.14195419528396
 20
-123.3761040273157
 10
59.11938881985557
 20
-123.2236585520934
 10
59.10526392836605
 20
-123.1306409739916
 10
59.01793075781497
 20
-122.98387990632
 10
59.01793075781497
 20
-122.98387990632
 10
59.01793075781497
 20
-123.3761040273157
 10
59.01793075781497
 20
-123.3761040273157
 10
59.01793075781497
 20
-123.3761040273157
 10
58.62863496798173
 20
-123.3761040273157
 10
58.62863496798173
 20
-123.3761040273157
 10
58.62863496798173
 20
-123.3761040273157
 10
58.62863496798173
 20
-122.6793334654239
 10
58.62863496798173
 20
-122.6793334654239
 10
58.62863496798173
 20
-122.6793334654239
 10
58.49324271541141
 20
-122.7356607766078
 10
58.49324271541141
 20
-122.7356607766078
 97
        0
 97
        0
 92
        1
 93
        1
 72
     4
 94
        3
 73
     0
 74
     1
 95
       20
 96
       16
 40
0.0
 40
0.0
 40
0.0
 40
0.0
 40
1.0
 40
1.0
 40
1.0
 40
2.0
 40
2.0
 40
2.0
 40
3.0
 40
3.0
 40
3.0
 40
4.0
 40
4.0
 40
4.0
 40
5.0
 40
5.0
 40
5.0
 40
5.0
 10
59.01793075781497
 20
-122.5156914298746
 10
59.01793075781497
 20
-122.5156914298746
 10
59.01793075781497
 20
-122.9754394223811
 10
59.01793075781497
 20
-122.9754394223811
 10
59.05169269357042
 20
-122.9811238299318
 10
59.07994247654946
 20
-122.98387990632
 10
59.10526392836605
 20
-122.98387990632
 10
59.17588838581367
 20
-122.98387990632
 10
59.17588838581367
 20
-122.9444335630139
 10
59.17588838581367
 20
-122.8936184046065
 10
59.17588838581367
 20
-122.8936184046065
 10
59.17588838581367
 20
-122.4507513799776
 10
59.17588838581367
 20
-122.4507513799776
 10
59.17588838581367
 20
-122.4507513799776
 10
59.01793075781497
 20
-122.5156914298746
 10
59.01793075781497
 20
-122.5156914298746
 97
        0
 97
        0
 75
     2
 76
     1
 98
        0
  0
SPLINE
  5
85
330
41
100
AcDbEntity
  8
_U+30EC_U+30A4_U+30E4_U+30FC 1
370
     0
100
AcDbSpline
210
0.0
220
0.0
230
1.0
 70
    11
 71
     3
 72
    95
 73
    91
 74
     0
 42
0.0000000001
 43
0.0000000001
 12
1.0
 22
0.0
 32
0.0
 13
1.0
 23
0.0
 33
0.0
 40
0.0
 40
0.0
 40
0.0
 40
0.0
 40
1.0
 40
1.0
 40
1.0
 40
2.0
 40
2.0
 40
2.0
 40
3.0
 40
3.0
 40
3.0
 40
4.0
 40
4.0
 40
4.0
 40
5.0
 40
5.0
 40
5.0
 40
6.0
 40
6.0
 40
6.0
 40
7.0
 40
7.0
 40
7.0
 40
8.0
 40
8.0
 40
8.0
 40
9.0
 40
9.0
 40
9.0
 40
10.0
 40
10.0
 40
10.0
 40
11.0
 40
11.0
 40
11.0
 40
12.0
 40
12.0
 40
12.0
 40
13.0
 40
13.0
 40
13.0
 40
14.0
 40
14.0
 40
14.0
 40
15.0
 40
15.0
 40
15.0
 40
16.0
 40
16.0
 40
16.0
 40
17.0
 40
17.0
 40
17.0
 40
18.0
 40
18.0
 40
18.0
 40
19.0
 40
19.0
 40
19.0
 40
20.0
 40
20.0
 40
20.0
 40
21.0
 40
21.0
 40
21.0
 40
22.0
 40
22.0
 40
22.0
 40
23.0
 40
23.0
 40
23.0
 40
24.0
 40
24.0
 40
24.0
 40
25.0
 40
25.0
 40
25.0
 40
26.0
 40
26.0
 40
26.0
 40
27.0
 40
27.0
 40
27.0
 40
28.0
 40
28.0
 40
28.0
 40
29.0
 40
29.0
 40
29.0
 40
30.0
 40
30.0
 40
30.0
 40
30.0
 10
62.03755695063645
 20
-123.2744737105008
 30
0.0
 10
62.03755695063645
 20
-123.2744737105008
 30
0.0
 10
59.97842337910262
 20
-123.2744737105008
 30
0.0
 10
59.97842337910262
 20
-123.2744737105008
 30
0.0
 10
59.97842337910262
 20
-123.2744737105008
 30
0.0
 10
59.97842337910262
 20
-122.9501179705646
 30
0.0
 10
59.97842337910262
 20
-122.9501179705646
 30
0.0
 10
59.97842337910262
 20
-122.9501179705646
 30
0.0
 10
60.24920788424325
 20
-122.9501179705646
 30
0.0
 10
60.24920788424325
 20
-122.9501179705646
 30
0.0
 10
60.24920788424325
 20
-122.9501179705646
 30
0.0
 10
60.24920788424325
 20
-122.6031968551999
 30
0.0
 10
60.24920788424325
 20
-122.6031968551999
 30
0.0
 10
60.24920788424325
 20
-122.6031968551999
 30
0.0
 10
59.86284042557249
 20
-122.6031968551999
 30
0.0
 10
59.86284042557249
 20
-122.6031968551999
 30
0.0
 10
59.86284042557249
 20
-122.6031968551999
 30
0.0
 10
59.86284042557249
 20
-122.2788411152636
 30
0.0
 10
59.86284042557249
 20
-122.2788411152636
 30
0.0
 10
59.86284042557249
 20
-122.2788411152636
 30
0.0
 10
60.24920788424325
 20
-122.2788411152636
 30
0.0
 10
60.24920788424325
 20
-122.2788411152636
 30
0.0
 10
60.24920788424325
 20
-122.2788411152636
 30
0.0
 10
60.24920788424325
 20
-122.084193220347
 30
0.0
 10
60.24920788424325
 20
-122.084193220347
 30
0.0
 10
60.18995224189696
 20
-122.1405205315309
 30
0.0
 10
60.15894638252971
 20
-122.1660142381217
 30
0.0
 10
60.1195000392236
 20
-122.1997761738771
 30
0.0
 10
59.98135171026508
 20
-122.0897053731234
 30
0.0
 10
59.83459064259344
 20
-122.0306219855514
 30
0.0
 10
59.76121010875762
 20
-122.0051282789605
 30
0.0
 10
59.93329262824584
 20
-121.866979950002
 30
0.0
 10
60.17307127401924
 20
-121.6611354947583
 30
0.0
 10
60.33102890201794
 20
-121.3591728754762
 30
0.0
 10
60.33102890201794
 20
-121.3591728754762
 30
0.0
 10
60.7344495833407
 20
-121.4918090516583
 30
0.0
 10
60.7344495833407
 20
-121.4918090516583
 30
0.0
 10
60.74857447483022
 20
-121.497493459209
 30
0.0
 10
60.76252711154548
 20
-121.5059339431478
 30
0.0
 10
60.76252711154548
 20
-121.5228149110255
 30
0.0
 10
60.76252711154548
 20
-121.5595051779435
 30
0.0
 10
60.71739636068871
 20
-121.5679456618823
 30
0.0
 10
60.69775931642278
 20
-121.573630069433
 30
0.0
 10
60.68931883248392
 20
-121.5877549609225
 30
0.0
 10
60.6779500173826
 20
-121.5989515212496
 30
0.0
 10
60.66950953344374
 20
-121.6103203363509
 30
0.0
 10
60.66950953344374
 20
-121.6103203363509
 30
0.0
 10
62.32815075481727
 20
-121.6103203363509
 30
0.0
 10
62.32815075481727
 20
-121.6103203363509
 30
0.0
 10
62.32815075481727
 20
-121.6103203363509
 30
0.0
 10
62.32815075481727
 20
-121.9599975281038
 30
0.0
 10
62.32815075481727
 20
-121.9599975281038
 30
0.0
 10
62.32815075481727
 20
-121.9599975281038
 30
0.0
 10
62.07131888639189
 20
-121.9599975281038
 30
0.0
 10
62.07131888639189
 20
-121.9599975281038
 30
0.0
 10
62.07131888639189
 20
-121.9599975281038
 30
0.0
 10
62.07131888639189
 20
-122.2788411152636
 30
0.0
 10
62.07131888639189
 20
-122.2788411152636
 30
0.0
 10
62.07131888639189
 20
-122.2788411152636
 30
0.0
 10
62.45217419228626
 20
-122.2788411152636
 30
0.0
 10
62.45217419228626
 20
-122.2788411152636
 30
0.0
 10
62.45217419228626
 20
-122.2788411152636
 30
0.0
 10
62.45217419228626
 20
-122.6031968551999
 30
0.0
 10
62.45217419228626
 20
-122.6031968551999
 30
0.0
 10
62.45217419228626
 20
-122.6031968551999
 30
0.0
 10
62.07131888639189
 20
-122.6031968551999
 30
0.0
 10
62.07131888639189
 20
-122.6031968551999
 30
0.0
 10
62.07131888639189
 20
-122.6031968551999
 30
0.0
 10
62.07131888639189
 20
-122.9501179705646
 30
0.0
 10
62.07131888639189
 20
-122.9501179705646
 30
0.0
 10
62.07131888639189
 20
-122.9501179705646
 30
0.0
 10
62.36484102173518
 20
-122.9501179705646
 30
0.0
 10
62.36484102173518
 20
-122.9501179705646
 30
0.0
 10
62.36484102173518
 20
-122.9501179705646
 30
0.0
 10
62.36484102173518
 20
-123.2744737105008
 30
0.0
 10
62.36484102173518
 20
-123.2744737105008
 30
0.0
 10
62.36484102173518
 20
-123.2744737105008
 30
0.0
 10
62.04031302702465
 20
-123.2744737105008
 30
0.0
 10
62.04031302702465
 20
-123.2744737105008
 30
0.0
 10
62.13625893628885
 20
-123.3647352122144
 30
0.0
 10
62.2885321567369
 20
-123.5058118723354
 30
0.0
 10
62.48886445920417
 20
-123.7934773453537
 30
0.0
 10
62.36759709812338
 20
-123.8498046565376
 30
0.0
 10
62.1672647956561
 20
-123.9965657242092
 30
0.0
 10
62.13625893628885
 20
-124.0191310996376
 30
0.0
 10
62.04031302702465
 20
-123.8527329877
 30
0.0
 10
61.92473007349452
 20
-123.6749660606611
 30
0.0
 10
61.73301050974036
 20
-123.4887586496834
 30
0.0
 10
61.73301050974036
 20
-123.4887586496834
 30
0.0
 10
62.03755695063645
 20
-123.2744737105008
 30
0.0
 10
62.03755695063645
 20
-123.2744737105008
 30
0.0
  0
SPLINE
  5
86
330
41
100
AcDbEntity
  8
_U+30EC_U+30A4_U+30E4_U+30FC 1
370
     0
100
AcDbSpline
210
0.0
220
0.0
230
1.0
 70
    11
 71
     3
 72
    23
 73
    19
 74
     0
 42
0.0000000001
 43
0.0000000001
 12
1.0
 22
0.0
 32
0.0
 13
1.0
 23
0.0
 33
0.0
 40
0.0
 40
0.0
 40
0.0
 40
0.0
 40
1.0
 40
1.0
 40
1.0
 40
2.0
 40
2.0
 40
2.0
 40
3.0
 40
3.0
 40
3.0
 40
4.0
 40
4.0
 40
4.0
 40
5.0
 40
5.0
 40
5.0
 40
6.0
 40
6.0
 40
6.0
 40
6.0
 10
60.56805147140313
 20
-123.4493123063773
 30
0.0
 10
60.59337292321972
 20
-123.4634371978668
 30
0.0
 10
60.6159382986481
 20
-123.4748060129681
 30
0.0
 10
60.6159382986481
 20
-123.5001274647847
 30
0.0
 10
60.6159382986481
 20
-123.5311333241519
 30
0.0
 10
60.59612899960791
 20
-123.5338894005401
 30
0.0
 10
60.54548609597474
 20
-123.5425021392533
 30
0.0
 10
60.46073674703759
 20
-123.6975314360895
 30
0.0
 10
60.29433863510003
 20
-123.9261135215358
 30
0.0
 10
60.1787556815699
 20
-124.0444525514542
 30
0.0
 10
60.08005369591749
 20
-123.9373100818629
 30
0.0
 10
59.96429848761309
 20
-123.8725422867402
 30
0.0
 10
59.83183456620524
 20
-123.8187987971703
 30
0.0
 10
59.99823267814281
 20
-123.6920192833131
 30
0.0
 10
60.17582735040744
 20
-123.4691216054174
 30
0.0
 10
60.25213621540572
 20
-123.2913546783786
 30
0.0
 10
60.25213621540572
 20
-123.2913546783786
 30
0.0
 10
60.56805147140313
 20
-123.4493123063773
 30
0.0
 10
60.56805147140313
 20
-123.4493123063773
 30
0.0
  0
POLYLINE
  5
87
330
41
100
AcDbEntity
  8
_U+30EC_U+30A4_U+30E4_U+30FC 1
370
     0
100
AcDb2dPolyline
 66
     1
 10
0.0
 20
0.0
 30
0.0
  0
VERTEX
  5
88
330
87
100
AcDbEntity
  8
_U+30EC_U+30A4_U+30E4_U+30FC 1
370
     0
100
AcDbVertex
100
AcDb2dVertex
 10
60.58200410811839
 20
-122.2788411152636
 30
0.0
  0
VERTEX
  5
89
330
87
100
AcDbEntity
  8
_U+30EC_U+30A4_U+30E4_U+30FC 1
370
     0
100
AcDbVertex
100
AcDb2dVertex
 10
60.74564614366776
 20
-122.2788411152636
 30
0.0
  0
VERTEX
  5
8A
330
87
100
AcDbEntity
  8
_U+30EC_U+30A4_U+30E4_U+30FC 1
370
     0
100
AcDbVertex
100
AcDb2dVertex
 10
60.74564614366776
 20
-121.9599975281038
 30
0.0
  0
VERTEX
  5
8B
330
87
100
AcDbEntity
  8
_U+30EC_U+30A4_U+30E4_U+30FC 1
370
     0
100
AcDbVertex
100
AcDb2dVertex
 10
60.58200410811839
 20
-121.9599975281038
 30
0.0
  0
VERTEX
  5
8C
330
87
100
AcDbEntity
  8
_U+30EC_U+30A4_U+30E4_U+30FC 1
370
     0
100
AcDbVertex
100
AcDb2dVertex
 10
60.58200410811839
 20
-122.2788411152636
 30
0.0
  0
SEQEND
  5
8D
330
87
100
AcDbEntity
  8
_U+30EC_U+30A4_U+30E4_U+30FC 1
370
     0
  0
POLYLINE
  5
8E
330
41
100
AcDbEntity
  8
_U+30EC_U+30A4_U+30E4_U+30FC 1
370
     0
100
AcDb2dPolyline
 66
     1
 10
0.0
 20
0.0
 30
0.0
  0
VERTEX
  5
8F
330
8E
100
AcDbEntity
  8
_U+30EC_U+30A4_U+30E4_U+30FC 1
370
     0
100
AcDbVertex
100
AcDb2dVertex
 10
60.58200410811839
 20
-122.9501179705646
 30
0.0
  0
VERTEX
  5
90
330
8E
100
AcDbEntity
  8
_U+30EC_U+30A4_U+30E4_U+30FC 1
370
     0
100
AcDbVertex
100
AcDb2dVertex
 10
60.74564614366776
 20
-122.9501179705646
 30
0.0
  0
VERTEX
  5
91
330
8E
100
AcDbEntity
  8
_U+30EC_U+30A4_U+30E4_U+30FC 1
370
     0
100
AcDbVertex
100
AcDb2dVertex
 10
60.74564614366776
 20
-122.6031968551999
 30
0.0
  0
VERTEX
  5
92
330
8E
100
AcDbEntity
  8
_U+30EC_U+30A4_U+30E4_U+30FC 1
370
     0
100
AcDbVertex
100
AcDb2dVertex
 10
60.58200410811839
 20
-122.6031968551999
 30
0.0
  0
VERTEX
  5
93
330
8E
100
AcDbEntity
  8
_U+30EC_U+30A4_U+30E4_U+30FC 1
370
     0
100
AcDbVertex
100
AcDb2dVertex
 10
60.58200410811839
 20
-122.9501179705646
 30
0.0
  0
SEQEND
  5
94
330
8E
100
AcDbEntity
  8
_U+30EC_U+30A4_U+30E4_U+30FC 1
370
     0
  0
SPLINE
  5
95
330
41
100
AcDbEntity
  8
_U+30EC_U+30A4_U+30E4_U+30FC 1
370
     0
100
AcDbSpline
210
0.0
220
0.0
230
1.0
 70
    11
 71
     3
 72
    17
 73
    13
 74
     0
 42
0.0000000001
 43
0.0000000001
 12
1.0
 22
0.0
 32
0.0
 13
1.0
 23
0.0
 33
0.0
 40
0.0
 40
0.0
 40
0.0
 40
0.0
 40
1.0
 40
1.0
 40
1.0
 40
2.0
 40
2.0
 40
2.0
 40
3.0
 40
3.0
 40
3.0
 40
4.0
 40
4.0
 40
4.0
 40
4.0
 10
60.98818086582935
 20
-123.353366397113
 30
0.0
 10
61.08412677509355
 20
-123.5395738080908
 30
0.0
 10
61.12925752595033
 20
-123.6975314360895
 30
0.0
 10
61.16870386925644
 20
-123.9063042224956
 30
0.0
 10
61.010918496032
 20
-123.9345540054747
 30
0.0
 10
60.88672280378874
 20
-123.9712442723926
 30
0.0
 10
60.75701495876908
 20
-124.0163750232494
 30
0.0
 10
60.74564614366776
 20
-123.928869597924
 30
0.0
 10
60.72032469185117
 20
-123.6890909521507
 30
0.0
 10
60.62437878258697
 20
-123.4493123063773
 30
0.0
 10
60.62437878258697
 20
-123.4493123063773
 30
0.0
 10
60.98818086582935
 20
-123.353366397113
 30
0.0
 10
60.98818086582935
 20
-123.353366397113
 30
0.0
  0
POLYLINE
  5
96
330
41
100
AcDbEntity
  8
_U+30EC_U+30A4_U+30E4_U+30FC 1
370
     0
100
AcDb2dPolyline
 66
     1
 10
0.0
 20
0.0
 30
0.0
  0
VERTEX
  5
97
330
96
100
AcDbEntity
  8
_U+30EC_U+30A4_U+30E4_U+30FC 1
370
     0
100
AcDbVertex
100
AcDb2dVertex
 10
61.07568629115469
 20
-122.2788411152636
 30
0.0
  0
VERTEX
  5
98
330
96
100
AcDbEntity
  8
_U+30EC_U+30A4_U+30E4_U+30FC 1
370
     0
100
AcDbVertex
100
AcDb2dVertex
 10
61.23932832670406
 20
-122.2788411152636
 30
0.0
  0
VERTEX
  5
99
330
96
100
AcDbEntity
  8
_U+30EC_U+30A4_U+30E4_U+30FC 1
370
     0
100
AcDbVertex
100
AcDb2dVertex
 10
61.23932832670406
 20
-121.9599975281038
 30
0.0
  0
VERTEX
  5
9A
330
96
100
AcDbEntity
  8
_U+30EC_U+30A4_U+30E4_U+30FC 1
370
     0
100
AcDbVertex
100
AcDb2dVertex
 10
61.07568629115469
 20
-121.9599975281038
 30
0.0
  0
VERTEX
  5
9B
330
96
100
AcDbEntity
  8
_U+30EC_U+30A4_U+30E4_U+30FC 1
370
     0
100
AcDbVertex
100
AcDb2dVertex
 10
61.07568629115469
 20
-122.2788411152636
 30
0.0
  0
SEQEND
  5
9C
330
96
100
AcDbEntity
  8
_U+30EC_U+30A4_U+30E4_U+30FC 1
370
     0
  0
POLYLINE
  5
9D
330
41
100
AcDbEntity
  8
_U+30EC_U+30A4_U+30E4_U+30FC 1
370
     0
100
AcDb2dPolyline
 66
     1
 10
0.0
 20
0.0
 30
0.0
  0
VERTEX
  5
9E
330
9D
100
AcDbEntity
  8
_U+30EC_U+30A4_U+30E4_U+30FC 1
370
     0
100
AcDbVertex
100
AcDb2dVertex
 10
61.07568629115469
 20
-122.9501179705646
 30
0.0
  0
VERTEX
  5
9F
330
9D
100
AcDbEntity
  8
_U+30EC_U+30A4_U+30E4_U+30FC 1
370
     0
100
AcDbVertex
100
AcDb2dVertex
 10
61.23932832670406
 20
-122.9501179705646
 30
0.0
  0
VERTEX
  5
A0
330
9D
100
AcDbEntity
  8
_U+30EC_U+30A4_U+30E4_U+30FC 1
370
     0
100
AcDbVertex
100
AcDb2dVertex
 10
61.23932832670406
 20
-122.6031968551999
 30
0.0
  0
VERTEX
  5
A1
330
9D
100
AcDbEntity
  8
_U+30EC_U+30A4_U+30E4_U+30FC 1
370
     0
100
AcDbVertex
100
AcDb2dVertex
 10
61.07568629115469
 20
-122.6031968551999
 30
0.0
  0
VERTEX
  5
A2
330
9D
100
AcDbEntity
  8
_U+30EC_U+30A4_U+30E4_U+30FC 1
370
     0
100
AcDbVertex
100
AcDb2dVertex
 10
61.07568629115469
 20
-122.9501179705646
 30
0.0
  0
SEQEND
  5
A3
330
9D
100
AcDbEntity
  8
_U+30EC_U+30A4_U+30E4_U+30FC 1
370
     0
  0
SPLINE
  5
A4
330
41
100
AcDbEntity
  8
_U+30EC_U+30A4_U+30E4_U+30FC 1
370
     0
100
AcDbSpline
210
0.0
220
0.0
230
1.0
 70
    11
 71
     3
 72
    17
 73
    13
 74
     0
 42
0.0000000001
 43
0.0000000001
 12
1.0
 22
0.0
 32
0.0
 13
1.0
 23
0.0
 33
0.0
 40
0.0
 40
0.0
 40
0.0
 40
0.0
 40
1.0
 40
1.0
 40
1.0
 40
2.0
 40
2.0
 40
2.0
 40
3.0
 40
3.0
 40
3.0
 40
4.0
 40
4.0
 40
4.0
 40
4.0
 10
61.56644014302853
 20
-123.3309732764589
 30
0.0
 10
61.69632024282245
 20
-123.5199367638249
 30
0.0
 10
61.76952852188401
 20
-123.7822807850267
 30
0.0
 10
61.7920938973124
 20
-123.8554890640882
 30
0.0
 10
61.5721245505792
 20
-123.9204291139852
 30
0.0
 10
61.53267820727309
 20
-123.9316256743122
 30
0.0
 10
61.40848251502982
 20
-123.9851969091079
 30
0.0
 10
61.33803031235647
 20
-123.7399061105581
 30
0.0
 10
61.28170300117263
 20
-123.5988294504371
 30
0.0
 10
61.20263805978615
 20
-123.4324313384995
 30
0.0
 10
61.20263805978615
 20
-123.4324313384995
 30
0.0
 10
61.56644014302853
 20
-123.3309732764589
 30
0.0
 10
61.56644014302853
 20
-123.3309732764589
 30
0.0
  0
POLYLINE
  5
A5
330
41
100
AcDbEntity
  8
_U+30EC_U+30A4_U+30E4_U+30FC 1
370
     0
100
AcDb2dPolyline
 66
     1
 10
0.0
 20
0.0
 30
0.0
  0
VERTEX
  5
A6
330
A5
100
AcDbEntity
  8
_U+30EC_U+30A4_U+30E4_U+30FC 1
370
     0
100
AcDbVertex
100
AcDb2dVertex
 10
61.56936847419099
 20
-121.9599975281038
 30
0.0
  0
VERTEX
  5
A7
330
A5
100
AcDbEntity
  8
_U+30EC_U+30A4_U+30E4_U+30FC 1
370
     0
100
AcDbVertex
100
AcDb2dVertex
 10
61.56936847419099
 20
-122.2788411152636
 30
0.0
  0
VERTEX
  5
A8
330
A5
100
AcDbEntity
  8
_U+30EC_U+30A4_U+30E4_U+30FC 1
370
     0
100
AcDbVertex
100
AcDb2dVertex
 10
61.73301050974036
 20
-122.2788411152636
 30
0.0
  0
VERTEX
  5
A9
330
A5
100
AcDbEntity
  8
_U+30EC_U+30A4_U+30E4_U+30FC 1
370
     0
100
AcDbVertex
100
AcDb2dVertex
 10
61.73301050974036
 20
-121.9599975281038
 30
0.0
  0
VERTEX
  5
AA
330
A5
100
AcDbEntity
  8
_U+30EC_U+30A4_U+30E4_U+30FC 1
370
     0
100
AcDbVertex
100
AcDb2dVertex
 10
61.56936847419099
 20
-121.9599975281038
 30
0.0
  0
SEQEND
  5
AB
330
A5
100
AcDbEntity
  8
_U+30EC_U+30A4_U+30E4_U+30FC 1
370
     0
  0
POLYLINE
  5
AC
330
41
100
AcDbEntity
  8
_U+30EC_U+30A4_U+30E4_U+30FC 1
370
     0
100
AcDb2dPolyline
 66
     1
 10
0.0
 20
0.0
 30
0.0
  0
VERTEX
  5
AD
330
AC
100
AcDbEntity
  8
_U+30EC_U+30A4_U+30E4_U+30FC 1
370
     0
100
AcDbVertex
100
AcDb2dVertex
 10
61.56936847419099
 20
-122.6031968551999
 30
0.0
  0
VERTEX
  5
AE
330
AC
100
AcDbEntity
  8
_U+30EC_U+30A4_U+30E4_U+30FC 1
370
     0
100
AcDbVertex
100
AcDb2dVertex
 10
61.56936847419099
 20
-122.9501179705646
 30
0.0
  0
VERTEX
  5
AF
330
AC
100
AcDbEntity
  8
_U+30EC_U+30A4_U+30E4_U+30FC 1
370
     0
100
AcDbVertex
100
AcDb2dVertex
 10
61.73301050974036
 20
-122.9501179705646
 30
0.0
  0
VERTEX
  5
B0
330
AC
100
AcDbEntity
  8
_U+30EC_U+30A4_U+30E4_U+30FC 1
370
     0
100
AcDbVertex
100
AcDb2dVertex
 10
61.73301050974036
 20
-122.6031968551999
 30
0.0
  0
VERTEX
  5
B1
330
AC
100
AcDbEntity
  8
_U+30EC_U+30A4_U+30E4_U+30FC 1
370
     0
100
AcDbVertex
100
AcDb2dVertex
 10
61.56936847419099
 20
-122.6031968551999
 30
0.0
  0
SEQEND
  5
B2
330
AC
100
AcDbEntity
  8
_U+30EC_U+30A4_U+30E4_U+30FC 1
370
     0
  0
HATCH
  5
B3
330
41
100
AcDbEntity
  8
_U+30EC_U+30A4_U+30E4_U+30FC 1
 62
   179
420
  2234388
100
AcDbHatch
 10
0.0
 20
0.0
 30
0.0
210
0.0
220
0.0
230
1.0
  2
SOLID
 70
     1
 71
     0
 91
       10
 92
        1
 93
        1
 72
     4
 94
        3
 73
     0
 74
     1
 95
       95
 96
       91
 40
0.0
 40
0.0
 40
0.0
 40
0.0
 40
1.0
 40
1.0
 40
1.0
 40
2.0
 40
2.0
 40
2.0
 40
3.0
 40
3.0
 40
3.0
 40
4.0
 40
4.0
 40
4.0
 40
5.0
 40
5.0
 40
5.0
 40
6.0
 40
6.0
 40
6.0
 40
7.0
 40
7.0
 40
7.0
 40
8.0
 40
8.0
 40
8.0
 40
9.0
 40
9.0
 40
9.0
 40
10.0
 40
10.0
 40
10.0
 40
11.0
 40
11.0
 40
11.0
 40
12.0
 40
12.0
 40
12.0
 40
13.0
 40
13.0
 40
13.0
 40
14.0
 40
14.0
 40
14.0
 40
15.0
 40
15.0
 40
15.0
 40
16.0
 40
16.0
 40
16.0
 40
17.0
 40
17.0
 40
17.0
 40
18.0
 40
18.0
 40
18.0
 40
19.0
 40
19.0
 40
19.0
 40
20.0
 40
20.0
 40
20.0
 40
21.0
 40
21.0
 40
21.0
 40
22.0
 40
22.0
 40
22.0
 40
23.0
 40
23.0
 40
23.0
 40
24.0
 40
24.0
 40
24.0
 40
25.0
 40
25.0
 40
25.0
 40
26.0
 40
26.0
 40
26.0
 40
27.0
 40
27.0
 40
27.0
 40
28.0
 40
28.0
 40
28.0
 40
29.0
 40
29.0
 40
29.0
 40
30.0
 40
30.0
 40
30.0
 40
30.0
 10
62.03755695063645
 20
-123.2744737105008
 10
62.03755695063645
 20
-123.2744737105008
 10
59.97842337910262
 20
-123.2744737105008
 10
59.97842337910262
 20
-123.2744737105008
 10
59.97842337910262
 20
-123.2744737105008
 10
59.97842337910262
 20
-122.9501179705646
 10
59.97842337910262
 20
-122.9501179705646
 10
59.97842337910262
 20
-122.9501179705646
 10
60.24920788424325
 20
-122.9501179705646
 10
60.24920788424325
 20
-122.9501179705646
 10
60.24920788424325
 20
-122.9501179705646
 10
60.24920788424325
 20
-122.6031968551999
 10
60.24920788424325
 20
-122.6031968551999
 10
60.24920788424325
 20
-122.6031968551999
 10
59.86284042557249
 20
-122.6031968551999
 10
59.86284042557249
 20
-122.6031968551999
 10
59.86284042557249
 20
-122.6031968551999
 10
59.86284042557249
 20
-122.2788411152636
 10
59.86284042557249
 20
-122.2788411152636
 10
59.86284042557249
 20
-122.2788411152636
 10
60.24920788424325
 20
-122.2788411152636
 10
60.24920788424325
 20
-122.2788411152636
 10
60.24920788424325
 20
-122.2788411152636
 10
60.24920788424325
 20
-122.084193220347
 10
60.24920788424325
 20
-122.084193220347
 10
60.18995224189696
 20
-122.1405205315309
 10
60.15894638252971
 20
-122.1660142381217
 10
60.1195000392236
 20
-122.1997761738771
 10
59.98135171026508
 20
-122.0897053731234
 10
59.83459064259344
 20
-122.0306219855514
 10
59.76121010875762
 20
-122.0051282789605
 10
59.93329262824584
 20
-121.866979950002
 10
60.17307127401924
 20
-121.6611354947583
 10
60.33102890201794
 20
-121.3591728754762
 10
60.33102890201794
 20
-121.3591728754762
 10
60.7344495833407
 20
-121.4918090516583
 10
60.7344495833407
 20
-121.4918090516583
 10
60.74857447483022
 20
-121.497493459209
 10
60.76252711154548
 20
-121.5059339431478
 10
60.76252711154548
 20
-121.5228149110255
 10
60.76252711154548
 20
-121.5595051779435
 10
60.71739636068871
 20
-121.5679456618823
 10
60.69775931642278
 20
-121.573630069433
 10
60.68931883248392
 20
-121.5877549609225
 10
60.6779500173826
 20
-121.5989515212496
 10
60.66950953344374
 20
-121.6103203363509
 10
60.66950953344374
 20
-121.6103203363509
 10
62.32815075481727
 20
-121.6103203363509
 10
62.32815075481727
 20
-121.6103203363509
 10
62.32815075481727
 20
-121.6103203363509
 10
62.32815075481727
 20
-121.9599975281038
 10
62.32815075481727
 20
-121.9599975281038
 10
62.32815075481727
 20
-121.9599975281038
 10
62.07131888639189
 20
-121.9599975281038
 10
62.07131888639189
 20
-121.9599975281038
 10
62.07131888639189
 20
-121.9599975281038
 10
62.07131888639189
 20
-122.2788411152636
 10
62.07131888639189
 20
-122.2788411152636
 10
62.07131888639189
 20
-122.2788411152636
 10
62.45217419228626
 20
-122.2788411152636
 10
62.45217419228626
 20
-122.2788411152636
 10
62.45217419228626
 20
-122.2788411152636
 10
62.45217419228626
 20
-122.6031968551999
 10
62.45217419228626
 20
-122.6031968551999
 10
62.45217419228626
 20
-122.6031968551999
 10
62.07131888639189
 20
-122.6031968551999
 10
62.07131888639189
 20
-122.6031968551999
 10
62.07131888639189
 20
-122.6031968551999
 10
62.07131888639189
 20
-122.9501179705646
 10
62.07131888639189
 20
-122.9501179705646
 10
62.07131888639189
 20
-122.9501179705646
 10
62.36484102173518
 20
-122.9501179705646
 10
62.36484102173518
 20
-122.9501179705646
 10
62.36484102173518
 20
-122.9501179705646
 10
62.36484102173518
 20
-123.2744737105008
 10
62.36484102173518
 20
-123.2744737105008
 10
62.36484102173518
 20
-123.2744737105008
 10
62.04031302702465
 20
-123.2744737105008
 10
62.04031302702465
 20
-123.2744737105008
 10
62.13625893628885
 20
-123.3647352122144
 10
62.2885321567369
 20
-123.5058118723354
 10
62.48886445920417
 20
-123.7934773453537
 10
62.36759709812338
 20
-123.8498046565376
 10
62.1672647956561
 20
-123.9965657242092
 10
62.13625893628885
 20
-124.0191310996376
 10
62.04031302702465
 20
-123.8527329877
 10
61.92473007349452
 20
-123.6749660606611
 10
61.73301050974036
 20
-123.4887586496834
 10
61.73301050974036
 20
-123.4887586496834
 10
62.03755695063645
 20
-123.2744737105008
 10
62.03755695063645
 20
-123.2744737105008
 97
        0
 97
        0
 92
        1
 93
        1
 72
     4
 94
        3
 73
     0
 74
     1
 95
       23
 96
       19
 40
0.0
 40
0.0
 40
0.0
 40
0.0
 40
1.0
 40
1.0
 40
1.0
 40
2.0
 40
2.0
 40
2.0
 40
3.0
 40
3.0
 40
3.0
 40
4.0
 40
4.0
 40
4.0
 40
5.0
 40
5.0
 40
5.0
 40
6.0
 40
6.0
 40
6.0
 40
6.0
 10
60.56805147140313
 20
-123.4493123063773
 10
60.59337292321972
 20
-123.4634371978668
 10
60.6159382986481
 20
-123.4748060129681
 10
60.6159382986481
 20
-123.5001274647847
 10
60.6159382986481
 20
-123.5311333241519
 10
60.59612899960791
 20
-123.5338894005401
 10
60.54548609597474
 20
-123.5425021392533
 10
60.46073674703759
 20
-123.6975314360895
 10
60.29433863510003
 20
-123.9261135215358
 10
60.1787556815699
 20
-124.0444525514542
 10
60.08005369591749
 20
-123.9373100818629
 10
59.96429848761309
 20
-123.8725422867402
 10
59.83183456620524
 20
-123.8187987971703
 10
59.99823267814281
 20
-123.6920192833131
 10
60.17582735040744
 20
-123.4691216054174
 10
60.25213621540572
 20
-123.2913546783786
 10
60.25213621540572
 20
-123.2913546783786
 10
60.56805147140313
 20
-123.4493123063773
 10
60.56805147140313
 20
-123.4493123063773
 97
        0
 97
        0
 92
        1
 93
        4
 72
     1
 10
60.58200410811839
 20
-122.2788411152636
 11
60.74564614366776
 21
-122.2788411152636
 72
     1
 10
60.74564614366776
 20
-122.2788411152636
 11
60.74564614366776
 21
-121.9599975281038
 72
     1
 10
60.74564614366776
 20
-121.9599975281038
 11
60.58200410811839
 21
-121.9599975281038
 72
     1
 10
60.58200410811839
 20
-121.9599975281038
 11
60.58200410811839
 21
-122.2788411152636
 97
        0
 92
        1
 93
        4
 72
     1
 10
60.58200410811839
 20
-122.9501179705646
 11
60.74564614366776
 21
-122.9501179705646
 72
     1
 10
60.74564614366776
 20
-122.9501179705646
 11
60.74564614366776
 21
-122.6031968551999
 72
     1
 10
60.74564614366776
 20
-122.6031968551999
 11
60.58200410811839
 21
-122.6031968551999
 72
     1
 10
60.58200410811839
 20
-122.6031968551999
 11
60.58200410811839
 21
-122.9501179705646
 97
        0
 92
        1
 93
        1
 72
     4
 94
        3
 73
     0
 74
     1
 95
       17
 96
       13
 40
0.0
 40
0.0
 40
0.0
 40
0.0
 40
1.0
 40
1.0
 40
1.0
 40
2.0
 40
2.0
 40
2.0
 40
3.0
 40
3.0
 40
3.0
 40
4.0
 40
4.0
 40
4.0
 40
4.0
 10
60.98818086582935
 20
-123.353366397113
 10
61.08412677509355
 20
-123.5395738080908
 10
61.12925752595033
 20
-123.6975314360895
 10
61.16870386925644
 20
-123.9063042224956
 10
61.010918496032
 20
-123.9345540054747
 10
60.88672280378874
 20
-123.9712442723926
 10
60.75701495876908
 20
-124.0163750232494
 10
60.74564614366776
 20
-123.928869597924
 10
60.72032469185117
 20
-123.6890909521507
 10
60.62437878258697
 20
-123.4493123063773
 10
60.62437878258697
 20
-123.4493123063773
 10
60.98818086582935
 20
-123.353366397113
 10
60.98818086582935
 20
-123.353366397113
 97
        0
 97
        0
 92
        1
 93
        4
 72
     1
 10
61.07568629115469
 20
-122.2788411152636
 11
61.23932832670406
 21
-122.2788411152636
 72
     1
 10
61.23932832670406
 20
-122.2788411152636
 11
61.23932832670406
 21
-121.9599975281038
 72
     1
 10
61.23932832670406
 20
-121.9599975281038
 11
61.07568629115469
 21
-121.9599975281038
 72
     1
 10
61.07568629115469
 20
-121.9599975281038
 11
61.07568629115469
 21
-122.2788411152636
 97
        0
 92
        1
 93
        4
 72
     1
 10
61.07568629115469
 20
-122.9501179705646
 11
61.23932832670406
 21
-122.9501179705646
 72
     1
 10
61.23932832670406
 20
-122.9501179705646
 11
61.23932832670406
 21
-122.6031968551999
 72
     1
 10
61.23932832670406
 20
-122.6031968551999
 11
61.07568629115469
 21
-122.6031968551999
 72
     1
 10
61.07568629115469
 20
-122.6031968551999
 11
61.07568629115469
 21
-122.9501179705646
 97
        0
 92
        1
 93
        1
 72
     4
 94
        3
 73
     0
 74
     1
 95
       17
 96
       13
 40
0.0
 40
0.0
 40
0.0
 40
0.0
 40
1.0
 40
1.0
 40
1.0
 40
2.0
 40
2.0
 40
2.0
 40
3.0
 40
3.0
 40
3.0
 40
4.0
 40
4.0
 40
4.0
 40
4.0
 10
61.56644014302853
 20
-123.3309732764589
 10
61.69632024282245
 20
-123.5199367638249
 10
61.76952852188401
 20
-123.7822807850267
 10
61.7920938973124
 20
-123.8554890640882
 10
61.5721245505792
 20
-123.9204291139852
 10
61.53267820727309
 20
-123.9316256743122
 10
61.40848251502982
 20
-123.9851969091079
 10
61.33803031235647
 20
-123.7399061105581
 10
61.28170300117263
 20
-123.5988294504371
 10
61.20263805978615
 20
-123.4324313384995
 10
61.20263805978615
 20
-123.4324313384995
 10
61.56644014302853
 20
-123.3309732764589
 10
61.56644014302853
 20
-123.3309732764589
 97
        0
 97
        0
 92
        1
 93
        4
 72
     1
 10
61.56936847419099
 20
-121.9599975281038
 11
61.56936847419099
 21
-122.2788411152636
 72
     1
 10
61.56936847419099
 20
-122.2788411152636
 11
61.73301050974036
 21
-122.2788411152636
 72
     1
 10
61.73301050974036
 20
-122.2788411152636
 11
61.73301050974036
 21
-121.9599975281038
 72
     1
 10
61.73301050974036
 20
-121.9599975281038
 11
61.56936847419099
 21
-121.9599975281038
 97
        0
 92
        1
 93
        4
 72
     1
 10
61.56936847419099
 20
-122.6031968551999
 11
61.56936847419099
 21
-122.9501179705646
 72
     1
 10
61.56936847419099
 20
-122.9501179705646
 11
61.73301050974036
 21
-122.9501179705646
 72
     1
 10
61.73301050974036
 20
-122.9501179705646
 11
61.73301050974036
 21
-122.6031968551999
 72
     1
 10
61.73301050974036
 20
-122.6031968551999
 11
61.56936847419099
 21
-122.6031968551999
 97
        0
 75
     2
 76
     1
 98
        0
  0
SPLINE
  5
B4
330
41
100
AcDbEntity
  8
_U+30EC_U+30A4_U+30E4_U+30FC 1
370
     0
100
AcDbSpline
210
0.0
220
0.0
230
1.0
 70
    11
 71
     3
 72
    23
 73
    19
 74
     0
 42
0.0000000001
 43
0.0000000001
 12
1.0
 22
0.0
 32
0.0
 13
1.0
 23
0.0
 33
0.0
 40
0.0
 40
0.0
 40
0.0
 40
0.0
 40
1.0
 40
1.0
 40
1.0
 40
2.0
 40
2.0
 40
2.0
 40
3.0
 40
3.0
 40
3.0
 40
4.0
 40
4.0
 40
4.0
 40
5.0
 40
5.0
 40
5.0
 40
6.0
 40
6.0
 40
6.0
 40
6.0
 10
62.96997204371932
 20
-121.3507323915373
 30
0.0
 10
63.13912623204508
 20
-121.5538207703928
 30
0.0
 10
63.4889756785722
 20
-121.9798068271439
 30
0.0
 10
63.4889756785722
 20
-122.6991427644641
 30
0.0
 10
63.4889756785722
 20
-123.41830644701
 30
0.0
 10
63.13912623204508
 20
-123.8442925037612
 30
0.0
 10
62.96997204371932
 20
-124.0473808826166
 30
0.0
 10
62.96997204371932
 20
-124.0473808826166
 30
0.0
 10
62.72175291400706
 20
-123.8301676122716
 30
0.0
 10
62.72175291400706
 20
-123.8301676122716
 30
0.0
 10
62.85990124296558
 20
-123.6608411691716
 30
0.0
 10
63.15049504714641
 20
-123.3054795698681
 30
0.0
 10
63.15325112353461
 20
-122.6991427644641
 30
0.0
 10
63.15325112353461
 20
-122.0926337042859
 30
0.0
 10
62.85990124296558
 20
-121.7372721049824
 30
0.0
 10
62.72175291400706
 20
-121.5679456618823
 30
0.0
 10
62.72175291400706
 20
-121.5679456618823
 30
0.0
 10
62.96997204371932
 20
-121.3507323915373
 30
0.0
 10
62.96997204371932
 20
-121.3507323915373
 30
0.0
  0
HATCH
  5
B5
330
41
100
AcDbEntity
  8
_U+30EC_U+30A4_U+30E4_U+30FC 1
 62
   179
420
  2234388
100
AcDbHatch
 10
0.0
 20
0.0
 30
0.0
210
0.0
220
0.0
230
1.0
  2
SOLID
 70
     1
 71
     0
 91
        1
 92
        1
 93
        1
 72
     4
 94
        3
 73
     0
 74
     1
 95
       23
 96
       19
 40
0.0
 40
0.0
 40
0.0
 40
0.0
 40
1.0
 40
1.0
 40
1.0
 40
2.0
 40
2.0
 40
2.0
 40
3.0
 40
3.0
 40
3.0
 40
4.0
 40
4.0
 40
4.0
 40
5.0
 40
5.0
 40
5.0
 40
6.0
 40
6.0
 40
6.0
 40
6.0
 10
62.96997204371932
 20
-121.3507323915373
 10
63.13912623204508
 20
-121.5538207703928
 10
63.4889756785722
 20
-121.9798068271439
 10
63.4889756785722
 20
-122.6991427644641
 10
63.4889756785722
 20
-123.41830644701
 10
63.13912623204508
 20
-123.8442925037612
 10
62.96997204371932
 20
-124.0473808826166
 10
62.96997204371932
 20
-124.0473808826166
 10
62.72175291400706
 20
-123.8301676122716
 10
62.72175291400706
 20
-123.8301676122716
 10
62.85990124296558
 20
-123.6608411691716
 10
63.15049504714641
 20
-123.3054795698681
 10
63.15325112353461
 20
-122.6991427644641
 10
63.15325112353461
 20
-122.0926337042859
 10
62.85990124296558
 20
-121.7372721049824
 10
62.72175291400706
 20
-121.5679456618823
 10
62.72175291400706
 20
-121.5679456618823
 10
62.96997204371932
 20
-121.3507323915373
 10
62.96997204371932
 20
-121.3507323915373
 97
        0
 97
        0
 75
     2
 76
     1
 98
        0
  0
ENDBLK
  5
44
330
41
100
AcDbEntity
  8
0
100
AcDbBlockEnd
  0
BLOCK
  5
150
330
14E
100
AcDbEntity
  8
0
100
AcDbBlockBegin
  2
block 3
 70
     0
 10
0.0
 20
0.0
 30
0.0
  3
block 3
  1

  0
SPLINE
  5
152
330
14E
100
AcDbEntity
  8
_U+30EC_U+30A4_U+30E4_U+30FC 1
370
     0
100
AcDbSpline
210
0.0
220
0.0
230
1.0
 70
    11
 71
     3
 72
    26
 73
    22
 74
     0
 42
0.0000000001
 43
0.0000000001
 12
1.0
 22
0.0
 32
0.0
 13
1.0
 23
0.0
 33
0.0
 40
0.0
 40
0.0
 40
0.0
 40
0.0
 40
1.0
 40
1.0
 40
1.0
 40
2.0
 40
2.0
 40
2.0
 40
3.0
 40
3.0
 40
3.0
 40
4.0
 40
4.0
 40
4.0
 40
5.0
 40
5.0
 40
5.0
 40
6.0
 40
6.0
 40
6.0
 40
7.0
 40
7.0
 40
7.0
 40
7.0
 10
79.31212698755044
 20
-136.8819118581406
 30
0.0
 10
79.31212698755044
 20
-136.8819118581406
 30
0.0
 10
79.31212698755044
 20
-135.687841762953
 30
0.0
 10
79.31212698755044
 20
-135.687841762953
 30
0.0
 10
79.31212698755044
 20
-135.687841762953
 30
0.0
 10
78.93092717210754
 20
-135.687841762953
 30
0.0
 10
78.93092717210754
 20
-135.687841762953
 30
0.0
 10
78.93092717210754
 20
-135.687841762953
 30
0.0
 10
78.93092717210754
 20
-135.5276448228889
 30
0.0
 10
78.93092717210754
 20
-135.5276448228889
 30
0.0
 10
79.31453855439013
 20
-135.5117973836568
 30
0.0
 10
79.36828204396002
 20
-135.3357530043605
 30
0.0
 10
79.40256074403825
 20
-135.21207407644
 30
0.0
 10
79.40256074403825
 20
-135.21207407644
 30
0.0
 10
79.57119816804124
 20
-135.21207407644
 30
0.0
 10
79.57119816804124
 20
-135.21207407644
 30
0.0
 10
79.57119816804124
 20
-135.21207407644
 30
0.0
 10
79.57119816804124
 20
-136.8819118581406
 30
0.0
 10
79.57119816804124
 20
-136.8819118581406
 30
0.0
 10
79.57119816804124
 20
-136.8819118581406
 30
0.0
 10
79.31212698755044
 20
-136.8819118581406
 30
0.0
 10
79.31212698755044
 20
-136.8819118581406
 30
0.0
  0
HATCH
  5
153
330
14E
100
AcDbEntity
  8
_U+30EC_U+30A4_U+30E4_U+30FC 1
 62
   179
420
  2234388
100
AcDbHatch
 10
0.0
 20
0.0
 30
0.0
210
0.0
220
0.0
230
1.0
  2
SOLID
 70
     1
 71
     0
 91
        1
 92
        1
 93
        1
 72
     4
 94
        3
 73
     0
 74
     1
 95
       26
 96
       22
 40
0.0
 40
0.0
 40
0.0
 40
0.0
 40
1.0
 40
1.0
 40
1.0
 40
2.0
 40
2.0
 40
2.0
 40
3.0
 40
3.0
 40
3.0
 40
4.0
 40
4.0
 40
4.0
 40
5.0
 40
5.0
 40
5.0
 40
6.0
 40
6.0
 40
6.0
 40
7.0
 40
7.0
 40
7.0
 40
7.0
 10
79.31212698755044
 20
-136.8819118581406
 10
79.31212698755044
 20
-136.8819118581406
 10
79.31212698755044
 20
-135.687841762953
 10
79.31212698755044
 20
-135.687841762953
 10
79.31212698755044
 20
-135.687841762953
 10
78.93092717210754
 20
-135.687841762953
 10
78.93092717210754
 20
-135.687841762953
 10
78.93092717210754
 20
-135.687841762953
 10
78.93092717210754
 20
-135.5276448228889
 10
78.93092717210754
 20
-135.5276448228889
 10
79.31453855439013
 20
-135.5117973836568
 10
79.36828204396002
 20
-135.3357530043605
 10
79.40256074403825
 20
-135.21207407644
 10
79.40256074403825
 20
-135.21207407644
 10
79.57119816804124
 20
-135.21207407644
 10
79.57119816804124
 20
-135.21207407644
 10
79.57119816804124
 20
-135.21207407644
 10
79.57119816804124
 20
-136.8819118581406
 10
79.57119816804124
 20
-136.8819118581406
 10
79.57119816804124
 20
-136.8819118581406
 10
79.31212698755044
 20
-136.8819118581406
 10
79.31212698755044
 20
-136.8819118581406
 97
        0
 97
        0
 75
     2
 76
     1
 98
        0
  0
SPLINE
  5
154
330
14E
100
AcDbEntity
  8
_U+30EC_U+30A4_U+30E4_U+30FC 1
370
     0
100
AcDbSpline
210
0.0
220
0.0
230
1.0
 70
    11
 71
     3
 72
    29
 73
    25
 74
     0
 42
0.0000000001
 43
0.0000000001
 12
1.0
 22
0.0
 32
0.0
 13
1.0
 23
0.0
 33
0.0
 40
0.0
 40
0.0
 40
0.0
 40
0.0
 40
1.0
 40
1.0
 40
1.0
 40
2.0
 40
2.0
 40
2.0
 40
3.0
 40
3.0
 40
3.0
 40
4.0
 40
4.0
 40
4.0
 40
5.0
 40
5.0
 40
5.0
 40
6.0
 40
6.0
 40
6.0
 40
7.0
 40
7.0
 40
7.0
 40
8.0
 40
8.0
 40
8.0
 40
8.0
 10
81.1860866767521
 20
-136.6896755300637
 30
0.0
 10
81.06154647496031
 20
-136.9163628129931
 30
0.0
 10
80.86104191771877
 20
-136.9370333859046
 30
0.0
 10
80.72668319379403
 20
-136.9370333859046
 30
0.0
 10
80.54099254713906
 20
-136.9370333859046
 30
0.0
 10
80.37717825681543
 20
-136.88673499182
 30
0.0
 10
80.26727971083596
 20
-136.6896755300637
 30
0.0
 10
80.14756264272353
 20
-136.4795247054635
 30
0.0
 10
80.12551403161793
 20
-136.2232096013609
 30
0.0
 10
80.12551403161793
 20
-136.0468207125161
 30
0.0
 10
80.12551403161793
 20
-135.8914469061313
 30
0.0
 10
80.14515107588386
 20
-135.6192843627966
 30
0.0
 10
80.26727971083596
 20
-135.4039658949685
 30
0.0
 10
80.39181991262774
 20
-135.184513312558
 30
0.0
 10
80.57768281405697
 20
-135.1593641155157
 30
0.0
 10
80.72668319379403
 20
-135.1593641155157
 30
0.0
 10
80.90996227360932
 20
-135.1593641155157
 30
0.0
 10
81.07618813077262
 20
-135.2075954523092
 30
0.0
 10
81.1860866767521
 20
-135.4039658949685
 30
0.0
 10
81.30098061118518
 20
-135.6123941718261
 30
0.0
 10
81.32785235597012
 20
-135.8594075181185
 30
0.0
 10
81.32785235597012
 20
-136.0468207125161
 30
0.0
 10
81.32785235597012
 20
-136.2321668496225
 30
0.0
 10
81.30339217802485
 20
-136.4815917627546
 30
0.0
 10
81.1860866767521
 20
-136.6896755300637
 30
0.0
  0
SPLINE
  5
155
330
14E
100
AcDbEntity
  8
_U+30EC_U+30A4_U+30E4_U+30FC 1
370
     0
100
AcDbSpline
210
0.0
220
0.0
230
1.0
 70
    11
 71
     3
 72
    17
 73
    13
 74
     0
 42
0.0000000001
 43
0.0000000001
 12
1.0
 22
0.0
 32
0.0
 13
1.0
 23
0.0
 33
0.0
 40
0.0
 40
0.0
 40
0.0
 40
0.0
 40
1.0
 40
1.0
 40
1.0
 40
2.0
 40
2.0
 40
2.0
 40
3.0
 40
3.0
 40
3.0
 40
4.0
 40
4.0
 40
4.0
 40
4.0
 10
80.72668319379403
 20
-135.3674478828248
 30
0.0
 10
80.43832870167861
 20
-135.3674478828248
 30
0.0
 10
80.38458521210872
 20
-135.6740613810121
 30
0.0
 10
80.38458521210872
 20
-136.0468207125161
 30
0.0
 10
80.38458521210872
 20
-136.3927082992352
 30
0.0
 10
80.42609861270599
 20
-136.7265380517559
 30
0.0
 10
80.72668319379403
 20
-136.7265380517559
 30
0.0
 10
81.01262611906976
 20
-136.7265380517559
 30
0.0
 10
81.06878117547933
 20
-136.4223361204083
 30
0.0
 10
81.06878117547933
 20
-136.0468207125161
 30
0.0
 10
81.06878117547933
 20
-135.701622144894
 30
0.0
 10
81.0248562080424
 20
-135.3674478828248
 30
0.0
 10
80.72668319379403
 20
-135.3674478828248
 30
0.0
  0
HATCH
  5
156
330
14E
100
AcDbEntity
  8
_U+30EC_U+30A4_U+30E4_U+30FC 1
 62
   179
420
  2234388
100
AcDbHatch
 10
0.0
 20
0.0
 30
0.0
210
0.0
220
0.0
230
1.0
  2
SOLID
 70
     1
 71
     0
 91
        2
 92
        1
 93
        1
 72
     4
 94
        3
 73
     0
 74
     1
 95
       29
 96
       25
 40
0.0
 40
0.0
 40
0.0
 40
0.0
 40
1.0
 40
1.0
 40
1.0
 40
2.0
 40
2.0
 40
2.0
 40
3.0
 40
3.0
 40
3.0
 40
4.0
 40
4.0
 40
4.0
 40
5.0
 40
5.0
 40
5.0
 40
6.0
 40
6.0
 40
6.0
 40
7.0
 40
7.0
 40
7.0
 40
8.0
 40
8.0
 40
8.0
 40
8.0
 10
81.1860866767521
 20
-136.6896755300637
 10
81.06154647496031
 20
-136.9163628129931
 10
80.86104191771877
 20
-136.9370333859046
 10
80.72668319379403
 20
-136.9370333859046
 10
80.54099254713906
 20
-136.9370333859046
 10
80.37717825681543
 20
-136.88673499182
 10
80.26727971083596
 20
-136.6896755300637
 10
80.14756264272353
 20
-136.4795247054635
 10
80.12551403161793
 20
-136.2232096013609
 10
80.12551403161793
 20
-136.0468207125161
 10
80.12551403161793
 20
-135.8914469061313
 10
80.14515107588386
 20
-135.6192843627966
 10
80.26727971083596
 20
-135.4039658949685
 10
80.39181991262774
 20
-135.184513312558
 10
80.57768281405697
 20
-135.1593641155157
 10
80.72668319379403
 20
-135.1593641155157
 10
80.90996227360932
 20
-135.1593641155157
 10
81.07618813077262
 20
-135.2075954523092
 10
81.1860866767521
 20
-135.4039658949685
 10
81.30098061118518
 20
-135.6123941718261
 10
81.32785235597012
 20
-135.8594075181185
 10
81.32785235597012
 20
-136.0468207125161
 10
81.32785235597012
 20
-136.2321668496225
 10
81.30339217802485
 20
-136.4815917627546
 10
81.1860866767521
 20
-136.6896755300637
 97
        0
 97
        0
 92
        1
 93
        1
 72
     4
 94
        3
 73
     0
 74
     1
 95
       17
 96
       13
 40
0.0
 40
0.0
 40
0.0
 40
0.0
 40
1.0
 40
1.0
 40
1.0
 40
2.0
 40
2.0
 40
2.0
 40
3.0
 40
3.0
 40
3.0
 40
4.0
 40
4.0
 40
4.0
 40
4.0
 10
80.72668319379403
 20
-135.3674478828248
 10
80.43832870167861
 20
-135.3674478828248
 10
80.38458521210872
 20
-135.6740613810121
 10
80.38458521210872
 20
-136.0468207125161
 10
80.38458521210872
 20
-136.3927082992352
 10
80.42609861270599
 20
-136.7265380517559
 10
80.72668319379403
 20
-136.7265380517559
 10
81.01262611906976
 20
-136.7265380517559
 10
81.06878117547933
 20
-136.4223361204083
 10
81.06878117547933
 20
-136.0468207125161
 10
81.06878117547933
 20
-135.701622144894
 10
81.0248562080424
 20
-135.3674478828248
 10
80.72668319379403
 20
-135.3674478828248
 97
        0
 97
        0
 75
     2
 76
     1
 98
        0
  0
SPLINE
  5
157
330
14E
100
AcDbEntity
  8
_U+30EC_U+30A4_U+30E4_U+30FC 1
370
     0
100
AcDbSpline
210
0.0
220
0.0
230
1.0
 70
    11
 71
     3
 72
    29
 73
    25
 74
     0
 42
0.0000000001
 43
0.0000000001
 12
1.0
 22
0.0
 32
0.0
 13
1.0
 23
0.0
 33
0.0
 40
0.0
 40
0.0
 40
0.0
 40
0.0
 40
1.0
 40
1.0
 40
1.0
 40
2.0
 40
2.0
 40
2.0
 40
3.0
 40
3.0
 40
3.0
 40
4.0
 40
4.0
 40
4.0
 40
5.0
 40
5.0
 40
5.0
 40
6.0
 40
6.0
 40
6.0
 40
7.0
 40
7.0
 40
7.0
 40
8.0
 40
8.0
 40
8.0
 40
8.0
 10
82.5444878265861
 20
-136.6896755300637
 30
0.0
 10
82.41994762479432
 20
-136.9163628129931
 30
0.0
 10
82.21944306755279
 20
-136.9370333859046
 30
0.0
 10
82.08508434362804
 20
-136.9370333859046
 30
0.0
 10
81.89939369697308
 20
-136.9370333859046
 30
0.0
 10
81.73557940664944
 20
-136.88673499182
 30
0.0
 10
81.62568086066997
 20
-136.6896755300637
 30
0.0
 10
81.50596379255754
 20
-136.4795247054635
 30
0.0
 10
81.48391518145195
 20
-136.2232096013609
 30
0.0
 10
81.48391518145195
 20
-136.0468207125161
 30
0.0
 10
81.48391518145195
 20
-135.8914469061313
 30
0.0
 10
81.50355222571787
 20
-135.6192843627966
 30
0.0
 10
81.62568086066997
 20
-135.4039658949685
 30
0.0
 10
81.75022106246175
 20
-135.184513312558
 30
0.0
 10
81.93608396389098
 20
-135.1593641155157
 30
0.0
 10
82.08508434362804
 20
-135.1593641155157
 30
0.0
 10
82.26836342344333
 20
-135.1593641155157
 30
0.0
 10
82.43458928060663
 20
-135.2075954523092
 30
0.0
 10
82.5444878265861
 20
-135.4039658949685
 30
0.0
 10
82.65938176101919
 20
-135.6123941718261
 30
0.0
 10
82.68625350580413
 20
-135.8594075181185
 30
0.0
 10
82.68625350580413
 20
-136.0468207125161
 30
0.0
 10
82.68625350580413
 20
-136.2321668496225
 30
0.0
 10
82.66179332785886
 20
-136.4815917627546
 30
0.0
 10
82.5444878265861
 20
-136.6896755300637
 30
0.0
  0
SPLINE
  5
158
330
14E
100
AcDbEntity
  8
_U+30EC_U+30A4_U+30E4_U+30FC 1
370
     0
100
AcDbSpline
210
0.0
220
0.0
230
1.0
 70
    11
 71
     3
 72
    17
 73
    13
 74
     0
 42
0.0000000001
 43
0.0000000001
 12
1.0
 22
0.0
 32
0.0
 13
1.0
 23
0.0
 33
0.0
 40
0.0
 40
0.0
 40
0.0
 40
0.0
 40
1.0
 40
1.0
 40
1.0
 40
2.0
 40
2.0
 40
2.0
 40
3.0
 40
3.0
 40
3.0
 40
4.0
 40
4.0
 40
4.0
 40
4.0
 10
82.08508434362804
 20
-135.3674478828248
 30
0.0
 10
81.79672985151262
 20
-135.3674478828248
 30
0.0
 10
81.74298636194273
 20
-135.6740613810121
 30
0.0
 10
81.74298636194273
 20
-136.0468207125161
 30
0.0
 10
81.74298636194273
 20
-136.3927082992352
 30
0.0
 10
81.78449976254
 20
-136.7265380517559
 30
0.0
 10
82.08508434362804
 20
-136.7265380517559
 30
0.0
 10
82.37102726890377
 20
-136.7265380517559
 30
0.0
 10
82.42718232531335
 20
-136.4223361204083
 30
0.0
 10
82.42718232531335
 20
-136.0468207125161
 30
0.0
 10
82.42718232531335
 20
-135.701622144894
 30
0.0
 10
82.38325735787642
 20
-135.3674478828248
 30
0.0
 10
82.08508434362804
 20
-135.3674478828248
 30
0.0
  0
HATCH
  5
159
330
14E
100
AcDbEntity
  8
_U+30EC_U+30A4_U+30E4_U+30FC 1
 62
   179
420
  2234388
100
AcDbHatch
 10
0.0
 20
0.0
 30
0.0
210
0.0
220
0.0
230
1.0
  2
SOLID
 70
     1
 71
     0
 91
        2
 92
        1
 93
        1
 72
     4
 94
        3
 73
     0
 74
     1
 95
       29
 96
       25
 40
0.0
 40
0.0
 40
0.0
 40
0.0
 40
1.0
 40
1.0
 40
1.0
 40
2.0
 40
2.0
 40
2.0
 40
3.0
 40
3.0
 40
3.0
 40
4.0
 40
4.0
 40
4.0
 40
5.0
 40
5.0
 40
5.0
 40
6.0
 40
6.0
 40
6.0
 40
7.0
 40
7.0
 40
7.0
 40
8.0
 40
8.0
 40
8.0
 40
8.0
 10
82.5444878265861
 20
-136.6896755300637
 10
82.41994762479432
 20
-136.9163628129931
 10
82.21944306755279
 20
-136.9370333859046
 10
82.08508434362804
 20
-136.9370333859046
 10
81.89939369697308
 20
-136.9370333859046
 10
81.73557940664944
 20
-136.88673499182
 10
81.62568086066997
 20
-136.6896755300637
 10
81.50596379255754
 20
-136.4795247054635
 10
81.48391518145195
 20
-136.2232096013609
 10
81.48391518145195
 20
-136.0468207125161
 10
81.48391518145195
 20
-135.8914469061313
 10
81.50355222571787
 20
-135.6192843627966
 10
81.62568086066997
 20
-135.4039658949685
 10
81.75022106246175
 20
-135.184513312558
 10
81.93608396389098
 20
-135.1593641155157
 10
82.08508434362804
 20
-135.1593641155157
 10
82.26836342344333
 20
-135.1593641155157
 10
82.43458928060663
 20
-135.2075954523092
 10
82.5444878265861
 20
-135.4039658949685
 10
82.65938176101919
 20
-135.6123941718261
 10
82.68625350580413
 20
-135.8594075181185
 10
82.68625350580413
 20
-136.0468207125161
 10
82.68625350580413
 20
-136.2321668496225
 10
82.66179332785886
 20
-136.4815917627546
 10
82.5444878265861
 20
-136.6896755300637
 97
        0
 97
        0
 92
        1
 93
        1
 72
     4
 94
        3
 73
     0
 74
     1
 95
       17
 96
       13
 40
0.0
 40
0.0
 40
0.0
 40
0.0
 40
1.0
 40
1.0
 40
1.0
 40
2.0
 40
2.0
 40
2.0
 40
3.0
 40
3.0
 40
3.0
 40
4.0
 40
4.0
 40
4.0
 40
4.0
 10
82.08508434362804
 20
-135.3674478828248
 10
81.79672985151262
 20
-135.3674478828248
 10
81.74298636194273
 20
-135.6740613810121
 10
81.74298636194273
 20
-136.0468207125161
 10
81.74298636194273
 20
-136.3927082992352
 10
81.78449976254
 20
-136.7265380517559
 10
82.08508434362804
 20
-136.7265380517559
 10
82.37102726890377
 20
-136.7265380517559
 10
82.42718232531335
 20
-136.4223361204083
 10
82.42718232531335
 20
-136.0468207125161
 10
82.42718232531335
 20
-135.701622144894
 10
82.38325735787642
 20
-135.3674478828248
 10
82.08508434362804
 20
-135.3674478828248
 97
        0
 97
        0
 75
     2
 76
     1
 98
        0
  0
SPLINE
  5
15A
330
14E
100
AcDbEntity
  8
_U+30EC_U+30A4_U+30E4_U+30FC 1
370
     0
100
AcDbSpline
210
0.0
220
0.0
230
1.0
 70
    11
 71
     3
 72
    17
 73
    13
 74
     0
 42
0.0000000001
 43
0.0000000001
 12
1.0
 22
0.0
 32
0.0
 13
1.0
 23
0.0
 33
0.0
 40
0.0
 40
0.0
 40
0.0
 40
0.0
 40
1.0
 40
1.0
 40
1.0
 40
2.0
 40
2.0
 40
2.0
 40
3.0
 40
3.0
 40
3.0
 40
4.0
 40
4.0
 40
4.0
 40
4.0
 10
83.47552488147487
 20
-136.0127142672121
 30
0.0
 10
83.47552488147487
 20
-136.1363931951326
 30
0.0
 10
83.36803790233508
 20
-136.2345784164622
 30
0.0
 10
83.23850231208968
 20
-136.2345784164622
 30
0.0
 10
83.10655515500461
 20
-136.2345784164622
 30
0.0
 10
83.00147974270449
 20
-136.1339816282929
 30
0.0
 10
83.00147974270449
 20
-136.0127142672121
 30
0.0
 10
83.00147974270449
 20
-135.8890353392916
 30
0.0
 10
83.1089667218443
 20
-135.790850117962
 30
0.0
 10
83.23850231208968
 20
-135.790850117962
 30
0.0
 10
83.3656263354954
 20
-135.790850117962
 30
0.0
 10
83.47552488147487
 20
-135.8869682820005
 30
0.0
 10
83.47552488147487
 20
-136.0127142672121
 30
0.0
  0
HATCH
  5
15B
330
14E
100
AcDbEntity
  8
_U+30EC_U+30A4_U+30E4_U+30FC 1
 62
   179
420
  2234388
100
AcDbHatch
 10
0.0
 20
0.0
 30
0.0
210
0.0
220
0.0
230
1.0
  2
SOLID
 70
     1
 71
     0
 91
        1
 92
        1
 93
        1
 72
     4
 94
        3
 73
     0
 74
     1
 95
       17
 96
       13
 40
0.0
 40
0.0
 40
0.0
 40
0.0
 40
1.0
 40
1.0
 40
1.0
 40
2.0
 40
2.0
 40
2.0
 40
3.0
 40
3.0
 40
3.0
 40
4.0
 40
4.0
 40
4.0
 40
4.0
 10
83.47552488147487
 20
-136.0127142672121
 10
83.47552488147487
 20
-136.1363931951326
 10
83.36803790233508
 20
-136.2345784164622
 10
83.23850231208968
 20
-136.2345784164622
 10
83.10655515500461
 20
-136.2345784164622
 10
83.00147974270449
 20
-136.1339816282929
 10
83.00147974270449
 20
-136.0127142672121
 10
83.00147974270449
 20
-135.8890353392916
 10
83.1089667218443
 20
-135.790850117962
 10
83.23850231208968
 20
-135.790850117962
 10
83.3656263354954
 20
-135.790850117962
 10
83.47552488147487
 20
-135.8869682820005
 10
83.47552488147487
 20
-136.0127142672121
 97
        0
 97
        0
 75
     2
 76
     1
 98
        0
  0
SPLINE
  5
15C
330
14E
100
AcDbEntity
  8
_U+30EC_U+30A4_U+30E4_U+30FC 1
370
     0
100
AcDbSpline
210
0.0
220
0.0
230
1.0
 70
    11
 71
     3
 72
    26
 73
    22
 74
     0
 42
0.0000000001
 43
0.0000000001
 12
1.0
 22
0.0
 32
0.0
 13
1.0
 23
0.0
 33
0.0
 40
0.0
 40
0.0
 40
0.0
 40
0.0
 40
1.0
 40
1.0
 40
1.0
 40
2.0
 40
2.0
 40
2.0
 40
3.0
 40
3.0
 40
3.0
 40
4.0
 40
4.0
 40
4.0
 40
5.0
 40
5.0
 40
5.0
 40
6.0
 40
6.0
 40
6.0
 40
7.0
 40
7.0
 40
7.0
 40
7.0
 10
84.33524845981897
 20
-136.8819118581406
 30
0.0
 10
84.33524845981897
 20
-136.8819118581406
 30
0.0
 10
84.33524845981897
 20
-135.687841762953
 30
0.0
 10
84.33524845981897
 20
-135.687841762953
 30
0.0
 10
84.33524845981897
 20
-135.687841762953
 30
0.0
 10
83.95404864437607
 20
-135.687841762953
 30
0.0
 10
83.95404864437607
 20
-135.687841762953
 30
0.0
 10
83.95404864437607
 20
-135.687841762953
 30
0.0
 10
83.95404864437607
 20
-135.5276448228889
 30
0.0
 10
83.95404864437607
 20
-135.5276448228889
 30
0.0
 10
84.33766002665864
 20
-135.5117973836568
 30
0.0
 10
84.39140351622854
 20
-135.3357530043605
 30
0.0
 10
84.42568221630678
 20
-135.21207407644
 30
0.0
 10
84.42568221630678
 20
-135.21207407644
 30
0.0
 10
84.59431964030976
 20
-135.21207407644
 30
0.0
 10
84.59431964030976
 20
-135.21207407644
 30
0.0
 10
84.59431964030976
 20
-135.21207407644
 30
0.0
 10
84.59431964030976
 20
-136.8819118581406
 30
0.0
 10
84.59431964030976
 20
-136.8819118581406
 30
0.0
 10
84.59431964030976
 20
-136.8819118581406
 30
0.0
 10
84.33524845981897
 20
-136.8819118581406
 30
0.0
 10
84.33524845981897
 20
-136.8819118581406
 30
0.0
  0
HATCH
  5
15D
330
14E
100
AcDbEntity
  8
_U+30EC_U+30A4_U+30E4_U+30FC 1
 62
   179
420
  2234388
100
AcDbHatch
 10
0.0
 20
0.0
 30
0.0
210
0.0
220
0.0
230
1.0
  2
SOLID
 70
     1
 71
     0
 91
        1
 92
        1
 93
        1
 72
     4
 94
        3
 73
     0
 74
     1
 95
       26
 96
       22
 40
0.0
 40
0.0
 40
0.0
 40
0.0
 40
1.0
 40
1.0
 40
1.0
 40
2.0
 40
2.0
 40
2.0
 40
3.0
 40
3.0
 40
3.0
 40
4.0
 40
4.0
 40
4.0
 40
5.0
 40
5.0
 40
5.0
 40
6.0
 40
6.0
 40
6.0
 40
7.0
 40
7.0
 40
7.0
 40
7.0
 10
84.33524845981897
 20
-136.8819118581406
 10
84.33524845981897
 20
-136.8819118581406
 10
84.33524845981897
 20
-135.687841762953
 10
84.33524845981897
 20
-135.687841762953
 10
84.33524845981897
 20
-135.687841762953
 10
83.95404864437607
 20
-135.687841762953
 10
83.95404864437607
 20
-135.687841762953
 10
83.95404864437607
 20
-135.687841762953
 10
83.95404864437607
 20
-135.5276448228889
 10
83.95404864437607
 20
-135.5276448228889
 10
84.33766002665864
 20
-135.5117973836568
 10
84.39140351622854
 20
-135.3357530043605
 10
84.42568221630678
 20
-135.21207407644
 10
84.42568221630678
 20
-135.21207407644
 10
84.59431964030976
 20
-135.21207407644
 10
84.59431964030976
 20
-135.21207407644
 10
84.59431964030976
 20
-135.21207407644
 10
84.59431964030976
 20
-136.8819118581406
 10
84.59431964030976
 20
-136.8819118581406
 10
84.59431964030976
 20
-136.8819118581406
 10
84.33524845981897
 20
-136.8819118581406
 10
84.33524845981897
 20
-136.8819118581406
 97
        0
 97
        0
 75
     2
 76
     1
 98
        0
  0
SPLINE
  5
15E
330
14E
100
AcDbEntity
  8
_U+30EC_U+30A4_U+30E4_U+30FC 1
370
     0
100
AcDbSpline
210
0.0
220
0.0
230
1.0
 70
    11
 71
     3
 72
    44
 73
    40
 74
     0
 42
0.0000000001
 43
0.0000000001
 12
1.0
 22
0.0
 32
0.0
 13
1.0
 23
0.0
 33
0.0
 40
0.0
 40
0.0
 40
0.0
 40
0.0
 40
1.0
 40
1.0
 40
1.0
 40
2.0
 40
2.0
 40
2.0
 40
3.0
 40
3.0
 40
3.0
 40
4.0
 40
4.0
 40
4.0
 40
5.0
 40
5.0
 40
5.0
 40
6.0
 40
6.0
 40
6.0
 40
7.0
 40
7.0
 40
7.0
 40
8.0
 40
8.0
 40
8.0
 40
9.0
 40
9.0
 40
9.0
 40
10.0
 40
10.0
 40
10.0
 40
11.0
 40
11.0
 40
11.0
 40
12.0
 40
12.0
 40
12.0
 40
13.0
 40
13.0
 40
13.0
 40
13.0
 10
85.85729164520235
 20
-136.252837422534
 30
0.0
 10
85.60562742000485
 20
-136.4244031776995
 30
0.0
 10
85.49814044086506
 20
-136.5046739025058
 30
0.0
 10
85.44198538445548
 20
-136.6600477088905
 30
0.0
 10
85.44198538445548
 20
-136.6600477088905
 30
0.0
 10
86.34115530610569
 20
-136.6600477088905
 30
0.0
 10
86.34115530610569
 20
-136.6600477088905
 30
0.0
 10
86.34115530610569
 20
-136.6600477088905
 30
0.0
 10
86.34115530610569
 20
-136.8819118581406
 30
0.0
 10
86.34115530610569
 20
-136.8819118581406
 30
0.0
 10
86.34115530610569
 20
-136.8819118581406
 30
0.0
 10
85.1534586375658
 20
-136.8819118581406
 30
0.0
 10
85.1534586375658
 20
-136.8819118581406
 30
0.0
 10
85.19014890448372
 20
-136.4953721446956
 30
0.0
 10
85.2659410051592
 20
-136.4106227957585
 30
0.0
 10
85.71070283230496
 20
-136.0881618583391
 30
0.0
 10
86.00646427971367
 20
-135.8731879000595
 30
0.0
 10
86.08225638038917
 20
-135.8001518757722
 30
0.0
 10
86.08225638038917
 20
-135.6513237508094
 30
0.0
 10
86.08225638038917
 20
-135.5231661987581
 30
0.0
 10
85.99905732442038
 20
-135.3812282647658
 30
0.0
 10
85.77185327716815
 20
-135.3812282647658
 30
0.0
 10
85.4712686960801
 20
-135.3812282647658
 30
0.0
 10
85.46145017394714
 20
-135.6306531778979
 30
0.0
 10
85.45662704026779
 20
-135.756743672658
 30
0.0
 10
85.45662704026779
 20
-135.756743672658
 30
0.0
 10
85.197555859777
 20
-135.756743672658
 30
0.0
 10
85.197555859777
 20
-135.756743672658
 30
0.0
 10
85.20737438190997
 20
-135.6192843627966
 30
0.0
 10
85.21943221610834
 20
-135.4980170017158
 30
0.0
 10
85.31244979421008
 20
-135.3698594496645
 30
0.0
 10
85.43940156284154
 20
-135.1958821276594
 30
0.0
 10
85.6545477758954
 20
-135.1593641155157
 30
0.0
 10
85.78890649982014
 20
-135.1593641155157
 30
0.0
 10
86.10912812517411
 20
-135.1593641155157
 30
0.0
 10
86.34856226139897
 20
-135.3584906345632
 30
0.0
 10
86.34856226139897
 20
-135.6533908081005
 30
0.0
 10
86.34856226139897
 20
-135.9007486639415
 30
0.0
 10
86.21420353747423
 20
-136.0082356430813
 30
0.0
 10
85.85729164520235
 20
-136.252837422534
 30
0.0
  0
HATCH
  5
15F
330
14E
100
AcDbEntity
  8
_U+30EC_U+30A4_U+30E4_U+30FC 1
 62
   179
420
  2234388
100
AcDbHatch
 10
0.0
 20
0.0
 30
0.0
210
0.0
220
0.0
230
1.0
  2
SOLID
 70
     1
 71
     0
 91
        1
 92
        1
 93
        1
 72
     4
 94
        3
 73
     0
 74
     1
 95
       44
 96
       40
 40
0.0
 40
0.0
 40
0.0
 40
0.0
 40
1.0
 40
1.0
 40
1.0
 40
2.0
 40
2.0
 40
2.0
 40
3.0
 40
3.0
 40
3.0
 40
4.0
 40
4.0
 40
4.0
 40
5.0
 40
5.0
 40
5.0
 40
6.0
 40
6.0
 40
6.0
 40
7.0
 40
7.0
 40
7.0
 40
8.0
 40
8.0
 40
8.0
 40
9.0
 40
9.0
 40
9.0
 40
10.0
 40
10.0
 40
10.0
 40
11.0
 40
11.0
 40
11.0
 40
12.0
 40
12.0
 40
12.0
 40
13.0
 40
13.0
 40
13.0
 40
13.0
 10
85.85729164520235
 20
-136.252837422534
 10
85.60562742000485
 20
-136.4244031776995
 10
85.49814044086506
 20
-136.5046739025058
 10
85.44198538445548
 20
-136.6600477088905
 10
85.44198538445548
 20
-136.6600477088905
 10
86.34115530610569
 20
-136.6600477088905
 10
86.34115530610569
 20
-136.6600477088905
 10
86.34115530610569
 20
-136.6600477088905
 10
86.34115530610569
 20
-136.8819118581406
 10
86.34115530610569
 20
-136.8819118581406
 10
86.34115530610569
 20
-136.8819118581406
 10
85.1534586375658
 20
-136.8819118581406
 10
85.1534586375658
 20
-136.8819118581406
 10
85.19014890448372
 20
-136.4953721446956
 10
85.2659410051592
 20
-136.4106227957585
 10
85.71070283230496
 20
-136.0881618583391
 10
86.00646427971367
 20
-135.8731879000595
 10
86.08225638038917
 20
-135.8001518757722
 10
86.08225638038917
 20
-135.6513237508094
 10
86.08225638038917
 20
-135.5231661987581
 10
85.99905732442038
 20
-135.3812282647658
 10
85.77185327716815
 20
-135.3812282647658
 10
85.4712686960801
 20
-135.3812282647658
 10
85.46145017394714
 20
-135.6306531778979
 10
85.45662704026779
 20
-135.756743672658
 10
85.45662704026779
 20
-135.756743672658
 10
85.197555859777
 20
-135.756743672658
 10
85.197555859777
 20
-135.756743672658
 10
85.20737438190997
 20
-135.6192843627966
 10
85.21943221610834
 20
-135.4980170017158
 10
85.31244979421008
 20
-135.3698594496645
 10
85.43940156284154
 20
-135.1958821276594
 10
85.6545477758954
 20
-135.1593641155157
 10
85.78890649982014
 20
-135.1593641155157
 10
86.10912812517411
 20
-135.1593641155157
 10
86.34856226139897
 20
-135.3584906345632
 10
86.34856226139897
 20
-135.6533908081005
 10
86.34856226139897
 20
-135.9007486639415
 10
86.21420353747423
 20
-136.0082356430813
 10
85.85729164520235
 20
-136.252837422534
 97
        0
 97
        0
 75
     2
 76
     1
 98
        0
  0
SPLINE
  5
160
330
14E
100
AcDbEntity
  8
_U+30EC_U+30A4_U+30E4_U+30FC 1
370
     0
100
AcDbSpline
210
0.0
220
0.0
230
1.0
 70
    11
 71
     3
 72
    29
 73
    25
 74
     0
 42
0.0000000001
 43
0.0000000001
 12
1.0
 22
0.0
 32
0.0
 13
1.0
 23
0.0
 33
0.0
 40
0.0
 40
0.0
 40
0.0
 40
0.0
 40
1.0
 40
1.0
 40
1.0
 40
2.0
 40
2.0
 40
2.0
 40
3.0
 40
3.0
 40
3.0
 40
4.0
 40
4.0
 40
4.0
 40
5.0
 40
5.0
 40
5.0
 40
6.0
 40
6.0
 40
6.0
 40
7.0
 40
7.0
 40
7.0
 40
8.0
 40
8.0
 40
8.0
 40
8.0
 10
87.56760929885463
 20
-136.6896755300637
 30
0.0
 10
87.44306909706285
 20
-136.9163628129931
 30
0.0
 10
87.2425645398213
 20
-136.9370333859046
 30
0.0
 10
87.10820581589657
 20
-136.9370333859046
 30
0.0
 10
86.92251516924159
 20
-136.9370333859046
 30
0.0
 10
86.75870087891796
 20
-136.88673499182
 30
0.0
 10
86.6488023329385
 20
-136.6896755300637
 30
0.0
 10
86.52908526482607
 20
-136.4795247054635
 30
0.0
 10
86.50703665372046
 20
-136.2232096013609
 30
0.0
 10
86.50703665372046
 20
-136.0468207125161
 30
0.0
 10
86.50703665372046
 20
-135.8914469061313
 30
0.0
 10
86.52650144321213
 20
-135.6192843627966
 30
0.0
 10
86.6488023329385
 20
-135.4039658949685
 30
0.0
 10
86.77334253473028
 20
-135.184513312558
 30
0.0
 10
86.95920543615951
 20
-135.1593641155157
 30
0.0
 10
87.10820581589657
 20
-135.1593641155157
 30
0.0
 10
87.29148489571186
 20
-135.1593641155157
 30
0.0
 10
87.45771075287516
 20
-135.2075954523092
 30
0.0
 10
87.56760929885463
 20
-135.4039658949685
 30
0.0
 10
87.68250323328772
 20
-135.6123941718261
 30
0.0
 10
87.70937497807266
 20
-135.8594075181185
 30
0.0
 10
87.70937497807266
 20
-136.0468207125161
 30
0.0
 10
87.70937497807266
 20
-136.2321668496225
 30
0.0
 10
87.68491480012739
 20
-136.4815917627546
 30
0.0
 10
87.56760929885463
 20
-136.6896755300637
 30
0.0
  0
SPLINE
  5
161
330
14E
100
AcDbEntity
  8
_U+30EC_U+30A4_U+30E4_U+30FC 1
370
     0
100
AcDbSpline
210
0.0
220
0.0
230
1.0
 70
    11
 71
     3
 72
    17
 73
    13
 74
     0
 42
0.0000000001
 43
0.0000000001
 12
1.0
 22
0.0
 32
0.0
 13
1.0
 23
0.0
 33
0.0
 40
0.0
 40
0.0
 40
0.0
 40
0.0
 40
1.0
 40
1.0
 40
1.0
 40
2.0
 40
2.0
 40
2.0
 40
3.0
 40
3.0
 40
3.0
 40
4.0
 40
4.0
 40
4.0
 40
4.0
 10
87.10820581589657
 20
-135.3674478828248
 30
0.0
 10
86.81985132378115
 20
-135.3674478828248
 30
0.0
 10
86.76610783421125
 20
-135.6740613810121
 30
0.0
 10
86.76610783421125
 20
-136.0468207125161
 30
0.0
 10
86.76610783421125
 20
-136.3927082992352
 30
0.0
 10
86.80762123480852
 20
-136.7265380517559
 30
0.0
 10
87.10820581589657
 20
-136.7265380517559
 30
0.0
 10
87.3941487411723
 20
-136.7265380517559
 30
0.0
 10
87.45030379758187
 20
-136.4223361204083
 30
0.0
 10
87.45030379758187
 20
-136.0468207125161
 30
0.0
 10
87.45030379758187
 20
-135.701622144894
 30
0.0
 10
87.40637883014493
 20
-135.3674478828248
 30
0.0
 10
87.10820581589657
 20
-135.3674478828248
 30
0.0
  0
HATCH
  5
162
330
14E
100
AcDbEntity
  8
_U+30EC_U+30A4_U+30E4_U+30FC 1
 62
   179
420
  2234388
100
AcDbHatch
 10
0.0
 20
0.0
 30
0.0
210
0.0
220
0.0
230
1.0
  2
SOLID
 70
     1
 71
     0
 91
        2
 92
        1
 93
        1
 72
     4
 94
        3
 73
     0
 74
     1
 95
       29
 96
       25
 40
0.0
 40
0.0
 40
0.0
 40
0.0
 40
1.0
 40
1.0
 40
1.0
 40
2.0
 40
2.0
 40
2.0
 40
3.0
 40
3.0
 40
3.0
 40
4.0
 40
4.0
 40
4.0
 40
5.0
 40
5.0
 40
5.0
 40
6.0
 40
6.0
 40
6.0
 40
7.0
 40
7.0
 40
7.0
 40
8.0
 40
8.0
 40
8.0
 40
8.0
 10
87.56760929885463
 20
-136.6896755300637
 10
87.44306909706285
 20
-136.9163628129931
 10
87.2425645398213
 20
-136.9370333859046
 10
87.10820581589657
 20
-136.9370333859046
 10
86.92251516924159
 20
-136.9370333859046
 10
86.75870087891796
 20
-136.88673499182
 10
86.6488023329385
 20
-136.6896755300637
 10
86.52908526482607
 20
-136.4795247054635
 10
86.50703665372046
 20
-136.2232096013609
 10
86.50703665372046
 20
-136.0468207125161
 10
86.50703665372046
 20
-135.8914469061313
 10
86.52650144321213
 20
-135.6192843627966
 10
86.6488023329385
 20
-135.4039658949685
 10
86.77334253473028
 20
-135.184513312558
 10
86.95920543615951
 20
-135.1593641155157
 10
87.10820581589657
 20
-135.1593641155157
 10
87.29148489571186
 20
-135.1593641155157
 10
87.45771075287516
 20
-135.2075954523092
 10
87.56760929885463
 20
-135.4039658949685
 10
87.68250323328772
 20
-135.6123941718261
 10
87.70937497807266
 20
-135.8594075181185
 10
87.70937497807266
 20
-136.0468207125161
 10
87.70937497807266
 20
-136.2321668496225
 10
87.68491480012739
 20
-136.4815917627546
 10
87.56760929885463
 20
-136.6896755300637
 97
        0
 97
        0
 92
        1
 93
        1
 72
     4
 94
        3
 73
     0
 74
     1
 95
       17
 96
       13
 40
0.0
 40
0.0
 40
0.0
 40
0.0
 40
1.0
 40
1.0
 40
1.0
 40
2.0
 40
2.0
 40
2.0
 40
3.0
 40
3.0
 40
3.0
 40
4.0
 40
4.0
 40
4.0
 40
4.0
 10
87.10820581589657
 20
-135.3674478828248
 10
86.81985132378115
 20
-135.3674478828248
 10
86.76610783421125
 20
-135.6740613810121
 10
86.76610783421125
 20
-136.0468207125161
 10
86.76610783421125
 20
-136.3927082992352
 10
86.80762123480852
 20
-136.7265380517559
 10
87.10820581589657
 20
-136.7265380517559
 10
87.3941487411723
 20
-136.7265380517559
 10
87.45030379758187
 20
-136.4223361204083
 10
87.45030379758187
 20
-136.0468207125161
 10
87.45030379758187
 20
-135.701622144894
 10
87.40637883014493
 20
-135.3674478828248
 10
87.10820581589657
 20
-135.3674478828248
 97
        0
 97
        0
 75
     2
 76
     1
 98
        0
  0
SPLINE
  5
163
330
14E
100
AcDbEntity
  8
_U+30EC_U+30A4_U+30E4_U+30FC 1
370
     0
100
AcDbSpline
210
0.0
220
0.0
230
1.0
 70
    11
 71
     3
 72
    17
 73
    13
 74
     0
 42
0.0000000001
 43
0.0000000001
 12
1.0
 22
0.0
 32
0.0
 13
1.0
 23
0.0
 33
0.0
 40
0.0
 40
0.0
 40
0.0
 40
0.0
 40
1.0
 40
1.0
 40
1.0
 40
2.0
 40
2.0
 40
2.0
 40
3.0
 40
3.0
 40
3.0
 40
4.0
 40
4.0
 40
4.0
 40
4.0
 10
88.4986463537434
 20
-136.0127142672121
 30
0.0
 10
88.4986463537434
 20
-136.1363931951326
 30
0.0
 10
88.3911593746036
 20
-136.2345784164622
 30
0.0
 10
88.2616237843582
 20
-136.2345784164622
 30
0.0
 10
88.12967662727314
 20
-136.2345784164622
 30
0.0
 10
88.02460121497302
 20
-136.1339816282929
 30
0.0
 10
88.02460121497302
 20
-136.0127142672121
 30
0.0
 10
88.02460121497302
 20
-135.8890353392916
 30
0.0
 10
88.13208819411281
 20
-135.790850117962
 30
0.0
 10
88.2616237843582
 20
-135.790850117962
 30
0.0
 10
88.38857555298966
 20
-135.790850117962
 30
0.0
 10
88.4986463537434
 20
-135.8869682820005
 30
0.0
 10
88.4986463537434
 20
-136.0127142672121
 30
0.0
  0
HATCH
  5
164
330
14E
100
AcDbEntity
  8
_U+30EC_U+30A4_U+30E4_U+30FC 1
 62
   179
420
  2234388
100
AcDbHatch
 10
0.0
 20
0.0
 30
0.0
210
0.0
220
0.0
230
1.0
  2
SOLID
 70
     1
 71
     0
 91
        1
 92
        1
 93
        1
 72
     4
 94
        3
 73
     0
 74
     1
 95
       17
 96
       13
 40
0.0
 40
0.0
 40
0.0
 40
0.0
 40
1.0
 40
1.0
 40
1.0
 40
2.0
 40
2.0
 40
2.0
 40
3.0
 40
3.0
 40
3.0
 40
4.0
 40
4.0
 40
4.0
 40
4.0
 10
88.4986463537434
 20
-136.0127142672121
 10
88.4986463537434
 20
-136.1363931951326
 10
88.3911593746036
 20
-136.2345784164622
 10
88.2616237843582
 20
-136.2345784164622
 10
88.12967662727314
 20
-136.2345784164622
 10
88.02460121497302
 20
-136.1339816282929
 10
88.02460121497302
 20
-136.0127142672121
 10
88.02460121497302
 20
-135.8890353392916
 10
88.13208819411281
 20
-135.790850117962
 10
88.2616237843582
 20
-135.790850117962
 10
88.38857555298966
 20
-135.790850117962
 10
88.4986463537434
 20
-135.8869682820005
 10
88.4986463537434
 20
-136.0127142672121
 97
        0
 97
        0
 75
     2
 76
     1
 98
        0
  0
SPLINE
  5
165
330
14E
100
AcDbEntity
  8
_U+30EC_U+30A4_U+30E4_U+30FC 1
370
     0
100
AcDbSpline
210
0.0
220
0.0
230
1.0
 70
    11
 71
     3
 72
    26
 73
    22
 74
     0
 42
0.0000000001
 43
0.0000000001
 12
1.0
 22
0.0
 32
0.0
 13
1.0
 23
0.0
 33
0.0
 40
0.0
 40
0.0
 40
0.0
 40
0.0
 40
1.0
 40
1.0
 40
1.0
 40
2.0
 40
2.0
 40
2.0
 40
3.0
 40
3.0
 40
3.0
 40
4.0
 40
4.0
 40
4.0
 40
5.0
 40
5.0
 40
5.0
 40
6.0
 40
6.0
 40
6.0
 40
7.0
 40
7.0
 40
7.0
 40
7.0
 10
89.3583699320875
 20
-136.8819118581406
 30
0.0
 10
89.3583699320875
 20
-136.8819118581406
 30
0.0
 10
89.3583699320875
 20
-135.687841762953
 30
0.0
 10
89.3583699320875
 20
-135.687841762953
 30
0.0
 10
89.3583699320875
 20
-135.687841762953
 30
0.0
 10
88.9771701166446
 20
-135.687841762953
 30
0.0
 10
88.9771701166446
 20
-135.687841762953
 30
0.0
 10
88.9771701166446
 20
-135.687841762953
 30
0.0
 10
88.9771701166446
 20
-135.5276448228889
 30
0.0
 10
88.9771701166446
 20
-135.5276448228889
 30
0.0
 10
89.36078149892717
 20
-135.5117973836568
 30
0.0
 10
89.41452498849706
 20
-135.3357530043605
 30
0.0
 10
89.4488036885753
 20
-135.21207407644
 30
0.0
 10
89.4488036885753
 20
-135.21207407644
 30
0.0
 10
89.61744111257828
 20
-135.21207407644
 30
0.0
 10
89.61744111257828
 20
-135.21207407644
 30
0.0
 10
89.61744111257828
 20
-135.21207407644
 30
0.0
 10
89.61744111257828
 20
-136.8819118581406
 30
0.0
 10
89.61744111257828
 20
-136.8819118581406
 30
0.0
 10
89.61744111257828
 20
-136.8819118581406
 30
0.0
 10
89.3583699320875
 20
-136.8819118581406
 30
0.0
 10
89.3583699320875
 20
-136.8819118581406
 30
0.0
  0
HATCH
  5
166
330
14E
100
AcDbEntity
  8
_U+30EC_U+30A4_U+30E4_U+30FC 1
 62
   179
420
  2234388
100
AcDbHatch
 10
0.0
 20
0.0
 30
0.0
210
0.0
220
0.0
230
1.0
  2
SOLID
 70
     1
 71
     0
 91
        1
 92
        1
 93
        1
 72
     4
 94
        3
 73
     0
 74
     1
 95
       26
 96
       22
 40
0.0
 40
0.0
 40
0.0
 40
0.0
 40
1.0
 40
1.0
 40
1.0
 40
2.0
 40
2.0
 40
2.0
 40
3.0
 40
3.0
 40
3.0
 40
4.0
 40
4.0
 40
4.0
 40
5.0
 40
5.0
 40
5.0
 40
6.0
 40
6.0
 40
6.0
 40
7.0
 40
7.0
 40
7.0
 40
7.0
 10
89.3583699320875
 20
-136.8819118581406
 10
89.3583699320875
 20
-136.8819118581406
 10
89.3583699320875
 20
-135.687841762953
 10
89.3583699320875
 20
-135.687841762953
 10
89.3583699320875
 20
-135.687841762953
 10
88.9771701166446
 20
-135.687841762953
 10
88.9771701166446
 20
-135.687841762953
 10
88.9771701166446
 20
-135.687841762953
 10
88.9771701166446
 20
-135.5276448228889
 10
88.9771701166446
 20
-135.5276448228889
 10
89.36078149892717
 20
-135.5117973836568
 10
89.41452498849706
 20
-135.3357530043605
 10
89.4488036885753
 20
-135.21207407644
 10
89.4488036885753
 20
-135.21207407644
 10
89.61744111257828
 20
-135.21207407644
 10
89.61744111257828
 20
-135.21207407644
 10
89.61744111257828
 20
-135.21207407644
 10
89.61744111257828
 20
-136.8819118581406
 10
89.61744111257828
 20
-136.8819118581406
 10
89.61744111257828
 20
-136.8819118581406
 10
89.3583699320875
 20
-136.8819118581406
 10
89.3583699320875
 20
-136.8819118581406
 97
        0
 97
        0
 75
     2
 76
     1
 98
        0
  0
SPLINE
  5
167
330
14E
100
AcDbEntity
  8
_U+30EC_U+30A4_U+30E4_U+30FC 1
370
     0
100
AcDbSpline
210
0.0
220
0.0
230
1.0
 70
    11
 71
     3
 72
    53
 73
    49
 74
     0
 42
0.0000000001
 43
0.0000000001
 12
1.0
 22
0.0
 32
0.0
 13
1.0
 23
0.0
 33
0.0
 40
0.0
 40
0.0
 40
0.0
 40
0.0
 40
1.0
 40
1.0
 40
1.0
 40
2.0
 40
2.0
 40
2.0
 40
3.0
 40
3.0
 40
3.0
 40
4.0
 40
4.0
 40
4.0
 40
5.0
 40
5.0
 40
5.0
 40
6.0
 40
6.0
 40
6.0
 40
7.0
 40
7.0
 40
7.0
 40
8.0
 40
8.0
 40
8.0
 40
9.0
 40
9.0
 40
9.0
 40
10.0
 40
10.0
 40
10.0
 40
11.0
 40
11.0
 40
11.0
 40
12.0
 40
12.0
 40
12.0
 40
13.0
 40
13.0
 40
13.0
 40
14.0
 40
14.0
 40
14.0
 40
15.0
 40
15.0
 40
15.0
 40
16.0
 40
16.0
 40
16.0
 40
16.0
 10
90.75087752722548
 20
-136.9370333859046
 30
0.0
 10
90.66061602551193
 20
-136.9370333859046
 30
0.0
 10
90.54313826946492
 20
-136.9187743798328
 30
0.0
 10
90.42600502296642
 20
-136.8502169796763
 30
0.0
 10
90.22550046572488
 20
-136.7310166758867
 30
0.0
 10
90.2010402877796
 20
-136.5890787418944
 30
0.0
 10
90.17916393144827
 20
-136.472634514493
 30
0.0
 10
90.17916393144827
 20
-136.472634514493
 30
0.0
 10
90.43565129032513
 20
-136.472634514493
 30
0.0
 10
90.43565129032513
 20
-136.472634514493
 30
0.0
 10
90.49921330202798
 20
-136.6876084727726
 30
0.0
 10
90.64580211492536
 20
-136.7196478607854
 30
0.0
 10
90.75346134883942
 20
-136.7196478607854
 30
0.0
 10
90.91469181754911
 20
-136.7196478607854
 30
0.0
 10
91.09056394207111
 20
-136.6121608816456
 30
0.0
 10
91.09056394207111
 20
-136.3603244016738
 30
0.0
 10
91.09056394207111
 20
-136.0836832342083
 30
0.0
 10
90.8829969390848
 20
-136.0082356430813
 30
0.0
 10
90.74364282670645
 20
-136.0082356430813
 30
0.0
 10
90.70695255978855
 20
-136.0082356430813
 30
0.0
 10
90.54313826946492
 20
-136.0082356430813
 30
0.0
 10
90.44064667877873
 20
-136.1477620102339
 30
0.0
 10
90.44064667877873
 20
-136.1477620102339
 30
0.0
 10
90.23773055469752
 20
-136.1270914373224
 30
0.0
 10
90.23773055469752
 20
-136.1270914373224
 30
0.0
 10
90.23773055469752
 20
-136.1270914373224
 30
0.0
 10
90.37708466707588
 20
-135.21207407644
 30
0.0
 10
90.37708466707588
 20
-135.21207407644
 30
0.0
 10
90.37708466707588
 20
-135.21207407644
 30
0.0
 10
91.27642684350035
 20
-135.21207407644
 30
0.0
 10
91.27642684350035
 20
-135.21207407644
 30
0.0
 10
91.27642684350035
 20
-135.21207407644
 30
0.0
 10
91.27642684350035
 20
-135.4225694105888
 30
0.0
 10
91.27642684350035
 20
-135.4225694105888
 30
0.0
 10
91.27642684350035
 20
-135.4225694105888
 30
0.0
 10
90.56518688057051
 20
-135.4225694105888
 30
0.0
 10
90.56518688057051
 20
-135.4225694105888
 30
0.0
 10
90.56518688057051
 20
-135.4225694105888
 30
0.0
 10
90.48939477989502
 20
-135.88007809103
 30
0.0
 10
90.48939477989502
 20
-135.88007809103
 30
0.0
 10
90.56036374689117
 20
-135.8435600788863
 30
0.0
 10
90.65562063705832
 20
-135.8001518757722
 30
0.0
 10
90.79256318259701
 20
-135.8001518757722
 30
0.0
 10
91.08574080839176
 20
-135.8001518757722
 30
0.0
 10
91.35945364469487
 20
-136.0013454521108
 30
0.0
 10
91.35945364469487
 20
-136.3396538287623
 30
0.0
 10
91.35945364469487
 20
-136.6831298486417
 30
0.0
 10
91.10038246420407
 20
-136.9370333859046
 30
0.0
 10
90.75087752722548
 20
-136.9370333859046
 30
0.0
  0
HATCH
  5
168
330
14E
100
AcDbEntity
  8
_U+30EC_U+30A4_U+30E4_U+30FC 1
 62
   179
420
  2234388
100
AcDbHatch
 10
0.0
 20
0.0
 30
0.0
210
0.0
220
0.0
230
1.0
  2
SOLID
 70
     1
 71
     0
 91
        1
 92
        1
 93
        1
 72
     4
 94
        3
 73
     0
 74
     1
 95
       53
 96
       49
 40
0.0
 40
0.0
 40
0.0
 40
0.0
 40
1.0
 40
1.0
 40
1.0
 40
2.0
 40
2.0
 40
2.0
 40
3.0
 40
3.0
 40
3.0
 40
4.0
 40
4.0
 40
4.0
 40
5.0
 40
5.0
 40
5.0
 40
6.0
 40
6.0
 40
6.0
 40
7.0
 40
7.0
 40
7.0
 40
8.0
 40
8.0
 40
8.0
 40
9.0
 40
9.0
 40
9.0
 40
10.0
 40
10.0
 40
10.0
 40
11.0
 40
11.0
 40
11.0
 40
12.0
 40
12.0
 40
12.0
 40
13.0
 40
13.0
 40
13.0
 40
14.0
 40
14.0
 40
14.0
 40
15.0
 40
15.0
 40
15.0
 40
16.0
 40
16.0
 40
16.0
 40
16.0
 10
90.75087752722548
 20
-136.9370333859046
 10
90.66061602551193
 20
-136.9370333859046
 10
90.54313826946492
 20
-136.9187743798328
 10
90.42600502296642
 20
-136.8502169796763
 10
90.22550046572488
 20
-136.7310166758867
 10
90.2010402877796
 20
-136.5890787418944
 10
90.17916393144827
 20
-136.472634514493
 10
90.17916393144827
 20
-136.472634514493
 10
90.43565129032513
 20
-136.472634514493
 10
90.43565129032513
 20
-136.472634514493
 10
90.49921330202798
 20
-136.6876084727726
 10
90.64580211492536
 20
-136.7196478607854
 10
90.75346134883942
 20
-136.7196478607854
 10
90.91469181754911
 20
-136.7196478607854
 10
91.09056394207111
 20
-136.6121608816456
 10
91.09056394207111
 20
-136.3603244016738
 10
91.09056394207111
 20
-136.0836832342083
 10
90.8829969390848
 20
-136.0082356430813
 10
90.74364282670645
 20
-136.0082356430813
 10
90.70695255978855
 20
-136.0082356430813
 10
90.54313826946492
 20
-136.0082356430813
 10
90.44064667877873
 20
-136.1477620102339
 10
90.44064667877873
 20
-136.1477620102339
 10
90.23773055469752
 20
-136.1270914373224
 10
90.23773055469752
 20
-136.1270914373224
 10
90.23773055469752
 20
-136.1270914373224
 10
90.37708466707588
 20
-135.21207407644
 10
90.37708466707588
 20
-135.21207407644
 10
90.37708466707588
 20
-135.21207407644
 10
91.27642684350035
 20
-135.21207407644
 10
91.27642684350035
 20
-135.21207407644
 10
91.27642684350035
 20
-135.21207407644
 10
91.27642684350035
 20
-135.4225694105888
 10
91.27642684350035
 20
-135.4225694105888
 10
91.27642684350035
 20
-135.4225694105888
 10
90.56518688057051
 20
-135.4225694105888
 10
90.56518688057051
 20
-135.4225694105888
 10
90.56518688057051
 20
-135.4225694105888
 10
90.48939477989502
 20
-135.88007809103
 10
90.48939477989502
 20
-135.88007809103
 10
90.56036374689117
 20
-135.8435600788863
 10
90.65562063705832
 20
-135.8001518757722
 10
90.79256318259701
 20
-135.8001518757722
 10
91.08574080839176
 20
-135.8001518757722
 10
91.35945364469487
 20
-136.0013454521108
 10
91.35945364469487
 20
-136.3396538287623
 10
91.35945364469487
 20
-136.6831298486417
 10
91.10038246420407
 20
-136.9370333859046
 10
90.75087752722548
 20
-136.9370333859046
 97
        0
 97
        0
 75
     2
 76
     1
 98
        0
  0
SPLINE
  5
169
330
14E
100
AcDbEntity
  8
_U+30EC_U+30A4_U+30E4_U+30FC 1
370
     0
100
AcDbSpline
210
0.0
220
0.0
230
1.0
 70
    11
 71
     3
 72
    29
 73
    25
 74
     0
 42
0.0000000001
 43
0.0000000001
 12
1.0
 22
0.0
 32
0.0
 13
1.0
 23
0.0
 33
0.0
 40
0.0
 40
0.0
 40
0.0
 40
0.0
 40
1.0
 40
1.0
 40
1.0
 40
2.0
 40
2.0
 40
2.0
 40
3.0
 40
3.0
 40
3.0
 40
4.0
 40
4.0
 40
4.0
 40
5.0
 40
5.0
 40
5.0
 40
6.0
 40
6.0
 40
6.0
 40
7.0
 40
7.0
 40
7.0
 40
8.0
 40
8.0
 40
8.0
 40
8.0
 10
92.59073077112315
 20
-136.6896755300637
 30
0.0
 10
92.46636282410563
 20
-136.9163628129931
 30
0.0
 10
92.2658582668641
 20
-136.9370333859046
 30
0.0
 10
92.13149954293935
 20
-136.9370333859046
 30
0.0
 10
91.94546438673586
 20
-136.9370333859046
 30
0.0
 10
91.78182235118649
 20
-136.88673499182
 30
0.0
 10
91.67192380520703
 20
-136.6896755300637
 30
0.0
 10
91.55203448232032
 20
-136.4795247054635
 30
0.0
 10
91.52998587121473
 20
-136.2232096013609
 30
0.0
 10
91.52998587121473
 20
-136.0468207125161
 30
0.0
 10
91.52998587121473
 20
-135.8914469061313
 30
0.0
 10
91.54996742502918
 20
-135.6192843627966
 30
0.0
 10
91.67192380520703
 20
-135.4039658949685
 30
0.0
 10
91.79663626177307
 20
-135.184513312558
 30
0.0
 10
91.98232690842804
 20
-135.1593641155157
 30
0.0
 10
92.13149954293935
 20
-135.1593641155157
 30
0.0
 10
92.31477862275464
 20
-135.1593641155157
 30
0.0
 10
92.48083222514369
 20
-135.2075954523092
 30
0.0
 10
92.59073077112315
 20
-135.4039658949685
 30
0.0
 10
92.70545245078198
 20
-135.6123941718261
 30
0.0
 10
92.73232419556692
 20
-135.8594075181185
 30
0.0
 10
92.73232419556692
 20
-136.0468207125161
 30
0.0
 10
92.73232419556692
 20
-136.2321668496225
 30
0.0
 10
92.70820852717017
 20
-136.4815917627546
 30
0.0
 10
92.59073077112315
 20
-136.6896755300637
 30
0.0
  0
SPLINE
  5
16A
330
14E
100
AcDbEntity
  8
_U+30EC_U+30A4_U+30E4_U+30FC 1
370
     0
100
AcDbSpline
210
0.0
220
0.0
230
1.0
 70
    11
 71
     3
 72
    17
 73
    13
 74
     0
 42
0.0000000001
 43
0.0000000001
 12
1.0
 22
0.0
 32
0.0
 13
1.0
 23
0.0
 33
0.0
 40
0.0
 40
0.0
 40
0.0
 40
0.0
 40
1.0
 40
1.0
 40
1.0
 40
2.0
 40
2.0
 40
2.0
 40
3.0
 40
3.0
 40
3.0
 40
4.0
 40
4.0
 40
4.0
 40
4.0
 10
92.13149954293935
 20
-135.3674478828248
 30
0.0
 10
91.84280054127541
 20
-135.3674478828248
 30
0.0
 10
91.78905705170551
 20
-135.6740613810121
 30
0.0
 10
91.78905705170551
 20
-136.0468207125161
 30
0.0
 10
91.78905705170551
 20
-136.3927082992352
 30
0.0
 10
91.83074270707704
 20
-136.7265380517559
 30
0.0
 10
92.13149954293935
 20
-136.7265380517559
 30
0.0
 10
92.41744246821509
 20
-136.7265380517559
 30
0.0
 10
92.47325301507614
 20
-136.4223361204083
 30
0.0
 10
92.47325301507614
 20
-136.0468207125161
 30
0.0
 10
92.47325301507614
 20
-135.701622144894
 30
0.0
 10
92.42950030241346
 20
-135.3674478828248
 30
0.0
 10
92.13149954293935
 20
-135.3674478828248
 30
0.0
  0
HATCH
  5
16B
330
14E
100
AcDbEntity
  8
_U+30EC_U+30A4_U+30E4_U+30FC 1
 62
   179
420
  2234388
100
AcDbHatch
 10
0.0
 20
0.0
 30
0.0
210
0.0
220
0.0
230
1.0
  2
SOLID
 70
     1
 71
     0
 91
        2
 92
        1
 93
        1
 72
     4
 94
        3
 73
     0
 74
     1
 95
       29
 96
       25
 40
0.0
 40
0.0
 40
0.0
 40
0.0
 40
1.0
 40
1.0
 40
1.0
 40
2.0
 40
2.0
 40
2.0
 40
3.0
 40
3.0
 40
3.0
 40
4.0
 40
4.0
 40
4.0
 40
5.0
 40
5.0
 40
5.0
 40
6.0
 40
6.0
 40
6.0
 40
7.0
 40
7.0
 40
7.0
 40
8.0
 40
8.0
 40
8.0
 40
8.0
 10
92.59073077112315
 20
-136.6896755300637
 10
92.46636282410563
 20
-136.9163628129931
 10
92.2658582668641
 20
-136.9370333859046
 10
92.13149954293935
 20
-136.9370333859046
 10
91.94546438673586
 20
-136.9370333859046
 10
91.78182235118649
 20
-136.88673499182
 10
91.67192380520703
 20
-136.6896755300637
 10
91.55203448232032
 20
-136.4795247054635
 10
91.52998587121473
 20
-136.2232096013609
 10
91.52998587121473
 20
-136.0468207125161
 10
91.52998587121473
 20
-135.8914469061313
 10
91.54996742502918
 20
-135.6192843627966
 10
91.67192380520703
 20
-135.4039658949685
 10
91.79663626177307
 20
-135.184513312558
 10
91.98232690842804
 20
-135.1593641155157
 10
92.13149954293935
 20
-135.1593641155157
 10
92.31477862275464
 20
-135.1593641155157
 10
92.48083222514369
 20
-135.2075954523092
 10
92.59073077112315
 20
-135.4039658949685
 10
92.70545245078198
 20
-135.6123941718261
 10
92.73232419556692
 20
-135.8594075181185
 10
92.73232419556692
 20
-136.0468207125161
 10
92.73232419556692
 20
-136.2321668496225
 10
92.70820852717017
 20
-136.4815917627546
 10
92.59073077112315
 20
-136.6896755300637
 97
        0
 97
        0
 92
        1
 93
        1
 72
     4
 94
        3
 73
     0
 74
     1
 95
       17
 96
       13
 40
0.0
 40
0.0
 40
0.0
 40
0.0
 40
1.0
 40
1.0
 40
1.0
 40
2.0
 40
2.0
 40
2.0
 40
3.0
 40
3.0
 40
3.0
 40
4.0
 40
4.0
 40
4.0
 40
4.0
 10
92.13149954293935
 20
-135.3674478828248
 10
91.84280054127541
 20
-135.3674478828248
 10
91.78905705170551
 20
-135.6740613810121
 10
91.78905705170551
 20
-136.0468207125161
 10
91.78905705170551
 20
-136.3927082992352
 10
91.83074270707704
 20
-136.7265380517559
 10
92.13149954293935
 20
-136.7265380517559
 10
92.41744246821509
 20
-136.7265380517559
 10
92.47325301507614
 20
-136.4223361204083
 10
92.47325301507614
 20
-136.0468207125161
 10
92.47325301507614
 20
-135.701622144894
 10
92.42950030241346
 20
-135.3674478828248
 10
92.13149954293935
 20
-135.3674478828248
 97
        0
 97
        0
 75
     2
 76
     1
 98
        0
  0
SPLINE
  5
16C
330
14E
100
AcDbEntity
  8
_U+30EC_U+30A4_U+30E4_U+30FC 1
370
     0
100
AcDbSpline
210
0.0
220
0.0
230
1.0
 70
    11
 71
     3
 72
    17
 73
    13
 74
     0
 42
0.0000000001
 43
0.0000000001
 12
1.0
 22
0.0
 32
0.0
 13
1.0
 23
0.0
 33
0.0
 40
0.0
 40
0.0
 40
0.0
 40
0.0
 40
1.0
 40
1.0
 40
1.0
 40
2.0
 40
2.0
 40
2.0
 40
3.0
 40
3.0
 40
3.0
 40
4.0
 40
4.0
 40
4.0
 40
4.0
 10
93.52194008078618
 20
-136.0127142672121
 30
0.0
 10
93.52194008078618
 20
-136.1363931951326
 30
0.0
 10
93.41445310164639
 20
-136.2345784164622
 30
0.0
 10
93.28491751140099
 20
-136.2345784164622
 30
0.0
 10
93.1526258447674
 20
-136.2345784164622
 30
0.0
 10
93.0478949420158
 20
-136.1339816282929
 30
0.0
 10
93.0478949420158
 20
-136.0127142672121
 30
0.0
 10
93.0478949420158
 20
-135.8890353392916
 30
0.0
 10
93.15538192115561
 20
-135.790850117962
 30
0.0
 10
93.28491751140099
 20
-135.790850117962
 30
0.0
 10
93.41169702525819
 20
-135.790850117962
 30
0.0
 10
93.52194008078618
 20
-135.8869682820005
 30
0.0
 10
93.52194008078618
 20
-136.0127142672121
 30
0.0
  0
HATCH
  5
16D
330
14E
100
AcDbEntity
  8
_U+30EC_U+30A4_U+30E4_U+30FC 1
 62
   179
420
  2234388
100
AcDbHatch
 10
0.0
 20
0.0
 30
0.0
210
0.0
220
0.0
230
1.0
  2
SOLID
 70
     1
 71
     0
 91
        1
 92
        1
 93
        1
 72
     4
 94
        3
 73
     0
 74
     1
 95
       17
 96
       13
 40
0.0
 40
0.0
 40
0.0
 40
0.0
 40
1.0
 40
1.0
 40
1.0
 40
2.0
 40
2.0
 40
2.0
 40
3.0
 40
3.0
 40
3.0
 40
4.0
 40
4.0
 40
4.0
 40
4.0
 10
93.52194008078618
 20
-136.0127142672121
 10
93.52194008078618
 20
-136.1363931951326
 10
93.41445310164639
 20
-136.2345784164622
 10
93.28491751140099
 20
-136.2345784164622
 10
93.1526258447674
 20
-136.2345784164622
 10
93.0478949420158
 20
-136.1339816282929
 10
93.0478949420158
 20
-136.0127142672121
 10
93.0478949420158
 20
-135.8890353392916
 10
93.15538192115561
 20
-135.790850117962
 10
93.28491751140099
 20
-135.790850117962
 10
93.41169702525819
 20
-135.790850117962
 10
93.52194008078618
 20
-135.8869682820005
 10
93.52194008078618
 20
-136.0127142672121
 97
        0
 97
        0
 75
     2
 76
     1
 98
        0
  0
SPLINE
  5
16E
330
14E
100
AcDbEntity
  8
_U+30EC_U+30A4_U+30E4_U+30FC 1
370
     0
100
AcDbSpline
210
0.0
220
0.0
230
1.0
 70
    11
 71
     3
 72
    44
 73
    40
 74
     0
 42
0.0000000001
 43
0.0000000001
 12
1.0
 22
0.0
 32
0.0
 13
1.0
 23
0.0
 33
0.0
 40
0.0
 40
0.0
 40
0.0
 40
0.0
 40
1.0
 40
1.0
 40
1.0
 40
2.0
 40
2.0
 40
2.0
 40
3.0
 40
3.0
 40
3.0
 40
4.0
 40
4.0
 40
4.0
 40
5.0
 40
5.0
 40
5.0
 40
6.0
 40
6.0
 40
6.0
 40
7.0
 40
7.0
 40
7.0
 40
8.0
 40
8.0
 40
8.0
 40
9.0
 40
9.0
 40
9.0
 40
10.0
 40
10.0
 40
10.0
 40
11.0
 40
11.0
 40
11.0
 40
12.0
 40
12.0
 40
12.0
 40
13.0
 40
13.0
 40
13.0
 40
13.0
 10
94.54513343990538
 20
-136.252837422534
 30
0.0
 10
94.29364146948215
 20
-136.4244031776995
 30
0.0
 10
94.18615449034236
 20
-136.5046739025058
 30
0.0
 10
94.12965492438425
 20
-136.6600477088905
 30
0.0
 10
94.12965492438425
 20
-136.6600477088905
 30
0.0
 10
95.02882484603447
 20
-136.6600477088905
 30
0.0
 10
95.02882484603447
 20
-136.6600477088905
 30
0.0
 10
95.02882484603447
 20
-136.6600477088905
 30
0.0
 10
95.02882484603447
 20
-136.8819118581406
 30
0.0
 10
95.02882484603447
 20
-136.8819118581406
 30
0.0
 10
95.02882484603447
 20
-136.8819118581406
 30
0.0
 10
93.84130043226885
 20
-136.8819118581406
 30
0.0
 10
93.84130043226885
 20
-136.8819118581406
 30
0.0
 10
93.87816295396102
 20
-136.4953721446956
 30
0.0
 10
93.95395505463651
 20
-136.4106227957585
 30
0.0
 10
94.39837237223375
 20
-136.0881618583391
 30
0.0
 10
94.6943060744167
 20
-135.8731879000595
 30
0.0
 10
94.7700981750922
 20
-135.8001518757722
 30
0.0
 10
94.7700981750922
 20
-135.6513237508094
 30
0.0
 10
94.7700981750922
 20
-135.5231661987581
 30
0.0
 10
94.68707137389768
 20
-135.3812282647658
 30
0.0
 10
94.4596950718712
 20
-135.3812282647658
 30
0.0
 10
94.1592827455574
 20
-135.3812282647658
 30
0.0
 10
94.14929196865018
 20
-135.6306531778979
 30
0.0
 10
94.14446883497084
 20
-135.756743672658
 30
0.0
 10
94.14446883497084
 20
-135.756743672658
 30
0.0
 10
93.88539765448004
 20
-135.756743672658
 30
0.0
 10
93.88539765448004
 20
-135.756743672658
 30
0.0
 10
93.89538843138727
 20
-135.6192843627966
 30
0.0
 10
93.90710175603712
 20
-135.4980170017158
 30
0.0
 10
94.00011933413886
 20
-135.3698594496645
 30
0.0
 10
94.12724335754459
 20
-135.1958821276594
 30
0.0
 10
94.3425618253727
 20
-135.1593641155157
 30
0.0
 10
94.47692054929745
 20
-135.1593641155157
 30
0.0
 10
94.79696991987716
 20
-135.1593641155157
 30
0.0
 10
95.03640405610201
 20
-135.3584906345632
 30
0.0
 10
95.03640405610201
 20
-135.6533908081005
 30
0.0
 10
95.03640405610201
 20
-135.9007486639415
 30
0.0
 10
94.90204533217727
 20
-136.0082356430813
 30
0.0
 10
94.54513343990538
 20
-136.252837422534
 30
0.0
  0
HATCH
  5
16F
330
14E
100
AcDbEntity
  8
_U+30EC_U+30A4_U+30E4_U+30FC 1
 62
   179
420
  2234388
100
AcDbHatch
 10
0.0
 20
0.0
 30
0.0
210
0.0
220
0.0
230
1.0
  2
SOLID
 70
     1
 71
     0
 91
        1
 92
        1
 93
        1
 72
     4
 94
        3
 73
     0
 74
     1
 95
       44
 96
       40
 40
0.0
 40
0.0
 40
0.0
 40
0.0
 40
1.0
 40
1.0
 40
1.0
 40
2.0
 40
2.0
 40
2.0
 40
3.0
 40
3.0
 40
3.0
 40
4.0
 40
4.0
 40
4.0
 40
5.0
 40
5.0
 40
5.0
 40
6.0
 40
6.0
 40
6.0
 40
7.0
 40
7.0
 40
7.0
 40
8.0
 40
8.0
 40
8.0
 40
9.0
 40
9.0
 40
9.0
 40
10.0
 40
10.0
 40
10.0
 40
11.0
 40
11.0
 40
11.0
 40
12.0
 40
12.0
 40
12.0
 40
13.0
 40
13.0
 40
13.0
 40
13.0
 10
94.54513343990538
 20
-136.252837422534
 10
94.29364146948215
 20
-136.4244031776995
 10
94.18615449034236
 20
-136.5046739025058
 10
94.12965492438425
 20
-136.6600477088905
 10
94.12965492438425
 20
-136.6600477088905
 10
95.02882484603447
 20
-136.6600477088905
 10
95.02882484603447
 20
-136.6600477088905
 10
95.02882484603447
 20
-136.6600477088905
 10
95.02882484603447
 20
-136.8819118581406
 10
95.02882484603447
 20
-136.8819118581406
 10
95.02882484603447
 20
-136.8819118581406
 10
93.84130043226885
 20
-136.8819118581406
 10
93.84130043226885
 20
-136.8819118581406
 10
93.87816295396102
 20
-136.4953721446956
 10
93.95395505463651
 20
-136.4106227957585
 10
94.39837237223375
 20
-136.0881618583391
 10
94.6943060744167
 20
-135.8731879000595
 10
94.7700981750922
 20
-135.8001518757722
 10
94.7700981750922
 20
-135.6513237508094
 10
94.7700981750922
 20
-135.5231661987581
 10
94.68707137389768
 20
-135.3812282647658
 10
94.4596950718712
 20
-135.3812282647658
 10
94.1592827455574
 20
-135.3812282647658
 10
94.14929196865018
 20
-135.6306531778979
 10
94.14446883497084
 20
-135.756743672658
 10
94.14446883497084
 20
-135.756743672658
 10
93.88539765448004
 20
-135.756743672658
 10
93.88539765448004
 20
-135.756743672658
 10
93.89538843138727
 20
-135.6192843627966
 10
93.90710175603712
 20
-135.4980170017158
 10
94.00011933413886
 20
-135.3698594496645
 10
94.12724335754459
 20
-135.1958821276594
 10
94.3425618253727
 20
-135.1593641155157
 10
94.47692054929745
 20
-135.1593641155157
 10
94.79696991987716
 20
-135.1593641155157
 10
95.03640405610201
 20
-135.3584906345632
 10
95.03640405610201
 20
-135.6533908081005
 10
95.03640405610201
 20
-135.9007486639415
 10
94.90204533217727
 20
-136.0082356430813
 10
94.54513343990538
 20
-136.252837422534
 97
        0
 97
        0
 75
     2
 76
     1
 98
        0
  0
SPLINE
  5
170
330
14E
100
AcDbEntity
  8
_U+30EC_U+30A4_U+30E4_U+30FC 1
370
     0
100
AcDbSpline
210
0.0
220
0.0
230
1.0
 70
    11
 71
     3
 72
    29
 73
    25
 74
     0
 42
0.0000000001
 43
0.0000000001
 12
1.0
 22
0.0
 32
0.0
 13
1.0
 23
0.0
 33
0.0
 40
0.0
 40
0.0
 40
0.0
 40
0.0
 40
1.0
 40
1.0
 40
1.0
 40
2.0
 40
2.0
 40
2.0
 40
3.0
 40
3.0
 40
3.0
 40
4.0
 40
4.0
 40
4.0
 40
5.0
 40
5.0
 40
5.0
 40
6.0
 40
6.0
 40
6.0
 40
7.0
 40
7.0
 40
7.0
 40
8.0
 40
8.0
 40
8.0
 40
8.0
 10
96.25527883878341
 20
-136.6896755300637
 30
0.0
 10
96.1309108917659
 20
-136.9163628129931
 30
0.0
 10
95.93040633452435
 20
-136.9370333859046
 30
0.0
 10
95.7960476105996
 20
-136.9370333859046
 30
0.0
 10
95.61035696394464
 20
-136.9370333859046
 30
0.0
 10
95.44637041884674
 20
-136.88673499182
 30
0.0
 10
95.3368163824158
 20
-136.6896755300637
 30
0.0
 10
95.21692705952911
 20
-136.4795247054635
 30
0.0
 10
95.19487844842351
 20
-136.2232096013609
 30
0.0
 10
95.19487844842351
 20
-136.0468207125161
 30
0.0
 10
95.19487844842351
 20
-135.8914469061313
 30
0.0
 10
95.2141709831409
 20
-135.6192843627966
 30
0.0
 10
95.3368163824158
 20
-135.4039658949685
 30
0.0
 10
95.46118432943332
 20
-135.184513312558
 30
0.0
 10
95.64687497608828
 20
-135.1593641155157
 30
0.0
 10
95.7960476105996
 20
-135.1593641155157
 30
0.0
 10
95.9793266904149
 20
-135.1593641155157
 30
0.0
 10
96.14572480235246
 20
-135.2075954523092
 30
0.0
 10
96.25527883878341
 20
-135.4039658949685
 30
0.0
 10
96.37034502799075
 20
-135.6123941718261
 30
0.0
 10
96.3972167727757
 20
-135.8594075181185
 30
0.0
 10
96.3972167727757
 20
-136.0468207125161
 30
0.0
 10
96.3972167727757
 20
-136.2321668496225
 30
0.0
 10
96.37275659483042
 20
-136.4815917627546
 30
0.0
 10
96.25527883878341
 20
-136.6896755300637
 30
0.0
  0
SPLINE
  5
171
330
14E
100
AcDbEntity
  8
_U+30EC_U+30A4_U+30E4_U+30FC 1
370
     0
100
AcDbSpline
210
0.0
220
0.0
230
1.0
 70
    11
 71
     3
 72
    17
 73
    13
 74
     0
 42
0.0000000001
 43
0.0000000001
 12
1.0
 22
0.0
 32
0.0
 13
1.0
 23
0.0
 33
0.0
 40
0.0
 40
0.0
 40
0.0
 40
0.0
 40
1.0
 40
1.0
 40
1.0
 40
2.0
 40
2.0
 40
2.0
 40
3.0
 40
3.0
 40
3.0
 40
4.0
 40
4.0
 40
4.0
 40
4.0
 10
95.7960476105996
 20
-135.3674478828248
 30
0.0
 10
95.5076931184842
 20
-135.3674478828248
 30
0.0
 10
95.4539496289143
 20
-135.6740613810121
 30
0.0
 10
95.4539496289143
 20
-136.0468207125161
 30
0.0
 10
95.4539496289143
 20
-136.3927082992352
 30
0.0
 10
95.4952907747373
 20
-136.7265380517559
 30
0.0
 10
95.7960476105996
 20
-136.7265380517559
 30
0.0
 10
96.08199053587533
 20
-136.7265380517559
 30
0.0
 10
96.13814559228491
 20
-136.4223361204083
 30
0.0
 10
96.13814559228491
 20
-136.0468207125161
 30
0.0
 10
96.13814559228491
 20
-135.701622144894
 30
0.0
 10
96.09404837007371
 20
-135.3674478828248
 30
0.0
 10
95.7960476105996
 20
-135.3674478828248
 30
0.0
  0
HATCH
  5
172
330
14E
100
AcDbEntity
  8
_U+30EC_U+30A4_U+30E4_U+30FC 1
 62
   179
420
  2234388
100
AcDbHatch
 10
0.0
 20
0.0
 30
0.0
210
0.0
220
0.0
230
1.0
  2
SOLID
 70
     1
 71
     0
 91
        2
 92
        1
 93
        1
 72
     4
 94
        3
 73
     0
 74
     1
 95
       29
 96
       25
 40
0.0
 40
0.0
 40
0.0
 40
0.0
 40
1.0
 40
1.0
 40
1.0
 40
2.0
 40
2.0
 40
2.0
 40
3.0
 40
3.0
 40
3.0
 40
4.0
 40
4.0
 40
4.0
 40
5.0
 40
5.0
 40
5.0
 40
6.0
 40
6.0
 40
6.0
 40
7.0
 40
7.0
 40
7.0
 40
8.0
 40
8.0
 40
8.0
 40
8.0
 10
96.25527883878341
 20
-136.6896755300637
 10
96.1309108917659
 20
-136.9163628129931
 10
95.93040633452435
 20
-136.9370333859046
 10
95.7960476105996
 20
-136.9370333859046
 10
95.61035696394464
 20
-136.9370333859046
 10
95.44637041884674
 20
-136.88673499182
 10
95.3368163824158
 20
-136.6896755300637
 10
95.21692705952911
 20
-136.4795247054635
 10
95.19487844842351
 20
-136.2232096013609
 10
95.19487844842351
 20
-136.0468207125161
 10
95.19487844842351
 20
-135.8914469061313
 10
95.2141709831409
 20
-135.6192843627966
 10
95.3368163824158
 20
-135.4039658949685
 10
95.46118432943332
 20
-135.184513312558
 10
95.64687497608828
 20
-135.1593641155157
 10
95.7960476105996
 20
-135.1593641155157
 10
95.9793266904149
 20
-135.1593641155157
 10
96.14572480235246
 20
-135.2075954523092
 10
96.25527883878341
 20
-135.4039658949685
 10
96.37034502799075
 20
-135.6123941718261
 10
96.3972167727757
 20
-135.8594075181185
 10
96.3972167727757
 20
-136.0468207125161
 10
96.3972167727757
 20
-136.2321668496225
 10
96.37275659483042
 20
-136.4815917627546
 10
96.25527883878341
 20
-136.6896755300637
 97
        0
 97
        0
 92
        1
 93
        1
 72
     4
 94
        3
 73
     0
 74
     1
 95
       17
 96
       13
 40
0.0
 40
0.0
 40
0.0
 40
0.0
 40
1.0
 40
1.0
 40
1.0
 40
2.0
 40
2.0
 40
2.0
 40
3.0
 40
3.0
 40
3.0
 40
4.0
 40
4.0
 40
4.0
 40
4.0
 10
95.7960476105996
 20
-135.3674478828248
 10
95.5076931184842
 20
-135.3674478828248
 10
95.4539496289143
 20
-135.6740613810121
 10
95.4539496289143
 20
-136.0468207125161
 10
95.4539496289143
 20
-136.3927082992352
 10
95.4952907747373
 20
-136.7265380517559
 10
95.7960476105996
 20
-136.7265380517559
 10
96.08199053587533
 20
-136.7265380517559
 10
96.13814559228491
 20
-136.4223361204083
 10
96.13814559228491
 20
-136.0468207125161
 10
96.13814559228491
 20
-135.701622144894
 10
96.09404837007371
 20
-135.3674478828248
 10
95.7960476105996
 20
-135.3674478828248
 97
        0
 97
        0
 75
     2
 76
     1
 98
        0
  0
SPLINE
  5
173
330
14E
100
AcDbEntity
  8
_U+30EC_U+30A4_U+30E4_U+30FC 1
370
     0
100
AcDbSpline
210
0.0
220
0.0
230
1.0
 70
    11
 71
     3
 72
    29
 73
    25
 74
     0
 42
0.0000000001
 43
0.0000000001
 12
1.0
 22
0.0
 32
0.0
 13
1.0
 23
0.0
 33
0.0
 40
0.0
 40
0.0
 40
0.0
 40
0.0
 40
1.0
 40
1.0
 40
1.0
 40
2.0
 40
2.0
 40
2.0
 40
3.0
 40
3.0
 40
3.0
 40
4.0
 40
4.0
 40
4.0
 40
5.0
 40
5.0
 40
5.0
 40
6.0
 40
6.0
 40
6.0
 40
7.0
 40
7.0
 40
7.0
 40
8.0
 40
8.0
 40
8.0
 40
8.0
 10
97.61402449816595
 20
-136.6896755300637
 30
0.0
 10
97.4893120415999
 20
-136.9163628129931
 30
0.0
 10
97.28880748435836
 20
-136.9370333859046
 30
0.0
 10
97.15444876043361
 20
-136.9370333859046
 30
0.0
 10
96.96875811377865
 20
-136.9370333859046
 30
0.0
 10
96.80511607822928
 20
-136.88673499182
 30
0.0
 10
96.69487302270129
 20
-136.6896755300637
 30
0.0
 10
96.57532820936312
 20
-136.4795247054635
 30
0.0
 10
96.55327959825752
 20
-136.2232096013609
 30
0.0
 10
96.55327959825752
 20
-136.0468207125161
 30
0.0
 10
96.55327959825752
 20
-135.8914469061313
 30
0.0
 10
96.57291664252344
 20
-135.6192843627966
 30
0.0
 10
96.69487302270129
 20
-135.4039658949685
 30
0.0
 10
96.81958547926733
 20
-135.184513312558
 30
0.0
 10
97.00562063547082
 20
-135.1593641155157
 30
0.0
 10
97.15444876043361
 20
-135.1593641155157
 30
0.0
 10
97.3377278402489
 20
-135.1593641155157
 30
0.0
 10
97.50378144263794
 20
-135.2075954523092
 30
0.0
 10
97.61402449816595
 20
-135.4039658949685
 30
0.0
 10
97.72874617782476
 20
-135.6123941718261
 30
0.0
 10
97.75561792260972
 20
-135.8594075181185
 30
0.0
 10
97.75561792260972
 20
-136.0468207125161
 30
0.0
 10
97.75561792260972
 20
-136.2321668496225
 30
0.0
 10
97.73115774466444
 20
-136.4815917627546
 30
0.0
 10
97.61402449816595
 20
-136.6896755300637
 30
0.0
  0
SPLINE
  5
174
330
14E
100
AcDbEntity
  8
_U+30EC_U+30A4_U+30E4_U+30FC 1
370
     0
100
AcDbSpline
210
0.0
220
0.0
230
1.0
 70
    11
 71
     3
 72
    17
 73
    13
 74
     0
 42
0.0000000001
 43
0.0000000001
 12
1.0
 22
0.0
 32
0.0
 13
1.0
 23
0.0
 33
0.0
 40
0.0
 40
0.0
 40
0.0
 40
0.0
 40
1.0
 40
1.0
 40
1.0
 40
2.0
 40
2.0
 40
2.0
 40
3.0
 40
3.0
 40
3.0
 40
4.0
 40
4.0
 40
4.0
 40
4.0
 10
97.15444876043361
 20
-135.3674478828248
 30
0.0
 10
96.86609426831821
 20
-135.3674478828248
 30
0.0
 10
96.81235077874831
 20
-135.6740613810121
 30
0.0
 10
96.81235077874831
 20
-136.0468207125161
 30
0.0
 10
96.81235077874831
 20
-136.3927082992352
 30
0.0
 10
96.85403643411983
 20
-136.7265380517559
 30
0.0
 10
97.15444876043361
 20
-136.7265380517559
 30
0.0
 10
97.44039168570936
 20
-136.7265380517559
 30
0.0
 10
97.49654674211892
 20
-136.4223361204083
 30
0.0
 10
97.49654674211892
 20
-136.0468207125161
 30
0.0
 10
97.49654674211892
 20
-135.701622144894
 30
0.0
 10
97.45279402945626
 20
-135.3674478828248
 30
0.0
 10
97.15444876043361
 20
-135.3674478828248
 30
0.0
  0
HATCH
  5
175
330
14E
100
AcDbEntity
  8
_U+30EC_U+30A4_U+30E4_U+30FC 1
 62
   179
420
  2234388
100
AcDbHatch
 10
0.0
 20
0.0
 30
0.0
210
0.0
220
0.0
230
1.0
  2
SOLID
 70
     1
 71
     0
 91
        2
 92
        1
 93
        1
 72
     4
 94
        3
 73
     0
 74
     1
 95
       29
 96
       25
 40
0.0
 40
0.0
 40
0.0
 40
0.0
 40
1.0
 40
1.0
 40
1.0
 40
2.0
 40
2.0
 40
2.0
 40
3.0
 40
3.0
 40
3.0
 40
4.0
 40
4.0
 40
4.0
 40
5.0
 40
5.0
 40
5.0
 40
6.0
 40
6.0
 40
6.0
 40
7.0
 40
7.0
 40
7.0
 40
8.0
 40
8.0
 40
8.0
 40
8.0
 10
97.61402449816595
 20
-136.6896755300637
 10
97.4893120415999
 20
-136.9163628129931
 10
97.28880748435836
 20
-136.9370333859046
 10
97.15444876043361
 20
-136.9370333859046
 10
96.96875811377865
 20
-136.9370333859046
 10
96.80511607822928
 20
-136.88673499182
 10
96.69487302270129
 20
-136.6896755300637
 10
96.57532820936312
 20
-136.4795247054635
 10
96.55327959825752
 20
-136.2232096013609
 10
96.55327959825752
 20
-136.0468207125161
 10
96.55327959825752
 20
-135.8914469061313
 10
96.57291664252344
 20
-135.6192843627966
 10
96.69487302270129
 20
-135.4039658949685
 10
96.81958547926733
 20
-135.184513312558
 10
97.00562063547082
 20
-135.1593641155157
 10
97.15444876043361
 20
-135.1593641155157
 10
97.3377278402489
 20
-135.1593641155157
 10
97.50378144263794
 20
-135.2075954523092
 10
97.61402449816595
 20
-135.4039658949685
 10
97.72874617782476
 20
-135.6123941718261
 10
97.75561792260972
 20
-135.8594075181185
 10
97.75561792260972
 20
-136.0468207125161
 10
97.75561792260972
 20
-136.2321668496225
 10
97.73115774466444
 20
-136.4815917627546
 10
97.61402449816595
 20
-136.6896755300637
 97
        0
 97
        0
 92
        1
 93
        1
 72
     4
 94
        3
 73
     0
 74
     1
 95
       17
 96
       13
 40
0.0
 40
0.0
 40
0.0
 40
0.0
 40
1.0
 40
1.0
 40
1.0
 40
2.0
 40
2.0
 40
2.0
 40
3.0
 40
3.0
 40
3.0
 40
4.0
 40
4.0
 40
4.0
 40
4.0
 10
97.15444876043361
 20
-135.3674478828248
 10
96.86609426831821
 20
-135.3674478828248
 10
96.81235077874831
 20
-135.6740613810121
 10
96.81235077874831
 20
-136.0468207125161
 10
96.81235077874831
 20
-136.3927082992352
 10
96.85403643411983
 20
-136.7265380517559
 10
97.15444876043361
 20
-136.7265380517559
 10
97.44039168570936
 20
-136.7265380517559
 10
97.49654674211892
 20
-136.4223361204083
 10
97.49654674211892
 20
-136.0468207125161
 10
97.49654674211892
 20
-135.701622144894
 10
97.45279402945626
 20
-135.3674478828248
 10
97.15444876043361
 20
-135.3674478828248
 97
        0
 97
        0
 75
     2
 76
     1
 98
        0
  0
ENDBLK
  5
151
330
14E
100
AcDbEntity
  8
0
100
AcDbBlockEnd
  0
BLOCK
  5
184
330
182
100
AcDbEntity
  8
0
100
AcDbBlockBegin
  2
block 4
 70
     0
 10
0.0
 20
0.0
 30
0.0
  3
block 4
  1

  0
SPLINE
  5
186
330
182
100
AcDbEntity
  8
_U+30EC_U+30A4_U+30E4_U+30FC 1
370
     0
100
AcDbSpline
210
0.0
220
0.0
230
1.0
 70
    11
 71
     3
 72
    26
 73
    22
 74
     0
 42
0.0000000001
 43
0.0000000001
 12
1.0
 22
0.0
 32
0.0
 13
1.0
 23
0.0
 33
0.0
 40
0.0
 40
0.0
 40
0.0
 40
0.0
 40
1.0
 40
1.0
 40
1.0
 40
2.0
 40
2.0
 40
2.0
 40
3.0
 40
3.0
 40
3.0
 40
4.0
 40
4.0
 40
4.0
 40
5.0
 40
5.0
 40
5.0
 40
6.0
 40
6.0
 40
6.0
 40
7.0
 40
7.0
 40
7.0
 40
7.0
 10
121.773790117126
 20
-124.2821641399364
 30
0.0
 10
121.773790117126
 20
-124.2821641399364
 30
0.0
 10
121.773790117126
 20
-123.0879217899746
 30
0.0
 10
121.773790117126
 20
-123.0879217899746
 30
0.0
 10
121.773790117126
 20
-123.0879217899746
 30
0.0
 10
121.4168782248541
 20
-123.0879217899746
 30
0.0
 10
121.4168782248541
 20
-123.0879217899746
 30
0.0
 10
121.4168782248541
 20
-123.0879217899746
 30
0.0
 10
121.4168782248541
 20
-122.9278971046847
 30
0.0
 10
121.4168782248541
 20
-122.9278971046847
 30
0.0
 10
121.7758571744172
 20
-122.9118774106783
 30
0.0
 10
121.8261555685018
 20
-122.7356607766078
 30
0.0
 10
121.8581949565146
 20
-122.6121541034615
 30
0.0
 10
121.8581949565146
 20
-122.6121541034615
 30
0.0
 10
122.0163248392876
 20
-122.6121541034615
 30
0.0
 10
122.0163248392876
 20
-122.6121541034615
 30
0.0
 10
122.0163248392876
 20
-122.6121541034615
 30
0.0
 10
122.0163248392876
 20
-124.2821641399364
 30
0.0
 10
122.0163248392876
 20
-124.2821641399364
 30
0.0
 10
122.0163248392876
 20
-124.2821641399364
 30
0.0
 10
121.773790117126
 20
-124.2821641399364
 30
0.0
 10
121.773790117126
 20
-124.2821641399364
 30
0.0
  0
HATCH
  5
187
330
182
100
AcDbEntity
  8
_U+30EC_U+30A4_U+30E4_U+30FC 1
 62
   179
420
  2234388
100
AcDbHatch
 10
0.0
 20
0.0
 30
0.0
210
0.0
220
0.0
230
1.0
  2
SOLID
 70
     1
 71
     0
 91
        1
 92
        1
 93
        1
 72
     4
 94
        3
 73
     0
 74
     1
 95
       26
 96
       22
 40
0.0
 40
0.0
 40
0.0
 40
0.0
 40
1.0
 40
1.0
 40
1.0
 40
2.0
 40
2.0
 40
2.0
 40
3.0
 40
3.0
 40
3.0
 40
4.0
 40
4.0
 40
4.0
 40
5.0
 40
5.0
 40
5.0
 40
6.0
 40
6.0
 40
6.0
 40
7.0
 40
7.0
 40
7.0
 40
7.0
 10
121.773790117126
 20
-124.2821641399364
 10
121.773790117126
 20
-124.2821641399364
 10
121.773790117126
 20
-123.0879217899746
 10
121.773790117126
 20
-123.0879217899746
 10
121.773790117126
 20
-123.0879217899746
 10
121.4168782248541
 20
-123.0879217899746
 10
121.4168782248541
 20
-123.0879217899746
 10
121.4168782248541
 20
-123.0879217899746
 10
121.4168782248541
 20
-122.9278971046847
 10
121.4168782248541
 20
-122.9278971046847
 10
121.7758571744172
 20
-122.9118774106783
 10
121.8261555685018
 20
-122.7356607766078
 10
121.8581949565146
 20
-122.6121541034615
 10
121.8581949565146
 20
-122.6121541034615
 10
122.0163248392876
 20
-122.6121541034615
 10
122.0163248392876
 20
-122.6121541034615
 10
122.0163248392876
 20
-122.6121541034615
 10
122.0163248392876
 20
-124.2821641399364
 10
122.0163248392876
 20
-124.2821641399364
 10
122.0163248392876
 20
-124.2821641399364
 10
121.773790117126
 20
-124.2821641399364
 10
121.773790117126
 20
-124.2821641399364
 97
        0
 97
        0
 75
     2
 76
     1
 98
        0
  0
POLYLINE
  5
188
330
182
100
AcDbEntity
  8
_U+30EC_U+30A4_U+30E4_U+30FC 1
370
     0
100
AcDb2dPolyline
 66
     1
 10
0.0
 20
0.0
 30
0.0
  0
VERTEX
  5
189
330
188
100
AcDbEntity
  8
_U+30EC_U+30A4_U+30E4_U+30FC 1
370
     0
100
AcDbVertex
100
AcDb2dVertex
 10
123.456374752122
 20
-123.9069932415927
 30
0.0
  0
VERTEX
  5
18A
330
188
100
AcDbEntity
  8
_U+30EC_U+30A4_U+30E4_U+30FC 1
370
     0
100
AcDbVertex
100
AcDb2dVertex
 10
123.456374752122
 20
-124.2821641399364
 30
0.0
  0
VERTEX
  5
18B
330
188
100
AcDbEntity
  8
_U+30EC_U+30A4_U+30E4_U+30FC 1
370
     0
100
AcDbVertex
100
AcDb2dVertex
 10
123.2207302209309
 20
-124.2821641399364
 30
0.0
  0
VERTEX
  5
18C
330
188
100
AcDbEntity
  8
_U+30EC_U+30A4_U+30E4_U+30FC 1
370
     0
100
AcDbVertex
100
AcDb2dVertex
 10
123.2207302209309
 20
-123.9069932415927
 30
0.0
  0
VERTEX
  5
18D
330
188
100
AcDbEntity
  8
_U+30EC_U+30A4_U+30E4_U+30FC 1
370
     0
100
AcDbVertex
100
AcDb2dVertex
 10
122.5117295700665
 20
-123.9069932415927
 30
0.0
  0
VERTEX
  5
18E
330
188
100
AcDbEntity
  8
_U+30EC_U+30A4_U+30E4_U+30FC 1
370
     0
100
AcDbVertex
100
AcDb2dVertex
 10
122.5117295700665
 20
-123.6644585194311
 30
0.0
  0
VERTEX
  5
18F
330
188
100
AcDbEntity
  8
_U+30EC_U+30A4_U+30E4_U+30FC 1
370
     0
100
AcDbVertex
100
AcDb2dVertex
 10
123.2458794179733
 20
-122.6121541034615
 30
0.0
  0
VERTEX
  5
190
330
188
100
AcDbEntity
  8
_U+30EC_U+30A4_U+30E4_U+30FC 1
370
     0
100
AcDbVertex
100
AcDb2dVertex
 10
123.456374752122
 20
-122.6121541034615
 30
0.0
  0
VERTEX
  5
191
330
188
100
AcDbEntity
  8
_U+30EC_U+30A4_U+30E4_U+30FC 1
370
     0
100
AcDbVertex
100
AcDb2dVertex
 10
123.456374752122
 20
-123.6918470285388
 30
0.0
  0
VERTEX
  5
192
330
188
100
AcDbEntity
  8
_U+30EC_U+30A4_U+30E4_U+30FC 1
370
     0
100
AcDbVertex
100
AcDb2dVertex
 10
123.6806504682118
 20
-123.6918470285388
 30
0.0
  0
VERTEX
  5
193
330
188
100
AcDbEntity
  8
_U+30EC_U+30A4_U+30E4_U+30FC 1
370
     0
100
AcDbVertex
100
AcDb2dVertex
 10
123.6806504682118
 20
-123.9069932415927
 30
0.0
  0
VERTEX
  5
194
330
188
100
AcDbEntity
  8
_U+30EC_U+30A4_U+30E4_U+30FC 1
370
     0
100
AcDbVertex
100
AcDb2dVertex
 10
123.456374752122
 20
-123.9069932415927
 30
0.0
  0
SEQEND
  5
195
330
188
100
AcDbEntity
  8
_U+30EC_U+30A4_U+30E4_U+30FC 1
370
     0
  0
POLYLINE
  5
196
330
182
100
AcDbEntity
  8
_U+30EC_U+30A4_U+30E4_U+30FC 1
370
     0
100
AcDb2dPolyline
 66
     1
 10
0.0
 20
0.0
 30
0.0
  0
VERTEX
  5
197
330
196
100
AcDbEntity
  8
_U+30EC_U+30A4_U+30E4_U+30FC 1
370
     0
100
AcDbVertex
100
AcDb2dVertex
 10
123.2207302209309
 20
-122.9826741229002
 30
0.0
  0
VERTEX
  5
198
330
196
100
AcDbEntity
  8
_U+30EC_U+30A4_U+30E4_U+30FC 1
370
     0
100
AcDbVertex
100
AcDb2dVertex
 10
122.7267035283461
 20
-123.6918470285388
 30
0.0
  0
VERTEX
  5
199
330
196
100
AcDbEntity
  8
_U+30EC_U+30A4_U+30E4_U+30FC 1
370
     0
100
AcDbVertex
100
AcDb2dVertex
 10
123.2207302209309
 20
-123.6918470285388
 30
0.0
  0
VERTEX
  5
19A
330
196
100
AcDbEntity
  8
_U+30EC_U+30A4_U+30E4_U+30FC 1
370
     0
100
AcDbVertex
100
AcDb2dVertex
 10
123.2207302209309
 20
-122.9826741229002
 30
0.0
  0
SEQEND
  5
19B
330
196
100
AcDbEntity
  8
_U+30EC_U+30A4_U+30E4_U+30FC 1
370
     0
  0
HATCH
  5
19C
330
182
100
AcDbEntity
  8
_U+30EC_U+30A4_U+30E4_U+30FC 1
 62
   179
420
  2234388
100
AcDbHatch
 10
0.0
 20
0.0
 30
0.0
210
0.0
220
0.0
230
1.0
  2
SOLID
 70
     1
 71
     0
 91
        2
 92
        1
 93
       11
 72
     1
 10
123.456374752122
 20
-123.9069932415927
 11
123.456374752122
 21
-124.2821641399364
 72
     1
 10
123.456374752122
 20
-124.2821641399364
 11
123.2207302209309
 21
-124.2821641399364
 72
     1
 10
123.2207302209309
 20
-124.2821641399364
 11
123.2207302209309
 21
-123.9069932415927
 72
     1
 10
123.2207302209309
 20
-123.9069932415927
 11
122.5117295700665
 21
-123.9069932415927
 72
     1
 10
122.5117295700665
 20
-123.9069932415927
 11
122.5117295700665
 21
-123.6644585194311
 72
     1
 10
122.5117295700665
 20
-123.6644585194311
 11
123.2458794179733
 21
-122.6121541034615
 72
     1
 10
123.2458794179733
 20
-122.6121541034615
 11
123.456374752122
 21
-122.6121541034615
 72
     1
 10
123.456374752122
 20
-122.6121541034615
 11
123.456374752122
 21
-123.6918470285388
 72
     1
 10
123.456374752122
 20
-123.6918470285388
 11
123.6806504682118
 21
-123.6918470285388
 72
     1
 10
123.6806504682118
 20
-123.6918470285388
 11
123.6806504682118
 21
-123.9069932415927
 72
     1
 10
123.6806504682118
 20
-123.9069932415927
 11
123.456374752122
 21
-123.9069932415927
 97
        0
 92
        1
 93
        3
 72
     1
 10
123.2207302209309
 20
-122.9826741229002
 11
122.7267035283461
 21
-123.6918470285388
 72
     1
 10
122.7267035283461
 20
-123.6918470285388
 11
123.2207302209309
 21
-123.6918470285388
 72
     1
 10
123.2207302209309
 20
-123.6918470285388
 11
123.2207302209309
 21
-122.9826741229002
 97
        0
 75
     2
 76
     1
 98
        0
  0
ENDBLK
  5
185
330
182
100
AcDbEntity
  8
0
100
AcDbBlockEnd
  0
BLOCK
  5
1A7
330
1A5
100
AcDbEntity
  8
0
100
AcDbBlockBegin
  2
block 5
 70
     0
 10
0.0
 20
0.0
 30
0.0
  3
block 5
  1

  0
SPLINE
  5
1A9
330
1A5
100
AcDbEntity
  8
_U+30EC_U+30A4_U+30E4_U+30FC 1
370
     0
100
AcDbSpline
210
0.0
220
0.0
230
1.0
 70
    11
 71
     3
 72
    26
 73
    22
 74
     0
 42
0.0000000001
 43
0.0000000001
 12
1.0
 22
0.0
 32
0.0
 13
1.0
 23
0.0
 33
0.0
 40
0.0
 40
0.0
 40
0.0
 40
0.0
 40
1.0
 40
1.0
 40
1.0
 40
2.0
 40
2.0
 40
2.0
 40
3.0
 40
3.0
 40
3.0
 40
4.0
 40
4.0
 40
4.0
 40
5.0
 40
5.0
 40
5.0
 40
6.0
 40
6.0
 40
6.0
 40
7.0
 40
7.0
 40
7.0
 40
7.0
 10
114.5735405529538
 20
-124.2821641399364
 30
0.0
 10
114.5735405529538
 20
-124.2821641399364
 30
0.0
 10
114.5735405529538
 20
-123.0879217899746
 30
0.0
 10
114.5735405529538
 20
-123.0879217899746
 30
0.0
 10
114.5735405529538
 20
-123.0879217899746
 30
0.0
 10
114.216628660682
 20
-123.0879217899746
 30
0.0
 10
114.216628660682
 20
-123.0879217899746
 30
0.0
 10
114.216628660682
 20
-123.0879217899746
 30
0.0
 10
114.216628660682
 20
-122.9278971046847
 30
0.0
 10
114.216628660682
 20
-122.9278971046847
 30
0.0
 10
114.575607610245
 20
-122.9118774106783
 30
0.0
 10
114.6259060043296
 20
-122.7356607766078
 30
0.0
 10
114.658289901891
 20
-122.6121541034615
 30
0.0
 10
114.658289901891
 20
-122.6121541034615
 30
0.0
 10
114.8160752751154
 20
-122.6121541034615
 30
0.0
 10
114.8160752751154
 20
-122.6121541034615
 30
0.0
 10
114.8160752751154
 20
-122.6121541034615
 30
0.0
 10
114.8160752751154
 20
-124.2821641399364
 30
0.0
 10
114.8160752751154
 20
-124.2821641399364
 30
0.0
 10
114.8160752751154
 20
-124.2821641399364
 30
0.0
 10
114.5735405529538
 20
-124.2821641399364
 30
0.0
 10
114.5735405529538
 20
-124.2821641399364
 30
0.0
  0
HATCH
  5
1AA
330
1A5
100
AcDbEntity
  8
_U+30EC_U+30A4_U+30E4_U+30FC 1
 62
   179
420
  2234388
100
AcDbHatch
 10
0.0
 20
0.0
 30
0.0
210
0.0
220
0.0
230
1.0
  2
SOLID
 70
     1
 71
     0
 91
        1
 92
        1
 93
        1
 72
     4
 94
        3
 73
     0
 74
     1
 95
       26
 96
       22
 40
0.0
 40
0.0
 40
0.0
 40
0.0
 40
1.0
 40
1.0
 40
1.0
 40
2.0
 40
2.0
 40
2.0
 40
3.0
 40
3.0
 40
3.0
 40
4.0
 40
4.0
 40
4.0
 40
5.0
 40
5.0
 40
5.0
 40
6.0
 40
6.0
 40
6.0
 40
7.0
 40
7.0
 40
7.0
 40
7.0
 10
114.5735405529538
 20
-124.2821641399364
 10
114.5735405529538
 20
-124.2821641399364
 10
114.5735405529538
 20
-123.0879217899746
 10
114.5735405529538
 20
-123.0879217899746
 10
114.5735405529538
 20
-123.0879217899746
 10
114.216628660682
 20
-123.0879217899746
 10
114.216628660682
 20
-123.0879217899746
 10
114.216628660682
 20
-123.0879217899746
 10
114.216628660682
 20
-122.9278971046847
 10
114.216628660682
 20
-122.9278971046847
 10
114.575607610245
 20
-122.9118774106783
 10
114.6259060043296
 20
-122.7356607766078
 10
114.658289901891
 20
-122.6121541034615
 10
114.658289901891
 20
-122.6121541034615
 10
114.8160752751154
 20
-122.6121541034615
 10
114.8160752751154
 20
-122.6121541034615
 10
114.8160752751154
 20
-122.6121541034615
 10
114.8160752751154
 20
-124.2821641399364
 10
114.8160752751154
 20
-124.2821641399364
 10
114.8160752751154
 20
-124.2821641399364
 10
114.5735405529538
 20
-124.2821641399364
 10
114.5735405529538
 20
-124.2821641399364
 97
        0
 97
        0
 75
     2
 76
     1
 98
        0
  0
SPLINE
  5
1AB
330
1A5
100
AcDbEntity
  8
_U+30EC_U+30A4_U+30E4_U+30FC 1
370
     0
100
AcDbSpline
210
0.0
220
0.0
230
1.0
 70
    11
 71
     3
 72
    26
 73
    22
 74
     0
 42
0.0000000001
 43
0.0000000001
 12
1.0
 22
0.0
 32
0.0
 13
1.0
 23
0.0
 33
0.0
 40
0.0
 40
0.0
 40
0.0
 40
0.0
 40
1.0
 40
1.0
 40
1.0
 40
2.0
 40
2.0
 40
2.0
 40
3.0
 40
3.0
 40
3.0
 40
4.0
 40
4.0
 40
4.0
 40
5.0
 40
5.0
 40
5.0
 40
6.0
 40
6.0
 40
6.0
 40
7.0
 40
7.0
 40
7.0
 40
7.0
 10
115.844780787011
 20
-124.2821641399364
 30
0.0
 10
115.844780787011
 20
-124.2821641399364
 30
0.0
 10
115.844780787011
 20
-123.0879217899746
 30
0.0
 10
115.844780787011
 20
-123.0879217899746
 30
0.0
 10
115.844780787011
 20
-123.0879217899746
 30
0.0
 10
115.4878688947392
 20
-123.0879217899746
 30
0.0
 10
115.4878688947392
 20
-123.0879217899746
 30
0.0
 10
115.4878688947392
 20
-123.0879217899746
 30
0.0
 10
115.4878688947392
 20
-122.9278971046847
 30
0.0
 10
115.4878688947392
 20
-122.9278971046847
 30
0.0
 10
115.8468478443022
 20
-122.9118774106783
 30
0.0
 10
115.8971462383868
 20
-122.7356607766078
 30
0.0
 10
115.9291856263997
 20
-122.6121541034615
 30
0.0
 10
115.9291856263997
 20
-122.6121541034615
 30
0.0
 10
116.0873155091726
 20
-122.6121541034615
 30
0.0
 10
116.0873155091726
 20
-122.6121541034615
 30
0.0
 10
116.0873155091726
 20
-122.6121541034615
 30
0.0
 10
116.0873155091726
 20
-124.2821641399364
 30
0.0
 10
116.0873155091726
 20
-124.2821641399364
 30
0.0
 10
116.0873155091726
 20
-124.2821641399364
 30
0.0
 10
115.844780787011
 20
-124.2821641399364
 30
0.0
 10
115.844780787011
 20
-124.2821641399364
 30
0.0
  0
HATCH
  5
1AC
330
1A5
100
AcDbEntity
  8
_U+30EC_U+30A4_U+30E4_U+30FC 1
 62
   179
420
  2234388
100
AcDbHatch
 10
0.0
 20
0.0
 30
0.0
210
0.0
220
0.0
230
1.0
  2
SOLID
 70
     1
 71
     0
 91
        1
 92
        1
 93
        1
 72
     4
 94
        3
 73
     0
 74
     1
 95
       26
 96
       22
 40
0.0
 40
0.0
 40
0.0
 40
0.0
 40
1.0
 40
1.0
 40
1.0
 40
2.0
 40
2.0
 40
2.0
 40
3.0
 40
3.0
 40
3.0
 40
4.0
 40
4.0
 40
4.0
 40
5.0
 40
5.0
 40
5.0
 40
6.0
 40
6.0
 40
6.0
 40
7.0
 40
7.0
 40
7.0
 40
7.0
 10
115.844780787011
 20
-124.2821641399364
 10
115.844780787011
 20
-124.2821641399364
 10
115.844780787011
 20
-123.0879217899746
 10
115.844780787011
 20
-123.0879217899746
 10
115.844780787011
 20
-123.0879217899746
 10
115.4878688947392
 20
-123.0879217899746
 10
115.4878688947392
 20
-123.0879217899746
 10
115.4878688947392
 20
-123.0879217899746
 10
115.4878688947392
 20
-122.9278971046847
 10
115.4878688947392
 20
-122.9278971046847
 10
115.8468478443022
 20
-122.9118774106783
 10
115.8971462383868
 20
-122.7356607766078
 10
115.9291856263997
 20
-122.6121541034615
 10
115.9291856263997
 20
-122.6121541034615
 10
116.0873155091726
 20
-122.6121541034615
 10
116.0873155091726
 20
-122.6121541034615
 10
116.0873155091726
 20
-122.6121541034615
 10
116.0873155091726
 20
-124.2821641399364
 10
116.0873155091726
 20
-124.2821641399364
 10
116.0873155091726
 20
-124.2821641399364
 10
115.844780787011
 20
-124.2821641399364
 10
115.844780787011
 20
-124.2821641399364
 97
        0
 97
        0
 75
     2
 76
     1
 98
        0
  0
ENDBLK
  5
1A8
330
1A5
100
AcDbEntity
  8
0
100
AcDbBlockEnd
  0
BLOCK
  5
1BB
330
1B9
100
AcDbEntity
  8
0
100
AcDbBlockBegin
  2
block 6
 70
     0
 10
0.0
 20
0.0
 30
0.0
  3
block 6
  1

  0
SPLINE
  5
1BD
330
1B9
100
AcDbEntity
  8
_U+30EC_U+30A4_U+30E4_U+30FC 1
370
     0
100
AcDbSpline
210
0.0
220
0.0
230
1.0
 70
    11
 71
     3
 72
    44
 73
    40
 74
     0
 42
0.0000000001
 43
0.0000000001
 12
1.0
 22
0.0
 32
0.0
 13
1.0
 23
0.0
 33
0.0
 40
0.0
 40
0.0
 40
0.0
 40
0.0
 40
1.0
 40
1.0
 40
1.0
 40
2.0
 40
2.0
 40
2.0
 40
3.0
 40
3.0
 40
3.0
 40
4.0
 40
4.0
 40
4.0
 40
5.0
 40
5.0
 40
5.0
 40
6.0
 40
6.0
 40
6.0
 40
7.0
 40
7.0
 40
7.0
 40
8.0
 40
8.0
 40
8.0
 40
9.0
 40
9.0
 40
9.0
 40
10.0
 40
10.0
 40
10.0
 40
11.0
 40
11.0
 40
11.0
 40
12.0
 40
12.0
 40
12.0
 40
13.0
 40
13.0
 40
13.0
 40
13.0
 10
118.9267632081155
 20
-121.0766750456857
 30
0.0
 10
118.6911186769244
 20
-121.2482408008511
 30
0.0
 10
118.5905218887551
 20
-121.3283392708832
 30
0.0
 10
118.5381564373794
 20
-121.4838853320422
 30
0.0
 10
118.5381564373794
 20
-121.4838853320422
 30
0.0
 10
119.3797932644259
 20
-121.4838853320422
 30
0.0
 10
119.3797932644259
 20
-121.4838853320422
 30
0.0
 10
119.3797932644259
 20
-121.4838853320422
 30
0.0
 10
119.3797932644259
 20
-121.7057494812923
 30
0.0
 10
119.3797932644259
 20
-121.7057494812923
 30
0.0
 10
119.3797932644259
 20
-121.7057494812923
 30
0.0
 10
118.2680609513358
 20
-121.7057494812923
 30
0.0
 10
118.2680609513358
 20
-121.7057494812923
 30
0.0
 10
118.3025119061883
 20
-121.319037513073
 30
0.0
 10
118.3734808731844
 20
-121.2344604189101
 30
0.0
 10
118.7896484078026
 20
-120.9118272267165
 30
0.0
 10
119.0666340848167
 20
-120.6968532684369
 30
0.0
 10
119.1372585422643
 20
-120.6236449893754
 30
0.0
 10
119.1372585422643
 20
-120.4749891191868
 30
0.0
 10
119.1372585422643
 20
-120.3468315671355
 30
0.0
 10
119.0597438938462
 20
-120.2048936331432
 30
0.0
 10
118.8468369928577
 20
-120.2048936331432
 30
0.0
 10
118.5653726917128
 20
-120.2048936331432
 30
0.0
 10
118.5560709339027
 20
-120.4543185462753
 30
0.0
 10
118.5515923097718
 20
-120.5802367862612
 30
0.0
 10
118.5515923097718
 20
-120.5802367862612
 30
0.0
 10
118.3094020971588
 20
-120.5802367862612
 30
0.0
 10
118.3094020971588
 20
-120.5802367862612
 30
0.0
 10
118.3183593454204
 20
-120.442949731174
 30
0.0
 10
118.3297281605217
 20
-120.3216823700932
 30
0.0
 10
118.4168890762986
 20
-120.1935248180419
 30
0.0
 10
118.5354003609912
 20
-120.019719750811
 30
0.0
 10
118.7369384468783
 20
-119.9830294838931
 30
0.0
 10
118.8626844320899
 20
-119.9830294838931
 30
0.0
 10
119.1624077393066
 20
-119.9830294838931
 30
0.0
 10
119.3866834553964
 20
-120.1821560029406
 30
0.0
 10
119.3866834553964
 20
-120.4772284312522
 30
0.0
 10
119.3866834553964
 20
-120.7242417775446
 30
0.0
 10
119.2609374701848
 20
-120.8319010114587
 30
0.0
 10
118.9267632081155
 20
-121.0766750456857
 30
0.0
  0
HATCH
  5
1BE
330
1B9
100
AcDbEntity
  8
_U+30EC_U+30A4_U+30E4_U+30FC 1
 62
   179
420
  2234388
100
AcDbHatch
 10
0.0
 20
0.0
 30
0.0
210
0.0
220
0.0
230
1.0
  2
SOLID
 70
     1
 71
     0
 91
        1
 92
        1
 93
        1
 72
     4
 94
        3
 73
     0
 74
     1
 95
       44
 96
       40
 40
0.0
 40
0.0
 40
0.0
 40
0.0
 40
1.0
 40
1.0
 40
1.0
 40
2.0
 40
2.0
 40
2.0
 40
3.0
 40
3.0
 40
3.0
 40
4.0
 40
4.0
 40
4.0
 40
5.0
 40
5.0
 40
5.0
 40
6.0
 40
6.0
 40
6.0
 40
7.0
 40
7.0
 40
7.0
 40
8.0
 40
8.0
 40
8.0
 40
9.0
 40
9.0
 40
9.0
 40
10.0
 40
10.0
 40
10.0
 40
11.0
 40
11.0
 40
11.0
 40
12.0
 40
12.0
 40
12.0
 40
13.0
 40
13.0
 40
13.0
 40
13.0
 10
118.9267632081155
 20
-121.0766750456857
 10
118.6911186769244
 20
-121.2482408008511
 10
118.5905218887551
 20
-121.3283392708832
 10
118.5381564373794
 20
-121.4838853320422
 10
118.5381564373794
 20
-121.4838853320422
 10
119.3797932644259
 20
-121.4838853320422
 10
119.3797932644259
 20
-121.4838853320422
 10
119.3797932644259
 20
-121.4838853320422
 10
119.3797932644259
 20
-121.7057494812923
 10
119.3797932644259
 20
-121.7057494812923
 10
119.3797932644259
 20
-121.7057494812923
 10
118.2680609513358
 20
-121.7057494812923
 10
118.2680609513358
 20
-121.7057494812923
 10
118.3025119061883
 20
-121.319037513073
 10
118.3734808731844
 20
-121.2344604189101
 10
118.7896484078026
 20
-120.9118272267165
 10
119.0666340848167
 20
-120.6968532684369
 10
119.1372585422643
 20
-120.6236449893754
 10
119.1372585422643
 20
-120.4749891191868
 10
119.1372585422643
 20
-120.3468315671355
 10
119.0597438938462
 20
-120.2048936331432
 10
118.8468369928577
 20
-120.2048936331432
 10
118.5653726917128
 20
-120.2048936331432
 10
118.5560709339027
 20
-120.4543185462753
 10
118.5515923097718
 20
-120.5802367862612
 10
118.5515923097718
 20
-120.5802367862612
 10
118.3094020971588
 20
-120.5802367862612
 10
118.3094020971588
 20
-120.5802367862612
 10
118.3183593454204
 20
-120.442949731174
 10
118.3297281605217
 20
-120.3216823700932
 10
118.4168890762986
 20
-120.1935248180419
 10
118.5354003609912
 20
-120.019719750811
 10
118.7369384468783
 20
-119.9830294838931
 10
118.8626844320899
 20
-119.9830294838931
 10
119.1624077393066
 20
-119.9830294838931
 10
119.3866834553964
 20
-120.1821560029406
 10
119.3866834553964
 20
-120.4772284312522
 10
119.3866834553964
 20
-120.7242417775446
 10
119.2609374701848
 20
-120.8319010114587
 10
118.9267632081155
 20
-121.0766750456857
 97
        0
 97
        0
 75
     2
 76
     1
 98
        0
  0
SPLINE
  5
1BF
330
1B9
100
AcDbEntity
  8
_U+30EC_U+30A4_U+30E4_U+30FC 1
370
     0
100
AcDbSpline
210
0.0
220
0.0
230
1.0
 70
    11
 71
     3
 72
    53
 73
    49
 74
     0
 42
0.0000000001
 43
0.0000000001
 12
1.0
 22
0.0
 32
0.0
 13
1.0
 23
0.0
 33
0.0
 40
0.0
 40
0.0
 40
0.0
 40
0.0
 40
1.0
 40
1.0
 40
1.0
 40
2.0
 40
2.0
 40
2.0
 40
3.0
 40
3.0
 40
3.0
 40
4.0
 40
4.0
 40
4.0
 40
5.0
 40
5.0
 40
5.0
 40
6.0
 40
6.0
 40
6.0
 40
7.0
 40
7.0
 40
7.0
 40
8.0
 40
8.0
 40
8.0
 40
9.0
 40
9.0
 40
9.0
 40
10.0
 40
10.0
 40
10.0
 40
11.0
 40
11.0
 40
11.0
 40
12.0
 40
12.0
 40
12.0
 40
13.0
 40
13.0
 40
13.0
 40
14.0
 40
14.0
 40
14.0
 40
15.0
 40
15.0
 40
15.0
 40
16.0
 40
16.0
 40
16.0
 40
16.0
 10
120.0767360810919
 20
-121.760698754282
 30
0.0
 10
119.9919867321548
 20
-121.760698754282
 30
0.0
 10
119.8824326957238
 20
-121.7424397482102
 30
0.0
 10
119.7721896401958
 20
-121.6737100932795
 30
0.0
 10
119.5847764457983
 20
-121.5546820442641
 30
0.0
 10
119.5620388155956
 20
-121.4129163650461
 30
0.0
 10
119.5413682426841
 20
-121.2962998828704
 30
0.0
 10
119.5413682426841
 20
-121.2962998828704
 30
0.0
 10
119.781491398006
 20
-121.2962998828704
 30
0.0
 10
119.781491398006
 20
-121.2962998828704
 30
0.0
 10
119.8410915499008
 20
-121.51127384115
 30
0.0
 10
119.9782063502138
 20
-121.5433132291628
 30
0.0
 10
120.0788031383831
 20
-121.5433132291628
 30
0.0
 10
120.229698320637
 20
-121.5433132291628
 30
0.0
 10
120.3947183943805
 20
-121.435826250023
 30
0.0
 10
120.3947183943805
 20
-121.1841620248255
 30
0.0
 10
120.3947183943805
 20
-120.9073486025857
 30
0.0
 10
120.2000704994639
 20
-120.8319010114587
 30
0.0
 10
120.0698458901214
 20
-120.8319010114587
 30
0.0
 10
120.0353949352689
 20
-120.8319010114587
 30
0.0
 10
119.8824326957238
 20
-120.8319010114587
 30
0.0
 10
119.7859700221369
 20
-120.9714273786113
 30
0.0
 10
119.7859700221369
 20
-120.9714273786113
 30
0.0
 10
119.5964897704481
 20
-120.9507568056998
 30
0.0
 10
119.5964897704481
 20
-120.9507568056998
 30
0.0
 10
119.5964897704481
 20
-120.9507568056998
 30
0.0
 10
119.7267143797906
 20
-120.0357394448175
 30
0.0
 10
119.7267143797906
 20
-120.0357394448175
 30
0.0
 10
119.7267143797906
 20
-120.0357394448175
 30
0.0
 10
120.5686957163856
 20
-120.0357394448175
 30
0.0
 10
120.5686957163856
 20
-120.0357394448175
 30
0.0
 10
120.5686957163856
 20
-120.0357394448175
 30
0.0
 10
120.5686957163856
 20
-120.2462347789662
 30
0.0
 10
120.5686957163856
 20
-120.2462347789662
 30
0.0
 10
120.5686957163856
 20
-120.2462347789662
 30
0.0
 10
119.9027587590868
 20
-120.2462347789662
 30
0.0
 10
119.9027587590868
 20
-120.2462347789662
 30
0.0
 10
119.9027587590868
 20
-120.2462347789662
 30
0.0
 10
119.8321343016392
 20
-120.7037434594074
 30
0.0
 10
119.8321343016392
 20
-120.7037434594074
 30
0.0
 10
119.898280134956
 20
-120.6670531924895
 30
0.0
 10
119.987508108024
 20
-120.6236449893754
 30
0.0
 10
120.1153211505267
 20
-120.6236449893754
 30
0.0
 10
120.3902397702497
 20
-120.6236449893754
 30
0.0
 10
120.6465548743523
 20
-120.8250108204882
 30
0.0
 10
120.6465548743523
 20
-121.163491451914
 30
0.0
 10
120.6465548743523
 20
-121.5067952170191
 30
0.0
 10
120.4040201521907
 20
-121.760698754282
 30
0.0
 10
120.0767360810919
 20
-121.760698754282
 30
0.0
  0
HATCH
  5
1C0
330
1B9
100
AcDbEntity
  8
_U+30EC_U+30A4_U+30E4_U+30FC 1
 62
   179
420
  2234388
100
AcDbHatch
 10
0.0
 20
0.0
 30
0.0
210
0.0
220
0.0
230
1.0
  2
SOLID
 70
     1
 71
     0
 91
        1
 92
        1
 93
        1
 72
     4
 94
        3
 73
     0
 74
     1
 95
       53
 96
       49
 40
0.0
 40
0.0
 40
0.0
 40
0.0
 40
1.0
 40
1.0
 40
1.0
 40
2.0
 40
2.0
 40
2.0
 40
3.0
 40
3.0
 40
3.0
 40
4.0
 40
4.0
 40
4.0
 40
5.0
 40
5.0
 40
5.0
 40
6.0
 40
6.0
 40
6.0
 40
7.0
 40
7.0
 40
7.0
 40
8.0
 40
8.0
 40
8.0
 40
9.0
 40
9.0
 40
9.0
 40
10.0
 40
10.0
 40
10.0
 40
11.0
 40
11.0
 40
11.0
 40
12.0
 40
12.0
 40
12.0
 40
13.0
 40
13.0
 40
13.0
 40
14.0
 40
14.0
 40
14.0
 40
15.0
 40
15.0
 40
15.0
 40
16.0
 40
16.0
 40
16.0
 40
16.0
 10
120.0767360810919
 20
-121.760698754282
 10
119.9919867321548
 20
-121.760698754282
 10
119.8824326957238
 20
-121.7424397482102
 10
119.7721896401958
 20
-121.6737100932795
 10
119.5847764457983
 20
-121.5546820442641
 10
119.5620388155956
 20
-121.4129163650461
 10
119.5413682426841
 20
-121.2962998828704
 10
119.5413682426841
 20
-121.2962998828704
 10
119.781491398006
 20
-121.2962998828704
 10
119.781491398006
 20
-121.2962998828704
 10
119.8410915499008
 20
-121.51127384115
 10
119.9782063502138
 20
-121.5433132291628
 10
120.0788031383831
 20
-121.5433132291628
 10
120.229698320637
 20
-121.5433132291628
 10
120.3947183943805
 20
-121.435826250023
 10
120.3947183943805
 20
-121.1841620248255
 10
120.3947183943805
 20
-120.9073486025857
 10
120.2000704994639
 20
-120.8319010114587
 10
120.0698458901214
 20
-120.8319010114587
 10
120.0353949352689
 20
-120.8319010114587
 10
119.8824326957238
 20
-120.8319010114587
 10
119.7859700221369
 20
-120.9714273786113
 10
119.7859700221369
 20
-120.9714273786113
 10
119.5964897704481
 20
-120.9507568056998
 10
119.5964897704481
 20
-120.9507568056998
 10
119.5964897704481
 20
-120.9507568056998
 10
119.7267143797906
 20
-120.0357394448175
 10
119.7267143797906
 20
-120.0357394448175
 10
119.7267143797906
 20
-120.0357394448175
 10
120.5686957163856
 20
-120.0357394448175
 10
120.5686957163856
 20
-120.0357394448175
 10
120.5686957163856
 20
-120.0357394448175
 10
120.5686957163856
 20
-120.2462347789662
 10
120.5686957163856
 20
-120.2462347789662
 10
120.5686957163856
 20
-120.2462347789662
 10
119.9027587590868
 20
-120.2462347789662
 10
119.9027587590868
 20
-120.2462347789662
 10
119.9027587590868
 20
-120.2462347789662
 10
119.8321343016392
 20
-120.7037434594074
 10
119.8321343016392
 20
-120.7037434594074
 10
119.898280134956
 20
-120.6670531924895
 10
119.987508108024
 20
-120.6236449893754
 10
120.1153211505267
 20
-120.6236449893754
 10
120.3902397702497
 20
-120.6236449893754
 10
120.6465548743523
 20
-120.8250108204882
 10
120.6465548743523
 20
-121.163491451914
 10
120.6465548743523
 20
-121.5067952170191
 10
120.4040201521907
 20
-121.760698754282
 10
120.0767360810919
 20
-121.760698754282
 97
        0
 97
        0
 75
     2
 76
     1
 98
        0
  0
ENDBLK
  5
1BC
330
1B9
100
AcDbEntity
  8
0
100
AcDbBlockEnd
  0
BLOCK
  5
1CB
330
1C9
100
AcDbEntity
  8
0
100
AcDbBlockBegin
  2
block 7
 70
     0
 10
0.0
 20
0.0
 30
0.0
  3
block 7
  1

  0
SPLINE
  5
1CD
330
1C9
100
AcDbEntity
  8
_U+30EC_U+30A4_U+30E4_U+30FC 1
370
     0
100
AcDbSpline
210
0.0
220
0.0
230
1.0
 70
    11
 71
     3
 72
    26
 73
    22
 74
     0
 42
0.0000000001
 43
0.0000000001
 12
1.0
 22
0.0
 32
0.0
 13
1.0
 23
0.0
 33
0.0
 40
0.0
 40
0.0
 40
0.0
 40
0.0
 40
1.0
 40
1.0
 40
1.0
 40
2.0
 40
2.0
 40
2.0
 40
3.0
 40
3.0
 40
3.0
 40
4.0
 40
4.0
 40
4.0
 40
5.0
 40
5.0
 40
5.0
 40
6.0
 40
6.0
 40
6.0
 40
7.0
 40
7.0
 40
7.0
 40
7.0
 10
128.509296300338
 20
-131.6450222110124
 30
0.0
 10
128.509296300338
 20
-131.6450222110124
 30
0.0
 10
127.3148816956018
 20
-131.6450222110124
 30
0.0
 10
127.3148816956018
 20
-131.6450222110124
 30
0.0
 10
127.3148816956018
 20
-131.6450222110124
 30
0.0
 10
127.3148816956018
 20
-132.0019341032842
 30
0.0
 10
127.3148816956018
 20
-132.0019341032842
 30
0.0
 10
127.3148816956018
 20
-132.0019341032842
 30
0.0
 10
127.1550292650862
 20
-132.0019341032842
 30
0.0
 10
127.1550292650862
 20
-132.0019341032842
 30
0.0
 10
127.1391818258541
 20
-131.6426106441727
 30
0.0
 10
126.9627929370093
 20
-131.592312250088
 30
0.0
 10
126.8394585186374
 20
-131.5606173716237
 30
0.0
 10
126.8394585186374
 20
-131.5606173716237
 30
0.0
 10
126.8394585186374
 20
-131.4024874888508
 30
0.0
 10
126.8394585186374
 20
-131.4024874888508
 30
0.0
 10
126.8394585186374
 20
-131.4024874888508
 30
0.0
 10
128.509296300338
 20
-131.4024874888508
 30
0.0
 10
128.509296300338
 20
-131.4024874888508
 30
0.0
 10
128.509296300338
 20
-131.4024874888508
 30
0.0
 10
128.509296300338
 20
-131.6450222110124
 30
0.0
 10
128.509296300338
 20
-131.6450222110124
 30
0.0
  0
HATCH
  5
1CE
330
1C9
100
AcDbEntity
  8
_U+30EC_U+30A4_U+30E4_U+30FC 1
 62
   179
420
  2234388
100
AcDbHatch
 10
0.0
 20
0.0
 30
0.0
210
0.0
220
0.0
230
1.0
  2
SOLID
 70
     1
 71
     0
 91
        1
 92
        1
 93
        1
 72
     4
 94
        3
 73
     0
 74
     1
 95
       26
 96
       22
 40
0.0
 40
0.0
 40
0.0
 40
0.0
 40
1.0
 40
1.0
 40
1.0
 40
2.0
 40
2.0
 40
2.0
 40
3.0
 40
3.0
 40
3.0
 40
4.0
 40
4.0
 40
4.0
 40
5.0
 40
5.0
 40
5.0
 40
6.0
 40
6.0
 40
6.0
 40
7.0
 40
7.0
 40
7.0
 40
7.0
 10
128.509296300338
 20
-131.6450222110124
 10
128.509296300338
 20
-131.6450222110124
 10
127.3148816956018
 20
-131.6450222110124
 10
127.3148816956018
 20
-131.6450222110124
 10
127.3148816956018
 20
-131.6450222110124
 10
127.3148816956018
 20
-132.0019341032842
 10
127.3148816956018
 20
-132.0019341032842
 10
127.3148816956018
 20
-132.0019341032842
 10
127.1550292650862
 20
-132.0019341032842
 10
127.1550292650862
 20
-132.0019341032842
 10
127.1391818258541
 20
-131.6426106441727
 10
126.9627929370093
 20
-131.592312250088
 10
126.8394585186374
 20
-131.5606173716237
 10
126.8394585186374
 20
-131.5606173716237
 10
126.8394585186374
 20
-131.4024874888508
 10
126.8394585186374
 20
-131.4024874888508
 10
126.8394585186374
 20
-131.4024874888508
 10
128.509296300338
 20
-131.4024874888508
 10
128.509296300338
 20
-131.4024874888508
 10
128.509296300338
 20
-131.4024874888508
 10
128.509296300338
 20
-131.6450222110124
 10
128.509296300338
 20
-131.6450222110124
 97
        0
 97
        0
 75
     2
 76
     1
 98
        0
  0
SPLINE
  5
1CF
330
1C9
100
AcDbEntity
  8
_U+30EC_U+30A4_U+30E4_U+30FC 1
370
     0
100
AcDbSpline
210
0.0
220
0.0
230
1.0
 70
    11
 71
     3
 72
    62
 73
    58
 74
     0
 42
0.0000000001
 43
0.0000000001
 12
1.0
 22
0.0
 32
0.0
 13
1.0
 23
0.0
 33
0.0
 40
0.0
 40
0.0
 40
0.0
 40
0.0
 40
1.0
 40
1.0
 40
1.0
 40
2.0
 40
2.0
 40
2.0
 40
3.0
 40
3.0
 40
3.0
 40
4.0
 40
4.0
 40
4.0
 40
5.0
 40
5.0
 40
5.0
 40
6.0
 40
6.0
 40
6.0
 40
7.0
 40
7.0
 40
7.0
 40
8.0
 40
8.0
 40
8.0
 40
9.0
 40
9.0
 40
9.0
 40
10.0
 40
10.0
 40
10.0
 40
11.0
 40
11.0
 40
11.0
 40
12.0
 40
12.0
 40
12.0
 40
13.0
 40
13.0
 40
13.0
 40
14.0
 40
14.0
 40
14.0
 40
15.0
 40
15.0
 40
15.0
 40
16.0
 40
16.0
 40
16.0
 40
17.0
 40
17.0
 40
17.0
 40
18.0
 40
18.0
 40
18.0
 40
19.0
 40
19.0
 40
19.0
 40
19.0
 10
128.5640733185534
 20
-130.3307182833896
 30
0.0
 10
128.5640733185534
 20
-130.43338212885
 30
0.0
 10
128.5413356883508
 20
-130.6690266600411
 30
0.0
 10
128.3401421120122
 20
-130.8040744030629
 30
0.0
 10
128.2188747509314
 20
-130.8840006183207
 30
0.0
 10
128.1113877717916
 20
-130.888823752
 30
0.0
 10
128.019748231884
 20
-130.8933023761308
 30
0.0
 10
128.019748231884
 20
-130.8933023761308
 30
0.0
 10
128.019748231884
 20
-130.6552462781001
 30
0.0
 10
128.019748231884
 20
-130.6552462781001
 30
0.0
 10
128.0996744471418
 20
-130.6531792208089
 30
0.0
 10
128.3539224939532
 20
-130.6414658961591
 30
0.0
 10
128.3539224939532
 20
-130.3351969075204
 30
0.0
 10
128.3539224939532
 20
-130.1863687825576
 30
0.0
 10
128.2781303932777
 20
-130.0216932183626
 30
0.0
 10
128.0311170469853
 20
-130.0216932183626
 30
0.0
 10
127.9053710617737
 20
-130.0216932183626
 30
0.0
 10
127.8526611008493
 20
-130.0626898546371
 30
0.0
 10
127.8185546555454
 20
-130.0971408094896
 30
0.0
 10
127.738283930739
 20
-130.1770670247474
 30
0.0
 10
127.7248480583466
 20
-130.3031575195076
 30
0.0
 10
127.7248480583466
 20
-130.3624131618539
 30
0.0
 10
127.7248480583466
 20
-130.3830837347653
 30
0.0
 10
127.7269151156377
 20
-130.4220133137487
 30
0.0
 10
127.7313937397685
 20
-130.4519856444703
 30
0.0
 10
127.7313937397685
 20
-130.4519856444703
 30
0.0
 10
127.5208984056198
 20
-130.4519856444703
 30
0.0
 10
127.5208984056198
 20
-130.4519856444703
 30
0.0
 10
127.5277885965903
 20
-130.4106444986473
 30
0.0
 10
127.53020016343
 20
-130.3648247286935
 30
0.0
 10
127.53020016343
 20
-130.357934537723
 30
0.0
 10
127.53020016343
 20
-130.2873100802754
 30
0.0
 10
127.5071180236788
 20
-130.0719916124473
 30
0.0
 10
127.2508029195762
 20
-130.0719916124473
 30
0.0
 10
127.0589111010478
 20
-130.0719916124473
 30
0.0
 10
126.999310949153
 20
-130.2139295464396
 30
0.0
 10
126.999310949153
 20
-130.3327853406807
 30
0.0
 10
126.999310949153
 20
-130.6187282659564
 30
0.0
 10
127.2508029195762
 20
-130.6280300237666
 30
0.0
 10
127.3286620775428
 20
-130.6325086478974
 30
0.0
 10
127.3286620775428
 20
-130.6325086478974
 30
0.0
 10
127.3286620775428
 20
-130.8523057398564
 30
0.0
 10
127.3286620775428
 20
-130.8523057398564
 30
0.0
 10
127.193614334521
 20
-130.8430039820462
 30
0.0
 10
126.7864040481645
 20
-130.8130316513245
 30
0.0
 10
126.7864040481645
 20
-130.3190049587397
 30
0.0
 10
126.7864040481645
 20
-130.0764702365781
 30
0.0
 10
126.923863358026
 20
-129.8160210178932
 30
0.0
 10
127.2439127286057
 20
-129.8160210178932
 30
0.0
 10
127.4454508144928
 20
-129.8160210178932
 30
0.0
 10
127.5346787875608
 20
-129.9186848633537
 30
0.0
 10
127.6008246208776
 20
-130.0261718424935
 30
0.0
 10
127.6307969515993
 20
-129.9600260091767
 30
0.0
 10
127.7179578673761
 20
-129.7629665474204
 30
0.0
 10
128.0176811745928
 20
-129.7629665474204
 30
0.0
 10
128.3835503151263
 20
-129.7629665474204
 30
0.0
 10
128.5640733185534
 20
-130.0309949761728
 30
0.0
 10
128.5640733185534
 20
-130.3307182833896
 30
0.0
  0
HATCH
  5
1D0
330
1C9
100
AcDbEntity
  8
_U+30EC_U+30A4_U+30E4_U+30FC 1
 62
   179
420
  2234388
100
AcDbHatch
 10
0.0
 20
0.0
 30
0.0
210
0.0
220
0.0
230
1.0
  2
SOLID
 70
     1
 71
     0
 91
        1
 92
        1
 93
        1
 72
     4
 94
        3
 73
     0
 74
     1
 95
       62
 96
       58
 40
0.0
 40
0.0
 40
0.0
 40
0.0
 40
1.0
 40
1.0
 40
1.0
 40
2.0
 40
2.0
 40
2.0
 40
3.0
 40
3.0
 40
3.0
 40
4.0
 40
4.0
 40
4.0
 40
5.0
 40
5.0
 40
5.0
 40
6.0
 40
6.0
 40
6.0
 40
7.0
 40
7.0
 40
7.0
 40
8.0
 40
8.0
 40
8.0
 40
9.0
 40
9.0
 40
9.0
 40
10.0
 40
10.0
 40
10.0
 40
11.0
 40
11.0
 40
11.0
 40
12.0
 40
12.0
 40
12.0
 40
13.0
 40
13.0
 40
13.0
 40
14.0
 40
14.0
 40
14.0
 40
15.0
 40
15.0
 40
15.0
 40
16.0
 40
16.0
 40
16.0
 40
17.0
 40
17.0
 40
17.0
 40
18.0
 40
18.0
 40
18.0
 40
19.0
 40
19.0
 40
19.0
 40
19.0
 10
128.5640733185534
 20
-130.3307182833896
 10
128.5640733185534
 20
-130.43338212885
 10
128.5413356883508
 20
-130.6690266600411
 10
128.3401421120122
 20
-130.8040744030629
 10
128.2188747509314
 20
-130.8840006183207
 10
128.1113877717916
 20
-130.888823752
 10
128.019748231884
 20
-130.8933023761308
 10
128.019748231884
 20
-130.8933023761308
 10
128.019748231884
 20
-130.6552462781001
 10
128.019748231884
 20
-130.6552462781001
 10
128.0996744471418
 20
-130.6531792208089
 10
128.3539224939532
 20
-130.6414658961591
 10
128.3539224939532
 20
-130.3351969075204
 10
128.3539224939532
 20
-130.1863687825576
 10
128.2781303932777
 20
-130.0216932183626
 10
128.0311170469853
 20
-130.0216932183626
 10
127.9053710617737
 20
-130.0216932183626
 10
127.8526611008493
 20
-130.0626898546371
 10
127.8185546555454
 20
-130.0971408094896
 10
127.738283930739
 20
-130.1770670247474
 10
127.7248480583466
 20
-130.3031575195076
 10
127.7248480583466
 20
-130.3624131618539
 10
127.7248480583466
 20
-130.3830837347653
 10
127.7269151156377
 20
-130.4220133137487
 10
127.7313937397685
 20
-130.4519856444703
 10
127.7313937397685
 20
-130.4519856444703
 10
127.5208984056198
 20
-130.4519856444703
 10
127.5208984056198
 20
-130.4519856444703
 10
127.5277885965903
 20
-130.4106444986473
 10
127.53020016343
 20
-130.3648247286935
 10
127.53020016343
 20
-130.357934537723
 10
127.53020016343
 20
-130.2873100802754
 10
127.5071180236788
 20
-130.0719916124473
 10
127.2508029195762
 20
-130.0719916124473
 10
127.0589111010478
 20
-130.0719916124473
 10
126.999310949153
 20
-130.2139295464396
 10
126.999310949153
 20
-130.3327853406807
 10
126.999310949153
 20
-130.6187282659564
 10
127.2508029195762
 20
-130.6280300237666
 10
127.3286620775428
 20
-130.6325086478974
 10
127.3286620775428
 20
-130.6325086478974
 10
127.3286620775428
 20
-130.8523057398564
 10
127.3286620775428
 20
-130.8523057398564
 10
127.193614334521
 20
-130.8430039820462
 10
126.7864040481645
 20
-130.8130316513245
 10
126.7864040481645
 20
-130.3190049587397
 10
126.7864040481645
 20
-130.0764702365781
 10
126.923863358026
 20
-129.8160210178932
 10
127.2439127286057
 20
-129.8160210178932
 10
127.4454508144928
 20
-129.8160210178932
 10
127.5346787875608
 20
-129.9186848633537
 10
127.6008246208776
 20
-130.0261718424935
 10
127.6307969515993
 20
-129.9600260091767
 10
127.7179578673761
 20
-129.7629665474204
 10
128.0176811745928
 20
-129.7629665474204
 10
128.3835503151263
 20
-129.7629665474204
 10
128.5640733185534
 20
-130.0309949761728
 10
128.5640733185534
 20
-130.3307182833896
 97
        0
 97
        0
 75
     2
 76
     1
 98
        0
  0
ENDBLK
  5
1CC
330
1C9
100
AcDbEntity
  8
0
100
AcDbBlockEnd
  0
BLOCK
  5
1DB
330
1D9
100
AcDbEntity
  8
0
100
AcDbBlockBegin
  2
block 8
 70
     0
 10
0.0
 20
0.0
 30
0.0
  3
block 8
  1

  0
SPLINE
  5
1DD
330
1D9
100
AcDbEntity
  8
_U+30EC_U+30A4_U+30E4_U+30FC 1
370
     0
100
AcDbSpline
210
0.0
220
0.0
230
1.0
 70
    11
 71
     3
 72
    32
 73
    28
 74
     0
 42
0.0000000001
 43
0.0000000001
 12
1.0
 22
0.0
 32
0.0
 13
1.0
 23
0.0
 33
0.0
 40
0.0
 40
0.0
 40
0.0
 40
0.0
 40
1.0
 40
1.0
 40
1.0
 40
2.0
 40
2.0
 40
2.0
 40
3.0
 40
3.0
 40
3.0
 40
4.0
 40
4.0
 40
4.0
 40
5.0
 40
5.0
 40
5.0
 40
6.0
 40
6.0
 40
6.0
 40
7.0
 40
7.0
 40
7.0
 40
8.0
 40
8.0
 40
8.0
 40
9.0
 40
9.0
 40
9.0
 40
9.0
 10
55.5159911970585
 20
-137.025227830327
 30
0.0
 10
55.32840574788665
 20
-137.025227830327
 30
0.0
 10
55.06296114074815
 20
-136.9494357296515
 30
0.0
 10
55.02179224969942
 20
-136.5904567800885
 30
0.0
 10
55.02179224969942
 20
-136.5904567800885
 30
0.0
 10
55.25278590198542
 20
-136.5904567800885
 30
0.0
 10
55.25278590198542
 20
-136.5904567800885
 30
0.0
 10
55.264326971861
 20
-136.6545355561142
 30
0.0
 10
55.29860567193924
 20
-136.8147324961783
 30
0.0
 10
55.51823050912392
 20
-136.8147324961783
 30
0.0
 10
55.83397351034706
 20
-136.8147324961783
 30
0.0
 10
55.8751424013958
 20
-136.4578206039064
 30
0.0
 10
55.88875052856254
 20
-136.2359564546563
 30
0.0
 10
55.79039305245865
 20
-136.3227728608846
 30
0.0
 10
55.71718477339709
 20
-136.3844400700706
 30
0.0
 10
55.52046982118933
 20
-136.3844400700706
 30
0.0
 10
55.32599418104698
 20
-136.3844400700706
 30
0.0
 10
54.9988823647225
 20
-136.2700628999603
 30
0.0
 10
54.9988823647225
 20
-135.8311577351394
 30
0.0
 10
54.9988823647225
 20
-135.4852701484204
 30
0.0
 10
55.21385632300209
 20
-135.2475585599381
 30
0.0
 10
55.55716008810724
 20
-135.2475585599381
 30
0.0
 10
56.1130262446523
 20
-135.2475585599381
 30
0.0
 10
56.12439505975362
 20
-135.8470051743716
 30
0.0
 10
56.12439505975362
 20
-136.0778265718833
 30
0.0
 10
56.12439505975362
 20
-136.3272514850154
 30
0.0
 10
56.10389674161639
 20
-137.025227830327
 30
0.0
 10
55.5159911970585
 20
-137.025227830327
 30
0.0
  0
SPLINE
  5
1DE
330
1D9
100
AcDbEntity
  8
_U+30EC_U+30A4_U+30E4_U+30FC 1
370
     0
100
AcDbSpline
210
0.0
220
0.0
230
1.0
 70
    11
 71
     3
 72
    17
 73
    13
 74
     0
 42
0.0000000001
 43
0.0000000001
 12
1.0
 22
0.0
 32
0.0
 13
1.0
 23
0.0
 33
0.0
 40
0.0
 40
0.0
 40
0.0
 40
0.0
 40
1.0
 40
1.0
 40
1.0
 40
2.0
 40
2.0
 40
2.0
 40
3.0
 40
3.0
 40
3.0
 40
4.0
 40
4.0
 40
4.0
 40
4.0
 10
55.55939940017265
 20
-135.4556423272472
 30
0.0
 10
55.43124184812136
 20
-135.4556423272472
 30
0.0
 10
55.24141708688409
 20
-135.5176540459817
 30
0.0
 10
55.24141708688409
 20
-135.8263346014601
 30
0.0
 10
55.24141708688409
 20
-136.0709363809128
 30
0.0
 10
55.39231226913804
 20
-136.1742892454703
 30
0.0
 10
55.53872882726115
 20
-136.1742892454703
 30
0.0
 10
55.82243244047148
 20
-136.1742892454703
 30
0.0
 10
55.86360133152021
 20
-135.9476019625409
 30
0.0
 10
55.86360133152021
 20
-135.8218559773293
 30
0.0
 10
55.86360133152021
 20
-135.632031216092
 30
0.0
 10
55.7607652312855
 20
-135.4556423272472
 30
0.0
 10
55.55939940017265
 20
-135.4556423272472
 30
0.0
  0
HATCH
  5
1DF
330
1D9
100
AcDbEntity
  8
_U+30EC_U+30A4_U+30E4_U+30FC 1
 62
   179
420
  2234388
100
AcDbHatch
 10
0.0
 20
0.0
 30
0.0
210
0.0
220
0.0
230
1.0
  2
SOLID
 70
     1
 71
     0
 91
        2
 92
        1
 93
        1
 72
     4
 94
        3
 73
     0
 74
     1
 95
       32
 96
       28
 40
0.0
 40
0.0
 40
0.0
 40
0.0
 40
1.0
 40
1.0
 40
1.0
 40
2.0
 40
2.0
 40
2.0
 40
3.0
 40
3.0
 40
3.0
 40
4.0
 40
4.0
 40
4.0
 40
5.0
 40
5.0
 40
5.0
 40
6.0
 40
6.0
 40
6.0
 40
7.0
 40
7.0
 40
7.0
 40
8.0
 40
8.0
 40
8.0
 40
9.0
 40
9.0
 40
9.0
 40
9.0
 10
55.5159911970585
 20
-137.025227830327
 10
55.32840574788665
 20
-137.025227830327
 10
55.06296114074815
 20
-136.9494357296515
 10
55.02179224969942
 20
-136.5904567800885
 10
55.02179224969942
 20
-136.5904567800885
 10
55.25278590198542
 20
-136.5904567800885
 10
55.25278590198542
 20
-136.5904567800885
 10
55.264326971861
 20
-136.6545355561142
 10
55.29860567193924
 20
-136.8147324961783
 10
55.51823050912392
 20
-136.8147324961783
 10
55.83397351034706
 20
-136.8147324961783
 10
55.8751424013958
 20
-136.4578206039064
 10
55.88875052856254
 20
-136.2359564546563
 10
55.79039305245865
 20
-136.3227728608846
 10
55.71718477339709
 20
-136.3844400700706
 10
55.52046982118933
 20
-136.3844400700706
 10
55.32599418104698
 20
-136.3844400700706
 10
54.9988823647225
 20
-136.2700628999603
 10
54.9988823647225
 20
-135.8311577351394
 10
54.9988823647225
 20
-135.4852701484204
 10
55.21385632300209
 20
-135.2475585599381
 10
55.55716008810724
 20
-135.2475585599381
 10
56.1130262446523
 20
-135.2475585599381
 10
56.12439505975362
 20
-135.8470051743716
 10
56.12439505975362
 20
-136.0778265718833
 10
56.12439505975362
 20
-136.3272514850154
 10
56.10389674161639
 20
-137.025227830327
 10
55.5159911970585
 20
-137.025227830327
 97
        0
 97
        0
 92
        1
 93
        1
 72
     4
 94
        3
 73
     0
 74
     1
 95
       17
 96
       13
 40
0.0
 40
0.0
 40
0.0
 40
0.0
 40
1.0
 40
1.0
 40
1.0
 40
2.0
 40
2.0
 40
2.0
 40
3.0
 40
3.0
 40
3.0
 40
4.0
 40
4.0
 40
4.0
 40
4.0
 10
55.55939940017265
 20
-135.4556423272472
 10
55.43124184812136
 20
-135.4556423272472
 10
55.24141708688409
 20
-135.5176540459817
 10
55.24141708688409
 20
-135.8263346014601
 10
55.24141708688409
 20
-136.0709363809128
 10
55.39231226913804
 20
-136.1742892454703
 10
55.53872882726115
 20
-136.1742892454703
 10
55.82243244047148
 20
-136.1742892454703
 10
55.86360133152021
 20
-135.9476019625409
 10
55.86360133152021
 20
-135.8218559773293
 10
55.86360133152021
 20
-135.632031216092
 10
55.7607652312855
 20
-135.4556423272472
 10
55.55939940017265
 20
-135.4556423272472
 97
        0
 97
        0
 75
     2
 76
     1
 98
        0
  0
ENDBLK
  5
1DC
330
1D9
100
AcDbEntity
  8
0
100
AcDbBlockEnd
  0
BLOCK
  5
1EE
330
1EC
100
AcDbEntity
  8
0
100
AcDbBlockBegin
  2
block 9
 70
     0
 10
0.0
 20
0.0
 30
0.0
  3
block 9
  1

  0
SPLINE
  5
1F0
330
1EC
100
AcDbEntity
  8
_U+30EC_U+30A4_U+30E4_U+30FC 1
370
     0
100
AcDbSpline
210
0.0
220
0.0
230
1.0
 70
    11
 71
     3
 72
    29
 73
    25
 74
     0
 42
0.0000000001
 43
0.0000000001
 12
1.0
 22
0.0
 32
0.0
 13
1.0
 23
0.0
 33
0.0
 40
0.0
 40
0.0
 40
0.0
 40
0.0
 40
1.0
 40
1.0
 40
1.0
 40
2.0
 40
2.0
 40
2.0
 40
3.0
 40
3.0
 40
3.0
 40
4.0
 40
4.0
 40
4.0
 40
5.0
 40
5.0
 40
5.0
 40
6.0
 40
6.0
 40
6.0
 40
7.0
 40
7.0
 40
7.0
 40
8.0
 40
8.0
 40
8.0
 40
8.0
 10
49.96439207735266
 20
-132.7440076708071
 30
0.0
 10
49.96439207735266
 20
-133.0323621629225
 30
0.0
 10
49.81556395238986
 20
-133.3065917635484
 30
0.0
 10
49.43815374198074
 20
-133.3065917635484
 30
0.0
 10
49.16134031974092
 20
-133.3065917635484
 30
0.0
 10
49.05833196473195
 20
-133.1536295240033
 30
0.0
 10
48.99201387664089
 20
-133.039252353893
 30
0.0
 10
48.92793510061524
 20
-133.1743000969148
 30
0.0
 10
48.80442842746903
 20
-133.2562933694637
 30
0.0
 10
48.63062336023818
 20
-133.2562933694637
 30
0.0
 10
48.33313936508686
 20
-133.2562933694637
 30
0.0
 10
48.18672280696374
 20
-133.0413194111841
 30
0.0
 10
48.18672280696374
 20
-132.7440076708071
 30
0.0
 10
48.18672280696374
 20
-132.4373941726198
 30
0.0
 10
48.34226886812277
 20
-132.2317219721504
 30
0.0
 10
48.63062336023818
 20
-132.2317219721504
 30
0.0
 10
48.80442842746903
 20
-132.2317219721504
 30
0.0
 10
48.92793510061524
 20
-132.316126811539
 30
0.0
 10
48.99201387664089
 20
-132.4511745545608
 30
0.0
 10
49.04696314963062
 20
-132.3550563905223
 30
0.0
 10
49.14997150463959
 20
-132.1834906353569
 30
0.0
 10
49.43350286307565
 20
-132.1834906353569
 30
0.0
 10
49.83847383736677
 20
-132.1834906353569
 30
0.0
 10
49.96439207735266
 20
-132.4852809998648
 30
0.0
 10
49.96439207735266
 20
-132.7440076708071
 30
0.0
  0
SPLINE
  5
1F1
330
1EC
100
AcDbEntity
  8
_U+30EC_U+30A4_U+30E4_U+30FC 1
370
     0
100
AcDbSpline
210
0.0
220
0.0
230
1.0
 70
    11
 71
     3
 72
    17
 73
    13
 74
     0
 42
0.0000000001
 43
0.0000000001
 12
1.0
 22
0.0
 32
0.0
 13
1.0
 23
0.0
 33
0.0
 40
0.0
 40
0.0
 40
0.0
 40
0.0
 40
1.0
 40
1.0
 40
1.0
 40
2.0
 40
2.0
 40
2.0
 40
3.0
 40
3.0
 40
3.0
 40
4.0
 40
4.0
 40
4.0
 40
4.0
 10
48.39497882904709
 20
-132.7440076708071
 30
0.0
 10
48.39497882904709
 20
-132.922463616943
 30
0.0
 10
48.4978149292818
 20
-133.0137586473021
 30
0.0
 10
48.64423148740492
 20
-133.0137586473021
 30
0.0
 10
48.7770399183613
 20
-133.0137586473021
 30
0.0
 10
48.90519747041259
 20
-132.9358994893355
 30
0.0
 10
48.90519747041259
 20
-132.7440076708071
 30
0.0
 10
48.90519747041259
 20
-132.5517713427301
 30
0.0
 10
48.7770399183613
 20
-132.474256694312
 30
0.0
 10
48.64423148740492
 20
-132.474256694312
 30
0.0
 10
48.4978149292818
 20
-132.474256694312
 30
0.0
 10
48.39497882904709
 20
-132.5679632915108
 30
0.0
 10
48.39497882904709
 20
-132.7440076708071
 30
0.0
  0
SPLINE
  5
1F2
330
1EC
100
AcDbEntity
  8
_U+30EC_U+30A4_U+30E4_U+30FC 1
370
     0
100
AcDbSpline
210
0.0
220
0.0
230
1.0
 70
    11
 71
     3
 72
    17
 73
    13
 74
     0
 42
0.0000000001
 43
0.0000000001
 12
1.0
 22
0.0
 32
0.0
 13
1.0
 23
0.0
 33
0.0
 40
0.0
 40
0.0
 40
0.0
 40
0.0
 40
1.0
 40
1.0
 40
1.0
 40
2.0
 40
2.0
 40
2.0
 40
3.0
 40
3.0
 40
3.0
 40
4.0
 40
4.0
 40
4.0
 40
4.0
 10
49.10880261359086
 20
-132.7440076708071
 30
0.0
 10
49.10880261359086
 20
-132.8993814771918
 30
0.0
 10
49.20250921078965
 20
-133.0640570413868
 30
0.0
 10
49.42213404797433
 20
-133.0640570413868
 30
0.0
 10
49.64399819722442
 20
-133.0640570413868
 30
0.0
 10
49.75389674320389
 20
-132.9269422410738
 30
0.0
 10
49.75389674320389
 20
-132.7440076708071
 30
0.0
 10
49.75389674320389
 20
-132.54246958492
 30
0.0
 10
49.62126056702177
 20
-132.4236137906788
 30
0.0
 10
49.42902423894483
 20
-132.4236137906788
 30
0.0
 10
49.18872882884865
 20
-132.4236137906788
 30
0.0
 10
49.10880261359086
 20
-132.5996581699751
 30
0.0
 10
49.10880261359086
 20
-132.7440076708071
 30
0.0
  0
HATCH
  5
1F3
330
1EC
100
AcDbEntity
  8
_U+30EC_U+30A4_U+30E4_U+30FC 1
 62
   179
420
  2234388
100
AcDbHatch
 10
0.0
 20
0.0
 30
0.0
210
0.0
220
0.0
230
1.0
  2
SOLID
 70
     1
 71
     0
 91
        3
 92
        1
 93
        1
 72
     4
 94
        3
 73
     0
 74
     1
 95
       29
 96
       25
 40
0.0
 40
0.0
 40
0.0
 40
0.0
 40
1.0
 40
1.0
 40
1.0
 40
2.0
 40
2.0
 40
2.0
 40
3.0
 40
3.0
 40
3.0
 40
4.0
 40
4.0
 40
4.0
 40
5.0
 40
5.0
 40
5.0
 40
6.0
 40
6.0
 40
6.0
 40
7.0
 40
7.0
 40
7.0
 40
8.0
 40
8.0
 40
8.0
 40
8.0
 10
49.96439207735266
 20
-132.7440076708071
 10
49.96439207735266
 20
-133.0323621629225
 10
49.81556395238986
 20
-133.3065917635484
 10
49.43815374198074
 20
-133.3065917635484
 10
49.16134031974092
 20
-133.3065917635484
 10
49.05833196473195
 20
-133.1536295240033
 10
48.99201387664089
 20
-133.039252353893
 10
48.92793510061524
 20
-133.1743000969148
 10
48.80442842746903
 20
-133.2562933694637
 10
48.63062336023818
 20
-133.2562933694637
 10
48.33313936508686
 20
-133.2562933694637
 10
48.18672280696374
 20
-133.0413194111841
 10
48.18672280696374
 20
-132.7440076708071
 10
48.18672280696374
 20
-132.4373941726198
 10
48.34226886812277
 20
-132.2317219721504
 10
48.63062336023818
 20
-132.2317219721504
 10
48.80442842746903
 20
-132.2317219721504
 10
48.92793510061524
 20
-132.316126811539
 10
48.99201387664089
 20
-132.4511745545608
 10
49.04696314963062
 20
-132.3550563905223
 10
49.14997150463959
 20
-132.1834906353569
 10
49.43350286307565
 20
-132.1834906353569
 10
49.83847383736677
 20
-132.1834906353569
 10
49.96439207735266
 20
-132.4852809998648
 10
49.96439207735266
 20
-132.7440076708071
 97
        0
 97
        0
 92
        1
 93
        1
 72
     4
 94
        3
 73
     0
 74
     1
 95
       17
 96
       13
 40
0.0
 40
0.0
 40
0.0
 40
0.0
 40
1.0
 40
1.0
 40
1.0
 40
2.0
 40
2.0
 40
2.0
 40
3.0
 40
3.0
 40
3.0
 40
4.0
 40
4.0
 40
4.0
 40
4.0
 10
48.39497882904709
 20
-132.7440076708071
 10
48.39497882904709
 20
-132.922463616943
 10
48.4978149292818
 20
-133.0137586473021
 10
48.64423148740492
 20
-133.0137586473021
 10
48.7770399183613
 20
-133.0137586473021
 10
48.90519747041259
 20
-132.9358994893355
 10
48.90519747041259
 20
-132.7440076708071
 10
48.90519747041259
 20
-132.5517713427301
 10
48.7770399183613
 20
-132.474256694312
 10
48.64423148740492
 20
-132.474256694312
 10
48.4978149292818
 20
-132.474256694312
 10
48.39497882904709
 20
-132.5679632915108
 10
48.39497882904709
 20
-132.7440076708071
 97
        0
 97
        0
 92
        1
 93
        1
 72
     4
 94
        3
 73
     0
 74
     1
 95
       17
 96
       13
 40
0.0
 40
0.0
 40
0.0
 40
0.0
 40
1.0
 40
1.0
 40
1.0
 40
2.0
 40
2.0
 40
2.0
 40
3.0
 40
3.0
 40
3.0
 40
4.0
 40
4.0
 40
4.0
 40
4.0
 10
49.10880261359086
 20
-132.7440076708071
 10
49.10880261359086
 20
-132.8993814771918
 10
49.20250921078965
 20
-133.0640570413868
 10
49.42213404797433
 20
-133.0640570413868
 10
49.64399819722442
 20
-133.0640570413868
 10
49.75389674320389
 20
-132.9269422410738
 10
49.75389674320389
 20
-132.7440076708071
 10
49.75389674320389
 20
-132.54246958492
 10
49.62126056702177
 20
-132.4236137906788
 10
49.42902423894483
 20
-132.4236137906788
 10
49.18872882884865
 20
-132.4236137906788
 10
49.10880261359086
 20
-132.5996581699751
 10
49.10880261359086
 20
-132.7440076708071
 97
        0
 97
        0
 75
     2
 76
     1
 98
        0
  0
ENDBLK
  5
1EF
330
1EC
100
AcDbEntity
  8
0
100
AcDbBlockEnd
  0
ENDSEC
  0
SECTION
  2
ENTITIES
  0
INSERT
  5
42
330
1F
100
AcDbEntity
  8
_U+30EC_U+30A4_U+30E4_U+30FC 1
100
AcDbBlockReference
  2
block 2
 10
0.0
 20
0.0
 30
0.0
  0
SPLINE
  5
B6
330
1F
100
AcDbEntity
  8
_U+30EC_U+30A4_U+30E4_U+30FC 1
370
     0
100
AcDbSpline
210
0.0
220
0.0
230
1.0
 70
    11
 71
     3
 72
   104
 73
   100
 74
     0
 42
0.0000000001
 43
0.0000000001
 12
1.0
 22
0.0
 32
0.0
 13
1.0
 23
0.0
 33
0.0
 40
0.0
 40
0.0
 40
0.0
 40
0.0
 40
1.0
 40
1.0
 40
1.0
 40
2.0
 40
2.0
 40
2.0
 40
3.0
 40
3.0
 40
3.0
 40
4.0
 40
4.0
 40
4.0
 40
5.0
 40
5.0
 40
5.0
 40
6.0
 40
6.0
 40
6.0
 40
7.0
 40
7.0
 40
7.0
 40
8.0
 40
8.0
 40
8.0
 40
9.0
 40
9.0
 40
9.0
 40
10.0
 40
10.0
 40
10.0
 40
11.0
 40
11.0
 40
11.0
 40
12.0
 40
12.0
 40
12.0
 40
13.0
 40
13.0
 40
13.0
 40
14.0
 40
14.0
 40
14.0
 40
15.0
 40
15.0
 40
15.0
 40
16.0
 40
16.0
 40
16.0
 40
17.0
 40
17.0
 40
17.0
 40
18.0
 40
18.0
 40
18.0
 40
19.0
 40
19.0
 40
19.0
 40
20.0
 40
20.0
 40
20.0
 40
21.0
 40
21.0
 40
21.0
 40
22.0
 40
22.0
 40
22.0
 40
23.0
 40
23.0
 40
23.0
 40
24.0
 40
24.0
 40
24.0
 40
25.0
 40
25.0
 40
25.0
 40
26.0
 40
26.0
 40
26.0
 40
27.0
 40
27.0
 40
27.0
 40
28.0
 40
28.0
 40
28.0
 40
29.0
 40
29.0
 40
29.0
 40
30.0
 40
30.0
 40
30.0
 40
31.0
 40
31.0
 40
31.0
 40
32.0
 40
32.0
 40
32.0
 40
33.0
 40
33.0
 40
33.0
 40
33.0
 10
55.50376108398108
 20
-129.4694444120771
 30
0.0
 10
55.50376108398108
 20
-129.4694444120771
 30
0.0
 10
55.50376108398108
 20
-128.8817166344465
 30
0.0
 10
55.50376108398108
 20
-128.8817166344465
 30
0.0
 10
55.50376108398108
 20
-128.8817166344465
 30
0.0
 10
53.56348335570392
 20
-128.8228027455719
 30
0.0
 10
53.56348335570392
 20
-128.8228027455719
 30
0.0
 10
53.56348335570392
 20
-128.8228027455719
 30
0.0
 10
52.56371115898801
 20
-129.1166666343875
 30
0.0
 10
52.79901393076271
 20
-129.8811360786407
 30
0.0
 10
52.79901393076271
 20
-129.8811360786407
 30
0.0
 10
52.79901393076271
 20
-130.7041666339906
 30
0.0
 10
53.85734723709572
 20
-130.6456055228944
 30
0.0
 10
53.85734723709572
 20
-130.6456055228944
 30
0.0
 10
58.20833331878125
 20
-130.6456055228944
 30
0.0
 10
58.20833331878125
 20
-130.6456055228944
 30
0.0
 10
58.20833331878125
 20
-130.6456055228944
 30
0.0
 10
58.20833331878125
 20
-134.3497721886351
 30
0.0
 10
58.20833331878125
 20
-134.3497721886351
 30
0.0
 10
58.20833331878125
 20
-134.3497721886351
 30
0.0
 10
58.50237211859125
 20
-134.8789388551694
 30
0.0
 10
58.50237211859125
 20
-134.8789388551694
 30
0.0
 10
58.50237211859125
 20
-134.8789388551694
 30
0.0
 10
85.25456865830809
 20
-134.8789388551694
 30
0.0
 10
85.25456865830809
 20
-134.8789388551694
 30
0.0
 10
85.25456865830809
 20
-134.8789388551694
 30
0.0
 10
117.9456055260694
 20
-134.8789388551694
 30
0.0
 10
117.9456055260694
 20
-134.8789388551694
 30
0.0
 10
117.9456055260694
 20
-134.8789388551694
 30
0.0
 10
118.1805555260104
 20
-134.64363607745
 30
0.0
 10
118.1805555260104
 20
-134.64363607745
 30
0.0
 10
118.1805555260104
 20
-134.64363607745
 30
0.0
 10
118.1805555260104
 20
-130.9394694117094
 30
0.0
 10
118.1805555260104
 20
-130.9394694117094
 30
0.0
 10
118.1805555260104
 20
-130.9394694117094
 30
0.0
 10
118.0627277482618
 20
-130.7041666339906
 30
0.0
 10
118.0627277482618
 20
-130.7041666339906
 30
0.0
 10
118.0627277482618
 20
-130.7041666339906
 30
0.0
 10
113.0067166384153
 20
-130.7041666339906
 30
0.0
 10
113.0067166384153
 20
-130.7041666339906
 30
0.0
 10
113.0067166384153
 20
-130.7041666339906
 30
0.0
 10
112.1247721941913
 20
-130.351388856301
 30
0.0
 10
112.3011610830361
 20
-129.5283583009511
 30
0.0
 10
112.3011610830361
 20
-129.5283583009511
 30
0.0
 10
112.3597221941323
 20
-128.8817166344465
 30
0.0
 10
113.3594944161048
 20
-128.8228027455719
 30
0.0
 10
113.3594944161048
 20
-128.8228027455719
 30
0.0
 10
118.4155055259514
 20
-128.8228027455719
 30
0.0
 10
118.4155055259514
 20
-128.8228027455719
 30
0.0
 10
118.4155055259514
 20
-128.8228027455719
 30
0.0
 10
120.5914388587413
 20
-127.6469944125326
 30
0.0
 10
120.5914388587413
 20
-127.6469944125326
 30
0.0
 10
120.5914388587413
 20
-127.6469944125326
 30
0.0
 10
126.6472221905604
 20
-127.6469944125326
 30
0.0
 10
126.6472221905604
 20
-127.6469944125326
 30
0.0
 10
126.6472221905604
 20
-127.6469944125326
 30
0.0
 10
126.6472221905604
 20
-127.1176513571094
 30
0.0
 10
126.6472221905604
 20
-127.1176513571094
 30
0.0
 10
126.6472221905604
 20
-127.1176513571094
 30
0.0
 10
120.2972221921479
 20
-127.1176513571094
 30
0.0
 10
120.2972221921479
 20
-127.1176513571094
 30
0.0
 10
120.2972221921479
 20
-127.1176513571094
 30
0.0
 10
118.3569444148552
 20
-128.2348985790524
 30
0.0
 10
118.3569444148552
 20
-128.2348985790524
 30
0.0
 10
118.3569444148552
 20
-128.2348985790524
 30
0.0
 10
113.0652777495115
 20
-128.2348985790524
 30
0.0
 10
113.0652777495115
 20
-128.2348985790524
 30
0.0
 10
113.0652777495115
 20
-128.2348985790524
 30
0.0
 10
111.5366916387823
 20
-128.6462374678385
 30
0.0
 10
111.5956055276569
 20
-129.7636610786705
 30
0.0
 10
111.5956055276569
 20
-129.7636610786705
 30
0.0
 10
111.8305555275979
 20
-131.1747721894288
 30
0.0
 10
113.1241916383854
 20
-131.233333300525
 30
0.0
 10
113.1241916383854
 20
-131.233333300525
 30
0.0
 10
117.5928277483798
 20
-131.233333300525
 30
0.0
 10
117.5928277483798
 20
-131.233333300525
 30
0.0
 10
117.5928277483798
 20
-131.233333300525
 30
0.0
 10
117.5928277483798
 20
-134.1733832997903
 30
0.0
 10
117.5928277483798
 20
-134.1733832997903
 30
0.0
 10
117.5928277483798
 20
-134.1733832997903
 30
0.0
 10
88.54722220008541
 20
-134.1733832997903
 30
0.0
 10
88.54722220008541
 20
-134.1733832997903
 30
0.0
 10
88.54722220008541
 20
-134.1733832997903
 30
0.0
 10
58.91388887416042
 20
-134.1733832997903
 30
0.0
 10
58.91388887416042
 20
-134.1733832997903
 30
0.0
 10
58.91388887416042
 20
-134.1733832997903
 30
0.0
 10
58.91388887416042
 20
-130.410302745175
 30
0.0
 10
58.91388887416042
 20
-130.410302745175
 30
0.0
 10
58.91388887416042
 20
-130.410302745175
 30
0.0
 10
58.73749998531563
 20
-130.11643885636
 30
0.0
 10
58.73749998531563
 20
-130.11643885636
 30
0.0
 10
58.73749998531563
 20
-130.11643885636
 30
0.0
 10
54.09265000887041
 20
-130.11643885636
 30
0.0
 10
54.09265000887041
 20
-130.11643885636
 30
0.0
 10
54.09265000887041
 20
-130.11643885636
 30
0.0
 10
52.97540281515155
 20
-129.9400499675153
 30
0.0
 10
53.62222220881667
 20
-129.4108833009809
 30
0.0
 10
53.62222220881667
 20
-129.4108833009809
 30
0.0
 10
55.50376108398108
 20
-129.4694444120771
 30
0.0
 10
55.50376108398108
 20
-129.4694444120771
 30
0.0
  0
HATCH
  5
B7
330
1F
100
AcDbEntity
  8
_U+30EC_U+30A4_U+30E4_U+30FC 1
 62
   253
420
 10066329
100
AcDbHatch
 10
0.0
 20
0.0
 30
0.0
210
0.0
220
0.0
230
1.0
  2
SOLID
 70
     1
 71
     0
 91
        1
 92
        1
 93
        1
 72
     4
 94
        3
 73
     0
 74
     1
 95
      104
 96
      100
 40
0.0
 40
0.0
 40
0.0
 40
0.0
 40
1.0
 40
1.0
 40
1.0
 40
2.0
 40
2.0
 40
2.0
 40
3.0
 40
3.0
 40
3.0
 40
4.0
 40
4.0
 40
4.0
 40
5.0
 40
5.0
 40
5.0
 40
6.0
 40
6.0
 40
6.0
 40
7.0
 40
7.0
 40
7.0
 40
8.0
 40
8.0
 40
8.0
 40
9.0
 40
9.0
 40
9.0
 40
10.0
 40
10.0
 40
10.0
 40
11.0
 40
11.0
 40
11.0
 40
12.0
 40
12.0
 40
12.0
 40
13.0
 40
13.0
 40
13.0
 40
14.0
 40
14.0
 40
14.0
 40
15.0
 40
15.0
 40
15.0
 40
16.0
 40
16.0
 40
16.0
 40
17.0
 40
17.0
 40
17.0
 40
18.0
 40
18.0
 40
18.0
 40
19.0
 40
19.0
 40
19.0
 40
20.0
 40
20.0
 40
20.0
 40
21.0
 40
21.0
 40
21.0
 40
22.0
 40
22.0
 40
22.0
 40
23.0
 40
23.0
 40
23.0
 40
24.0
 40
24.0
 40
24.0
 40
25.0
 40
25.0
 40
25.0
 40
26.0
 40
26.0
 40
26.0
 40
27.0
 40
27.0
 40
27.0
 40
28.0
 40
28.0
 40
28.0
 40
29.0
 40
29.0
 40
29.0
 40
30.0
 40
30.0
 40
30.0
 40
31.0
 40
31.0
 40
31.0
 40
32.0
 40
32.0
 40
32.0
 40
33.0
 40
33.0
 40
33.0
 40
33.0
 10
55.50376108398108
 20
-129.4694444120771
 10
55.50376108398108
 20
-129.4694444120771
 10
55.50376108398108
 20
-128.8817166344465
 10
55.50376108398108
 20
-128.8817166344465
 10
55.50376108398108
 20
-128.8817166344465
 10
53.56348335570392
 20
-128.8228027455719
 10
53.56348335570392
 20
-128.8228027455719
 10
53.56348335570392
 20
-128.8228027455719
 10
52.56371115898801
 20
-129.1166666343875
 10
52.79901393076271
 20
-129.8811360786407
 10
52.79901393076271
 20
-129.8811360786407
 10
52.79901393076271
 20
-130.7041666339906
 10
53.85734723709572
 20
-130.6456055228944
 10
53.85734723709572
 20
-130.6456055228944
 10
58.20833331878125
 20
-130.6456055228944
 10
58.20833331878125
 20
-130.6456055228944
 10
58.20833331878125
 20
-130.6456055228944
 10
58.20833331878125
 20
-134.3497721886351
 10
58.20833331878125
 20
-134.3497721886351
 10
58.20833331878125
 20
-134.3497721886351
 10
58.50237211859125
 20
-134.8789388551694
 10
58.50237211859125
 20
-134.8789388551694
 10
58.50237211859125
 20
-134.8789388551694
 10
85.25456865830809
 20
-134.8789388551694
 10
85.25456865830809
 20
-134.8789388551694
 10
85.25456865830809
 20
-134.8789388551694
 10
117.9456055260694
 20
-134.8789388551694
 10
117.9456055260694
 20
-134.8789388551694
 10
117.9456055260694
 20
-134.8789388551694
 10
118.1805555260104
 20
-134.64363607745
 10
118.1805555260104
 20
-134.64363607745
 10
118.1805555260104
 20
-134.64363607745
 10
118.1805555260104
 20
-130.9394694117094
 10
118.1805555260104
 20
-130.9394694117094
 10
118.1805555260104
 20
-130.9394694117094
 10
118.0627277482618
 20
-130.7041666339906
 10
118.0627277482618
 20
-130.7041666339906
 10
118.0627277482618
 20
-130.7041666339906
 10
113.0067166384153
 20
-130.7041666339906
 10
113.0067166384153
 20
-130.7041666339906
 10
113.0067166384153
 20
-130.7041666339906
 10
112.1247721941913
 20
-130.351388856301
 10
112.3011610830361
 20
-129.5283583009511
 10
112.3011610830361
 20
-129.5283583009511
 10
112.3597221941323
 20
-128.8817166344465
 10
113.3594944161048
 20
-128.8228027455719
 10
113.3594944161048
 20
-128.8228027455719
 10
118.4155055259514
 20
-128.8228027455719
 10
118.4155055259514
 20
-128.8228027455719
 10
118.4155055259514
 20
-128.8228027455719
 10
120.5914388587413
 20
-127.6469944125326
 10
120.5914388587413
 20
-127.6469944125326
 10
120.5914388587413
 20
-127.6469944125326
 10
126.6472221905604
 20
-127.6469944125326
 10
126.6472221905604
 20
-127.6469944125326
 10
126.6472221905604
 20
-127.6469944125326
 10
126.6472221905604
 20
-127.1176513571094
 10
126.6472221905604
 20
-127.1176513571094
 10
126.6472221905604
 20
-127.1176513571094
 10
120.2972221921479
 20
-127.1176513571094
 10
120.2972221921479
 20
-127.1176513571094
 10
120.2972221921479
 20
-127.1176513571094
 10
118.3569444148552
 20
-128.2348985790524
 10
118.3569444148552
 20
-128.2348985790524
 10
118.3569444148552
 20
-128.2348985790524
 10
113.0652777495115
 20
-128.2348985790524
 10
113.0652777495115
 20
-128.2348985790524
 10
113.0652777495115
 20
-128.2348985790524
 10
111.5366916387823
 20
-128.6462374678385
 10
111.5956055276569
 20
-129.7636610786705
 10
111.5956055276569
 20
-129.7636610786705
 10
111.8305555275979
 20
-131.1747721894288
 10
113.1241916383854
 20
-131.233333300525
 10
113.1241916383854
 20
-131.233333300525
 10
117.5928277483798
 20
-131.233333300525
 10
117.5928277483798
 20
-131.233333300525
 10
117.5928277483798
 20
-131.233333300525
 10
117.5928277483798
 20
-134.1733832997903
 10
117.5928277483798
 20
-134.1733832997903
 10
117.5928277483798
 20
-134.1733832997903
 10
88.54722220008541
 20
-134.1733832997903
 10
88.54722220008541
 20
-134.1733832997903
 10
88.54722220008541
 20
-134.1733832997903
 10
58.91388887416042
 20
-134.1733832997903
 10
58.91388887416042
 20
-134.1733832997903
 10
58.91388887416042
 20
-134.1733832997903
 10
58.91388887416042
 20
-130.410302745175
 10
58.91388887416042
 20
-130.410302745175
 10
58.91388887416042
 20
-130.410302745175
 10
58.73749998531563
 20
-130.11643885636
 10
58.73749998531563
 20
-130.11643885636
 10
58.73749998531563
 20
-130.11643885636
 10
54.09265000887041
 20
-130.11643885636
 10
54.09265000887041
 20
-130.11643885636
 10
54.09265000887041
 20
-130.11643885636
 10
52.97540281515155
 20
-129.9400499675153
 10
53.62222220881667
 20
-129.4108833009809
 10
53.62222220881667
 20
-129.4108833009809
 10
55.50376108398108
 20
-129.4694444120771
 10
55.50376108398108
 20
-129.4694444120771
 97
        0
 97
        0
 75
     2
 76
     1
 98
        0
  0
POLYLINE
  5
B8
330
1F
100
AcDbEntity
  8
_U+30EC_U+30A4_U+30E4_U+30FC 1
 62
   179
420
  2234388
370
    25
100
AcDb2dPolyline
 66
     1
 10
0.0
 20
0.0
 30
0.0
  0
VERTEX
  5
B9
330
B8
100
AcDbEntity
  8
_U+30EC_U+30A4_U+30E4_U+30FC 1
 62
   179
420
  2234388
370
    25
100
AcDbVertex
100
AcDb2dVertex
 10
58.56111109647084
 20
-134.8575605218412
 30
0.0
  0
VERTEX
  5
BA
330
B8
100
AcDbEntity
  8
_U+30EC_U+30A4_U+30E4_U+30FC 1
 62
   179
420
  2234388
370
    25
100
AcDbVertex
100
AcDb2dVertex
 10
117.9610894905619
 20
-134.8575605218412
 30
0.0
  0
SEQEND
  5
BB
330
B8
100
AcDbEntity
  8
_U+30EC_U+30A4_U+30E4_U+30FC 1
 62
   179
420
  2234388
370
    25
  0
POLYLINE
  5
BC
330
1F
100
AcDbEntity
  8
_U+30EC_U+30A4_U+30E4_U+30FC 1
 62
   179
420
  2234388
370
    25
100
AcDb2dPolyline
 66
     1
 10
0.0
 20
0.0
 30
0.0
  0
VERTEX
  5
BD
330
BC
100
AcDbEntity
  8
_U+30EC_U+30A4_U+30E4_U+30FC 1
 62
   179
420
  2234388
370
    25
100
AcDbVertex
100
AcDb2dVertex
 10
58.26121323585484
 20
-130.6573177451137
 30
0.0
  0
VERTEX
  5
BE
330
BC
100
AcDbEntity
  8
_U+30EC_U+30A4_U+30E4_U+30FC 1
 62
   179
420
  2234388
370
    25
100
AcDbVertex
100
AcDb2dVertex
 10
58.26121323585484
 20
-134.557523021916
 30
0.0
  0
SEQEND
  5
BF
330
BC
100
AcDbEntity
  8
_U+30EC_U+30A4_U+30E4_U+30FC 1
 62
   179
420
  2234388
370
    25
  0
POLYLINE
  5
C0
330
1F
100
AcDbEntity
  8
_U+30EC_U+30A4_U+30E4_U+30FC 1
 62
   179
420
  2234388
370
    25
100
AcDb2dPolyline
 66
     1
 10
0.0
 20
0.0
 30
0.0
  0
VERTEX
  5
C1
330
C0
100
AcDbEntity
  8
_U+30EC_U+30A4_U+30E4_U+30FC 1
 62
   179
420
  2234388
370
    25
100
AcDbVertex
100
AcDb2dVertex
 10
118.2611622606842
 20
-130.9577433005941
 30
0.0
  0
VERTEX
  5
C2
330
C0
100
AcDbEntity
  8
_U+30EC_U+30A4_U+30E4_U+30FC 1
 62
   179
420
  2234388
370
    25
100
AcDbVertex
100
AcDb2dVertex
 10
118.2611622606842
 20
-134.557523021916
 30
0.0
  0
SEQEND
  5
C3
330
C0
100
AcDbEntity
  8
_U+30EC_U+30A4_U+30E4_U+30FC 1
 62
   179
420
  2234388
370
    25
  0
POLYLINE
  5
C4
330
1F
100
AcDbEntity
  8
_U+30EC_U+30A4_U+30E4_U+30FC 1
 62
   179
420
  2234388
370
    25
100
AcDb2dPolyline
 66
     1
 10
0.0
 20
0.0
 30
0.0
  0
VERTEX
  5
C5
330
C4
100
AcDbEntity
  8
_U+30EC_U+30A4_U+30E4_U+30FC 1
 62
   179
420
  2234388
370
    25
100
AcDbVertex
100
AcDb2dVertex
 10
58.86118238721502
 20
-134.2574502442133
 30
0.0
  0
VERTEX
  5
C6
330
C4
100
AcDbEntity
  8
_U+30EC_U+30A4_U+30E4_U+30FC 1
 62
   179
420
  2234388
370
    25
100
AcDbVertex
100
AcDb2dVertex
 10
117.6610167204396
 20
-134.2574502442133
 30
0.0
  0
SEQEND
  5
C7
330
C4
100
AcDbEntity
  8
_U+30EC_U+30A4_U+30E4_U+30FC 1
 62
   179
420
  2234388
370
    25
  0
POLYLINE
  5
C8
330
1F
100
AcDbEntity
  8
_U+30EC_U+30A4_U+30E4_U+30FC 1
 62
   179
420
  2234388
370
    25
100
AcDb2dPolyline
 66
     1
 10
0.0
 20
0.0
 30
0.0
  0
VERTEX
  5
C9
330
C8
100
AcDbEntity
  8
_U+30EC_U+30A4_U+30E4_U+30FC 1
 62
   179
420
  2234388
370
    25
100
AcDbVertex
100
AcDb2dVertex
 10
58.86118238721502
 20
-130.3575977451881
 30
0.0
  0
VERTEX
  5
CA
330
C8
100
AcDbEntity
  8
_U+30EC_U+30A4_U+30E4_U+30FC 1
 62
   179
420
  2234388
370
    25
100
AcDbVertex
100
AcDb2dVertex
 10
58.86118238721502
 20
-134.2574502442133
 30
0.0
  0
SEQEND
  5
CB
330
C8
100
AcDbEntity
  8
_U+30EC_U+30A4_U+30E4_U+30FC 1
 62
   179
420
  2234388
370
    25
  0
POLYLINE
  5
CC
330
1F
100
AcDbEntity
  8
_U+30EC_U+30A4_U+30E4_U+30FC 1
 62
   179
420
  2234388
370
    25
100
AcDb2dPolyline
 66
     1
 10
0.0
 20
0.0
 30
0.0
  0
VERTEX
  5
CD
330
CC
100
AcDbEntity
  8
_U+30EC_U+30A4_U+30E4_U+30FC 1
 62
   179
420
  2234388
370
    25
100
AcDbVertex
100
AcDb2dVertex
 10
53.76107418399629
 20
-130.0575249674854
 30
0.0
  0
VERTEX
  5
CE
330
CC
100
AcDbEntity
  8
_U+30EC_U+30A4_U+30E4_U+30FC 1
 62
   179
420
  2234388
370
    25
100
AcDbVertex
100
AcDb2dVertex
 10
58.56111109647084
 20
-130.0575249674854
 30
0.0
  0
SEQEND
  5
CF
330
CC
100
AcDbEntity
  8
_U+30EC_U+30A4_U+30E4_U+30FC 1
 62
   179
420
  2234388
370
    25
  0
POLYLINE
  5
D0
330
1F
100
AcDbEntity
  8
_U+30EC_U+30A4_U+30E4_U+30FC 1
 62
   179
420
  2234388
370
    25
100
AcDb2dPolyline
 66
     1
 10
0.0
 20
0.0
 30
0.0
  0
VERTEX
  5
D1
330
D0
100
AcDbEntity
  8
_U+30EC_U+30A4_U+30E4_U+30FC 1
 62
   179
420
  2234388
370
    25
100
AcDbVertex
100
AcDb2dVertex
 10
53.76107418399629
 20
-130.6573177451137
 30
0.0
  0
VERTEX
  5
D2
330
D0
100
AcDbEntity
  8
_U+30EC_U+30A4_U+30E4_U+30FC 1
 62
   179
420
  2234388
370
    25
100
AcDbVertex
100
AcDb2dVertex
 10
58.26121323585484
 20
-130.6573177451137
 30
0.0
  0
SEQEND
  5
D3
330
D0
100
AcDbEntity
  8
_U+30EC_U+30A4_U+30E4_U+30FC 1
 62
   179
420
  2234388
370
    25
  0
POLYLINE
  5
D4
330
1F
100
AcDbEntity
  8
_U+30EC_U+30A4_U+30E4_U+30FC 1
 62
   179
420
  2234388
370
    25
100
AcDb2dPolyline
 66
     1
 10
0.0
 20
0.0
 30
0.0
  0
VERTEX
  5
D5
330
D4
100
AcDbEntity
  8
_U+30EC_U+30A4_U+30E4_U+30FC 1
 62
   179
420
  2234388
370
    25
100
AcDbVertex
100
AcDb2dVertex
 10
117.6610167204396
 20
-131.257463300519
 30
0.0
  0
VERTEX
  5
D6
330
D4
100
AcDbEntity
  8
_U+30EC_U+30A4_U+30E4_U+30FC 1
 62
   179
420
  2234388
370
    25
100
AcDbVertex
100
AcDb2dVertex
 10
117.6610167204396
 20
-134.2574502442133
 30
0.0
  0
SEQEND
  5
D7
330
D4
100
AcDbEntity
  8
_U+30EC_U+30A4_U+30E4_U+30FC 1
 62
   179
420
  2234388
370
    25
  0
POLYLINE
  5
D8
330
1F
100
AcDbEntity
  8
_U+30EC_U+30A4_U+30E4_U+30FC 1
 62
   179
420
  2234388
370
    25
100
AcDb2dPolyline
 66
     1
 10
0.0
 20
0.0
 30
0.0
  0
VERTEX
  5
D9
330
D8
100
AcDbEntity
  8
_U+30EC_U+30A4_U+30E4_U+30FC 1
 62
   179
420
  2234388
370
    25
100
AcDbVertex
100
AcDb2dVertex
 10
120.3395877632147
 20
-127.0575380237911
 30
0.0
  0
VERTEX
  5
DA
330
D8
100
AcDbEntity
  8
_U+30EC_U+30A4_U+30E4_U+30FC 1
 62
   179
420
  2234388
370
    25
100
AcDbVertex
100
AcDb2dVertex
 10
126.6610126019417
 20
-127.0575380237911
 30
0.0
  0
SEQEND
  5
DB
330
D8
100
AcDbEntity
  8
_U+30EC_U+30A4_U+30E4_U+30FC 1
 62
   179
420
  2234388
370
    25
  0
POLYLINE
  5
DC
330
1F
100
AcDbEntity
  8
_U+30EC_U+30A4_U+30E4_U+30FC 1
 62
   179
420
  2234388
370
    25
100
AcDb2dPolyline
 66
     1
 10
0.0
 20
0.0
 30
0.0
  0
VERTEX
  5
DD
330
DC
100
AcDbEntity
  8
_U+30EC_U+30A4_U+30E4_U+30FC 1
 62
   179
420
  2234388
370
    25
100
AcDbVertex
100
AcDb2dVertex
 10
113.1610540574654
 20
-130.6573177451137
 30
0.0
  0
VERTEX
  5
DE
330
DC
100
AcDbEntity
  8
_U+30EC_U+30A4_U+30E4_U+30FC 1
 62
   179
420
  2234388
370
    25
100
AcDbVertex
100
AcDb2dVertex
 10
117.9610894905619
 20
-130.6573177451137
 30
0.0
  0
SEQEND
  5
DF
330
DC
100
AcDbEntity
  8
_U+30EC_U+30A4_U+30E4_U+30FC 1
 62
   179
420
  2234388
370
    25
  0
POLYLINE
  5
E0
330
1F
100
AcDbEntity
  8
_U+30EC_U+30A4_U+30E4_U+30FC 1
 62
   179
420
  2234388
370
    25
100
AcDb2dPolyline
 66
     1
 10
0.0
 20
0.0
 30
0.0
  0
VERTEX
  5
E1
330
E0
100
AcDbEntity
  8
_U+30EC_U+30A4_U+30E4_U+30FC 1
 62
   179
420
  2234388
370
    25
100
AcDbVertex
100
AcDb2dVertex
 10
113.1610540574654
 20
-131.257463300519
 30
0.0
  0
VERTEX
  5
E2
330
E0
100
AcDbEntity
  8
_U+30EC_U+30A4_U+30E4_U+30FC 1
 62
   179
420
  2234388
370
    25
100
AcDbVertex
100
AcDb2dVertex
 10
117.6610167204396
 20
-131.257463300519
 30
0.0
  0
SEQEND
  5
E3
330
E0
100
AcDbEntity
  8
_U+30EC_U+30A4_U+30E4_U+30FC 1
 62
   179
420
  2234388
370
    25
  0
POLYLINE
  5
E4
330
1F
100
AcDbEntity
  8
_U+30EC_U+30A4_U+30E4_U+30FC 1
 62
   179
420
  2234388
370
    25
100
AcDb2dPolyline
 66
     1
 10
0.0
 20
0.0
 30
0.0
  0
VERTEX
  5
E5
330
E4
100
AcDbEntity
  8
_U+30EC_U+30A4_U+30E4_U+30FC 1
 62
   179
420
  2234388
370
    25
100
AcDbVertex
100
AcDb2dVertex
 10
113.1610540574654
 20
-128.8575866344525
 30
0.0
  0
VERTEX
  5
E6
330
E4
100
AcDbEntity
  8
_U+30EC_U+30A4_U+30E4_U+30FC 1
 62
   179
420
  2234388
370
    25
100
AcDbVertex
100
AcDb2dVertex
 10
118.4217114232549
 20
-128.8575866344525
 30
0.0
  0
SEQEND
  5
E7
330
E4
100
AcDbEntity
  8
_U+30EC_U+30A4_U+30E4_U+30FC 1
 62
   179
420
  2234388
370
    25
  0
POLYLINE
  5
E8
330
1F
100
AcDbEntity
  8
_U+30EC_U+30A4_U+30E4_U+30FC 1
 62
   179
420
  2234388
370
    25
100
AcDb2dPolyline
 66
     1
 10
0.0
 20
0.0
 30
0.0
  0
VERTEX
  5
E9
330
E8
100
AcDbEntity
  8
_U+30EC_U+30A4_U+30E4_U+30FC 1
 62
   179
420
  2234388
370
    25
100
AcDbVertex
100
AcDb2dVertex
 10
113.1610540574654
 20
-128.2576174679357
 30
0.0
  0
VERTEX
  5
EA
330
E8
100
AcDbEntity
  8
_U+30EC_U+30A4_U+30E4_U+30FC 1
 62
   179
420
  2234388
370
    25
100
AcDbVertex
100
AcDb2dVertex
 10
118.2611622606842
 20
-128.2576174679357
 30
0.0
  0
SEQEND
  5
EB
330
E8
100
AcDbEntity
  8
_U+30EC_U+30A4_U+30E4_U+30FC 1
 62
   179
420
  2234388
370
    25
  0
POLYLINE
  5
EC
330
1F
100
AcDbEntity
  8
_U+30EC_U+30A4_U+30E4_U+30FC 1
 62
   179
420
  2234388
370
    25
100
AcDb2dPolyline
 66
     1
 10
0.0
 20
0.0
 30
0.0
  0
VERTEX
  5
ED
330
EC
100
AcDbEntity
  8
_U+30EC_U+30A4_U+30E4_U+30FC 1
 62
   179
420
  2234388
370
    25
100
AcDbVertex
100
AcDb2dVertex
 10
126.6610126019417
 20
-127.0575380237911
 30
0.0
  0
VERTEX
  5
EE
330
EC
100
AcDbEntity
  8
_U+30EC_U+30A4_U+30E4_U+30FC 1
 62
   179
420
  2234388
370
    25
100
AcDbVertex
100
AcDb2dVertex
 10
126.6610126019417
 20
-127.6576835791968
 30
0.0
  0
SEQEND
  5
EF
330
EC
100
AcDbEntity
  8
_U+30EC_U+30A4_U+30E4_U+30FC 1
 62
   179
420
  2234388
370
    25
  0
POLYLINE
  5
F0
330
1F
100
AcDbEntity
  8
_U+30EC_U+30A4_U+30E4_U+30FC 1
 62
   179
420
  2234388
370
    25
100
AcDb2dPolyline
 66
     1
 10
0.0
 20
0.0
 30
0.0
  0
VERTEX
  5
F1
330
F0
100
AcDbEntity
  8
_U+30EC_U+30A4_U+30E4_U+30FC 1
 62
   179
420
  2234388
370
    25
100
AcDbVertex
100
AcDb2dVertex
 10
120.5004897035542
 20
-127.6576835791968
 30
0.0
  0
VERTEX
  5
F2
330
F0
100
AcDbEntity
  8
_U+30EC_U+30A4_U+30E4_U+30FC 1
 62
   179
420
  2234388
370
    25
100
AcDbVertex
100
AcDb2dVertex
 10
126.6610126019417
 20
-127.6576835791968
 30
0.0
  0
SEQEND
  5
F3
330
F0
100
AcDbEntity
  8
_U+30EC_U+30A4_U+30E4_U+30FC 1
 62
   179
420
  2234388
370
    25
  0
POLYLINE
  5
F4
330
1F
100
AcDbEntity
  8
_U+30EC_U+30A4_U+30E4_U+30FC 1
 62
   179
420
  2234388
370
    25
100
AcDb2dPolyline
 66
     1
 10
0.0
 20
0.0
 30
0.0
  0
VERTEX
  5
F5
330
F4
100
AcDbEntity
  8
_U+30EC_U+30A4_U+30E4_U+30FC 1
 62
   179
420
  2234388
370
    25
100
AcDbVertex
100
AcDb2dVertex
 10
118.2611622606842
 20
-128.2576174679357
 30
0.0
  0
VERTEX
  5
F6
330
F4
100
AcDbEntity
  8
_U+30EC_U+30A4_U+30E4_U+30FC 1
 62
   179
420
  2234388
370
    25
100
AcDbVertex
100
AcDb2dVertex
 10
120.3395877632147
 20
-127.0575380237911
 30
0.0
  0
SEQEND
  5
F7
330
F4
100
AcDbEntity
  8
_U+30EC_U+30A4_U+30E4_U+30FC 1
 62
   179
420
  2234388
370
    25
  0
POLYLINE
  5
F8
330
1F
100
AcDbEntity
  8
_U+30EC_U+30A4_U+30E4_U+30FC 1
 62
   179
420
  2234388
370
    25
100
AcDb2dPolyline
 66
     1
 10
0.0
 20
0.0
 30
0.0
  0
VERTEX
  5
F9
330
F8
100
AcDbEntity
  8
_U+30EC_U+30A4_U+30E4_U+30FC 1
 62
   179
420
  2234388
370
    25
100
AcDbVertex
100
AcDb2dVertex
 10
118.4217114232549
 20
-128.8575866344525
 30
0.0
  0
VERTEX
  5
FA
330
F8
100
AcDbEntity
  8
_U+30EC_U+30A4_U+30E4_U+30FC 1
 62
   179
420
  2234388
370
    25
100
AcDbVertex
100
AcDb2dVertex
 10
120.5004897035542
 20
-127.6576835791968
 30
0.0
  0
SEQEND
  5
FB
330
F8
100
AcDbEntity
  8
_U+30EC_U+30A4_U+30E4_U+30FC 1
 62
   179
420
  2234388
370
    25
  0
POLYLINE
  5
FC
330
1F
100
AcDbEntity
  8
_U+30EC_U+30A4_U+30E4_U+30FC 1
 62
   179
420
  2234388
370
    25
100
AcDb2dPolyline
 66
     1
 10
0.0
 20
0.0
 30
0.0
  0
VERTEX
  5
FD
330
FC
100
AcDbEntity
  8
_U+30EC_U+30A4_U+30E4_U+30FC 1
 62
   179
420
  2234388
370
    25
100
AcDbVertex
100
AcDb2dVertex
 10
53.76107418399629
 20
-129.4577321898578
 30
0.0
  0
VERTEX
  5
FE
330
FC
100
AcDbEntity
  8
_U+30EC_U+30A4_U+30E4_U+30FC 1
 62
   179
420
  2234388
370
    25
100
AcDbVertex
100
AcDb2dVertex
 10
55.56112274918434
 20
-129.4577321898578
 30
0.0
  0
SEQEND
  5
FF
330
FC
100
AcDbEntity
  8
_U+30EC_U+30A4_U+30E4_U+30FC 1
 62
   179
420
  2234388
370
    25
  0
POLYLINE
  5
100
330
1F
100
AcDbEntity
  8
_U+30EC_U+30A4_U+30E4_U+30FC 1
 62
   179
420
  2234388
370
    25
100
AcDb2dPolyline
 66
     1
 10
0.0
 20
0.0
 30
0.0
  0
VERTEX
  5
101
330
100
100
AcDbEntity
  8
_U+30EC_U+30A4_U+30E4_U+30FC 1
 62
   179
420
  2234388
370
    25
100
AcDbVertex
100
AcDb2dVertex
 10
53.76107418399629
 20
-128.8575866344525
 30
0.0
  0
VERTEX
  5
102
330
100
100
AcDbEntity
  8
_U+30EC_U+30A4_U+30E4_U+30FC 1
 62
   179
420
  2234388
370
    25
100
AcDbVertex
100
AcDb2dVertex
 10
55.56112274918434
 20
-128.8575866344525
 30
0.0
  0
SEQEND
  5
103
330
100
100
AcDbEntity
  8
_U+30EC_U+30A4_U+30E4_U+30FC 1
 62
   179
420
  2234388
370
    25
  0
POLYLINE
  5
104
330
1F
100
AcDbEntity
  8
_U+30EC_U+30A4_U+30E4_U+30FC 1
 62
   179
420
  2234388
370
    25
100
AcDb2dPolyline
 66
     1
 10
0.0
 20
0.0
 30
0.0
  0
VERTEX
  5
105
330
104
100
AcDbEntity
  8
_U+30EC_U+30A4_U+30E4_U+30FC 1
 62
   179
420
  2234388
370
    25
100
AcDbVertex
100
AcDb2dVertex
 10
55.56112274918434
 20
-128.8575866344525
 30
0.0
  0
VERTEX
  5
106
330
104
100
AcDbEntity
  8
_U+30EC_U+30A4_U+30E4_U+30FC 1
 62
   179
420
  2234388
370
    25
100
AcDbVertex
100
AcDb2dVertex
 10
55.56112274918434
 20
-129.4577321898578
 30
0.0
  0
SEQEND
  5
107
330
104
100
AcDbEntity
  8
_U+30EC_U+30A4_U+30E4_U+30FC 1
 62
   179
420
  2234388
370
    25
  0
POLYLINE
  5
108
330
1F
100
AcDbEntity
  8
_U+30EC_U+30A4_U+30E4_U+30FC 1
  6
AI-Linetype-1
 62
   179
420
  2234388
370
    25
100
AcDb2dPolyline
 66
     1
 10
0.0
 20
0.0
 30
0.0
  0
VERTEX
  5
109
330
108
100
AcDbEntity
  8
_U+30EC_U+30A4_U+30E4_U+30FC 1
  6
AI-Linetype-1
 62
   179
420
  2234388
370
    25
100
AcDbVertex
100
AcDb2dVertex
 10
113.76119959771
 20
-130.0575249674854
 30
0.0
  0
VERTEX
  5
10A
330
108
100
AcDbEntity
  8
_U+30EC_U+30A4_U+30E4_U+30FC 1
  6
AI-Linetype-1
 62
   179
420
  2234388
370
    25
100
AcDbVertex
100
AcDb2dVertex
 10
118.5612350308065
 20
-130.0575249674854
 30
0.0
  0
SEQEND
  5
10C
330
108
100
AcDbEntity
  8
_U+30EC_U+30A4_U+30E4_U+30FC 1
  6
AI-Linetype-1
 62
   179
420
  2234388
370
    25
  0
POLYLINE
  5
10D
330
1F
100
AcDbEntity
  8
_U+30EC_U+30A4_U+30E4_U+30FC 1
  6
AI-Linetype-2
 62
   179
420
  2234388
370
    25
100
AcDb2dPolyline
 66
     1
 10
0.0
 20
0.0
 30
0.0
  0
VERTEX
  5
10E
330
10D
100
AcDbEntity
  8
_U+30EC_U+30A4_U+30E4_U+30FC 1
  6
AI-Linetype-2
 62
   179
420
  2234388
370
    25
100
AcDbVertex
100
AcDb2dVertex
 10
113.76119959771
 20
-129.4577321898578
 30
0.0
  0
VERTEX
  5
10F
330
10D
100
AcDbEntity
  8
_U+30EC_U+30A4_U+30E4_U+30FC 1
  6
AI-Linetype-2
 62
   179
420
  2234388
370
    25
100
AcDbVertex
100
AcDb2dVertex
 10
115.5608953851293
 20
-129.4577321898578
 30
0.0
  0
SEQEND
  5
111
330
10D
100
AcDbEntity
  8
_U+30EC_U+30A4_U+30E4_U+30FC 1
  6
AI-Linetype-2
 62
   179
420
  2234388
370
    25
  0
POLYLINE
  5
112
330
1F
100
AcDbEntity
  8
_U+30EC_U+30A4_U+30E4_U+30FC 1
  6
AI-Linetype-3
 62
   179
420
  2234388
370
    25
100
AcDb2dPolyline
 66
     1
 10
0.0
 20
0.0
 30
0.0
  0
VERTEX
  5
113
330
112
100
AcDbEntity
  8
_U+30EC_U+30A4_U+30E4_U+30FC 1
  6
AI-Linetype-3
 62
   179
420
  2234388
370
    25
100
AcDbVertex
100
AcDb2dVertex
 10
118.8613078009287
 20
-134.2574502442133
 30
0.0
  0
VERTEX
  5
114
330
112
100
AcDbEntity
  8
_U+30EC_U+30A4_U+30E4_U+30FC 1
  6
AI-Linetype-3
 62
   179
420
  2234388
370
    25
100
AcDbVertex
100
AcDb2dVertex
 10
135.9155729213937
 20
-134.2574502442133
 30
0.0
  0
SEQEND
  5
116
330
112
100
AcDbEntity
  8
_U+30EC_U+30A4_U+30E4_U+30FC 1
  6
AI-Linetype-3
 62
   179
420
  2234388
370
    25
  0
POLYLINE
  5
117
330
1F
100
AcDbEntity
  8
_U+30EC_U+30A4_U+30E4_U+30FC 1
  6
AI-Linetype-4
 62
   179
420
  2234388
370
    25
100
AcDb2dPolyline
 66
     1
 10
0.0
 20
0.0
 30
0.0
  0
VERTEX
  5
118
330
117
100
AcDbEntity
  8
_U+30EC_U+30A4_U+30E4_U+30FC 1
  6
AI-Linetype-4
 62
   179
420
  2234388
370
    25
100
AcDbVertex
100
AcDb2dVertex
 10
118.8613078009287
 20
-130.3575977451881
 30
0.0
  0
VERTEX
  5
119
330
117
100
AcDbEntity
  8
_U+30EC_U+30A4_U+30E4_U+30FC 1
  6
AI-Linetype-4
 62
   179
420
  2234388
370
    25
100
AcDbVertex
100
AcDb2dVertex
 10
118.8613078009287
 20
-134.2574502442133
 30
0.0
  0
SEQEND
  5
11B
330
117
100
AcDbEntity
  8
_U+30EC_U+30A4_U+30E4_U+30FC 1
  6
AI-Linetype-4
 62
   179
420
  2234388
370
    25
  0
POLYLINE
  5
11C
330
1F
100
AcDbEntity
  8
_U+30EC_U+30A4_U+30E4_U+30FC 1
  6
AI-Linetype-5
 62
   179
420
  2234388
370
    25
100
AcDb2dPolyline
 66
     1
 10
0.0
 20
0.0
 30
0.0
  0
VERTEX
  5
11D
330
11C
100
AcDbEntity
  8
_U+30EC_U+30A4_U+30E4_U+30FC 1
  6
AI-Linetype-5
 62
   179
420
  2234388
370
    25
100
AcDbVertex
100
AcDb2dVertex
 10
118.5612350308065
 20
-134.8575605218412
 30
0.0
  0
VERTEX
  5
11E
330
11C
100
AcDbEntity
  8
_U+30EC_U+30A4_U+30E4_U+30FC 1
  6
AI-Linetype-5
 62
   179
420
  2234388
370
    25
100
AcDbVertex
100
AcDb2dVertex
 10
133.4450702066437
 20
-134.8575605218412
 30
0.0
  0
SEQEND
  5
120
330
11C
100
AcDbEntity
  8
_U+30EC_U+30A4_U+30E4_U+30FC 1
  6
AI-Linetype-5
 62
   179
420
  2234388
370
    25
  0
POLYLINE
  5
121
330
1F
100
AcDbEntity
  8
_U+30EC_U+30A4_U+30E4_U+30FC 1
  6
AI-Linetype-6
 62
   179
420
  2234388
370
    25
100
AcDb2dPolyline
 66
     1
 10
0.0
 20
0.0
 30
0.0
  0
VERTEX
  5
122
330
121
100
AcDbEntity
  8
_U+30EC_U+30A4_U+30E4_U+30FC 1
  6
AI-Linetype-6
 62
   179
420
  2234388
370
    25
100
AcDbVertex
100
AcDb2dVertex
 10
115.5608953851293
 20
-128.8575866344525
 30
0.0
  0
VERTEX
  5
123
330
121
100
AcDbEntity
  8
_U+30EC_U+30A4_U+30E4_U+30FC 1
  6
AI-Linetype-6
 62
   179
420
  2234388
370
    25
100
AcDbVertex
100
AcDb2dVertex
 10
115.5608953851293
 20
-129.4577321898578
 30
0.0
  0
SEQEND
  5
125
330
121
100
AcDbEntity
  8
_U+30EC_U+30A4_U+30E4_U+30FC 1
  6
AI-Linetype-6
 62
   179
420
  2234388
370
    25
  0
SPLINE
  5
126
330
1F
100
AcDbEntity
  8
_U+30EC_U+30A4_U+30E4_U+30FC 1
 62
   179
420
  2234388
370
    25
100
AcDbSpline
210
0.0
220
0.0
230
1.0
 70
     8
 71
     3
 72
     8
 73
     4
 74
     0
 42
0.0000000001
 43
0.0000000001
 12
1.0
 22
0.0
 32
0.0
 13
1.0
 23
0.0
 33
0.0
 40
0.0
 40
0.0
 40
0.0
 40
0.0
 40
1.0
 40
1.0
 40
1.0
 40
1.0
 10
58.26121323585484
 20
-134.557523021916
 30
0.0
 10
58.26121323585484
 20
-134.7232227440967
 30
0.0
 10
58.39540989909786
 20
-134.8575605218412
 30
0.0
 10
58.56111109647084
 20
-134.8575605218412
 30
0.0
  0
SPLINE
  5
127
330
1F
100
AcDbEntity
  8
_U+30EC_U+30A4_U+30E4_U+30FC 1
 62
   179
420
  2234388
370
    25
100
AcDbSpline
210
0.0
220
0.0
230
1.0
 70
     8
 71
     3
 72
     8
 73
     4
 74
     0
 42
0.0000000001
 43
0.0000000001
 12
1.0
 22
0.0
 32
0.0
 13
1.0
 23
0.0
 33
0.0
 40
0.0
 40
0.0
 40
0.0
 40
0.0
 40
1.0
 40
1.0
 40
1.0
 40
1.0
 10
58.86118238721502
 20
-130.3575977451881
 30
0.0
 10
58.86118238721502
 20
-130.1918980230074
 30
0.0
 10
58.72680933508761
 20
-130.0575249674854
 30
0.0
 10
58.56111109647084
 20
-130.0575249674854
 30
0.0
  0
SPLINE
  5
128
330
1F
100
AcDbEntity
  8
_U+30EC_U+30A4_U+30E4_U+30FC 1
 62
   179
420
  2234388
370
    25
100
AcDbSpline
210
0.0
220
0.0
230
1.0
 70
     8
 71
     3
 72
     8
 73
     4
 74
     0
 42
0.0000000001
 43
0.0000000001
 12
1.0
 22
0.0
 32
0.0
 13
1.0
 23
0.0
 33
0.0
 40
0.0
 40
0.0
 40
0.0
 40
0.0
 40
1.0
 40
1.0
 40
1.0
 40
1.0
 10
117.9610894905619
 20
-134.8575605218412
 30
0.0
 10
118.1268244863336
 20
-134.8575605218412
 30
0.0
 10
118.2611622606842
 20
-134.7232227440967
 30
0.0
 10
118.2611622606842
 20
-134.557523021916
 30
0.0
  0
SPLINE
  5
129
330
1F
100
AcDbEntity
  8
_U+30EC_U+30A4_U+30E4_U+30FC 1
 62
   179
420
  2234388
370
    25
100
AcDbSpline
210
0.0
220
0.0
230
1.0
 70
     8
 71
     3
 72
     8
 73
     4
 74
     0
 42
0.0000000001
 43
0.0000000001
 12
1.0
 22
0.0
 32
0.0
 13
1.0
 23
0.0
 33
0.0
 40
0.0
 40
0.0
 40
0.0
 40
0.0
 40
1.0
 40
1.0
 40
1.0
 40
1.0
 10
118.2611622606842
 20
-130.9577433005941
 30
0.0
 10
118.2611622606842
 20
-130.7916555228575
 30
0.0
 10
118.1268244863336
 20
-130.6573177451137
 30
0.0
 10
117.9610894905619
 20
-130.6573177451137
 30
0.0
  0
SPLINE
  5
12A
330
1F
100
AcDbEntity
  8
_U+30EC_U+30A4_U+30E4_U+30FC 1
 62
   179
420
  2234388
370
    25
100
AcDbSpline
210
0.0
220
0.0
230
1.0
 70
     8
 71
     3
 72
    11
 73
     7
 74
     0
 42
0.0000000001
 43
0.0000000001
 12
1.0
 22
0.0
 32
0.0
 13
1.0
 23
0.0
 33
0.0
 40
0.0
 40
0.0
 40
0.0
 40
0.0
 40
1.0
 40
1.0
 40
1.0
 40
2.0
 40
2.0
 40
2.0
 40
2.0
 10
113.1610540574654
 20
-128.8575866344525
 30
0.0
 10
112.6642724034727
 20
-128.8575866344525
 30
0.0
 10
112.2611885248674
 20
-129.2606705232403
 30
0.0
 10
112.2611885248674
 20
-129.7574521897828
 30
0.0
 10
112.2611885248674
 20
-130.2545866341029
 30
0.0
 10
112.6642724034727
 20
-130.6573177451137
 30
0.0
 10
113.1610540574654
 20
-130.6573177451137
 30
0.0
  0
SPLINE
  5
12B
330
1F
100
AcDbEntity
  8
_U+30EC_U+30A4_U+30E4_U+30FC 1
 62
   179
420
  2234388
370
    25
100
AcDbSpline
210
0.0
220
0.0
230
1.0
 70
     8
 71
     3
 72
    11
 73
     7
 74
     0
 42
0.0000000001
 43
0.0000000001
 12
1.0
 22
0.0
 32
0.0
 13
1.0
 23
0.0
 33
0.0
 40
0.0
 40
0.0
 40
0.0
 40
0.0
 40
1.0
 40
1.0
 40
1.0
 40
2.0
 40
2.0
 40
2.0
 40
2.0
 10
113.1610540574654
 20
-128.2576174679357
 30
0.0
 10
112.3328376897061
 20
-128.2576174679357
 30
0.0
 10
111.6610429846228
 20
-128.929271078879
 30
0.0
 10
111.6610429846228
 20
-129.7574521897828
 30
0.0
 10
111.6610429846228
 20
-130.5859860784649
 30
0.0
 10
112.3328376897061
 20
-131.257463300519
 30
0.0
 10
113.1610540574654
 20
-131.257463300519
 30
0.0
  0
SPLINE
  5
12C
330
1F
100
AcDbEntity
  8
_U+30EC_U+30A4_U+30E4_U+30FC 1
 62
   179
420
  2234388
370
     9
100
AcDbSpline
210
0.0
220
0.0
230
1.0
 70
    11
 71
     3
 72
    17
 73
    13
 74
     0
 42
0.0000000001
 43
0.0000000001
 12
1.0
 22
0.0
 32
0.0
 13
1.0
 23
0.0
 33
0.0
 40
0.0
 40
0.0
 40
0.0
 40
0.0
 40
1.0
 40
1.0
 40
1.0
 40
2.0
 40
2.0
 40
2.0
 40
3.0
 40
3.0
 40
3.0
 40
4.0
 40
4.0
 40
4.0
 40
4.0
 10
129.1211436502896
 20
-127.0575380237911
 30
0.0
 10
129.1211436502896
 20
-127.0244474682439
 30
0.0
 10
129.0942619843088
 20
-126.9976010793617
 30
0.0
 10
129.0612067073743
 20
-126.9976010793617
 30
0.0
 10
129.0277666344096
 20
-126.9976010793617
 30
0.0
 10
129.0009169866902
 20
-127.0244474682439
 30
0.0
 10
129.0009169866902
 20
-127.0575380237911
 30
0.0
 10
129.0009169866902
 20
-127.0907696904496
 30
0.0
 10
129.0277666344096
 20
-127.1176513571094
 30
0.0
 10
129.0612067073743
 20
-127.1176513571094
 30
0.0
 10
129.0942619843088
 20
-127.1176513571094
 30
0.0
 10
129.1211436502896
 20
-127.0907696904496
 30
0.0
 10
129.1211436502896
 20
-127.0575380237911
 30
0.0
  0
SPLINE
  5
12D
330
1F
100
AcDbEntity
  8
_U+30EC_U+30A4_U+30E4_U+30FC 1
 62
   179
420
  2234388
370
    25
100
AcDbSpline
210
0.0
220
0.0
230
1.0
 70
    11
 71
     3
 72
    17
 73
    13
 74
     0
 42
0.0000000001
 43
0.0000000001
 12
1.0
 22
0.0
 32
0.0
 13
1.0
 23
0.0
 33
0.0
 40
0.0
 40
0.0
 40
0.0
 40
0.0
 40
1.0
 40
1.0
 40
1.0
 40
2.0
 40
2.0
 40
2.0
 40
3.0
 40
3.0
 40
3.0
 40
4.0
 40
4.0
 40
4.0
 40
4.0
 10
129.1211436502896
 20
-134.8575605218412
 30
0.0
 10
129.1211436502896
 20
-134.8245052440719
 30
0.0
 10
129.0942619843088
 20
-134.7976235774115
 30
0.0
 10
129.0612067073743
 20
-134.7976235774115
 30
0.0
 10
129.0277666344096
 20
-134.7976235774115
 30
0.0
 10
129.0009169866902
 20
-134.8245052440719
 30
0.0
 10
129.0009169866902
 20
-134.8575605218412
 30
0.0
 10
129.0009169866902
 20
-134.8906510773887
 30
0.0
 10
129.0277666344096
 20
-134.9175327440484
 30
0.0
 10
129.0612067073743
 20
-134.9175327440484
 30
0.0
 10
129.0942619843088
 20
-134.9175327440484
 30
0.0
 10
129.1211436502896
 20
-134.8906510773887
 30
0.0
 10
129.1211436502896
 20
-134.8575605218412
 30
0.0
  0
SPLINE
  5
12E
330
1F
100
AcDbEntity
  8
_U+30EC_U+30A4_U+30E4_U+30FC 1
 62
   179
420
  2234388
370
     9
100
AcDbSpline
210
0.0
220
0.0
230
1.0
 70
    11
 71
     3
 72
    17
 73
    13
 74
     0
 42
0.0000000001
 43
0.0000000001
 12
1.0
 22
0.0
 32
0.0
 13
1.0
 23
0.0
 33
0.0
 40
0.0
 40
0.0
 40
0.0
 40
0.0
 40
1.0
 40
1.0
 40
1.0
 40
2.0
 40
2.0
 40
2.0
 40
3.0
 40
3.0
 40
3.0
 40
4.0
 40
4.0
 40
4.0
 40
4.0
 10
126.7209527460978
 20
-124.6575202466135
 30
0.0
 10
126.7209527460978
 20
-124.6244296910661
 30
0.0
 10
126.6940678788762
 20
-124.5975480244063
 30
0.0
 10
126.6610126019417
 20
-124.5975480244063
 30
0.0
 10
126.6279220472303
 20
-124.5975480244063
 30
0.0
 10
126.6010403812495
 20
-124.6244296910661
 30
0.0
 10
126.6010403812495
 20
-124.6575202466135
 30
0.0
 10
126.6010403812495
 20
-124.6905755243829
 30
0.0
 10
126.6279220472303
 20
-124.717457191043
 30
0.0
 10
126.6610126019417
 20
-124.717457191043
 30
0.0
 10
126.6940678788762
 20
-124.717457191043
 30
0.0
 10
126.7209527460978
 20
-124.6905755243829
 30
0.0
 10
126.7209527460978
 20
-124.6575202466135
 30
0.0
  0
SPLINE
  5
12F
330
1F
100
AcDbEntity
  8
_U+30EC_U+30A4_U+30E4_U+30FC 1
 62
   179
420
  2234388
370
     9
100
AcDbSpline
210
0.0
220
0.0
230
1.0
 70
    11
 71
     3
 72
    17
 73
    13
 74
     0
 42
0.0000000001
 43
0.0000000001
 12
1.0
 22
0.0
 32
0.0
 13
1.0
 23
0.0
 33
0.0
 40
0.0
 40
0.0
 40
0.0
 40
0.0
 40
1.0
 40
1.0
 40
1.0
 40
2.0
 40
2.0
 40
2.0
 40
3.0
 40
3.0
 40
3.0
 40
4.0
 40
4.0
 40
4.0
 40
4.0
 10
126.7209527460978
 20
-122.2574671916578
 30
0.0
 10
126.7209527460978
 20
-122.2244119138885
 30
0.0
 10
126.6940678788762
 20
-122.1975302472284
 30
0.0
 10
126.6610126019417
 20
-122.1975302472284
 30
0.0
 10
126.6279220472303
 20
-122.1975302472284
 30
0.0
 10
126.6010403812495
 20
-122.2244119138885
 30
0.0
 10
126.6010403812495
 20
-122.2574671916578
 30
0.0
 10
126.6010403812495
 20
-122.2907341360939
 30
0.0
 10
126.6279220472303
 20
-122.317615802754
 30
0.0
 10
126.6610126019417
 20
-122.317615802754
 30
0.0
 10
126.6940678788762
 20
-122.317615802754
 30
0.0
 10
126.7209527460978
 20
-122.2907341360939
 30
0.0
 10
126.7209527460978
 20
-122.2574671916578
 30
0.0
  0
SPLINE
  5
130
330
1F
100
AcDbEntity
  8
_U+30EC_U+30A4_U+30E4_U+30FC 1
 62
   179
420
  2234388
370
     9
100
AcDbSpline
210
0.0
220
0.0
230
1.0
 70
    11
 71
     3
 72
    17
 73
    13
 74
     0
 42
0.0000000001
 43
0.0000000001
 12
1.0
 22
0.0
 32
0.0
 13
1.0
 23
0.0
 33
0.0
 40
0.0
 40
0.0
 40
0.0
 40
0.0
 40
1.0
 40
1.0
 40
1.0
 40
2.0
 40
2.0
 40
2.0
 40
3.0
 40
3.0
 40
3.0
 40
4.0
 40
4.0
 40
4.0
 40
4.0
 10
118.3210992035995
 20
-124.6575202466135
 30
0.0
 10
118.3210992035995
 20
-124.6244296910661
 30
0.0
 10
118.2942528153955
 20
-124.5975480244063
 30
0.0
 10
118.2611622606842
 20
-124.5975480244063
 30
0.0
 10
118.2281069837497
 20
-124.5975480244063
 30
0.0
 10
118.2012253177688
 20
-124.6244296910661
 30
0.0
 10
118.2012253177688
 20
-124.6575202466135
 30
0.0
 10
118.2012253177688
 20
-124.6905755243829
 30
0.0
 10
118.2281069837497
 20
-124.717457191043
 30
0.0
 10
118.2611622606842
 20
-124.717457191043
 30
0.0
 10
118.2942528153955
 20
-124.717457191043
 30
0.0
 10
118.3210992035995
 20
-124.6905755243829
 30
0.0
 10
118.3210992035995
 20
-124.6575202466135
 30
0.0
  0
SPLINE
  5
131
330
1F
100
AcDbEntity
  8
_U+30EC_U+30A4_U+30E4_U+30FC 1
 62
   179
420
  2234388
370
     9
100
AcDbSpline
210
0.0
220
0.0
230
1.0
 70
    11
 71
     3
 72
    17
 73
    13
 74
     0
 42
0.0000000001
 43
0.0000000001
 12
1.0
 22
0.0
 32
0.0
 13
1.0
 23
0.0
 33
0.0
 40
0.0
 40
0.0
 40
0.0
 40
0.0
 40
1.0
 40
1.0
 40
1.0
 40
2.0
 40
2.0
 40
2.0
 40
3.0
 40
3.0
 40
3.0
 40
4.0
 40
4.0
 40
4.0
 40
4.0
 10
112.3211254677827
 20
-124.6575202466135
 30
0.0
 10
112.3211254677827
 20
-124.6244296910661
 30
0.0
 10
112.2942790795787
 20
-124.5975480244063
 30
0.0
 10
112.2611885248674
 20
-124.5975480244063
 30
0.0
 10
112.2281360830542
 20
-124.5975480244063
 30
0.0
 10
112.201251581952
 20
-124.6244296910661
 30
0.0
 10
112.201251581952
 20
-124.6575202466135
 30
0.0
 10
112.201251581952
 20
-124.6905755243829
 30
0.0
 10
112.2281360830542
 20
-124.717457191043
 30
0.0
 10
112.2611885248674
 20
-124.717457191043
 30
0.0
 10
112.2942790795787
 20
-124.717457191043
 30
0.0
 10
112.3211254677827
 20
-124.6905755243829
 30
0.0
 10
112.3211254677827
 20
-124.6575202466135
 30
0.0
  0
SPLINE
  5
132
330
1F
100
AcDbEntity
  8
_U+30EC_U+30A4_U+30E4_U+30FC 1
 62
   179
420
  2234388
370
     9
100
AcDbSpline
210
0.0
220
0.0
230
1.0
 70
    11
 71
     3
 72
    17
 73
    13
 74
     0
 42
0.0000000001
 43
0.0000000001
 12
1.0
 22
0.0
 32
0.0
 13
1.0
 23
0.0
 33
0.0
 40
0.0
 40
0.0
 40
0.0
 40
0.0
 40
1.0
 40
1.0
 40
1.0
 40
2.0
 40
2.0
 40
2.0
 40
3.0
 40
3.0
 40
3.0
 40
4.0
 40
4.0
 40
4.0
 40
4.0
 10
112.3211254677827
 20
-122.2574671916578
 30
0.0
 10
112.3211254677827
 20
-122.2244119138885
 30
0.0
 10
112.2942790795787
 20
-122.1975302472284
 30
0.0
 10
112.2611885248674
 20
-122.1975302472284
 30
0.0
 10
112.2281360830542
 20
-122.1975302472284
 30
0.0
 10
112.201251581952
 20
-122.2244119138885
 30
0.0
 10
112.201251581952
 20
-122.2574671916578
 30
0.0
 10
112.201251581952
 20
-122.2907341360939
 30
0.0
 10
112.2281360830542
 20
-122.317615802754
 30
0.0
 10
112.2611885248674
 20
-122.317615802754
 30
0.0
 10
112.2942790795787
 20
-122.317615802754
 30
0.0
 10
112.3211254677827
 20
-122.2907341360939
 30
0.0
 10
112.3211254677827
 20
-122.2574671916578
 30
0.0
  0
SPLINE
  5
133
330
1F
100
AcDbEntity
  8
_U+30EC_U+30A4_U+30E4_U+30FC 1
 62
   179
420
  2234388
370
     9
100
AcDbSpline
210
0.0
220
0.0
230
1.0
 70
    11
 71
     3
 72
    17
 73
    13
 74
     0
 42
0.0000000001
 43
0.0000000001
 12
1.0
 22
0.0
 32
0.0
 13
1.0
 23
0.0
 33
0.0
 40
0.0
 40
0.0
 40
0.0
 40
0.0
 40
1.0
 40
1.0
 40
1.0
 40
2.0
 40
2.0
 40
2.0
 40
3.0
 40
3.0
 40
3.0
 40
4.0
 40
4.0
 40
4.0
 40
4.0
 10
118.3210992035995
 20
-137.2574371879077
 30
0.0
 10
118.3210992035995
 20
-137.2243466323609
 30
0.0
 10
118.2942528153955
 20
-137.1975002434786
 30
0.0
 10
118.2611622606842
 20
-137.1975002434786
 30
0.0
 10
118.2281069837497
 20
-137.1975002434786
 30
0.0
 10
118.2012253177688
 20
-137.2243466323609
 30
0.0
 10
118.2012253177688
 20
-137.2574371879077
 30
0.0
 10
118.2012253177688
 20
-137.2904924656777
 30
0.0
 10
118.2281069837497
 20
-137.3173741323374
 30
0.0
 10
118.2611622606842
 20
-137.3173741323374
 30
0.0
 10
118.2942528153955
 20
-137.3173741323374
 30
0.0
 10
118.3210992035995
 20
-137.2904924656777
 30
0.0
 10
118.3210992035995
 20
-137.2574371879077
 30
0.0
  0
SPLINE
  5
134
330
1F
100
AcDbEntity
  8
_U+30EC_U+30A4_U+30E4_U+30FC 1
 62
   179
420
  2234388
370
     9
100
AcDbSpline
210
0.0
220
0.0
230
1.0
 70
    11
 71
     3
 72
    17
 73
    13
 74
     0
 42
0.0000000001
 43
0.0000000001
 12
1.0
 22
0.0
 32
0.0
 13
1.0
 23
0.0
 33
0.0
 40
0.0
 40
0.0
 40
0.0
 40
0.0
 40
1.0
 40
1.0
 40
1.0
 40
2.0
 40
2.0
 40
2.0
 40
3.0
 40
3.0
 40
3.0
 40
4.0
 40
4.0
 40
4.0
 40
4.0
 10
58.32115017877017
 20
-137.2574371879077
 30
0.0
 10
58.32115017877017
 20
-137.2243466323609
 30
0.0
 10
58.29430379056619
 20
-137.1975002434786
 30
0.0
 10
58.26121323585484
 20
-137.1975002434786
 30
0.0
 10
58.22798157003599
 20
-137.1975002434786
 30
0.0
 10
58.20109990405513
 20
-137.2243466323609
 30
0.0
 10
58.20109990405513
 20
-137.2574371879077
 30
0.0
 10
58.20109990405513
 20
-137.2904924656777
 30
0.0
 10
58.22798157003599
 20
-137.3173741323374
 30
0.0
 10
58.26121323585484
 20
-137.3173741323374
 30
0.0
 10
58.29430379056619
 20
-137.3173741323374
 30
0.0
 10
58.32115017877017
 20
-137.2904924656777
 30
0.0
 10
58.32115017877017
 20
-137.2574371879077
 30
0.0
  0
SPLINE
  5
135
330
1F
100
AcDbEntity
  8
_U+30EC_U+30A4_U+30E4_U+30FC 1
 62
   179
420
  2234388
370
    25
100
AcDbSpline
210
0.0
220
0.0
230
1.0
 70
     8
 71
     3
 72
    11
 73
     7
 74
     0
 42
0.0000000001
 43
0.0000000001
 12
1.0
 22
0.0
 32
0.0
 13
1.0
 23
0.0
 33
0.0
 40
0.0
 40
0.0
 40
0.0
 40
0.0
 40
1.0
 40
1.0
 40
1.0
 40
2.0
 40
2.0
 40
2.0
 40
2.0
 10
53.76107418399629
 20
-128.8575866344525
 30
0.0
 10
53.26411614111919
 20
-128.8575866344525
 30
0.0
 10
52.86103226251382
 20
-129.2606705232403
 30
0.0
 10
52.86103226251382
 20
-129.7574521897828
 30
0.0
 10
52.86103226251382
 20
-130.2545866341029
 30
0.0
 10
53.26411614111919
 20
-130.6573177451137
 30
0.0
 10
53.76107418399629
 20
-130.6573177451137
 30
0.0
  0
SPLINE
  5
136
330
1F
100
AcDbEntity
  8
_U+30EC_U+30A4_U+30E4_U+30FC 1
 62
   179
420
  2234388
370
    25
100
AcDbSpline
210
0.0
220
0.0
230
1.0
 70
     8
 71
     3
 72
    11
 73
     7
 74
     0
 42
0.0000000001
 43
0.0000000001
 12
1.0
 22
0.0
 32
0.0
 13
1.0
 23
0.0
 33
0.0
 40
0.0
 40
0.0
 40
0.0
 40
0.0
 40
1.0
 40
1.0
 40
1.0
 40
2.0
 40
2.0
 40
2.0
 40
2.0
 10
53.76107418399629
 20
-129.4577321898578
 30
0.0
 10
53.59533918822454
 20
-129.4577321898578
 30
0.0
 10
53.46117780275839
 20
-129.5921052453799
 30
0.0
 10
53.46117780275839
 20
-129.7574521897828
 30
0.0
 10
53.46117780275839
 20
-129.9231519119634
 30
0.0
 10
53.59533918822454
 20
-130.0575249674854
 30
0.0
 10
53.76107418399629
 20
-130.0575249674854
 30
0.0
  0
SPLINE
  5
137
330
1F
100
AcDbEntity
  8
_U+30EC_U+30A4_U+30E4_U+30FC 1
  6
AI-Linetype-7
 62
   179
420
  2234388
370
    25
100
AcDbSpline
210
0.0
220
0.0
230
1.0
 70
     8
 71
     3
 72
     8
 73
     4
 74
     0
 42
0.0000000001
 43
0.0000000001
 12
1.0
 22
0.0
 32
0.0
 13
1.0
 23
0.0
 33
0.0
 40
0.0
 40
0.0
 40
0.0
 40
0.0
 40
1.0
 40
1.0
 40
1.0
 40
1.0
 10
118.8613078009287
 20
-130.3575977451881
 30
0.0
 10
118.8613078009287
 20
-130.1918980230074
 30
0.0
 10
118.7269347488013
 20
-130.0575249674854
 30
0.0
 10
118.5612350308065
 20
-130.0575249674854
 30
0.0
  0
SPLINE
  5
139
330
1F
100
AcDbEntity
  8
_U+30EC_U+30A4_U+30E4_U+30FC 1
  6
AI-Linetype-8
 62
   179
420
  2234388
370
    25
100
AcDbSpline
210
0.0
220
0.0
230
1.0
 70
     8
 71
     3
 72
     8
 73
     4
 74
     0
 42
0.0000000001
 43
0.0000000001
 12
1.0
 22
0.0
 32
0.0
 13
1.0
 23
0.0
 33
0.0
 40
0.0
 40
0.0
 40
0.0
 40
0.0
 40
1.0
 40
1.0
 40
1.0
 40
1.0
 10
118.2611622606842
 20
-134.557523021916
 30
0.0
 10
118.2611622606842
 20
-134.7232227440967
 30
0.0
 10
118.3955353128116
 20
-134.8575605218412
 30
0.0
 10
118.5612350308065
 20
-134.8575605218412
 30
0.0
  0
SPLINE
  5
13B
330
1F
100
AcDbEntity
  8
_U+30EC_U+30A4_U+30E4_U+30FC 1
  6
AI-Linetype-9
 62
   179
420
  2234388
370
    25
100
AcDbSpline
210
0.0
220
0.0
230
1.0
 70
     8
 71
     3
 72
    11
 73
     7
 74
     0
 42
0.0000000001
 43
0.0000000001
 12
1.0
 22
0.0
 32
0.0
 13
1.0
 23
0.0
 33
0.0
 40
0.0
 40
0.0
 40
0.0
 40
0.0
 40
1.0
 40
1.0
 40
1.0
 40
2.0
 40
2.0
 40
2.0
 40
2.0
 10
113.76119959771
 20
-129.4577321898578
 30
0.0
 10
113.5954646019383
 20
-129.4577321898578
 30
0.0
 10
113.4611268275877
 20
-129.5921052453799
 30
0.0
 10
113.4611268275877
 20
-129.7574521897828
 30
0.0
 10
113.4611268275877
 20
-129.9231519119634
 30
0.0
 10
113.5954646019383
 20
-130.0575249674854
 30
0.0
 10
113.76119959771
 20
-130.0575249674854
 30
0.0
  0
SPLINE
  5
13D
330
1F
100
AcDbEntity
  8
_U+30EC_U+30A4_U+30E4_U+30FC 1
  6
AI-Linetype-10
 62
   179
420
  2234388
370
    25
100
AcDbSpline
210
0.0
220
0.0
230
1.0
 70
     8
 71
     3
 72
    11
 73
     7
 74
     0
 42
0.0000000001
 43
0.0000000001
 12
1.0
 22
0.0
 32
0.0
 13
1.0
 23
0.0
 33
0.0
 40
0.0
 40
0.0
 40
0.0
 40
0.0
 40
1.0
 40
1.0
 40
1.0
 40
2.0
 40
2.0
 40
2.0
 40
2.0
 10
113.76119959771
 20
-128.8575866344525
 30
0.0
 10
113.2640651659485
 20
-128.8575866344525
 30
0.0
 10
112.8609812873432
 20
-129.2606705232403
 30
0.0
 10
112.8609812873432
 20
-129.7574521897828
 30
0.0
 10
112.8609812873432
 20
-130.2545866341029
 30
0.0
 10
113.2640651659485
 20
-130.6573177451137
 30
0.0
 10
113.76119959771
 20
-130.6573177451137
 30
0.0
  0
SPLINE
  5
13F
330
1F
100
AcDbEntity
  8
_U+30EC_U+30A4_U+30E4_U+30FC 1
 62
   179
420
  2234388
370
     9
100
AcDbSpline
210
0.0
220
0.0
230
1.0
 70
    11
 71
     3
 72
    17
 73
    13
 74
     0
 42
0.0000000001
 43
0.0000000001
 12
1.0
 22
0.0
 32
0.0
 13
1.0
 23
0.0
 33
0.0
 40
0.0
 40
0.0
 40
0.0
 40
0.0
 40
1.0
 40
1.0
 40
1.0
 40
2.0
 40
2.0
 40
2.0
 40
3.0
 40
3.0
 40
3.0
 40
4.0
 40
4.0
 40
4.0
 40
4.0
 10
50.52112787776532
 20
-130.6318119117868
 30
0.0
 10
50.52112787776532
 20
-130.5987566340168
 30
0.0
 10
50.49424621178446
 20
-130.571874967357
 30
0.0
 10
50.46119093484999
 20
-130.571874967357
 30
0.0
 10
50.42792399125425
 20
-130.571874967357
 30
0.0
 10
50.40104232527339
 20
-130.5987566340168
 30
0.0
 10
50.40104232527339
 20
-130.6318119117868
 30
0.0
 10
50.40104232527339
 20
-130.6649024673336
 30
0.0
 10
50.42792399125425
 20
-130.6917488562159
 30
0.0
 10
50.46119093484999
 20
-130.6917488562159
 30
0.0
 10
50.49424621178446
 20
-130.6917488562159
 30
0.0
 10
50.52112787776532
 20
-130.6649024673336
 30
0.0
 10
50.52112787776532
 20
-130.6318119117868
 30
0.0
  0
SPLINE
  5
140
330
1F
100
AcDbEntity
  8
_U+30EC_U+30A4_U+30E4_U+30FC 1
 62
   179
420
  2234388
370
     9
100
AcDbSpline
210
0.0
220
0.0
230
1.0
 70
    11
 71
     3
 72
    17
 73
    13
 74
     0
 42
0.0000000001
 43
0.0000000001
 12
1.0
 22
0.0
 32
0.0
 13
1.0
 23
0.0
 33
0.0
 40
0.0
 40
0.0
 40
0.0
 40
0.0
 40
1.0
 40
1.0
 40
1.0
 40
2.0
 40
2.0
 40
2.0
 40
3.0
 40
3.0
 40
3.0
 40
4.0
 40
4.0
 40
4.0
 40
4.0
 10
50.52112787776532
 20
-134.8575605218412
 30
0.0
 10
50.52112787776532
 20
-134.8245052440719
 30
0.0
 10
50.49424621178446
 20
-134.7976235774115
 30
0.0
 10
50.46119093484999
 20
-134.7976235774115
 30
0.0
 10
50.42792399125425
 20
-134.7976235774115
 30
0.0
 10
50.40104232527339
 20
-134.8245052440719
 30
0.0
 10
50.40104232527339
 20
-134.8575605218412
 30
0.0
 10
50.40104232527339
 20
-134.8906510773887
 30
0.0
 10
50.42792399125425
 20
-134.9175327440484
 30
0.0
 10
50.46119093484999
 20
-134.9175327440484
 30
0.0
 10
50.49424621178446
 20
-134.9175327440484
 30
0.0
 10
50.52112787776532
 20
-134.8906510773887
 30
0.0
 10
50.52112787776532
 20
-134.8575605218412
 30
0.0
  0
SPLINE
  5
141
330
1F
100
AcDbEntity
  8
_U+30EC_U+30A4_U+30E4_U+30FC 1
 62
   179
420
  2234388
370
     9
100
AcDbSpline
210
0.0
220
0.0
230
1.0
 70
    11
 71
     3
 72
    17
 73
    13
 74
     0
 42
0.0000000001
 43
0.0000000001
 12
1.0
 22
0.0
 32
0.0
 13
1.0
 23
0.0
 33
0.0
 40
0.0
 40
0.0
 40
0.0
 40
0.0
 40
1.0
 40
1.0
 40
1.0
 40
2.0
 40
2.0
 40
2.0
 40
3.0
 40
3.0
 40
3.0
 40
4.0
 40
4.0
 40
4.0
 40
4.0
 10
52.92114559431354
 20
-137.2574371879077
 30
0.0
 10
52.92114559431354
 20
-137.2243466323609
 30
0.0
 10
52.89426392833268
 20
-137.1975002434786
 30
0.0
 10
52.86103226251382
 20
-137.1975002434786
 30
0.0
 10
52.82794170780248
 20
-137.1975002434786
 30
0.0
 10
52.8010953195985
 20
-137.2243466323609
 30
0.0
 10
52.8010953195985
 20
-137.2574371879077
 30
0.0
 10
52.8010953195985
 20
-137.2904924656777
 30
0.0
 10
52.82794170780248
 20
-137.3173741323374
 30
0.0
 10
52.86103226251382
 20
-137.3173741323374
 30
0.0
 10
52.89426392833268
 20
-137.3173741323374
 30
0.0
 10
52.92114559431354
 20
-137.2904924656777
 30
0.0
 10
52.92114559431354
 20
-137.2574371879077
 30
0.0
  0
POLYLINE
  5
142
330
1F
100
AcDbEntity
  8
_U+30EC_U+30A4_U+30E4_U+30FC 1
 62
   179
420
  2234388
370
     9
100
AcDb2dPolyline
 66
     1
 10
0.0
 20
0.0
 30
0.0
  0
VERTEX
  5
143
330
142
100
AcDbEntity
  8
_U+30EC_U+30A4_U+30E4_U+30FC 1
 62
   179
420
  2234388
370
     9
100
AcDbVertex
100
AcDb2dVertex
 10
118.2611622606842
 20
-137.2574371879077
 30
0.0
  0
VERTEX
  5
144
330
142
100
AcDbEntity
  8
_U+30EC_U+30A4_U+30E4_U+30FC 1
 62
   179
420
  2234388
370
     9
100
AcDbVertex
100
AcDb2dVertex
 10
58.26121323585484
 20
-137.2574371879077
 30
0.0
  0
SEQEND
  5
145
330
142
100
AcDbEntity
  8
_U+30EC_U+30A4_U+30E4_U+30FC 1
 62
   179
420
  2234388
370
     9
  0
POLYLINE
  5
146
330
1F
100
AcDbEntity
  8
_U+30EC_U+30A4_U+30E4_U+30FC 1
 62
   179
420
  2234388
370
     9
100
AcDb2dPolyline
 66
     1
 10
0.0
 20
0.0
 30
0.0
  0
VERTEX
  5
147
330
146
100
AcDbEntity
  8
_U+30EC_U+30A4_U+30E4_U+30FC 1
 62
   179
420
  2234388
370
     9
100
AcDbVertex
100
AcDb2dVertex
 10
118.2611622606842
 20
-136.081276077091
 30
0.0
  0
VERTEX
  5
148
330
146
100
AcDbEntity
  8
_U+30EC_U+30A4_U+30E4_U+30FC 1
 62
   179
420
  2234388
370
     9
100
AcDbVertex
100
AcDb2dVertex
 10
118.2611622606842
 20
-137.8575474655355
 30
0.0
  0
SEQEND
  5
149
330
146
100
AcDbEntity
  8
_U+30EC_U+30A4_U+30E4_U+30FC 1
 62
   179
420
  2234388
370
     9
  0
POLYLINE
  5
14A
330
1F
100
AcDbEntity
  8
_U+30EC_U+30A4_U+30E4_U+30FC 1
 62
   179
420
  2234388
370
     9
100
AcDb2dPolyline
 66
     1
 10
0.0
 20
0.0
 30
0.0
  0
VERTEX
  5
14B
330
14A
100
AcDbEntity
  8
_U+30EC_U+30A4_U+30E4_U+30FC 1
 62
   179
420
  2234388
370
     9
100
AcDbVertex
100
AcDb2dVertex
 10
58.26121323585484
 20
-136.081276077091
 30
0.0
  0
VERTEX
  5
14C
330
14A
100
AcDbEntity
  8
_U+30EC_U+30A4_U+30E4_U+30FC 1
 62
   179
420
  2234388
370
     9
100
AcDbVertex
100
AcDb2dVertex
 10
58.26121323585484
 20
-137.8575474655355
 30
0.0
  0
SEQEND
  5
14D
330
14A
100
AcDbEntity
  8
_U+30EC_U+30A4_U+30E4_U+30FC 1
 62
   179
420
  2234388
370
     9
  0
INSERT
  5
14F
330
1F
100
AcDbEntity
  8
_U+30EC_U+30A4_U+30E4_U+30FC 1
100
AcDbBlockReference
  2
block 3
 10
0.0
 20
0.0
 30
0.0
  0
POLYLINE
  5
176
330
1F
100
AcDbEntity
  8
_U+30EC_U+30A4_U+30E4_U+30FC 1
 62
   179
420
  2234388
370
     9
100
AcDb2dPolyline
 66
     1
 10
0.0
 20
0.0
 30
0.0
  0
VERTEX
  5
177
330
176
100
AcDbEntity
  8
_U+30EC_U+30A4_U+30E4_U+30FC 1
 62
   179
420
  2234388
370
     9
100
AcDbVertex
100
AcDb2dVertex
 10
126.6610126019417
 20
-124.6575202466135
 30
0.0
  0
VERTEX
  5
178
330
176
100
AcDbEntity
  8
_U+30EC_U+30A4_U+30E4_U+30FC 1
 62
   179
420
  2234388
370
     9
100
AcDbVertex
100
AcDb2dVertex
 10
118.2611622606842
 20
-124.6575202466135
 30
0.0
  0
SEQEND
  5
179
330
176
100
AcDbEntity
  8
_U+30EC_U+30A4_U+30E4_U+30FC 1
 62
   179
420
  2234388
370
     9
  0
POLYLINE
  5
17A
330
1F
100
AcDbEntity
  8
_U+30EC_U+30A4_U+30E4_U+30FC 1
 62
   179
420
  2234388
370
     9
100
AcDb2dPolyline
 66
     1
 10
0.0
 20
0.0
 30
0.0
  0
VERTEX
  5
17B
330
17A
100
AcDbEntity
  8
_U+30EC_U+30A4_U+30E4_U+30FC 1
 62
   179
420
  2234388
370
     9
100
AcDbVertex
100
AcDb2dVertex
 10
126.6610126019417
 20
-125.5336085797279
 30
0.0
  0
VERTEX
  5
17C
330
17A
100
AcDbEntity
  8
_U+30EC_U+30A4_U+30E4_U+30FC 1
 62
   179
420
  2234388
370
     9
100
AcDbVertex
100
AcDb2dVertex
 10
126.6610126019417
 20
-124.0575510800967
 30
0.0
  0
SEQEND
  5
17D
330
17A
100
AcDbEntity
  8
_U+30EC_U+30A4_U+30E4_U+30FC 1
 62
   179
420
  2234388
370
     9
  0
POLYLINE
  5
17E
330
1F
100
AcDbEntity
  8
_U+30EC_U+30A4_U+30E4_U+30FC 1
 62
   179
420
  2234388
370
     9
100
AcDb2dPolyline
 66
     1
 10
0.0
 20
0.0
 30
0.0
  0
VERTEX
  5
17F
330
17E
100
AcDbEntity
  8
_U+30EC_U+30A4_U+30E4_U+30FC 1
 62
   179
420
  2234388
370
     9
100
AcDbVertex
100
AcDb2dVertex
 10
118.2611622606842
 20
-126.7335116349833
 30
0.0
  0
VERTEX
  5
180
330
17E
100
AcDbEntity
  8
_U+30EC_U+30A4_U+30E4_U+30FC 1
 62
   179
420
  2234388
370
     9
100
AcDbVertex
100
AcDb2dVertex
 10
118.2611622606842
 20
-124.0575510800967
 30
0.0
  0
SEQEND
  5
181
330
17E
100
AcDbEntity
  8
_U+30EC_U+30A4_U+30E4_U+30FC 1
 62
   179
420
  2234388
370
     9
  0
INSERT
  5
183
330
1F
100
AcDbEntity
  8
_U+30EC_U+30A4_U+30E4_U+30FC 1
100
AcDbBlockReference
  2
block 4
 10
0.0
 20
0.0
 30
0.0
  0
POLYLINE
  5
19D
330
1F
100
AcDbEntity
  8
_U+30EC_U+30A4_U+30E4_U+30FC 1
 62
   179
420
  2234388
370
     9
100
AcDb2dPolyline
 66
     1
 10
0.0
 20
0.0
 30
0.0
  0
VERTEX
  5
19E
330
19D
100
AcDbEntity
  8
_U+30EC_U+30A4_U+30E4_U+30FC 1
 62
   179
420
  2234388
370
     9
100
AcDbVertex
100
AcDb2dVertex
 10
118.2611622606842
 20
-124.6575202466135
 30
0.0
  0
VERTEX
  5
19F
330
19D
100
AcDbEntity
  8
_U+30EC_U+30A4_U+30E4_U+30FC 1
 62
   179
420
  2234388
370
     9
100
AcDbVertex
100
AcDb2dVertex
 10
112.2611885248674
 20
-124.6575202466135
 30
0.0
  0
SEQEND
  5
1A0
330
19D
100
AcDbEntity
  8
_U+30EC_U+30A4_U+30E4_U+30FC 1
 62
   179
420
  2234388
370
     9
  0
POLYLINE
  5
1A1
330
1F
100
AcDbEntity
  8
_U+30EC_U+30A4_U+30E4_U+30FC 1
 62
   179
420
  2234388
370
     9
100
AcDb2dPolyline
 66
     1
 10
0.0
 20
0.0
 30
0.0
  0
VERTEX
  5
1A2
330
1A1
100
AcDbEntity
  8
_U+30EC_U+30A4_U+30E4_U+30FC 1
 62
   179
420
  2234388
370
     9
100
AcDbVertex
100
AcDb2dVertex
 10
112.2611885248674
 20
-128.2335227457195
 30
0.0
  0
VERTEX
  5
1A3
330
1A1
100
AcDbEntity
  8
_U+30EC_U+30A4_U+30E4_U+30FC 1
 62
   179
420
  2234388
370
     9
100
AcDbVertex
100
AcDb2dVertex
 10
112.2611885248674
 20
-124.0575510800967
 30
0.0
  0
SEQEND
  5
1A4
330
1A1
100
AcDbEntity
  8
_U+30EC_U+30A4_U+30E4_U+30FC 1
 62
   179
420
  2234388
370
     9
  0
INSERT
  5
1A6
330
1F
100
AcDbEntity
  8
_U+30EC_U+30A4_U+30E4_U+30FC 1
100
AcDbBlockReference
  2
block 5
 10
0.0
 20
0.0
 30
0.0
  0
POLYLINE
  5
1AD
330
1F
100
AcDbEntity
  8
_U+30EC_U+30A4_U+30E4_U+30FC 1
 62
   179
420
  2234388
370
     9
100
AcDb2dPolyline
 66
     1
 10
0.0
 20
0.0
 30
0.0
  0
VERTEX
  5
1AE
330
1AD
100
AcDbEntity
  8
_U+30EC_U+30A4_U+30E4_U+30FC 1
 62
   179
420
  2234388
370
     9
100
AcDbVertex
100
AcDb2dVertex
 10
126.6610126019417
 20
-122.2574671916578
 30
0.0
  0
VERTEX
  5
1AF
330
1AD
100
AcDbEntity
  8
_U+30EC_U+30A4_U+30E4_U+30FC 1
 62
   179
420
  2234388
370
     9
100
AcDbVertex
100
AcDb2dVertex
 10
112.2611885248674
 20
-122.2574671916578
 30
0.0
  0
SEQEND
  5
1B0
330
1AD
100
AcDbEntity
  8
_U+30EC_U+30A4_U+30E4_U+30FC 1
 62
   179
420
  2234388
370
     9
  0
POLYLINE
  5
1B1
330
1F
100
AcDbEntity
  8
_U+30EC_U+30A4_U+30E4_U+30FC 1
 62
   179
420
  2234388
370
     9
100
AcDb2dPolyline
 66
     1
 10
0.0
 20
0.0
 30
0.0
  0
VERTEX
  5
1B2
330
1B1
100
AcDbEntity
  8
_U+30EC_U+30A4_U+30E4_U+30FC 1
 62
   179
420
  2234388
370
     9
100
AcDbVertex
100
AcDb2dVertex
 10
126.6610126019417
 20
-125.5336085797279
 30
0.0
  0
VERTEX
  5
1B3
330
1B1
100
AcDbEntity
  8
_U+30EC_U+30A4_U+30E4_U+30FC 1
 62
   179
420
  2234388
370
     9
100
AcDbVertex
100
AcDb2dVertex
 10
126.6610126019417
 20
-121.6575333029189
 30
0.0
  0
SEQEND
  5
1B4
330
1B1
100
AcDbEntity
  8
_U+30EC_U+30A4_U+30E4_U+30FC 1
 62
   179
420
  2234388
370
     9
  0
POLYLINE
  5
1B5
330
1F
100
AcDbEntity
  8
_U+30EC_U+30A4_U+30E4_U+30FC 1
 62
   179
420
  2234388
370
     9
100
AcDb2dPolyline
 66
     1
 10
0.0
 20
0.0
 30
0.0
  0
VERTEX
  5
1B6
330
1B5
100
AcDbEntity
  8
_U+30EC_U+30A4_U+30E4_U+30FC 1
 62
   179
420
  2234388
370
     9
100
AcDbVertex
100
AcDb2dVertex
 10
112.2611885248674
 20
-128.2335227457195
 30
0.0
  0
VERTEX
  5
1B7
330
1B5
100
AcDbEntity
  8
_U+30EC_U+30A4_U+30E4_U+30FC 1
 62
   179
420
  2234388
370
     9
100
AcDbVertex
100
AcDb2dVertex
 10
112.2611885248674
 20
-121.6575333029189
 30
0.0
  0
SEQEND
  5
1B8
330
1B5
100
AcDbEntity
  8
_U+30EC_U+30A4_U+30E4_U+30FC 1
 62
   179
420
  2234388
370
     9
  0
INSERT
  5
1BA
330
1F
100
AcDbEntity
  8
_U+30EC_U+30A4_U+30E4_U+30FC 1
100
AcDbBlockReference
  2
block 6
 10
0.0
 20
0.0
 30
0.0
  0
POLYLINE
  5
1C1
330
1F
100
AcDbEntity
  8
_U+30EC_U+30A4_U+30E4_U+30FC 1
 62
   179
420
  2234388
370
     9
100
AcDb2dPolyline
 66
     1
 10
0.0
 20
0.0
 30
0.0
  0
VERTEX
  5
1C2
330
1C1
100
AcDbEntity
  8
_U+30EC_U+30A4_U+30E4_U+30FC 1
 62
   179
420
  2234388
370
     9
100
AcDbVertex
100
AcDb2dVertex
 10
129.0612067073743
 20
-127.0575380237911
 30
0.0
  0
VERTEX
  5
1C3
330
1C1
100
AcDbEntity
  8
_U+30EC_U+30A4_U+30E4_U+30FC 1
 62
   179
420
  2234388
370
     9
100
AcDbVertex
100
AcDb2dVertex
 10
129.0612067073743
 20
-134.8575605218412
 30
0.0
  0
SEQEND
  5
1C4
330
1C1
100
AcDbEntity
  8
_U+30EC_U+30A4_U+30E4_U+30FC 1
 62
   179
420
  2234388
370
     9
  0
POLYLINE
  5
1C5
330
1F
100
AcDbEntity
  8
_U+30EC_U+30A4_U+30E4_U+30FC 1
 62
   179
420
  2234388
370
     9
100
AcDb2dPolyline
 66
     1
 10
0.0
 20
0.0
 30
0.0
  0
VERTEX
  5
1C6
330
1C5
100
AcDbEntity
  8
_U+30EC_U+30A4_U+30E4_U+30FC 1
 62
   179
420
  2234388
370
     9
100
AcDbVertex
100
AcDb2dVertex
 10
128.1851183963919
 20
-127.0575380237911
 30
0.0
  0
VERTEX
  5
1C7
330
1C5
100
AcDbEntity
  8
_U+30EC_U+30A4_U+30E4_U+30FC 1
 62
   179
420
  2234388
370
     9
100
AcDbVertex
100
AcDb2dVertex
 10
129.6610027453624
 20
-127.0575380237911
 30
0.0
  0
SEQEND
  5
1C8
330
1C5
100
AcDbEntity
  8
_U+30EC_U+30A4_U+30E4_U+30FC 1
 62
   179
420
  2234388
370
     9
  0
INSERT
  5
1CA
330
1F
100
AcDbEntity
  8
_U+30EC_U+30A4_U+30E4_U+30FC 1
100
AcDbBlockReference
  2
block 7
 10
0.0
 20
0.0
 30
0.0
  0
POLYLINE
  5
1D1
330
1F
100
AcDbEntity
  8
_U+30EC_U+30A4_U+30E4_U+30FC 1
 62
   179
420
  2234388
370
     9
100
AcDb2dPolyline
 66
     1
 10
0.0
 20
0.0
 30
0.0
  0
VERTEX
  5
1D2
330
1D1
100
AcDbEntity
  8
_U+30EC_U+30A4_U+30E4_U+30FC 1
 62
   179
420
  2234388
370
     9
100
AcDbVertex
100
AcDb2dVertex
 10
52.86103226251382
 20
-137.2574371879077
 30
0.0
  0
VERTEX
  5
1D3
330
1D1
100
AcDbEntity
  8
_U+30EC_U+30A4_U+30E4_U+30FC 1
 62
   179
420
  2234388
370
     9
100
AcDbVertex
100
AcDb2dVertex
 10
58.26121323585484
 20
-137.2574371879077
 30
0.0
  0
SEQEND
  5
1D4
330
1D1
100
AcDbEntity
  8
_U+30EC_U+30A4_U+30E4_U+30FC 1
 62
   179
420
  2234388
370
     9
  0
POLYLINE
  5
1D5
330
1F
100
AcDbEntity
  8
_U+30EC_U+30A4_U+30E4_U+30FC 1
 62
   179
420
  2234388
370
     9
100
AcDb2dPolyline
 66
     1
 10
0.0
 20
0.0
 30
0.0
  0
VERTEX
  5
1D6
330
1D5
100
AcDbEntity
  8
_U+30EC_U+30A4_U+30E4_U+30FC 1
 62
   179
420
  2234388
370
     9
100
AcDbVertex
100
AcDb2dVertex
 10
52.86103226251382
 20
-131.2815580227349
 30
0.0
  0
VERTEX
  5
1D7
330
1D5
100
AcDbEntity
  8
_U+30EC_U+30A4_U+30E4_U+30FC 1
 62
   179
420
  2234388
370
     9
100
AcDbVertex
100
AcDb2dVertex
 10
52.86103226251382
 20
-137.8575474655355
 30
0.0
  0
SEQEND
  5
1D8
330
1D5
100
AcDbEntity
  8
_U+30EC_U+30A4_U+30E4_U+30FC 1
 62
   179
420
  2234388
370
     9
  0
INSERT
  5
1DA
330
1F
100
AcDbEntity
  8
_U+30EC_U+30A4_U+30E4_U+30FC 1
100
AcDbBlockReference
  2
block 8
 10
0.0
 20
0.0
 30
0.0
  0
POLYLINE
  5
1E0
330
1F
100
AcDbEntity
  8
_U+30EC_U+30A4_U+30E4_U+30FC 1
 62
   179
420
  2234388
370
     9
100
AcDb2dPolyline
 66
     1
 10
0.0
 20
0.0
 30
0.0
  0
VERTEX
  5
1E1
330
1E0
100
AcDbEntity
  8
_U+30EC_U+30A4_U+30E4_U+30FC 1
 62
   179
420
  2234388
370
     9
100
AcDbVertex
100
AcDb2dVertex
 10
50.46119093484999
 20
-134.8575605218412
 30
0.0
  0
VERTEX
  5
1E2
330
1E0
100
AcDbEntity
  8
_U+30EC_U+30A4_U+30E4_U+30FC 1
 62
   179
420
  2234388
370
     9
100
AcDbVertex
100
AcDb2dVertex
 10
50.46119093484999
 20
-130.6318119117868
 30
0.0
  0
SEQEND
  5
1E3
330
1E0
100
AcDbEntity
  8
_U+30EC_U+30A4_U+30E4_U+30FC 1
 62
   179
420
  2234388
370
     9
  0
POLYLINE
  5
1E4
330
1F
100
AcDbEntity
  8
_U+30EC_U+30A4_U+30E4_U+30FC 1
 62
   179
420
  2234388
370
     9
100
AcDb2dPolyline
 66
     1
 10
0.0
 20
0.0
 30
0.0
  0
VERTEX
  5
1E5
330
1E4
100
AcDbEntity
  8
_U+30EC_U+30A4_U+30E4_U+30FC 1
 62
   179
420
  2234388
370
     9
100
AcDbVertex
100
AcDb2dVertex
 10
57.03718021152697
 20
-134.8575605218412
 30
0.0
  0
VERTEX
  5
1E6
330
1E4
100
AcDbEntity
  8
_U+30EC_U+30A4_U+30E4_U+30FC 1
 62
   179
420
  2234388
370
     9
100
AcDbVertex
100
AcDb2dVertex
 10
49.86104539460542
 20
-134.8575605218412
 30
0.0
  0
SEQEND
  5
1E7
330
1E4
100
AcDbEntity
  8
_U+30EC_U+30A4_U+30E4_U+30FC 1
 62
   179
420
  2234388
370
     9
  0
POLYLINE
  5
1E8
330
1F
100
AcDbEntity
  8
_U+30EC_U+30A4_U+30E4_U+30FC 1
 62
   179
420
  2234388
370
     9
100
AcDb2dPolyline
 66
     1
 10
0.0
 20
0.0
 30
0.0
  0
VERTEX
  5
1E9
330
1E8
100
AcDbEntity
  8
_U+30EC_U+30A4_U+30E4_U+30FC 1
 62
   179
420
  2234388
370
     9
100
AcDbVertex
100
AcDb2dVertex
 10
52.23710950065365
 20
-130.6318119117868
 30
0.0
  0
VERTEX
  5
1EA
330
1E8
100
AcDbEntity
  8
_U+30EC_U+30A4_U+30E4_U+30FC 1
 62
   179
420
  2234388
370
     9
100
AcDbVertex
100
AcDb2dVertex
 10
49.86104539460542
 20
-130.6318119117868
 30
0.0
  0
SEQEND
  5
1EB
330
1E8
100
AcDbEntity
  8
_U+30EC_U+30A4_U+30E4_U+30FC 1
 62
   179
420
  2234388
370
     9
  0
INSERT
  5
1ED
330
1F
100
AcDbEntity
  8
_U+30EC_U+30A4_U+30E4_U+30FC 1
100
AcDbBlockReference
  2
block 9
 10
0.0
 20
0.0
 30
0.0
  0
ENDSEC
  0
SECTION
  2
OBJECTS
  0
DICTIONARY
  5
C
330
0
100
AcDbDictionary
281
     1
  3
ACAD_GROUP
350
D
  3
ACAD_LAYOUT
350
1A
  3
ACAD_MATERIAL
350
3B
  3
ACAD_MLEADERSTYLE
350
1F5
  3
ACAD_MLINESTYLE
350
17
  3
ACAD_PLOTSETTINGS
350
19
  3
ACAD_PLOTSTYLENAME
350
E
  3
ACAD_TABLESTYLE
350
1F4
  3
ACAD_VISUALSTYLE
350
2A
  0
SUN
  5
3F
330
29
100
AcDbSun
 90
        1
290
     0
 63
     7
421
 16777215
 40
1.0
291
     1
 91
  2455826
 92
 54000000
292
     0
 70
     2
 71
   256
280
     1
  0
DICTIONARY
  5
D
102
{ACAD_REACTORS
330
C
102
}
330
C
100
AcDbDictionary
281
     1
  0
DICTIONARY
  5
1A
102
{ACAD_REACTORS
330
C
102
}
330
C
100
AcDbDictionary
281
     1
  3
Layout1
350
1E
  3
Layout2
350
26
  3
Model
350
22
  0
DICTIONARY
  5
3B
102
{ACAD_REACTORS
330
C
102
}
330
C
100
AcDbDictionary
281
     1
  3
ByBlock
350
3D
  3
ByLayer
350
3C
  3
Global
350
3E
  0
DICTIONARY
  5
1F5
102
{ACAD_REACTORS
330
C
102
}
330
C
100
AcDbDictionary
281
     1
  0
DICTIONARY
  5
17
102
{ACAD_REACTORS
330
C
102
}
330
C
100
AcDbDictionary
281
     1
  3
Standard
350
18
  0
DICTIONARY
  5
19
102
{ACAD_REACTORS
330
C
102
}
330
C
100
AcDbDictionary
281
     1
  0
ACDBDICTIONARYWDFLT
  5
E
102
{ACAD_REACTORS
330
C
102
}
330
C
100
AcDbDictionary
281
     1
  3
Normal
350
F
100
AcDbDictionaryWithDefault
340
F
  0
DICTIONARY
  5
1F4
102
{ACAD_REACTORS
330
C
102
}
330
C
100
AcDbDictionary
281
     1
  0
DICTIONARY
  5
2A
102
{ACAD_REACTORS
330
C
102
}
330
C
100
AcDbDictionary
281
     1
  3
2dWireframe
350
2F
  3
3D Hidden
350
31
  3
3dWireframe
350
30
  3
Basic
350
32
  3
Brighten
350
36
  3
ColorChange
350
3A
  3
Conceptual
350
34
  3
Dim
350
35
  3
Facepattern
350
39
  3
Flat
350
2B
  3
FlatWithEdges
350
2C
  3
Gouraud
350
2D
  3
GouraudWithEdges
350
2E
  3
Linepattern
350
38
  3
Realistic
350
33
  3
Thicken
350
37
  0
LAYOUT
  5
1E
102
{ACAD_REACTORS
330
1A
102
}
330
1A
100
AcDbPlotSettings
  1

  2
none_device
  4

  6

 40
0.0
 41
0.0
 42
0.0
 43
0.0
 44
0.0
 45
0.0
 46
0.0
 47
0.0
 48
0.0
 49
0.0
140
0.0
141
0.0
142
1.0
143
1.0
 70
   688
 72
     0
 73
     0
 74
     5
  7

 75
    16
 76
     0
 77
     2
 78
   300
147
1.0
148
0.0
149
0.0
100
AcDbLayout
  1
Layout1
 70
     1
 71
     1
 10
0.0
 20
0.0
 11
12.0
 21
9.0
 12
0.0
 22
0.0
 32
0.0
 14
1.000000000000000E+20
 24
1.000000000000000E+20
 34
1.000000000000000E+20
 15
-1.000000000000000E+20
 25
-1.000000000000000E+20
 35
-1.000000000000000E+20
146
0.0
 13
0.0
 23
0.0
 33
0.0
 16
1.0
 26
0.0
 36
0.0
 17
0.0
 27
1.0
 37
0.0
 76
     0
330
1B
  0
LAYOUT
  5
26
102
{ACAD_REACTORS
330
1A
102
}
330
1A
100
AcDbPlotSettings
  1

  2
none_device
  4

  6

 40
0.0
 41
0.0
 42
0.0
 43
0.0
 44
0.0
 45
0.0
 46
0.0
 47
0.0
 48
0.0
 49
0.0
140
0.0
141
0.0
142
1.0
143
1.0
 70
   688
 72
     0
 73
     0
 74
     5
  7

 75
    16
 76
     0
 77
     2
 78
   300
147
1.0
148
0.0
149
0.0
100
AcDbLayout
  1
Layout2
 70
     1
 71
     2
 10
0.0
 20
0.0
 11
0.0
 21
0.0
 12
0.0
 22
0.0
 32
0.0
 14
0.0
 24
0.0
 34
0.0
 15
0.0
 25
0.0
 35
0.0
146
0.0
 13
0.0
 23
0.0
 33
0.0
 16
1.0
 26
0.0
 36
0.0
 17
0.0
 27
1.0
 37
0.0
 76
     0
330
23
  0
LAYOUT
  5
22
102
{ACAD_REACTORS
330
1A
102
}
330
1A
100
AcDbPlotSettings
  1

  2
none_device
  4

  6

 40
0.0
 41
0.0
 42
0.0
 43
0.0
 44
0.0
 45
0.0
 46
0.0
 47
0.0
 48
0.0
 49
0.0
140
0.0
141
0.0
142
1.0
143
1.0
 70
  1712
 72
     0
 73
     0
 74
     0
  7

 75
     0
 76
     0
 77
     2
 78
   300
147
1.0
148
0.0
149
0.0
100
AcDbLayout
  1
Model
 70
     1
 71
     0
 10
0.0
 20
0.0
 11
12.0
 21
9.0
 12
0.0
 22
0.0
 32
0.0
 14
1.000000000000000E+20
 24
1.000000000000000E+20
 34
1.000000000000000E+20
 15
-1.000000000000000E+20
 25
-1.000000000000000E+20
 35
-1.000000000000000E+20
146
0.0
 13
0.0
 23
0.0
 33
0.0
 16
1.0
 26
0.0
 36
0.0
 17
0.0
 27
1.0
 37
0.0
 76
     0
330
1F
331
29
  0
MATERIAL
  5
3D
102
{ACAD_REACTORS
330
3B
102
}
330
3B
100
AcDbMaterial
  1
ByBlock
 72
     1
 94
      127
  0
MATERIAL
  5
3C
102
{ACAD_REACTORS
330
3B
102
}
330
3B
100
AcDbMaterial
  1
ByLayer
 72
     1
 94
      127
  0
MATERIAL
  5
3E
102
{ACAD_REACTORS
330
3B
102
}
330
3B
100
AcDbMaterial
  1
Global
 72
     1
 94
      127
  0
MLINESTYLE
  5
18
102
{ACAD_REACTORS
330
17
102
}
330
17
100
AcDbMlineStyle
  2
Standard
 70
     0
  3

 62
   256
 51
90.0
 52
90.0
 71
     2
 49
0.5
 62
   256
  6
BYLAYER
 49
-0.5
 62
   256
  6
BYLAYER
  0
ACDBPLACEHOLDER
  5
F
102
{ACAD_REACTORS
330
E
102
}
330
E
  0
VISUALSTYLE
  5
2F
102
{ACAD_REACTORS
330
2A
102
}
330
2A
100
AcDbVisualStyle
  2
2dWireframe
 70
     4
177
     2
291
     0
 71
     0
176
     1
 72
     2
176
     1
 73
     0
176
     1
 90
        0
176
     1
 40
-0.6
176
     1
 41
-30.0
176
     1
 62
     5
 63
     7
421
 16777215
176
     1
 74
     1
176
     1
 91
        4
176
     1
 64
     7
176
     1
 65
   257
176
     1
 75
     1
176
     1
175
     1
176
     1
 42
1.0
176
     1
 92
        0
176
     1
 66
   257
176
     1
 43
1.0
176
     1
 76
     1
176
     1
 77
     6
176
     1
 78
     2
176
     1
 67
     7
176
     1
 79
     5
176
     1
170
     0
176
     1
171
     0
176
     1
290
     0
176
     1
 93
        1
176
     1
 44
0.0
176
     1
173
     0
176
     1
  0
VISUALSTYLE
  5
31
102
{ACAD_REACTORS
330
2A
102
}
330
2A
100
AcDbVisualStyle
  2
3D Hidden
 70
     6
177
     2
291
     0
 71
     1
176
     1
 72
     2
176
     1
 73
     2
176
     1
 90
        0
176
     1
 40
-0.6
176
     1
 41
-30.0
176
     1
 62
     5
 63
     7
421
 16777215
176
     1
 74
     2
176
     1
 91
        2
176
     1
 64
     7
176
     1
 65
   257
176
     1
 75
     2
176
     1
175
     1
176
     1
 42
40.0
176
     1
 92
        0
176
     1
 66
   257
176
     1
 43
1.0
176
     1
 76
     1
176
     1
 77
     6
176
     1
 78
     2
176
     1
 67
     7
176
     1
 79
     3
176
     1
170
     0
176
     1
171
     0
176
     1
290
     0
176
     1
 93
        1
176
     1
 44
0.0
176
     1
173
     0
176
     1
  0
VISUALSTYLE
  5
30
102
{ACAD_REACTORS
330
2A
102
}
330
2A
100
AcDbVisualStyle
  2
3dWireframe
 70
     5
177
     2
291
     0
 71
     0
176
     1
 72
     2
176
     1
 73
     0
176
     1
 90
        0
176
     1
 40
-0.6
176
     1
 41
-30.0
176
     1
 62
     5
 63
     7
421
 16777215
176
     1
 74
     1
176
     1
 91
        4
176
     1
 64
     7
176
     1
 65
   257
176
     1
 75
     1
176
     1
175
     1
176
     1
 42
1.0
176
     1
 92
        0
176
     1
 66
   257
176
     1
 43
1.0
176
     1
 76
     1
176
     1
 77
     6
176
     1
 78
     2
176
     1
 67
     7
176
     1
 79
     5
176
     1
170
     0
176
     1
171
     0
176
     1
290
     0
176
     1
 93
        1
176
     1
 44
0.0
176
     1
173
     0
176
     1
  0
VISUALSTYLE
  5
32
102
{ACAD_REACTORS
330
2A
102
}
330
2A
100
AcDbVisualStyle
  2
Basic
 70
     7
177
     2
291
     1
 71
     1
176
     1
 72
     0
176
     1
 73
     1
176
     1
 90
        0
176
     1
 40
-0.6
176
     1
 41
-30.0
176
     1
 62
     5
 63
     7
421
 16777215
176
     1
 74
     0
176
     1
 91
        4
176
     1
 64
     7
176
     1
 65
   257
176
     1
 75
     1
176
     1
175
     1
176
     1
 42
1.0
176
     1
 92
        8
176
     1
 66
     7
176
     1
 43
1.0
176
     1
 76
     1
176
     1
 77
     6
176
     1
 78
     2
176
     1
 67
     7
176
     1
 79
     5
176
     1
170
     0
176
     1
171
     0
176
     1
290
     0
176
     1
 93
        1
176
     1
 44
0.0
176
     1
173
     0
176
     1
  0
VISUALSTYLE
  5
36
102
{ACAD_REACTORS
330
2A
102
}
330
2A
100
AcDbVisualStyle
  2
Brighten
 70
    12
177
     2
291
     1
 71
     2
176
     1
 72
     2
176
     1
 73
     0
176
     1
 90
        0
176
     1
 40
-0.6
176
     1
 41
-30.0
176
     1
 62
     5
 63
     7
421
 16777215
176
     1
 74
     1
176
     1
 91
        4
176
     1
 64
     7
176
     1
 65
   257
176
     1
 75
     1
176
     1
175
     1
176
     1
 42
1.0
176
     1
 92
        8
176
     1
 66
     7
176
     1
 43
1.0
176
     1
 76
     1
176
     1
 77
     6
176
     1
 78
     2
176
     1
 67
     7
176
     1
 79
     5
176
     1
170
     0
176
     1
171
     0
176
     1
290
     0
176
     1
 93
        1
176
     1
 44
50.0
176
     1
173
     0
176
     1
  0
VISUALSTYLE
  5
3A
102
{ACAD_REACTORS
330
2A
102
}
330
2A
100
AcDbVisualStyle
  2
ColorChange
 70
    16
177
     2
291
     1
 71
     2
176
     1
 72
     2
176
     1
 73
     3
176
     1
 90
        0
176
     1
 40
-0.6
176
     1
 41
-30.0
176
     1
 62
     5
 63
     8
421
  8421504
176
     1
 74
     1
176
     1
 91
        4
176
     1
 64
     7
176
     1
 65
   257
176
     1
 75
     1
176
     1
175
     1
176
     1
 42
1.0
176
     1
 92
        8
176
     1
 66
     8
424
  8421504
176
     1
 43
1.0
176
     1
 76
     1
176
     1
 77
     6
176
     1
 78
     2
176
     1
 67
     7
176
     1
 79
     5
176
     1
170
     0
176
     1
171
     0
176
     1
290
     0
176
     1
 93
        1
176
     1
 44
0.0
176
     1
173
     0
176
     1
  0
VISUALSTYLE
  5
34
102
{ACAD_REACTORS
330
2A
102
}
330
2A
100
AcDbVisualStyle
  2
Conceptual
 70
     9
177
     2
291
     0
 71
     3
176
     1
 72
     2
176
     1
 73
     0
176
     1
 90
        0
176
     1
 40
-0.6
176
     1
 41
-30.0
176
     1
 62
     5
 63
     7
421
 16777215
176
     1
 74
     2
176
     1
 91
        2
176
     1
 64
     7
176
     1
 65
   257
176
     1
 75
     1
176
     1
175
     1
176
     1
 42
40.0
176
     1
 92
        8
176
     1
 66
     7
176
     1
 43
1.0
176
     1
 76
     1
176
     1
 77
     6
176
     1
 78
     2
176
     1
 67
     7
176
     1
 79
     3
176
     1
170
     0
176
     1
171
     0
176
     1
290
     0
176
     1
 93
        1
176
     1
 44
0.0
176
     1
173
     0
176
     1
  0
VISUALSTYLE
  5
35
102
{ACAD_REACTORS
330
2A
102
}
330
2A
100
AcDbVisualStyle
  2
Dim
 70
    11
177
     2
291
     1
 71
     2
176
     1
 72
     2
176
     1
 73
     0
176
     1
 90
        0
176
     1
 40
-0.6
176
     1
 41
-30.0
176
     1
 62
     5
 63
     7
421
 16777215
176
     1
 74
     1
176
     1
 91
        4
176
     1
 64
     7
176
     1
 65
   257
176
     1
 75
     1
176
     1
175
     1
176
     1
 42
1.0
176
     1
 92
        8
176
     1
 66
     7
176
     1
 43
1.0
176
     1
 76
     1
176
     1
 77
     6
176
     1
 78
     2
176
     1
 67
     7
176
     1
 79
     5
176
     1
170
     0
176
     1
171
     0
176
     1
290
     0
176
     1
 93
        1
176
     1
 44
-50.0
176
     1
173
     0
176
     1
  0
VISUALSTYLE
  5
39
102
{ACAD_REACTORS
330
2A
102
}
330
2A
100
AcDbVisualStyle
  2
Facepattern
 70
    15
177
     2
291
     1
 71
     2
176
     1
 72
     2
176
     1
 73
     0
176
     1
 90
        0
176
     1
 40
-0.6
176
     1
 41
-30.0
176
     1
 62
     5
 63
     7
421
 16777215
176
     1
 74
     1
176
     1
 91
        4
176
     1
 64
     7
176
     1
 65
   257
176
     1
 75
     1
176
     1
175
     1
176
     1
 42
1.0
176
     1
 92
        8
176
     1
 66
     7
176
     1
 43
1.0
176
     1
 76
     1
176
     1
 77
     6
176
     1
 78
     2
176
     1
 67
     7
176
     1
 79
     5
176
     1
170
     0
176
     1
171
     0
176
     1
290
     0
176
     1
 93
        1
176
     1
 44
0.0
176
     1
173
     0
176
     1
  0
VISUALSTYLE
  5
2B
102
{ACAD_REACTORS
330
2A
102
}
330
2A
100
AcDbVisualStyle
  2
Flat
 70
     0
177
     2
291
     1
 71
     2
176
     1
 72
     1
176
     1
 73
     1
176
     1
 90
        2
176
     1
 40
-0.6
176
     1
 41
30.0
176
     1
 62
     5
 63
     7
421
 16777215
176
     1
 74
     0
176
     1
 91
        4
176
     1
 64
     7
176
     1
 65
   257
176
     1
 75
     1
176
     1
175
     1
176
     1
 42
1.0
176
     1
 92
        8
176
     1
 66
     7
176
     1
 43
1.0
176
     1
 76
     1
176
     1
 77
     6
176
     1
 78
     2
176
     1
 67
     7
176
     1
 79
     5
176
     1
170
     0
176
     1
171
     0
176
     1
290
     0
176
     1
 93
       13
176
     1
 44
0.0
176
     1
173
     0
176
     1
  0
VISUALSTYLE
  5
2C
102
{ACAD_REACTORS
330
2A
102
}
330
2A
100
AcDbVisualStyle
  2
FlatWithEdges
 70
     1
177
     2
291
     1
 71
     2
176
     1
 72
     1
176
     1
 73
     1
176
     1
 90
        2
176
     1
 40
-0.6
176
     1
 41
30.0
176
     1
 62
     5
 63
     7
421
 16777215
176
     1
 74
     1
176
     1
 91
        4
176
     1
 64
     7
176
     1
 65
   257
176
     1
 75
     1
176
     1
175
     1
176
     1
 42
1.0
176
     1
 92
        0
176
     1
 66
   257
176
     1
 43
1.0
176
     1
 76
     1
176
     1
 77
     6
176
     1
 78
     2
176
     1
 67
     7
176
     1
 79
     5
176
     1
170
     0
176
     1
171
     0
176
     1
290
     0
176
     1
 93
       13
176
     1
 44
0.0
176
     1
173
     0
176
     1
  0
VISUALSTYLE
  5
2D
102
{ACAD_REACTORS
330
2A
102
}
330
2A
100
AcDbVisualStyle
  2
Gouraud
 70
     2
177
     2
291
     1
 71
     2
176
     1
 72
     2
176
     1
 73
     1
176
     1
 90
        2
176
     1
 40
-0.6
176
     1
 41
30.0
176
     1
 62
     5
 63
     7
421
 16777215
176
     1
 74
     0
176
     1
 91
        4
176
     1
 64
     7
176
     1
 65
   257
176
     1
 75
     1
176
     1
175
     1
176
     1
 42
1.0
176
     1
 92
        0
176
     1
 66
     7
176
     1
 43
1.0
176
     1
 76
     1
176
     1
 77
     6
176
     1
 78
     2
176
     1
 67
     7
176
     1
 79
     5
176
     1
170
     0
176
     1
171
     0
176
     1
290
     0
176
     1
 93
       13
176
     1
 44
0.0
176
     1
173
     0
176
     1
  0
VISUALSTYLE
  5
2E
102
{ACAD_REACTORS
330
2A
102
}
330
2A
100
AcDbVisualStyle
  2
GouraudWithEdges
 70
     3
177
     2
291
     1
 71
     2
176
     1
 72
     2
176
     1
 73
     1
176
     1
 90
        2
176
     1
 40
-0.6
176
     1
 41
30.0
176
     1
 62
     5
 63
     7
421
 16777215
176
     1
 74
     1
176
     1
 91
        4
176
     1
 64
     7
176
     1
 65
   257
176
     1
 75
     1
176
     1
175
     1
176
     1
 42
1.0
176
     1
 92
        0
176
     1
 66
   257
176
     1
 43
1.0
176
     1
 76
     1
176
     1
 77
     6
176
     1
 78
     2
176
     1
 67
     7
176
     1
 79
     5
176
     1
170
     0
176
     1
171
     0
176
     1
290
     0
176
     1
 93
       13
176
     1
 44
0.0
176
     1
173
     0
176
     1
  0
VISUALSTYLE
  5
38
102
{ACAD_REACTORS
330
2A
102
}
330
2A
100
AcDbVisualStyle
  2
Linepattern
 70
    14
177
     2
291
     1
 71
     2
176
     1
 72
     2
176
     1
 73
     0
176
     1
 90
        0
176
     1
 40
-0.6
176
     1
 41
-30.0
176
     1
 62
     5
 63
     7
421
 16777215
176
     1
 74
     1
176
     1
 91
        4
176
     1
 64
     7
176
     1
 65
   257
176
     1
 75
     7
176
     1
175
     7
176
     1
 42
1.0
176
     1
 92
        8
176
     1
 66
     7
176
     1
 43
1.0
176
     1
 76
     1
176
     1
 77
     6
176
     1
 78
     2
176
     1
 67
     7
176
     1
 79
     5
176
     1
170
     0
176
     1
171
     0
176
     1
290
     0
176
     1
 93
        1
176
     1
 44
0.0
176
     1
173
     0
176
     1
  0
VISUALSTYLE
  5
33
102
{ACAD_REACTORS
330
2A
102
}
330
2A
100
AcDbVisualStyle
  2
Realistic
 70
     8
177
     2
291
     0
 71
     2
176
     1
 72
     2
176
     1
 73
     0
176
     1
 90
        0
176
     1
 40
-0.6
176
     1
 41
-30.0
176
     1
 62
     5
 63
     7
421
 16777215
176
     1
 74
     1
176
     1
 91
        0
176
     1
 64
     7
176
     1
 65
   257
176
     1
 75
     1
176
     1
175
     1
176
     1
 42
1.0
176
     1
 92
        8
176
     1
 66
     8
424
  7895160
176
     1
 43
1.0
176
     1
 76
     1
176
     1
 77
     6
176
     1
 78
     2
176
     1
 67
     7
176
     1
 79
     5
176
     1
170
     0
176
     1
171
     0
176
     1
290
     0
176
     1
 93
       13
176
     1
 44
0.0
176
     1
173
     0
176
     1
  0
VISUALSTYLE
  5
37
102
{ACAD_REACTORS
330
2A
102
}
330
2A
100
AcDbVisualStyle
  2
Thicken
 70
    13
177
     2
291
     1
 71
     2
176
     1
 72
     2
176
     1
 73
     0
176
     1
 90
        0
176
     1
 40
-0.6
176
     1
 41
-30.0
176
     1
 62
     5
 63
     7
421
 16777215
176
     1
 74
     1
176
     1
 91
        4
176
     1
 64
     7
176
     1
 65
   257
176
     1
 75
     1
176
     1
175
     1
176
     1
 42
1.0
176
     1
 92
       12
176
     1
 66
     7
176
     1
 43
1.0
176
     1
 76
     1
176
     1
 77
     6
176
     1
 78
     2
176
     1
 67
     7
176
     1
 79
     5
176
     1
170
     0
176
     1
171
     0
176
     1
290
     0
176
     1
 93
        1
176
     1
 44
0.0
176
     1
173
     0
176
     1
  0
ENDSEC
  0
EOF
