  0
SECTION
  2
HEADER
  9
$ACADVER
  1
AC1024
  9
$ACADMAINTVER
 70
     6
  9
$DWGCODEPAGE
  3
UNDEFINED
  9
$INSBASE
 10
0.0
 20
0.0
 30
0.0
  9
$EXTMIN
 10
1.000000000000000E+20
 20
1.000000000000000E+20
 30
1.000000000000000E+20
  9
$EXTMAX
 10
-1.000000000000000E+20
 20
-1.000000000000000E+20
 30
-1.000000000000000E+20
  9
$LIMMIN
 10
0.0
 20
0.0
  9
$LIMMAX
 10
12.0
 20
9.0
  9
$ORTHOMODE
 70
     0
  9
$REGENMODE
 70
     1
  9
$FILLMODE
 70
     1
  9
$QTEXTMODE
 70
     0
  9
$MIRRTEXT
 70
     1
  9
$LTSCALE
 40
1.0
  9
$ATTMODE
 70
     1
  9
$TEXTSIZE
 40
0.2
  9
$TRACEWID
 40
0.05
  9
$TEXTSTYLE
  7
Standard
  9
$CLAYER
  8
0
  9
$CELTYPE
  6
ByLayer
  9
$CECOLOR
 62
   256
  9
$CELTSCALE
 40
1.0
  9
$DISPSILH
 70
     0
  9
$DIMSCALE
 40
1.0
  9
$DIMASZ
 40
0.18
  9
$DIMEXO
 40
0.0625
  9
$DIMDLI
 40
0.38
  9
$DIMRND
 40
0.0
  9
$DIMDLE
 40
0.0
  9
$DIMEXE
 40
0.18
  9
$DIMTP
 40
0.0
  9
$DIMTM
 40
0.0
  9
$DIMTXT
 40
0.18
  9
$DIMCEN
 40
0.09
  9
$DIMTSZ
 40
0.0
  9
$DIMTOL
 70
     0
  9
$DIMLIM
 70
     0
  9
$DIMTIH
 70
     1
  9
$DIMTOH
 70
     1
  9
$DIMSE1
 70
     0
  9
$DIMSE2
 70
     0
  9
$DIMTAD
 70
     0
  9
$DIMZIN
 70
     0
  9
$DIMBLK
  1

  9
$DIMASO
 70
     1
  9
$DIMSHO
 70
     1
  9
$DIMPOST
  1

  9
$DIMAPOST
  1

  9
$DIMALT
 70
     0
  9
$DIMALTD
 70
     2
  9
$DIMALTF
 40
25.4
  9
$DIMLFAC
 40
1.0
  9
$DIMTOFL
 70
     0
  9
$DIMTVP
 40
0.0
  9
$DIMTIX
 70
     0
  9
$DIMSOXD
 70
     0
  9
$DIMSAH
 70
     0
  9
$DIMBLK1
  1

  9
$DIMBLK2
  1

  9
$DIMSTYLE
  2
Standard
  9
$DIMCLRD
 70
     0
  9
$DIMCLRE
 70
     0
  9
$DIMCLRT
 70
     0
  9
$DIMTFAC
 40
1.0
  9
$DIMGAP
 40
0.09
  9
$DIMJUST
 70
     0
  9
$DIMSD1
 70
     0
  9
$DIMSD2
 70
     0
  9
$DIMTOLJ
 70
     1
  9
$DIMTZIN
 70
     0
  9
$DIMALTZ
 70
     0
  9
$DIMALTTZ
 70
     0
  9
$DIMUPT
 70
     0
  9
$DIMDEC
 70
     4
  9
$DIMTDEC
 70
     4
  9
$DIMALTU
 70
     2
  9
$DIMALTTD
 70
     2
  9
$DIMTXSTY
  7
Standard
  9
$DIMAUNIT
 70
     0
  9
$DIMADEC
 70
     0
  9
$DIMALTRND
 40
0.0
  9
$DIMAZIN
 70
     0
  9
$DIMDSEP
 70
    46
  9
$DIMATFIT
 70
     3
  9
$DIMFRAC
 70
     0
  9
$DIMLDRBLK
  1

  9
$DIMLUNIT
 70
     2
  9
$DIMLWD
 70
    -2
  9
$DIMLWE
 70
    -2
  9
$DIMTMOVE
 70
     0
  9
$DIMFXL
 40
1.0
  9
$DIMFXLON
 70
     0
  9
$DIMJOGANG
 40
0.7853981633974483
  9
$DIMTFILL
 70
     0
  9
$DIMTFILLCLR
 70
     0
  9
$DIMARCSYM
 70
     0
  9
$DIMLTYPE
  6

  9
$DIMLTEX1
  6

  9
$DIMLTEX2
  6

  9
$DIMTXTDIRECTION
 70
     0
  9
$LUNITS
 70
     2
  9
$LUPREC
 70
     4
  9
$SKETCHINC
 40
0.1
  9
$FILLETRAD
 40
0.5
  9
$AUNITS
 70
     0
  9
$AUPREC
 70
     0
  9
$MENU
  1
.
  9
$ELEVATION
 40
0.0
  9
$PELEVATION
 40
0.0
  9
$THICKNESS
 40
0.0
  9
$LIMCHECK
 70
     0
  9
$CHAMFERA
 40
0.5
  9
$CHAMFERB
 40
0.5
  9
$CHAMFERC
 40
1.0
  9
$CHAMFERD
 40
0.0
  9
$SKPOLY
 70
     0
  9
$TDCREATE
 40
2457917.62619213
  9
$TDUCREATE
 40
2457917.25119213
  9
$TDUPDATE
 40
2457917.62619213
  9
$TDUUPDATE
 40
2457917.25119213
  9
$TDINDWG
 40
0.0000000116
  9
$TDUSRTIMER
 40
0.0000000116
  9
$USRTIMER
 70
     1
  9
$ANGBASE
 50
0.0
  9
$ANGDIR
 70
     0
  9
$PDMODE
 70
     0
  9
$PDSIZE
 40
0.0
  9
$PLINEWID
 40
0.0
  9
$SPLFRAME
 70
     0
  9
$SPLINETYPE
 70
     6
  9
$SPLINESEGS
 70
     8
  9
$HANDSEED
  5
C3
  9
$SURFTAB1
 70
     6
  9
$SURFTAB2
 70
     6
  9
$SURFTYPE
 70
     6
  9
$SURFU
 70
     6
  9
$SURFV
 70
     6
  9
$UCSBASE
  2

  9
$UCSNAME
  2

  9
$UCSORG
 10
0.0
 20
0.0
 30
0.0
  9
$UCSXDIR
 10
1.0
 20
0.0
 30
0.0
  9
$UCSYDIR
 10
0.0
 20
1.0
 30
0.0
  9
$UCSORTHOREF
  2

  9
$UCSORTHOVIEW
 70
     0
  9
$UCSORGTOP
 10
0.0
 20
0.0
 30
0.0
  9
$UCSORGBOTTOM
 10
0.0
 20
0.0
 30
0.0
  9
$UCSORGLEFT
 10
0.0
 20
0.0
 30
0.0
  9
$UCSORGRIGHT
 10
0.0
 20
0.0
 30
0.0
  9
$UCSORGFRONT
 10
0.0
 20
0.0
 30
0.0
  9
$UCSORGBACK
 10
0.0
 20
0.0
 30
0.0
  9
$PUCSBASE
  2

  9
$PUCSNAME
  2

  9
$PUCSORG
 10
0.0
 20
0.0
 30
0.0
  9
$PUCSXDIR
 10
1.0
 20
0.0
 30
0.0
  9
$PUCSYDIR
 10
0.0
 20
1.0
 30
0.0
  9
$PUCSORTHOREF
  2

  9
$PUCSORTHOVIEW
 70
     0
  9
$PUCSORGTOP
 10
0.0
 20
0.0
 30
0.0
  9
$PUCSORGBOTTOM
 10
0.0
 20
0.0
 30
0.0
  9
$PUCSORGLEFT
 10
0.0
 20
0.0
 30
0.0
  9
$PUCSORGRIGHT
 10
0.0
 20
0.0
 30
0.0
  9
$PUCSORGFRONT
 10
0.0
 20
0.0
 30
0.0
  9
$PUCSORGBACK
 10
0.0
 20
0.0
 30
0.0
  9
$USERI1
 70
     0
  9
$USERI2
 70
     0
  9
$USERI3
 70
     0
  9
$USERI4
 70
     0
  9
$USERI5
 70
     0
  9
$USERR1
 40
0.0
  9
$USERR2
 40
0.0
  9
$USERR3
 40
0.0
  9
$USERR4
 40
0.0
  9
$USERR5
 40
0.0
  9
$WORLDVIEW
 70
     1
  9
$SHADEDGE
 70
     3
  9
$SHADEDIF
 70
    70
  9
$TILEMODE
 70
     1
  9
$MAXACTVP
 70
    64
  9
$PINSBASE
 10
0.0
 20
0.0
 30
0.0
  9
$PLIMCHECK
 70
     0
  9
$PEXTMIN
 10
1.000000000000000E+20
 20
1.000000000000000E+20
 30
1.000000000000000E+20
  9
$PEXTMAX
 10
-1.000000000000000E+20
 20
-1.000000000000000E+20
 30
-1.000000000000000E+20
  9
$PLIMMIN
 10
0.0
 20
0.0
  9
$PLIMMAX
 10
12.0
 20
9.0
  9
$UNITMODE
 70
     0
  9
$VISRETAIN
 70
     1
  9
$PLINEGEN
 70
     0
  9
$PSLTSCALE
 70
     1
  9
$TREEDEPTH
 70
  3020
  9
$CMLSTYLE
  2
Standard
  9
$CMLJUST
 70
     0
  9
$CMLSCALE
 40
1.0
  9
$PROXYGRAPHICS
 70
     1
  9
$MEASUREMENT
 70
     0
  9
$CELWEIGHT
370
    -1
  9
$ENDCAPS
280
     0
  9
$JOINSTYLE
280
     0
  9
$LWDISPLAY
290
     1
  9
$INSUNITS
 70
     1
  9
$HYPERLINKBASE
  1

  9
$STYLESHEET
  1

  9
$XEDIT
290
     1
  9
$CEPSNTYPE
380
     0
  9
$PSTYLEMODE
290
     1
  9
$FINGERPRINTGUID
  2
{86265B59-1401-6FB1-BB6A-49ABA4239885}
  9
$VERSIONGUID
  2
{FAEB1C32-E019-11D5-929B-00C0DF256EC4}
  9
$EXTNAMES
290
     1
  9
$PSVPSCALE
 40
0.0
  9
$OLESTARTUP
290
     0
  9
$SORTENTS
280
   127
  9
$INDEXCTL
280
     0
  9
$HIDETEXT
280
     1
  9
$XCLIPFRAME
280
     2
  9
$HALOGAP
280
     0
  9
$OBSCOLOR
 70
   257
  9
$OBSLTYPE
280
     0
  9
$INTERSECTIONDISPLAY
280
     0
  9
$INTERSECTIONCOLOR
 70
   257
  9
$DIMASSOC
280
     2
  9
$PROJECTNAME
  1

  9
$CAMERADISPLAY
290
     0
  9
$LENSLENGTH
 40
50.0
  9
$CAMERAHEIGHT
 40
0.0
  9
$STEPSPERSEC
 40
2.0
  9
$STEPSIZE
 40
6.0
  9
$3DDWFPREC
 40
2.0
  9
$PSOLWIDTH
 40
0.25
  9
$PSOLHEIGHT
 40
4.0
  9
$LOFTANG1
 40
1.570796326794897
  9
$LOFTANG2
 40
1.570796326794897
  9
$LOFTMAG1
 40
0.0
  9
$LOFTMAG2
 40
0.0
  9
$LOFTPARAM
 70
     7
  9
$LOFTNORMALS
280
     1
  9
$LATITUDE
 40
37.795
  9
$LONGITUDE
 40
-122.394
  9
$NORTHDIRECTION
 40
0.0
  9
$TIMEZONE
 70
 -8000
  9
$LIGHTGLYPHDISPLAY
280
     1
  9
$TILEMODELIGHTSYNCH
280
     1
  9
$CMATERIAL
347
3C
  9
$SOLIDHIST
280
     1
  9
$SHOWHIST
280
     1
  9
$DWFFRAME
280
     2
  9
$DGNFRAME
280
     2
  9
$REALWORLDSCALE
290
     1
  9
$INTERFERECOLOR
 62
   256
  9
$CSHADOW
280
     0
  9
$SHADOWPLANELOCATION
 40
0.0
  0
ENDSEC
  0
SECTION
  2
CLASSES
  0
CLASS
  1
ACDBDICTIONARYWDFLT
  2
AcDbDictionaryWithDefault
  3
ObjectDBX Classes
 90
        0
 91
        4
280
     0
281
     0
  0
CLASS
  1
VISUALSTYLE
  2
AcDbVisualStyle
  3
ObjectDBX Classes
 90
     4095
 91
        4
280
     0
281
     0
  0
CLASS
  1
MATERIAL
  2
AcDbMaterial
  3
ObjectDBX Classes
 90
     1153
 91
        4
280
     0
281
     0
  0
CLASS
  1
SUN
  2
AcDbSun
  3
SCENEOE
 90
     1024
 91
        4
280
     0
281
     0
  0
ENDSEC
  0
SECTION
  2
TABLES
  0
TABLE
  2
VPORT
  5
8
330
0
100
AcDbSymbolTable
 70
     1
  0
VPORT
  5
29
330
8
100
AcDbSymbolTableRecord
100
AcDbViewportTableRecord
  2
*Active
 70
     0
 10
0.0
 20
0.0
 11
1.0
 21
1.0
 12
0.0
 22
0.0
 13
0.0
 23
0.0
 14
0.5
 24
0.5
 15
0.5
 25
0.5
 16
0.0
 26
0.0
 36
1.0
 17
91.00082462281999
 27
-128.4993055234307
 37
0.0
 40
256.9986110468615
 41
0.7081814508812795
 42
50.0
 43
0.0
 44
0.0
 50
0.0
 51
0.0
 71
     0
 72
   100
 73
     1
 74
     3
 75
     0
 76
     0
 77
     0
 78
     0
281
     0
 65
     1
110
0.0
120
0.0
130
0.0
111
1.0
121
0.0
131
0.0
112
0.0
122
1.0
132
0.0
 79
     0
146
0.0
 60
     3
 61
     5
292
     1
282
     1
141
0.0
142
0.0
 63
   250
361
3F
  0
ENDTAB
  0
TABLE
  2
LTYPE
  5
5
330
0
100
AcDbSymbolTable
 70
     2
  0
LTYPE
  5
14
330
5
100
AcDbSymbolTableRecord
100
AcDbLinetypeTableRecord
  2
ByBlock
 70
     0
  3

 72
    65
 73
     0
 40
0.0
  0
LTYPE
  5
15
330
5
100
AcDbSymbolTableRecord
100
AcDbLinetypeTableRecord
  2
ByLayer
 70
     0
  3

 72
    65
 73
     0
 40
0.0
  0
LTYPE
  5
16
330
5
100
AcDbSymbolTableRecord
100
AcDbLinetypeTableRecord
  2
Continuous
 70
     0
  3
Solid line
 72
    65
 73
     0
 40
0.0
  0
LTYPE
  5
BF
330
5
100
AcDbSymbolTableRecord
100
AcDbLinetypeTableRecord
  2
AI-Linetype-1
 70
     0
  3
Adobe Illustrator Linetype No. 1
 72
    65
 73
     2
 40
1.411111110758333
 49
0.7055555553791667
 74
     0
 49
-0.7055555553791667
 74
     0
  0
ENDTAB
  0
TABLE
  2
LAYER
  5
2
330
0
100
AcDbSymbolTable
 70
     2
  0
LAYER
  5
10
330
2
100
AcDbSymbolTableRecord
100
AcDbLayerTableRecord
  2
0
 70
     0
 62
     7
  6
Continuous
370
    -3
390
F
347
3E
  0
LAYER
  5
40
330
2
100
AcDbSymbolTableRecord
100
AcDbLayerTableRecord
  2
_U+30EC_U+30A4_U+30E4_U+30FC 1
 70
     0
 62
     7
  6
Continuous
370
    -3
390
F
347
3E
  0
ENDTAB
  0
TABLE
  2
STYLE
  5
3
330
0
100
AcDbSymbolTable
 70
     1
  0
STYLE
  5
11
330
3
100
AcDbSymbolTableRecord
100
AcDbTextStyleTableRecord
  2
Standard
 70
     0
 40
0.0
 41
1.0
 50
0.0
 71
     0
 42
0.2
  3
txt
  4

  0
ENDTAB
  0
TABLE
  2
VIEW
  5
6
330
0
100
AcDbSymbolTable
 70
     0
  0
ENDTAB
  0
TABLE
  2
UCS
  5
7
330
0
100
AcDbSymbolTable
 70
     0
  0
ENDTAB
  0
TABLE
  2
APPID
  5
9
330
0
100
AcDbSymbolTable
 70
     1
  0
APPID
  5
12
330
9
100
AcDbSymbolTableRecord
100
AcDbRegAppTableRecord
  2
ACAD
 70
     0
  0
ENDTAB
  0
TABLE
  2
DIMSTYLE
  5
A
330
0
100
AcDbSymbolTable
 70
     1
100
AcDbDimStyleTable
  0
DIMSTYLE
105
27
330
A
100
AcDbSymbolTableRecord
100
AcDbDimStyleTableRecord
  2
Standard
 70
     0
178
     0
340
11
  0
ENDTAB
  0
TABLE
  2
BLOCK_RECORD
  5
1
330
0
100
AcDbSymbolTable
 70
     5
  0
BLOCK_RECORD
  5
1F
330
1
100
AcDbSymbolTableRecord
100
AcDbBlockTableRecord
  2
*Model_Space
340
22
 70
     0
280
     1
281
     0
  0
BLOCK_RECORD
  5
1B
330
1
100
AcDbSymbolTableRecord
100
AcDbBlockTableRecord
  2
*Paper_Space
340
1E
 70
     0
280
     1
281
     0
  0
BLOCK_RECORD
  5
23
330
1
100
AcDbSymbolTableRecord
100
AcDbBlockTableRecord
  2
*Paper_Space0
340
26
 70
     0
280
     1
281
     0
  0
BLOCK_RECORD
  5
75
330
1
100
AcDbSymbolTableRecord
100
AcDbBlockTableRecord
  2
block 2
340
0
102
{BLKREFS
331
76
102
}
 70
     0
280
     1
281
     0
  0
BLOCK_RECORD
  5
85
330
1
100
AcDbSymbolTableRecord
100
AcDbBlockTableRecord
  2
block 3
340
0
102
{BLKREFS
331
86
102
}
 70
     0
280
     1
281
     0
  0
BLOCK_RECORD
  5
95
330
1
100
AcDbSymbolTableRecord
100
AcDbBlockTableRecord
  2
block 4
340
0
102
{BLKREFS
331
96
102
}
 70
     0
280
     1
281
     0
  0
BLOCK_RECORD
  5
A9
330
1
100
AcDbSymbolTableRecord
100
AcDbBlockTableRecord
  2
block 5
340
0
102
{BLKREFS
331
AA
102
}
 70
     0
280
     1
281
     0
  0
ENDTAB
  0
ENDSEC
  0
SECTION
  2
BLOCKS
  0
BLOCK
  5
20
330
1F
100
AcDbEntity
  8
0
100
AcDbBlockBegin
  2
*Model_Space
 70
     0
 10
0.0
 20
0.0
 30
0.0
  3
*Model_Space
  1

  0
ENDBLK
  5
21
330
1F
100
AcDbEntity
  8
0
100
AcDbBlockEnd
  0
BLOCK
  5
1C
330
1B
100
AcDbEntity
 67
     1
  8
0
100
AcDbBlockBegin
  2
*Paper_Space
 70
     0
 10
0.0
 20
0.0
 30
0.0
  3
*Paper_Space
  1

  0
ENDBLK
  5
1D
330
1B
100
AcDbEntity
 67
     1
  8
0
100
AcDbBlockEnd
  0
BLOCK
  5
24
330
23
100
AcDbEntity
  8
0
100
AcDbBlockBegin
  2
*Paper_Space0
 70
     0
 10
0.0
 20
0.0
 30
0.0
  3
*Paper_Space0
  1

  0
ENDBLK
  5
25
330
23
100
AcDbEntity
  8
0
100
AcDbBlockEnd
  0
BLOCK
  5
77
330
75
100
AcDbEntity
  8
0
100
AcDbBlockBegin
  2
block 2
 70
     0
 10
0.0
 20
0.0
 30
0.0
  3
block 2
  1

  0
SPLINE
  5
79
330
75
100
AcDbEntity
  8
_U+30EC_U+30A4_U+30E4_U+30FC 1
370
     0
100
AcDbSpline
210
0.0
220
0.0
230
1.0
 70
    11
 71
     3
 72
    44
 73
    40
 74
     0
 42
0.0000000001
 43
0.0000000001
 12
1.0
 22
0.0
 32
0.0
 13
1.0
 23
0.0
 33
0.0
 40
0.0
 40
0.0
 40
0.0
 40
0.0
 40
1.0
 40
1.0
 40
1.0
 40
2.0
 40
2.0
 40
2.0
 40
3.0
 40
3.0
 40
3.0
 40
4.0
 40
4.0
 40
4.0
 40
5.0
 40
5.0
 40
5.0
 40
6.0
 40
6.0
 40
6.0
 40
7.0
 40
7.0
 40
7.0
 40
8.0
 40
8.0
 40
8.0
 40
9.0
 40
9.0
 40
9.0
 40
10.0
 40
10.0
 40
10.0
 40
11.0
 40
11.0
 40
11.0
 40
12.0
 40
12.0
 40
12.0
 40
13.0
 40
13.0
 40
13.0
 40
13.0
 10
62.93931069390059
 20
-101.9870564523678
 30
0.0
 10
62.72140840445854
 20
-102.1457030994636
 30
0.0
 10
62.62821857158253
 20
-102.2197726523964
 30
0.0
 10
62.57964272524051
 20
-102.3636053889056
 30
0.0
 10
62.57964272524051
 20
-102.3636053889056
 30
0.0
 10
63.35806205013271
 20
-102.3636053889056
 30
0.0
 10
63.35806205013271
 20
-102.3636053889056
 30
0.0
 10
63.35806205013271
 20
-102.3636053889056
 30
0.0
 10
63.35806205013271
 20
-102.5687608250523
 30
0.0
 10
63.35806205013271
 20
-102.5687608250523
 30
0.0
 10
63.35806205013271
 20
-102.5687608250523
 30
0.0
 10
62.33004555733416
 20
-102.5687608250523
 30
0.0
 10
62.33004555733416
 20
-102.5687608250523
 30
0.0
 10
62.36174043579846
 20
-102.2111599136833
 30
0.0
 10
62.42736950479247
 20
-102.1329562461681
 30
0.0
 10
62.81235892526914
 20
-101.8346109771455
 30
0.0
 10
63.0683295198232
 20
-101.6358289676466
 30
0.0
 10
63.13378633404295
 20
-101.5681328413614
 30
0.0
 10
63.13378633404295
 20
-101.4306735315
 30
0.0
 10
63.13378633404295
 20
-101.3121622468074
 30
0.0
 10
63.06195609317549
 20
-101.1810763635936
 30
0.0
 10
62.86524114096772
 20
-101.1810763635936
 30
0.0
 10
62.6049641770571
 20
-101.1810763635936
 30
0.0
 10
62.59652369311824
 20
-101.4115532515568
 30
0.0
 10
62.59221732376167
 20
-101.5279974789583
 30
0.0
 10
62.59221732376167
 20
-101.5279974789583
 30
0.0
 10
62.36811386244617
 20
-101.5279974789583
 30
0.0
 10
62.36811386244617
 20
-101.5279974789583
 30
0.0
 10
62.37655434638503
 20
-101.4010457103268
 30
0.0
 10
62.38706188761504
 20
-101.2889078522819
 30
0.0
 10
62.46750486719563
 20
-101.1703965675893
 30
0.0
 10
62.5774034131751
 20
-101.0096828632024
 30
0.0
 10
62.76361082415285
 20
-100.9757486726727
 30
0.0
 10
62.88005505155429
 20
-100.9757486726727
 30
0.0
 10
63.15721298334265
 20
-100.9757486726727
 30
0.0
 10
63.36443547678042
 20
-101.1598890263593
 30
0.0
 10
63.36443547678042
 20
-101.4327405887911
 30
0.0
 10
63.36443547678042
 20
-101.6611504194632
 30
0.0
 10
63.24816350415324
 20
-101.7607136789869
 30
0.0
 10
62.93931069390059
 20
-101.9870564523678
 30
0.0
  0
HATCH
  5
7A
330
75
100
AcDbEntity
  8
_U+30EC_U+30A4_U+30E4_U+30FC 1
 62
     7
420
 16777215
100
AcDbHatch
 10
0.0
 20
0.0
 30
0.0
210
0.0
220
0.0
230
1.0
  2
SOLID
 70
     1
 71
     0
 91
        1
 92
        1
 93
        1
 72
     4
 94
        3
 73
     0
 74
     1
 95
       44
 96
       40
 40
0.0
 40
0.0
 40
0.0
 40
0.0
 40
1.0
 40
1.0
 40
1.0
 40
2.0
 40
2.0
 40
2.0
 40
3.0
 40
3.0
 40
3.0
 40
4.0
 40
4.0
 40
4.0
 40
5.0
 40
5.0
 40
5.0
 40
6.0
 40
6.0
 40
6.0
 40
7.0
 40
7.0
 40
7.0
 40
8.0
 40
8.0
 40
8.0
 40
9.0
 40
9.0
 40
9.0
 40
10.0
 40
10.0
 40
10.0
 40
11.0
 40
11.0
 40
11.0
 40
12.0
 40
12.0
 40
12.0
 40
13.0
 40
13.0
 40
13.0
 40
13.0
 10
62.93931069390059
 20
-101.9870564523678
 10
62.72140840445854
 20
-102.1457030994636
 10
62.62821857158253
 20
-102.2197726523964
 10
62.57964272524051
 20
-102.3636053889056
 10
62.57964272524051
 20
-102.3636053889056
 10
63.35806205013271
 20
-102.3636053889056
 10
63.35806205013271
 20
-102.3636053889056
 10
63.35806205013271
 20
-102.3636053889056
 10
63.35806205013271
 20
-102.5687608250523
 10
63.35806205013271
 20
-102.5687608250523
 10
63.35806205013271
 20
-102.5687608250523
 10
62.33004555733416
 20
-102.5687608250523
 10
62.33004555733416
 20
-102.5687608250523
 10
62.36174043579846
 20
-102.2111599136833
 10
62.42736950479247
 20
-102.1329562461681
 10
62.81235892526914
 20
-101.8346109771455
 10
63.0683295198232
 20
-101.6358289676466
 10
63.13378633404295
 20
-101.5681328413614
 10
63.13378633404295
 20
-101.4306735315
 10
63.13378633404295
 20
-101.3121622468074
 10
63.06195609317549
 20
-101.1810763635936
 10
62.86524114096772
 20
-101.1810763635936
 10
62.6049641770571
 20
-101.1810763635936
 10
62.59652369311824
 20
-101.4115532515568
 10
62.59221732376167
 20
-101.5279974789583
 10
62.59221732376167
 20
-101.5279974789583
 10
62.36811386244617
 20
-101.5279974789583
 10
62.36811386244617
 20
-101.5279974789583
 10
62.37655434638503
 20
-101.4010457103268
 10
62.38706188761504
 20
-101.2889078522819
 10
62.46750486719563
 20
-101.1703965675893
 10
62.5774034131751
 20
-101.0096828632024
 10
62.76361082415285
 20
-100.9757486726727
 10
62.88005505155429
 20
-100.9757486726727
 10
63.15721298334265
 20
-100.9757486726727
 10
63.36443547678042
 20
-101.1598890263593
 10
63.36443547678042
 20
-101.4327405887911
 10
63.36443547678042
 20
-101.6611504194632
 10
63.24816350415324
 20
-101.7607136789869
 10
62.93931069390059
 20
-101.9870564523678
 97
        0
 97
        0
 75
     2
 76
     1
 98
        0
  0
SPLINE
  5
7B
330
75
100
AcDbEntity
  8
_U+30EC_U+30A4_U+30E4_U+30FC 1
370
     0
100
AcDbSpline
210
0.0
220
0.0
230
1.0
 70
    11
 71
     3
 72
    53
 73
    49
 74
     0
 42
0.0000000001
 43
0.0000000001
 12
1.0
 22
0.0
 32
0.0
 13
1.0
 23
0.0
 33
0.0
 40
0.0
 40
0.0
 40
0.0
 40
0.0
 40
1.0
 40
1.0
 40
1.0
 40
2.0
 40
2.0
 40
2.0
 40
3.0
 40
3.0
 40
3.0
 40
4.0
 40
4.0
 40
4.0
 40
5.0
 40
5.0
 40
5.0
 40
6.0
 40
6.0
 40
6.0
 40
7.0
 40
7.0
 40
7.0
 40
8.0
 40
8.0
 40
8.0
 40
9.0
 40
9.0
 40
9.0
 40
10.0
 40
10.0
 40
10.0
 40
11.0
 40
11.0
 40
11.0
 40
12.0
 40
12.0
 40
12.0
 40
13.0
 40
13.0
 40
13.0
 40
14.0
 40
14.0
 40
14.0
 40
15.0
 40
15.0
 40
15.0
 40
16.0
 40
16.0
 40
16.0
 40
16.0
 10
64.00401745361705
 20
-102.6195759834597
 30
0.0
 10
63.92564153132762
 20
-102.6195759834597
 30
0.0
 10
63.82418346928701
 20
-102.6025227608077
 30
0.0
 10
63.72255315247214
 20
-102.5391330038791
 30
0.0
 10
63.54909259478981
 20
-102.4290622031254
 30
0.0
 10
63.52790525755552
 20
-102.2979763199116
 30
0.0
 10
63.50895723238665
 20
-102.1901448312233
 30
0.0
 10
63.50895723238665
 20
-102.1901448312233
 30
0.0
 10
63.73099363641101
 20
-102.1901448312233
 30
0.0
 10
63.73099363641101
 20
-102.1901448312233
 30
0.0
 10
63.786115164175
 20
-102.3889268407222
 30
0.0
 10
63.91306693280646
 20
-102.4185546618954
 30
0.0
 10
64.00608451090821
 20
-102.4185546618954
 30
0.0
 10
64.14578313283508
 20
-102.4185546618954
 30
0.0
 10
64.29805635328313
 20
-102.3191636571459
 30
0.0
 10
64.29805635328313
 20
-102.0864474571173
 30
0.0
 10
64.29805635328313
 20
-101.8304768625632
 30
0.0
 10
64.11822236895308
 20
-101.7607136789869
 30
0.0
 10
63.99764402696934
 20
-101.7607136789869
 30
0.0
 10
63.96594914850505
 20
-101.7607136789869
 30
0.0
 10
63.82418346928701
 20
-101.7607136789869
 30
0.0
 10
63.73530000576757
 20
-101.8897325049095
 30
0.0
 10
63.73530000576757
 20
-101.8897325049095
 30
0.0
 10
63.55977239079409
 20
-101.8706122249664
 30
0.0
 10
63.55977239079409
 20
-101.8706122249664
 30
0.0
 10
63.55977239079409
 20
-101.8706122249664
 30
0.0
 10
63.68035073277783
 20
-101.024496773789
 30
0.0
 10
63.68035073277783
 20
-101.024496773789
 30
0.0
 10
63.68035073277783
 20
-101.024496773789
 30
0.0
 10
64.45877005767004
 20
-101.024496773789
 30
0.0
 10
64.45877005767004
 20
-101.024496773789
 30
0.0
 10
64.45877005767004
 20
-101.024496773789
 30
0.0
 10
64.45877005767004
 20
-101.2191446687056
 30
0.0
 10
64.45877005767004
 20
-101.2191446687056
 30
0.0
 10
64.45877005767004
 20
-101.2191446687056
 30
0.0
 10
63.84313149445589
 20
-101.2191446687056
 30
0.0
 10
63.84313149445589
 20
-101.2191446687056
 30
0.0
 10
63.84313149445589
 20
-101.2191446687056
 30
0.0
 10
63.77767468023614
 20
-101.6422023942943
 30
0.0
 10
63.77767468023614
 20
-101.6422023942943
 30
0.0
 10
63.83899737987359
 20
-101.6082682037646
 30
0.0
 10
63.92150741674532
 20
-101.5681328413614
 30
0.0
 10
64.03984644666365
 20
-101.5681328413614
 30
0.0
 10
64.29374998392656
 20
-101.5681328413614
 30
0.0
 10
64.53077255331175
 20
-101.7543402523392
 30
0.0
 10
64.53077255331175
 20
-102.0673271771741
 30
0.0
 10
64.53077255331175
 20
-102.3847927261399
 30
0.0
 10
64.30649683722199
 20
-102.6195759834597
 30
0.0
 10
64.00401745361705
 20
-102.6195759834597
 30
0.0
  0
HATCH
  5
7C
330
75
100
AcDbEntity
  8
_U+30EC_U+30A4_U+30E4_U+30FC 1
 62
     7
420
 16777215
100
AcDbHatch
 10
0.0
 20
0.0
 30
0.0
210
0.0
220
0.0
230
1.0
  2
SOLID
 70
     1
 71
     0
 91
        1
 92
        1
 93
        1
 72
     4
 94
        3
 73
     0
 74
     1
 95
       53
 96
       49
 40
0.0
 40
0.0
 40
0.0
 40
0.0
 40
1.0
 40
1.0
 40
1.0
 40
2.0
 40
2.0
 40
2.0
 40
3.0
 40
3.0
 40
3.0
 40
4.0
 40
4.0
 40
4.0
 40
5.0
 40
5.0
 40
5.0
 40
6.0
 40
6.0
 40
6.0
 40
7.0
 40
7.0
 40
7.0
 40
8.0
 40
8.0
 40
8.0
 40
9.0
 40
9.0
 40
9.0
 40
10.0
 40
10.0
 40
10.0
 40
11.0
 40
11.0
 40
11.0
 40
12.0
 40
12.0
 40
12.0
 40
13.0
 40
13.0
 40
13.0
 40
14.0
 40
14.0
 40
14.0
 40
15.0
 40
15.0
 40
15.0
 40
16.0
 40
16.0
 40
16.0
 40
16.0
 10
64.00401745361705
 20
-102.6195759834597
 10
63.92564153132762
 20
-102.6195759834597
 10
63.82418346928701
 20
-102.6025227608077
 10
63.72255315247214
 20
-102.5391330038791
 10
63.54909259478981
 20
-102.4290622031254
 10
63.52790525755552
 20
-102.2979763199116
 10
63.50895723238665
 20
-102.1901448312233
 10
63.50895723238665
 20
-102.1901448312233
 10
63.73099363641101
 20
-102.1901448312233
 10
63.73099363641101
 20
-102.1901448312233
 10
63.786115164175
 20
-102.3889268407222
 10
63.91306693280646
 20
-102.4185546618954
 10
64.00608451090821
 20
-102.4185546618954
 10
64.14578313283508
 20
-102.4185546618954
 10
64.29805635328313
 20
-102.3191636571459
 10
64.29805635328313
 20
-102.0864474571173
 10
64.29805635328313
 20
-101.8304768625632
 10
64.11822236895308
 20
-101.7607136789869
 10
63.99764402696934
 20
-101.7607136789869
 10
63.96594914850505
 20
-101.7607136789869
 10
63.82418346928701
 20
-101.7607136789869
 10
63.73530000576757
 20
-101.8897325049095
 10
63.73530000576757
 20
-101.8897325049095
 10
63.55977239079409
 20
-101.8706122249664
 10
63.55977239079409
 20
-101.8706122249664
 10
63.55977239079409
 20
-101.8706122249664
 10
63.68035073277783
 20
-101.024496773789
 10
63.68035073277783
 20
-101.024496773789
 10
63.68035073277783
 20
-101.024496773789
 10
64.45877005767004
 20
-101.024496773789
 10
64.45877005767004
 20
-101.024496773789
 10
64.45877005767004
 20
-101.024496773789
 10
64.45877005767004
 20
-101.2191446687056
 10
64.45877005767004
 20
-101.2191446687056
 10
64.45877005767004
 20
-101.2191446687056
 10
63.84313149445589
 20
-101.2191446687056
 10
63.84313149445589
 20
-101.2191446687056
 10
63.84313149445589
 20
-101.2191446687056
 10
63.77767468023614
 20
-101.6422023942943
 10
63.77767468023614
 20
-101.6422023942943
 10
63.83899737987359
 20
-101.6082682037646
 10
63.92150741674532
 20
-101.5681328413614
 10
64.03984644666365
 20
-101.5681328413614
 10
64.29374998392656
 20
-101.5681328413614
 10
64.53077255331175
 20
-101.7543402523392
 10
64.53077255331175
 20
-102.0673271771741
 10
64.53077255331175
 20
-102.3847927261399
 10
64.30649683722199
 20
-102.6195759834597
 10
64.00401745361705
 20
-102.6195759834597
 97
        0
 97
        0
 75
     2
 76
     1
 98
        0
  0
ENDBLK
  5
78
330
75
100
AcDbEntity
  8
0
100
AcDbBlockEnd
  0
BLOCK
  5
87
330
85
100
AcDbEntity
  8
0
100
AcDbBlockBegin
  2
block 3
 70
     0
 10
0.0
 20
0.0
 30
0.0
  3
block 3
  1

  0
SPLINE
  5
89
330
85
100
AcDbEntity
  8
_U+30EC_U+30A4_U+30E4_U+30FC 1
370
     0
100
AcDbSpline
210
0.0
220
0.0
230
1.0
 70
    11
 71
     3
 72
    44
 73
    40
 74
     0
 42
0.0000000001
 43
0.0000000001
 12
1.0
 22
0.0
 32
0.0
 13
1.0
 23
0.0
 33
0.0
 40
0.0
 40
0.0
 40
0.0
 40
0.0
 40
1.0
 40
1.0
 40
1.0
 40
2.0
 40
2.0
 40
2.0
 40
3.0
 40
3.0
 40
3.0
 40
4.0
 40
4.0
 40
4.0
 40
5.0
 40
5.0
 40
5.0
 40
6.0
 40
6.0
 40
6.0
 40
7.0
 40
7.0
 40
7.0
 40
8.0
 40
8.0
 40
8.0
 40
9.0
 40
9.0
 40
9.0
 40
10.0
 40
10.0
 40
10.0
 40
11.0
 40
11.0
 40
11.0
 40
12.0
 40
12.0
 40
12.0
 40
13.0
 40
13.0
 40
13.0
 40
13.0
 10
87.93933510171308
 20
-101.9870564523678
 30
0.0
 10
87.72143281227103
 20
-102.1457030994636
 30
0.0
 10
87.62824297939503
 20
-102.2197726523964
 30
0.0
 10
87.57966713305301
 20
-102.3636053889056
 30
0.0
 10
87.57966713305301
 20
-102.3636053889056
 30
0.0
 10
88.3580864579452
 20
-102.3636053889056
 30
0.0
 10
88.3580864579452
 20
-102.3636053889056
 30
0.0
 10
88.3580864579452
 20
-102.3636053889056
 30
0.0
 10
88.3580864579452
 20
-102.5687608250523
 30
0.0
 10
88.3580864579452
 20
-102.5687608250523
 30
0.0
 10
88.3580864579452
 20
-102.5687608250523
 30
0.0
 10
87.33006996514665
 20
-102.5687608250523
 30
0.0
 10
87.33006996514665
 20
-102.5687608250523
 30
0.0
 10
87.36176484361096
 20
-102.2111599136833
 30
0.0
 10
87.42739391260496
 20
-102.1329562461681
 30
0.0
 10
87.81238333308163
 20
-101.8346109771455
 30
0.0
 10
88.0683539276357
 20
-101.6358289676466
 30
0.0
 10
88.13381074185544
 20
-101.5681328413614
 30
0.0
 10
88.13381074185544
 20
-101.4306735315
 30
0.0
 10
88.13381074185544
 20
-101.3121622468074
 30
0.0
 10
88.06198050098799
 20
-101.1810763635936
 30
0.0
 10
87.86526554878021
 20
-101.1810763635936
 30
0.0
 10
87.60498858486959
 20
-101.1810763635936
 30
0.0
 10
87.59654810093073
 20
-101.4115532515568
 30
0.0
 10
87.59224173157416
 20
-101.5279974789583
 30
0.0
 10
87.59224173157416
 20
-101.5279974789583
 30
0.0
 10
87.36813827025867
 20
-101.5279974789583
 30
0.0
 10
87.36813827025867
 20
-101.5279974789583
 30
0.0
 10
87.37657875419752
 20
-101.4010457103268
 30
0.0
 10
87.38708629542754
 20
-101.2889078522819
 30
0.0
 10
87.46752927500812
 20
-101.1703965675893
 30
0.0
 10
87.5774278209876
 20
-101.0096828632024
 30
0.0
 10
87.76363523196534
 20
-100.9757486726727
 30
0.0
 10
87.88007945936678
 20
-100.9757486726727
 30
0.0
 10
88.15723739115514
 20
-100.9757486726727
 30
0.0
 10
88.36445988459292
 20
-101.1598890263593
 30
0.0
 10
88.36445988459292
 20
-101.4327405887911
 30
0.0
 10
88.36445988459292
 20
-101.6611504194632
 30
0.0
 10
88.24818791196573
 20
-101.7607136789869
 30
0.0
 10
87.93933510171308
 20
-101.9870564523678
 30
0.0
  0
HATCH
  5
8A
330
85
100
AcDbEntity
  8
_U+30EC_U+30A4_U+30E4_U+30FC 1
 62
     7
420
 16777215
100
AcDbHatch
 10
0.0
 20
0.0
 30
0.0
210
0.0
220
0.0
230
1.0
  2
SOLID
 70
     1
 71
     0
 91
        1
 92
        1
 93
        1
 72
     4
 94
        3
 73
     0
 74
     1
 95
       44
 96
       40
 40
0.0
 40
0.0
 40
0.0
 40
0.0
 40
1.0
 40
1.0
 40
1.0
 40
2.0
 40
2.0
 40
2.0
 40
3.0
 40
3.0
 40
3.0
 40
4.0
 40
4.0
 40
4.0
 40
5.0
 40
5.0
 40
5.0
 40
6.0
 40
6.0
 40
6.0
 40
7.0
 40
7.0
 40
7.0
 40
8.0
 40
8.0
 40
8.0
 40
9.0
 40
9.0
 40
9.0
 40
10.0
 40
10.0
 40
10.0
 40
11.0
 40
11.0
 40
11.0
 40
12.0
 40
12.0
 40
12.0
 40
13.0
 40
13.0
 40
13.0
 40
13.0
 10
87.93933510171308
 20
-101.9870564523678
 10
87.72143281227103
 20
-102.1457030994636
 10
87.62824297939503
 20
-102.2197726523964
 10
87.57966713305301
 20
-102.3636053889056
 10
87.57966713305301
 20
-102.3636053889056
 10
88.3580864579452
 20
-102.3636053889056
 10
88.3580864579452
 20
-102.3636053889056
 10
88.3580864579452
 20
-102.3636053889056
 10
88.3580864579452
 20
-102.5687608250523
 10
88.3580864579452
 20
-102.5687608250523
 10
88.3580864579452
 20
-102.5687608250523
 10
87.33006996514665
 20
-102.5687608250523
 10
87.33006996514665
 20
-102.5687608250523
 10
87.36176484361096
 20
-102.2111599136833
 10
87.42739391260496
 20
-102.1329562461681
 10
87.81238333308163
 20
-101.8346109771455
 10
88.0683539276357
 20
-101.6358289676466
 10
88.13381074185544
 20
-101.5681328413614
 10
88.13381074185544
 20
-101.4306735315
 10
88.13381074185544
 20
-101.3121622468074
 10
88.06198050098799
 20
-101.1810763635936
 10
87.86526554878021
 20
-101.1810763635936
 10
87.60498858486959
 20
-101.1810763635936
 10
87.59654810093073
 20
-101.4115532515568
 10
87.59224173157416
 20
-101.5279974789583
 10
87.59224173157416
 20
-101.5279974789583
 10
87.36813827025867
 20
-101.5279974789583
 10
87.36813827025867
 20
-101.5279974789583
 10
87.37657875419752
 20
-101.4010457103268
 10
87.38708629542754
 20
-101.2889078522819
 10
87.46752927500812
 20
-101.1703965675893
 10
87.5774278209876
 20
-101.0096828632024
 10
87.76363523196534
 20
-100.9757486726727
 10
87.88007945936678
 20
-100.9757486726727
 10
88.15723739115514
 20
-100.9757486726727
 10
88.36445988459292
 20
-101.1598890263593
 10
88.36445988459292
 20
-101.4327405887911
 10
88.36445988459292
 20
-101.6611504194632
 10
88.24818791196573
 20
-101.7607136789869
 10
87.93933510171308
 20
-101.9870564523678
 97
        0
 97
        0
 75
     2
 76
     1
 98
        0
  0
SPLINE
  5
8B
330
85
100
AcDbEntity
  8
_U+30EC_U+30A4_U+30E4_U+30FC 1
370
     0
100
AcDbSpline
210
0.0
220
0.0
230
1.0
 70
    11
 71
     3
 72
    53
 73
    49
 74
     0
 42
0.0000000001
 43
0.0000000001
 12
1.0
 22
0.0
 32
0.0
 13
1.0
 23
0.0
 33
0.0
 40
0.0
 40
0.0
 40
0.0
 40
0.0
 40
1.0
 40
1.0
 40
1.0
 40
2.0
 40
2.0
 40
2.0
 40
3.0
 40
3.0
 40
3.0
 40
4.0
 40
4.0
 40
4.0
 40
5.0
 40
5.0
 40
5.0
 40
6.0
 40
6.0
 40
6.0
 40
7.0
 40
7.0
 40
7.0
 40
8.0
 40
8.0
 40
8.0
 40
9.0
 40
9.0
 40
9.0
 40
10.0
 40
10.0
 40
10.0
 40
11.0
 40
11.0
 40
11.0
 40
12.0
 40
12.0
 40
12.0
 40
13.0
 40
13.0
 40
13.0
 40
14.0
 40
14.0
 40
14.0
 40
15.0
 40
15.0
 40
15.0
 40
16.0
 40
16.0
 40
16.0
 40
16.0
 10
89.00386960665529
 20
-102.6195759834597
 30
0.0
 10
88.92566593914012
 20
-102.6195759834597
 30
0.0
 10
88.82403562232524
 20
-102.6025227608077
 30
0.0
 10
88.7227498150589
 20
-102.5391330038791
 30
0.0
 10
88.5491170026023
 20
-102.4290622031254
 30
0.0
 10
88.52792966536802
 20
-102.2979763199116
 30
0.0
 10
88.50898164019915
 20
-102.1901448312233
 30
0.0
 10
88.50898164019915
 20
-102.1901448312233
 30
0.0
 10
88.7310180442235
 20
-102.1901448312233
 30
0.0
 10
88.7310180442235
 20
-102.1901448312233
 30
0.0
 10
88.78613957198749
 20
-102.3889268407222
 30
0.0
 10
88.91291908584469
 20
-102.4185546618954
 30
0.0
 10
89.00593666394644
 20
-102.4185546618954
 30
0.0
 10
89.14580754064758
 20
-102.4185546618954
 30
0.0
 10
89.29808076109562
 20
-102.3191636571459
 30
0.0
 10
89.29808076109562
 20
-102.0864474571173
 30
0.0
 10
89.29808076109562
 20
-101.8304768625632
 30
0.0
 10
89.11824677676559
 20
-101.7607136789869
 30
0.0
 10
88.99766843478184
 20
-101.7607136789869
 30
0.0
 10
88.96597355631754
 20
-101.7607136789869
 30
0.0
 10
88.82403562232524
 20
-101.7607136789869
 30
0.0
 10
88.7351521588058
 20
-101.8897325049095
 30
0.0
 10
88.7351521588058
 20
-101.8897325049095
 30
0.0
 10
88.55979679860658
 20
-101.8706122249664
 30
0.0
 10
88.55979679860658
 20
-101.8706122249664
 30
0.0
 10
88.55979679860658
 20
-101.8706122249664
 30
0.0
 10
88.68037514059033
 20
-101.024496773789
 30
0.0
 10
88.68037514059033
 20
-101.024496773789
 30
0.0
 10
88.68037514059033
 20
-101.024496773789
 30
0.0
 10
89.4589667202568
 20
-101.024496773789
 30
0.0
 10
89.4589667202568
 20
-101.024496773789
 30
0.0
 10
89.4589667202568
 20
-101.024496773789
 30
0.0
 10
89.4589667202568
 20
-101.2191446687056
 30
0.0
 10
89.4589667202568
 20
-101.2191446687056
 30
0.0
 10
89.4589667202568
 20
-101.2191446687056
 30
0.0
 10
88.84332815704265
 20
-101.2191446687056
 30
0.0
 10
88.84332815704265
 20
-101.2191446687056
 30
0.0
 10
88.84332815704265
 20
-101.2191446687056
 30
0.0
 10
88.77752683327438
 20
-101.6422023942943
 30
0.0
 10
88.77752683327438
 20
-101.6422023942943
 30
0.0
 10
88.83884953291182
 20
-101.6082682037646
 30
0.0
 10
88.92153182455782
 20
-101.5681328413614
 30
0.0
 10
89.0400431092504
 20
-101.5681328413614
 30
0.0
 10
89.29394664651332
 20
-101.5681328413614
 30
0.0
 10
89.53062470634998
 20
-101.7543402523392
 30
0.0
 10
89.53062470634998
 20
-102.0673271771741
 30
0.0
 10
89.53062470634998
 20
-102.3847927261399
 30
0.0
 10
89.30634899026022
 20
-102.6195759834597
 30
0.0
 10
89.00386960665529
 20
-102.6195759834597
 30
0.0
  0
HATCH
  5
8C
330
85
100
AcDbEntity
  8
_U+30EC_U+30A4_U+30E4_U+30FC 1
 62
     7
420
 16777215
100
AcDbHatch
 10
0.0
 20
0.0
 30
0.0
210
0.0
220
0.0
230
1.0
  2
SOLID
 70
     1
 71
     0
 91
        1
 92
        1
 93
        1
 72
     4
 94
        3
 73
     0
 74
     1
 95
       53
 96
       49
 40
0.0
 40
0.0
 40
0.0
 40
0.0
 40
1.0
 40
1.0
 40
1.0
 40
2.0
 40
2.0
 40
2.0
 40
3.0
 40
3.0
 40
3.0
 40
4.0
 40
4.0
 40
4.0
 40
5.0
 40
5.0
 40
5.0
 40
6.0
 40
6.0
 40
6.0
 40
7.0
 40
7.0
 40
7.0
 40
8.0
 40
8.0
 40
8.0
 40
9.0
 40
9.0
 40
9.0
 40
10.0
 40
10.0
 40
10.0
 40
11.0
 40
11.0
 40
11.0
 40
12.0
 40
12.0
 40
12.0
 40
13.0
 40
13.0
 40
13.0
 40
14.0
 40
14.0
 40
14.0
 40
15.0
 40
15.0
 40
15.0
 40
16.0
 40
16.0
 40
16.0
 40
16.0
 10
89.00386960665529
 20
-102.6195759834597
 10
88.92566593914012
 20
-102.6195759834597
 10
88.82403562232524
 20
-102.6025227608077
 10
88.7227498150589
 20
-102.5391330038791
 10
88.5491170026023
 20
-102.4290622031254
 10
88.52792966536802
 20
-102.2979763199116
 10
88.50898164019915
 20
-102.1901448312233
 10
88.50898164019915
 20
-102.1901448312233
 10
88.7310180442235
 20
-102.1901448312233
 10
88.7310180442235
 20
-102.1901448312233
 10
88.78613957198749
 20
-102.3889268407222
 10
88.91291908584469
 20
-102.4185546618954
 10
89.00593666394644
 20
-102.4185546618954
 10
89.14580754064758
 20
-102.4185546618954
 10
89.29808076109562
 20
-102.3191636571459
 10
89.29808076109562
 20
-102.0864474571173
 10
89.29808076109562
 20
-101.8304768625632
 10
89.11824677676559
 20
-101.7607136789869
 10
88.99766843478184
 20
-101.7607136789869
 10
88.96597355631754
 20
-101.7607136789869
 10
88.82403562232524
 20
-101.7607136789869
 10
88.7351521588058
 20
-101.8897325049095
 10
88.7351521588058
 20
-101.8897325049095
 10
88.55979679860658
 20
-101.8706122249664
 10
88.55979679860658
 20
-101.8706122249664
 10
88.55979679860658
 20
-101.8706122249664
 10
88.68037514059033
 20
-101.024496773789
 10
88.68037514059033
 20
-101.024496773789
 10
88.68037514059033
 20
-101.024496773789
 10
89.4589667202568
 20
-101.024496773789
 10
89.4589667202568
 20
-101.024496773789
 10
89.4589667202568
 20
-101.024496773789
 10
89.4589667202568
 20
-101.2191446687056
 10
89.4589667202568
 20
-101.2191446687056
 10
89.4589667202568
 20
-101.2191446687056
 10
88.84332815704265
 20
-101.2191446687056
 10
88.84332815704265
 20
-101.2191446687056
 10
88.84332815704265
 20
-101.2191446687056
 10
88.77752683327438
 20
-101.6422023942943
 10
88.77752683327438
 20
-101.6422023942943
 10
88.83884953291182
 20
-101.6082682037646
 10
88.92153182455782
 20
-101.5681328413614
 10
89.0400431092504
 20
-101.5681328413614
 10
89.29394664651332
 20
-101.5681328413614
 10
89.53062470634998
 20
-101.7543402523392
 10
89.53062470634998
 20
-102.0673271771741
 10
89.53062470634998
 20
-102.3847927261399
 10
89.30634899026022
 20
-102.6195759834597
 10
89.00386960665529
 20
-102.6195759834597
 97
        0
 97
        0
 75
     2
 76
     1
 98
        0
  0
ENDBLK
  5
88
330
85
100
AcDbEntity
  8
0
100
AcDbBlockEnd
  0
BLOCK
  5
97
330
95
100
AcDbEntity
  8
0
100
AcDbBlockBegin
  2
block 4
 70
     0
 10
0.0
 20
0.0
 30
0.0
  3
block 4
  1

  0
SPLINE
  5
99
330
95
100
AcDbEntity
  8
_U+30EC_U+30A4_U+30E4_U+30FC 1
370
     0
100
AcDbSpline
210
0.0
220
0.0
230
1.0
 70
    11
 71
     3
 72
    44
 73
    40
 74
     0
 42
0.0000000001
 43
0.0000000001
 12
1.0
 22
0.0
 32
0.0
 13
1.0
 23
0.0
 33
0.0
 40
0.0
 40
0.0
 40
0.0
 40
0.0
 40
1.0
 40
1.0
 40
1.0
 40
2.0
 40
2.0
 40
2.0
 40
3.0
 40
3.0
 40
3.0
 40
4.0
 40
4.0
 40
4.0
 40
5.0
 40
5.0
 40
5.0
 40
6.0
 40
6.0
 40
6.0
 40
7.0
 40
7.0
 40
7.0
 40
8.0
 40
8.0
 40
8.0
 40
9.0
 40
9.0
 40
9.0
 40
10.0
 40
10.0
 40
10.0
 40
11.0
 40
11.0
 40
11.0
 40
12.0
 40
12.0
 40
12.0
 40
13.0
 40
13.0
 40
13.0
 40
13.0
 10
112.9388427452028
 20
-101.9870564523678
 30
0.0
 10
112.721112710535
 20
-102.1457030994636
 30
0.0
 10
112.6280951324333
 20
-102.2197726523964
 30
0.0
 10
112.5791747765427
 20
-102.3636053889056
 30
0.0
 10
112.5791747765427
 20
-102.3636053889056
 30
0.0
 10
113.3577663562092
 20
-102.3636053889056
 30
0.0
 10
113.3577663562092
 20
-102.3636053889056
 30
0.0
 10
113.3577663562092
 20
-102.3636053889056
 30
0.0
 10
113.3577663562092
 20
-102.5687608250523
 30
0.0
 10
113.3577663562092
 20
-102.5687608250523
 30
0.0
 10
113.3577663562092
 20
-102.5687608250523
 30
0.0
 10
112.3297498634106
 20
-102.5687608250523
 30
0.0
 10
112.3297498634106
 20
-102.5687608250523
 30
0.0
 10
112.3614447418749
 20
-102.2111599136833
 30
0.0
 10
112.4269015560947
 20
-102.1329562461681
 30
0.0
 10
112.8120632313456
 20
-101.8346109771455
 30
0.0
 10
113.0680338258997
 20
-101.6358289676466
 30
0.0
 10
113.1334906401194
 20
-101.5681328413614
 30
0.0
 10
113.1334906401194
 20
-101.4306735315
 30
0.0
 10
113.1334906401194
 20
-101.3121622468074
 30
0.0
 10
113.0614881444777
 20
-101.1810763635936
 30
0.0
 10
112.8647731922699
 20
-101.1810763635936
 30
0.0
 10
112.6046684831336
 20
-101.1810763635936
 30
0.0
 10
112.596400253969
 20
-101.4115532515568
 30
0.0
 10
112.5919216298381
 20
-101.5279974789583
 30
0.0
 10
112.5919216298381
 20
-101.5279974789583
 30
0.0
 10
112.3676459137484
 20
-101.5279974789583
 30
0.0
 10
112.3676459137484
 20
-101.5279974789583
 30
0.0
 10
112.3762586524615
 20
-101.4010457103268
 30
0.0
 10
112.3869384484658
 20
-101.2889078522819
 30
0.0
 10
112.4672091732721
 20
-101.1703965675893
 30
0.0
 10
112.5771077192516
 20
-101.0096828632024
 30
0.0
 10
112.7634873850036
 20
-100.9757486726727
 30
0.0
 10
112.8795871028565
 20
-100.9757486726727
 30
0.0
 10
113.1569172894191
 20
-100.9757486726727
 30
0.0
 10
113.3643120376312
 20
-101.1598890263593
 30
0.0
 10
113.3643120376312
 20
-101.4327405887911
 30
0.0
 10
113.3643120376312
 20
-101.6611504194632
 30
0.0
 10
113.2478678102297
 20
-101.7607136789869
 30
0.0
 10
112.9388427452028
 20
-101.9870564523678
 30
0.0
  0
HATCH
  5
9A
330
95
100
AcDbEntity
  8
_U+30EC_U+30A4_U+30E4_U+30FC 1
 62
     7
420
 16777215
100
AcDbHatch
 10
0.0
 20
0.0
 30
0.0
210
0.0
220
0.0
230
1.0
  2
SOLID
 70
     1
 71
     0
 91
        1
 92
        1
 93
        1
 72
     4
 94
        3
 73
     0
 74
     1
 95
       44
 96
       40
 40
0.0
 40
0.0
 40
0.0
 40
0.0
 40
1.0
 40
1.0
 40
1.0
 40
2.0
 40
2.0
 40
2.0
 40
3.0
 40
3.0
 40
3.0
 40
4.0
 40
4.0
 40
4.0
 40
5.0
 40
5.0
 40
5.0
 40
6.0
 40
6.0
 40
6.0
 40
7.0
 40
7.0
 40
7.0
 40
8.0
 40
8.0
 40
8.0
 40
9.0
 40
9.0
 40
9.0
 40
10.0
 40
10.0
 40
10.0
 40
11.0
 40
11.0
 40
11.0
 40
12.0
 40
12.0
 40
12.0
 40
13.0
 40
13.0
 40
13.0
 40
13.0
 10
112.9388427452028
 20
-101.9870564523678
 10
112.721112710535
 20
-102.1457030994636
 10
112.6280951324333
 20
-102.2197726523964
 10
112.5791747765427
 20
-102.3636053889056
 10
112.5791747765427
 20
-102.3636053889056
 10
113.3577663562092
 20
-102.3636053889056
 10
113.3577663562092
 20
-102.3636053889056
 10
113.3577663562092
 20
-102.3636053889056
 10
113.3577663562092
 20
-102.5687608250523
 10
113.3577663562092
 20
-102.5687608250523
 10
113.3577663562092
 20
-102.5687608250523
 10
112.3297498634106
 20
-102.5687608250523
 10
112.3297498634106
 20
-102.5687608250523
 10
112.3614447418749
 20
-102.2111599136833
 10
112.4269015560947
 20
-102.1329562461681
 10
112.8120632313456
 20
-101.8346109771455
 10
113.0680338258997
 20
-101.6358289676466
 10
113.1334906401194
 20
-101.5681328413614
 10
113.1334906401194
 20
-101.4306735315
 10
113.1334906401194
 20
-101.3121622468074
 10
113.0614881444777
 20
-101.1810763635936
 10
112.8647731922699
 20
-101.1810763635936
 10
112.6046684831336
 20
-101.1810763635936
 10
112.596400253969
 20
-101.4115532515568
 10
112.5919216298381
 20
-101.5279974789583
 10
112.5919216298381
 20
-101.5279974789583
 10
112.3676459137484
 20
-101.5279974789583
 10
112.3676459137484
 20
-101.5279974789583
 10
112.3762586524615
 20
-101.4010457103268
 10
112.3869384484658
 20
-101.2889078522819
 10
112.4672091732721
 20
-101.1703965675893
 10
112.5771077192516
 20
-101.0096828632024
 10
112.7634873850036
 20
-100.9757486726727
 10
112.8795871028565
 20
-100.9757486726727
 10
113.1569172894191
 20
-100.9757486726727
 10
113.3643120376312
 20
-101.1598890263593
 10
113.3643120376312
 20
-101.4327405887911
 10
113.3643120376312
 20
-101.6611504194632
 10
113.2478678102297
 20
-101.7607136789869
 10
112.9388427452028
 20
-101.9870564523678
 97
        0
 97
        0
 75
     2
 76
     1
 98
        0
  0
SPLINE
  5
9B
330
95
100
AcDbEntity
  8
_U+30EC_U+30A4_U+30E4_U+30FC 1
370
     0
100
AcDbSpline
210
0.0
220
0.0
230
1.0
 70
    11
 71
     3
 72
    53
 73
    49
 74
     0
 42
0.0000000001
 43
0.0000000001
 12
1.0
 22
0.0
 32
0.0
 13
1.0
 23
0.0
 33
0.0
 40
0.0
 40
0.0
 40
0.0
 40
0.0
 40
1.0
 40
1.0
 40
1.0
 40
2.0
 40
2.0
 40
2.0
 40
3.0
 40
3.0
 40
3.0
 40
4.0
 40
4.0
 40
4.0
 40
5.0
 40
5.0
 40
5.0
 40
6.0
 40
6.0
 40
6.0
 40
7.0
 40
7.0
 40
7.0
 40
8.0
 40
8.0
 40
8.0
 40
9.0
 40
9.0
 40
9.0
 40
10.0
 40
10.0
 40
10.0
 40
11.0
 40
11.0
 40
11.0
 40
12.0
 40
12.0
 40
12.0
 40
13.0
 40
13.0
 40
13.0
 40
14.0
 40
14.0
 40
14.0
 40
15.0
 40
15.0
 40
15.0
 40
16.0
 40
16.0
 40
16.0
 40
16.0
 10
114.0037217596935
 20
-102.6195759834597
 30
0.0
 10
113.9255180921784
 20
-102.6195759834597
 30
0.0
 10
113.8238877753635
 20
-102.6025227608077
 30
0.0
 10
113.7222574585486
 20
-102.5391330038791
 30
0.0
 10
113.5489691556405
 20
-102.4290622031254
 30
0.0
 10
113.527609563632
 20
-102.2979763199116
 30
0.0
 10
113.5086615384631
 20
-102.1901448312233
 30
0.0
 10
113.5086615384631
 20
-102.1901448312233
 30
0.0
 10
113.7308701972617
 20
-102.1901448312233
 30
0.0
 10
113.7308701972617
 20
-102.1901448312233
 30
0.0
 10
113.7856472154772
 20
-102.3889268407222
 30
0.0
 10
113.9127712388829
 20
-102.4185546618954
 30
0.0
 10
114.0057888169847
 20
-102.4185546618954
 30
0.0
 10
114.1453151841373
 20
-102.4185546618954
 30
0.0
 10
114.2975884045853
 20
-102.3191636571459
 30
0.0
 10
114.2975884045853
 20
-102.0864474571173
 30
0.0
 10
114.2975884045853
 20
-101.8304768625632
 30
0.0
 10
114.1177544202553
 20
-101.7607136789869
 30
0.0
 10
113.9971760782716
 20
-101.7607136789869
 30
0.0
 10
113.9654811998072
 20
-101.7607136789869
 30
0.0
 10
113.8238877753635
 20
-101.7607136789869
 30
0.0
 10
113.735004311844
 20
-101.8897325049095
 30
0.0
 10
113.735004311844
 20
-101.8897325049095
 30
0.0
 10
113.5593044420963
 20
-101.8706122249664
 30
0.0
 10
113.5593044420963
 20
-101.8706122249664
 30
0.0
 10
113.5593044420963
 20
-101.8706122249664
 30
0.0
 10
113.67988278408
 20
-101.024496773789
 30
0.0
 10
113.67988278408
 20
-101.024496773789
 30
0.0
 10
113.67988278408
 20
-101.024496773789
 30
0.0
 10
114.4584743637465
 20
-101.024496773789
 30
0.0
 10
114.4584743637465
 20
-101.024496773789
 30
0.0
 10
114.4584743637465
 20
-101.024496773789
 30
0.0
 10
114.4584743637465
 20
-101.2191446687056
 30
0.0
 10
114.4584743637465
 20
-101.2191446687056
 30
0.0
 10
114.4584743637465
 20
-101.2191446687056
 30
0.0
 10
113.8428358005324
 20
-101.2191446687056
 30
0.0
 10
113.8428358005324
 20
-101.2191446687056
 30
0.0
 10
113.8428358005324
 20
-101.2191446687056
 30
0.0
 10
113.7773789863126
 20
-101.6422023942943
 30
0.0
 10
113.7773789863126
 20
-101.6422023942943
 30
0.0
 10
113.8387016859501
 20
-101.6082682037646
 30
0.0
 10
113.9210394680475
 20
-101.5681328413614
 30
0.0
 10
114.0395507527401
 20
-101.5681328413614
 30
0.0
 10
114.293454290003
 20
-101.5681328413614
 30
0.0
 10
114.5304768593882
 20
-101.7543402523392
 30
0.0
 10
114.5304768593882
 20
-102.0673271771741
 30
0.0
 10
114.5304768593882
 20
-102.3847927261399
 30
0.0
 10
114.3062011432985
 20
-102.6195759834597
 30
0.0
 10
114.0037217596935
 20
-102.6195759834597
 30
0.0
  0
HATCH
  5
9C
330
95
100
AcDbEntity
  8
_U+30EC_U+30A4_U+30E4_U+30FC 1
 62
     7
420
 16777215
100
AcDbHatch
 10
0.0
 20
0.0
 30
0.0
210
0.0
220
0.0
230
1.0
  2
SOLID
 70
     1
 71
     0
 91
        1
 92
        1
 93
        1
 72
     4
 94
        3
 73
     0
 74
     1
 95
       53
 96
       49
 40
0.0
 40
0.0
 40
0.0
 40
0.0
 40
1.0
 40
1.0
 40
1.0
 40
2.0
 40
2.0
 40
2.0
 40
3.0
 40
3.0
 40
3.0
 40
4.0
 40
4.0
 40
4.0
 40
5.0
 40
5.0
 40
5.0
 40
6.0
 40
6.0
 40
6.0
 40
7.0
 40
7.0
 40
7.0
 40
8.0
 40
8.0
 40
8.0
 40
9.0
 40
9.0
 40
9.0
 40
10.0
 40
10.0
 40
10.0
 40
11.0
 40
11.0
 40
11.0
 40
12.0
 40
12.0
 40
12.0
 40
13.0
 40
13.0
 40
13.0
 40
14.0
 40
14.0
 40
14.0
 40
15.0
 40
15.0
 40
15.0
 40
16.0
 40
16.0
 40
16.0
 40
16.0
 10
114.0037217596935
 20
-102.6195759834597
 10
113.9255180921784
 20
-102.6195759834597
 10
113.8238877753635
 20
-102.6025227608077
 10
113.7222574585486
 20
-102.5391330038791
 10
113.5489691556405
 20
-102.4290622031254
 10
113.527609563632
 20
-102.2979763199116
 10
113.5086615384631
 20
-102.1901448312233
 10
113.5086615384631
 20
-102.1901448312233
 10
113.7308701972617
 20
-102.1901448312233
 10
113.7308701972617
 20
-102.1901448312233
 10
113.7856472154772
 20
-102.3889268407222
 10
113.9127712388829
 20
-102.4185546618954
 10
114.0057888169847
 20
-102.4185546618954
 10
114.1453151841373
 20
-102.4185546618954
 10
114.2975884045853
 20
-102.3191636571459
 10
114.2975884045853
 20
-102.0864474571173
 10
114.2975884045853
 20
-101.8304768625632
 10
114.1177544202553
 20
-101.7607136789869
 10
113.9971760782716
 20
-101.7607136789869
 10
113.9654811998072
 20
-101.7607136789869
 10
113.8238877753635
 20
-101.7607136789869
 10
113.735004311844
 20
-101.8897325049095
 10
113.735004311844
 20
-101.8897325049095
 10
113.5593044420963
 20
-101.8706122249664
 10
113.5593044420963
 20
-101.8706122249664
 10
113.5593044420963
 20
-101.8706122249664
 10
113.67988278408
 20
-101.024496773789
 10
113.67988278408
 20
-101.024496773789
 10
113.67988278408
 20
-101.024496773789
 10
114.4584743637465
 20
-101.024496773789
 10
114.4584743637465
 20
-101.024496773789
 10
114.4584743637465
 20
-101.024496773789
 10
114.4584743637465
 20
-101.2191446687056
 10
114.4584743637465
 20
-101.2191446687056
 10
114.4584743637465
 20
-101.2191446687056
 10
113.8428358005324
 20
-101.2191446687056
 10
113.8428358005324
 20
-101.2191446687056
 10
113.8428358005324
 20
-101.2191446687056
 10
113.7773789863126
 20
-101.6422023942943
 10
113.7773789863126
 20
-101.6422023942943
 10
113.8387016859501
 20
-101.6082682037646
 10
113.9210394680475
 20
-101.5681328413614
 10
114.0395507527401
 20
-101.5681328413614
 10
114.293454290003
 20
-101.5681328413614
 10
114.5304768593882
 20
-101.7543402523392
 10
114.5304768593882
 20
-102.0673271771741
 10
114.5304768593882
 20
-102.3847927261399
 10
114.3062011432985
 20
-102.6195759834597
 10
114.0037217596935
 20
-102.6195759834597
 97
        0
 97
        0
 75
     2
 76
     1
 98
        0
  0
ENDBLK
  5
98
330
95
100
AcDbEntity
  8
0
100
AcDbBlockEnd
  0
BLOCK
  5
AB
330
A9
100
AcDbEntity
  8
0
100
AcDbBlockBegin
  2
block 5
 70
     0
 10
0.0
 20
0.0
 30
0.0
  3
block 5
  1

  0
SPLINE
  5
AD
330
A9
100
AcDbEntity
  8
_U+30EC_U+30A4_U+30E4_U+30FC 1
370
     0
100
AcDbSpline
210
0.0
220
0.0
230
1.0
 70
    11
 71
     3
 72
    53
 73
    49
 74
     0
 42
0.0000000001
 43
0.0000000001
 12
1.0
 22
0.0
 32
0.0
 13
1.0
 23
0.0
 33
0.0
 40
0.0
 40
0.0
 40
0.0
 40
0.0
 40
1.0
 40
1.0
 40
1.0
 40
2.0
 40
2.0
 40
2.0
 40
3.0
 40
3.0
 40
3.0
 40
4.0
 40
4.0
 40
4.0
 40
5.0
 40
5.0
 40
5.0
 40
6.0
 40
6.0
 40
6.0
 40
7.0
 40
7.0
 40
7.0
 40
8.0
 40
8.0
 40
8.0
 40
9.0
 40
9.0
 40
9.0
 40
10.0
 40
10.0
 40
10.0
 40
11.0
 40
11.0
 40
11.0
 40
12.0
 40
12.0
 40
12.0
 40
13.0
 40
13.0
 40
13.0
 40
14.0
 40
14.0
 40
14.0
 40
15.0
 40
15.0
 40
15.0
 40
16.0
 40
16.0
 40
16.0
 40
16.0
 10
129.3399088218317
 20
-133.8216335385932
 30
0.0
 10
129.3399088218317
 20
-133.8998372061084
 30
0.0
 10
129.323027853954
 20
-134.0014675229233
 30
0.0
 10
129.2596380970254
 20
-134.1030978397381
 30
0.0
 10
129.1497395510459
 20
-134.2763861426462
 30
0.0
 10
129.0184814130579
 20
-134.2977457346547
 30
0.0
 10
128.9106499243696
 20
-134.3166937598236
 30
0.0
 10
128.9106499243696
 20
-134.3166937598236
 30
0.0
 10
128.9106499243696
 20
-134.094485101025
 30
0.0
 10
128.9106499243696
 20
-134.094485101025
 30
0.0
 10
129.1094319338685
 20
-134.0397080828095
 30
0.0
 10
129.1390597550416
 20
-133.9125840594038
 30
0.0
 10
129.1390597550416
 20
-133.819566481302
 30
0.0
 10
129.1390597550416
 20
-133.6800401141494
 30
0.0
 10
129.0394964955179
 20
-133.5277668937014
 30
0.0
 10
128.8069525502635
 20
-133.5277668937014
 30
0.0
 10
128.5509819557095
 20
-133.5277668937014
 30
0.0
 10
128.4810465173589
 20
-133.7076008780314
 30
0.0
 10
128.4810465173589
 20
-133.8281792200152
 30
0.0
 10
128.4810465173589
 20
-133.8598740984795
 30
0.0
 10
128.4810465173589
 20
-134.0014675229233
 30
0.0
 10
128.6102375980558
 20
-134.0903509864427
 30
0.0
 10
128.6102375980558
 20
-134.0903509864427
 30
0.0
 10
128.5912895728869
 20
-134.2660508561904
 30
0.0
 10
128.5912895728869
 20
-134.2660508561904
 30
0.0
 10
128.5912895728869
 20
-134.2660508561904
 30
0.0
 10
127.744829612161
 20
-134.1454725142067
 30
0.0
 10
127.744829612161
 20
-134.1454725142067
 30
0.0
 10
127.744829612161
 20
-134.1454725142067
 30
0.0
 10
127.744829612161
 20
-133.3668809345402
 30
0.0
 10
127.744829612161
 20
-133.3668809345402
 30
0.0
 10
127.744829612161
 20
-133.3668809345402
 30
0.0
 10
127.9394775070776
 20
-133.3668809345402
 30
0.0
 10
127.9394775070776
 20
-133.3668809345402
 30
0.0
 10
127.9394775070776
 20
-133.3668809345402
 30
0.0
 10
127.9394775070776
 20
-133.9825194977544
 30
0.0
 10
127.9394775070776
 20
-133.9825194977544
 30
0.0
 10
127.9394775070776
 20
-133.9825194977544
 30
0.0
 10
128.3625352326663
 20
-134.0479763119741
 30
0.0
 10
128.3625352326663
 20
-134.0479763119741
 30
0.0
 10
128.3287732969109
 20
-133.9866536123367
 30
0.0
 10
128.2884656797334
 20
-133.9043158302392
 30
0.0
 10
128.2884656797334
 20
-133.7858045455466
 30
0.0
 10
128.2884656797334
 20
-133.5319010082837
 30
0.0
 10
128.4748453454854
 20
-133.2948784388985
 30
0.0
 10
128.7880045250947
 20
-133.2948784388985
 30
0.0
 10
129.1052978192862
 20
-133.2948784388985
 30
0.0
 10
129.3399088218317
 20
-133.5191541549883
 30
0.0
 10
129.3399088218317
 20
-133.8216335385932
 30
0.0
  0
HATCH
  5
AE
330
A9
100
AcDbEntity
  8
_U+30EC_U+30A4_U+30E4_U+30FC 1
 62
     7
420
 16777215
100
AcDbHatch
 10
0.0
 20
0.0
 30
0.0
210
0.0
220
0.0
230
1.0
  2
SOLID
 70
     1
 71
     0
 91
        1
 92
        1
 93
        1
 72
     4
 94
        3
 73
     0
 74
     1
 95
       53
 96
       49
 40
0.0
 40
0.0
 40
0.0
 40
0.0
 40
1.0
 40
1.0
 40
1.0
 40
2.0
 40
2.0
 40
2.0
 40
3.0
 40
3.0
 40
3.0
 40
4.0
 40
4.0
 40
4.0
 40
5.0
 40
5.0
 40
5.0
 40
6.0
 40
6.0
 40
6.0
 40
7.0
 40
7.0
 40
7.0
 40
8.0
 40
8.0
 40
8.0
 40
9.0
 40
9.0
 40
9.0
 40
10.0
 40
10.0
 40
10.0
 40
11.0
 40
11.0
 40
11.0
 40
12.0
 40
12.0
 40
12.0
 40
13.0
 40
13.0
 40
13.0
 40
14.0
 40
14.0
 40
14.0
 40
15.0
 40
15.0
 40
15.0
 40
16.0
 40
16.0
 40
16.0
 40
16.0
 10
129.3399088218317
 20
-133.8216335385932
 10
129.3399088218317
 20
-133.8998372061084
 10
129.323027853954
 20
-134.0014675229233
 10
129.2596380970254
 20
-134.1030978397381
 10
129.1497395510459
 20
-134.2763861426462
 10
129.0184814130579
 20
-134.2977457346547
 10
128.9106499243696
 20
-134.3166937598236
 10
128.9106499243696
 20
-134.3166937598236
 10
128.9106499243696
 20
-134.094485101025
 10
128.9106499243696
 20
-134.094485101025
 10
129.1094319338685
 20
-134.0397080828095
 10
129.1390597550416
 20
-133.9125840594038
 10
129.1390597550416
 20
-133.819566481302
 10
129.1390597550416
 20
-133.6800401141494
 10
129.0394964955179
 20
-133.5277668937014
 10
128.8069525502635
 20
-133.5277668937014
 10
128.5509819557095
 20
-133.5277668937014
 10
128.4810465173589
 20
-133.7076008780314
 10
128.4810465173589
 20
-133.8281792200152
 10
128.4810465173589
 20
-133.8598740984795
 10
128.4810465173589
 20
-134.0014675229233
 10
128.6102375980558
 20
-134.0903509864427
 10
128.6102375980558
 20
-134.0903509864427
 10
128.5912895728869
 20
-134.2660508561904
 10
128.5912895728869
 20
-134.2660508561904
 10
128.5912895728869
 20
-134.2660508561904
 10
127.744829612161
 20
-134.1454725142067
 10
127.744829612161
 20
-134.1454725142067
 10
127.744829612161
 20
-134.1454725142067
 10
127.744829612161
 20
-133.3668809345402
 10
127.744829612161
 20
-133.3668809345402
 10
127.744829612161
 20
-133.3668809345402
 10
127.9394775070776
 20
-133.3668809345402
 10
127.9394775070776
 20
-133.3668809345402
 10
127.9394775070776
 20
-133.3668809345402
 10
127.9394775070776
 20
-133.9825194977544
 10
127.9394775070776
 20
-133.9825194977544
 10
127.9394775070776
 20
-133.9825194977544
 10
128.3625352326663
 20
-134.0479763119741
 10
128.3625352326663
 20
-134.0479763119741
 10
128.3287732969109
 20
-133.9866536123367
 10
128.2884656797334
 20
-133.9043158302392
 10
128.2884656797334
 20
-133.7858045455466
 10
128.2884656797334
 20
-133.5319010082837
 10
128.4748453454854
 20
-133.2948784388985
 10
128.7880045250947
 20
-133.2948784388985
 10
129.1052978192862
 20
-133.2948784388985
 10
129.3399088218317
 20
-133.5191541549883
 10
129.3399088218317
 20
-133.8216335385932
 97
        0
 97
        0
 75
     2
 76
     1
 98
        0
  0
SPLINE
  5
AF
330
A9
100
AcDbEntity
  8
_U+30EC_U+30A4_U+30E4_U+30FC 1
370
     0
100
AcDbSpline
210
0.0
220
0.0
230
1.0
 70
    11
 71
     3
 72
    29
 73
    25
 74
     0
 42
0.0000000001
 43
0.0000000001
 12
1.0
 22
0.0
 32
0.0
 13
1.0
 23
0.0
 33
0.0
 40
0.0
 40
0.0
 40
0.0
 40
0.0
 40
1.0
 40
1.0
 40
1.0
 40
2.0
 40
2.0
 40
2.0
 40
3.0
 40
3.0
 40
3.0
 40
4.0
 40
4.0
 40
4.0
 40
5.0
 40
5.0
 40
5.0
 40
6.0
 40
6.0
 40
6.0
 40
7.0
 40
7.0
 40
7.0
 40
8.0
 40
8.0
 40
8.0
 40
8.0
 10
129.1114989911596
 20
-132.2279323671166
 30
0.0
 10
129.3209607966628
 20
-132.3361083653535
 30
0.0
 10
129.3399088218317
 20
-132.5093966682616
 30
0.0
 10
129.3399088218317
 20
-132.625840895663
 30
0.0
 10
129.3399088218317
 20
-132.7867268548242
 30
0.0
 10
129.2934000327808
 20
-132.9283202792679
 30
0.0
 10
129.1114989911596
 20
-133.0234049146608
 30
0.0
 10
128.916851096243
 20
-133.1271022887668
 30
0.0
 10
128.6801730364064
 20
-133.1460503139357
 30
0.0
 10
128.517220019954
 20
-133.1460503139357
 30
0.0
 10
128.3732150286706
 20
-133.1460503139357
 30
0.0
 10
128.1213785486988
 20
-133.129169346058
 30
0.0
 10
127.9225965391999
 20
-133.0234049146608
 30
0.0
 10
127.7196804151187
 20
-132.9155734259725
 30
0.0
 10
127.696253765819
 20
-132.7546874668113
 30
0.0
 10
127.696253765819
 20
-132.625840895663
 30
0.0
 10
127.696253765819
 20
-132.467021993793
 30
0.0
 10
127.7406954975787
 20
-132.3233615120581
 30
0.0
 10
127.9225965391999
 20
-132.2279323671166
 30
0.0
 10
128.1151773768254
 20
-132.1287136171414
 30
0.0
 10
128.3435872074974
 20
-132.1052869678417
 30
0.0
 10
128.517220019954
 20
-132.1052869678417
 30
0.0
 10
128.688441265571
 20
-132.1052869678417
 30
0.0
 10
128.9189181535342
 20
-132.1266465598503
 30
0.0
 10
129.1114989911596
 20
-132.2279323671166
 30
0.0
  0
SPLINE
  5
B0
330
A9
100
AcDbEntity
  8
_U+30EC_U+30A4_U+30E4_U+30FC 1
370
     0
100
AcDbSpline
210
0.0
220
0.0
230
1.0
 70
    11
 71
     3
 72
    17
 73
    13
 74
     0
 42
0.0000000001
 43
0.0000000001
 12
1.0
 22
0.0
 32
0.0
 13
1.0
 23
0.0
 33
0.0
 40
0.0
 40
0.0
 40
0.0
 40
0.0
 40
1.0
 40
1.0
 40
1.0
 40
2.0
 40
2.0
 40
2.0
 40
3.0
 40
3.0
 40
3.0
 40
4.0
 40
4.0
 40
4.0
 40
4.0
 10
127.8888346034445
 20
-132.625840895663
 30
0.0
 10
127.8888346034445
 20
-132.8752658087951
 30
0.0
 10
128.1723659618805
 20
-132.9221191073945
 30
0.0
 10
128.517220019954
 20
-132.9221191073945
 30
0.0
 10
128.8365803714367
 20
-132.9221191073945
 30
0.0
 10
129.1452609269151
 20
-132.8859456047994
 30
0.0
 10
129.1452609269151
 20
-132.625840895663
 30
0.0
 10
129.1452609269151
 20
-132.3781385302735
 30
0.0
 10
128.8641411353187
 20
-132.3295626839315
 30
0.0
 10
128.517220019954
 20
-132.3295626839315
 30
0.0
 10
128.1975151589228
 20
-132.3295626839315
 30
0.0
 10
127.8888346034445
 20
-132.3678032438178
 30
0.0
 10
127.8888346034445
 20
-132.625840895663
 30
0.0
  0
HATCH
  5
B1
330
A9
100
AcDbEntity
  8
_U+30EC_U+30A4_U+30E4_U+30FC 1
 62
     7
420
 16777215
100
AcDbHatch
 10
0.0
 20
0.0
 30
0.0
210
0.0
220
0.0
230
1.0
  2
SOLID
 70
     1
 71
     0
 91
        2
 92
        1
 93
        1
 72
     4
 94
        3
 73
     0
 74
     1
 95
       29
 96
       25
 40
0.0
 40
0.0
 40
0.0
 40
0.0
 40
1.0
 40
1.0
 40
1.0
 40
2.0
 40
2.0
 40
2.0
 40
3.0
 40
3.0
 40
3.0
 40
4.0
 40
4.0
 40
4.0
 40
5.0
 40
5.0
 40
5.0
 40
6.0
 40
6.0
 40
6.0
 40
7.0
 40
7.0
 40
7.0
 40
8.0
 40
8.0
 40
8.0
 40
8.0
 10
129.1114989911596
 20
-132.2279323671166
 10
129.3209607966628
 20
-132.3361083653535
 10
129.3399088218317
 20
-132.5093966682616
 10
129.3399088218317
 20
-132.625840895663
 10
129.3399088218317
 20
-132.7867268548242
 10
129.2934000327808
 20
-132.9283202792679
 10
129.1114989911596
 20
-133.0234049146608
 10
128.916851096243
 20
-133.1271022887668
 10
128.6801730364064
 20
-133.1460503139357
 10
128.517220019954
 20
-133.1460503139357
 10
128.3732150286706
 20
-133.1460503139357
 10
128.1213785486988
 20
-133.129169346058
 10
127.9225965391999
 20
-133.0234049146608
 10
127.7196804151187
 20
-132.9155734259725
 10
127.696253765819
 20
-132.7546874668113
 10
127.696253765819
 20
-132.625840895663
 10
127.696253765819
 20
-132.467021993793
 10
127.7406954975787
 20
-132.3233615120581
 10
127.9225965391999
 20
-132.2279323671166
 10
128.1151773768254
 20
-132.1287136171414
 10
128.3435872074974
 20
-132.1052869678417
 10
128.517220019954
 20
-132.1052869678417
 10
128.688441265571
 20
-132.1052869678417
 10
128.9189181535342
 20
-132.1266465598503
 10
129.1114989911596
 20
-132.2279323671166
 97
        0
 97
        0
 92
        1
 93
        1
 72
     4
 94
        3
 73
     0
 74
     1
 95
       17
 96
       13
 40
0.0
 40
0.0
 40
0.0
 40
0.0
 40
1.0
 40
1.0
 40
1.0
 40
2.0
 40
2.0
 40
2.0
 40
3.0
 40
3.0
 40
3.0
 40
4.0
 40
4.0
 40
4.0
 40
4.0
 10
127.8888346034445
 20
-132.625840895663
 10
127.8888346034445
 20
-132.8752658087951
 10
128.1723659618805
 20
-132.9221191073945
 10
128.517220019954
 20
-132.9221191073945
 10
128.8365803714367
 20
-132.9221191073945
 10
129.1452609269151
 20
-132.8859456047994
 10
129.1452609269151
 20
-132.625840895663
 10
129.1452609269151
 20
-132.3781385302735
 10
128.8641411353187
 20
-132.3295626839315
 10
128.517220019954
 20
-132.3295626839315
 10
128.1975151589228
 20
-132.3295626839315
 10
127.8888346034445
 20
-132.3678032438178
 10
127.8888346034445
 20
-132.625840895663
 97
        0
 97
        0
 75
     2
 76
     1
 98
        0
  0
ENDBLK
  5
AC
330
A9
100
AcDbEntity
  8
0
100
AcDbBlockEnd
  0
ENDSEC
  0
SECTION
  2
ENTITIES
  0
POLYLINE
  5
41
330
1F
100
AcDbEntity
  8
_U+30EC_U+30A4_U+30E4_U+30FC 1
 62
     7
420
 16777215
370
    25
100
AcDb2dPolyline
 66
     1
 10
0.0
 20
0.0
 30
0.0
  0
VERTEX
  5
42
330
41
100
AcDbEntity
  8
_U+30EC_U+30A4_U+30E4_U+30FC 1
 62
     7
420
 16777215
370
    25
100
AcDbVertex
100
AcDb2dVertex
 10
51.43457535446133
 20
-108.2145833062797
 30
0.0
  0
VERTEX
  5
43
330
41
100
AcDbEntity
  8
_U+30EC_U+30A4_U+30E4_U+30FC 1
 62
     7
420
 16777215
370
    25
100
AcDbVertex
100
AcDb2dVertex
 10
55.93457329521237
 20
-108.2145833062797
 30
0.0
  0
SEQEND
  5
44
330
41
100
AcDbEntity
  8
_U+30EC_U+30A4_U+30E4_U+30FC 1
 62
     7
420
 16777215
370
    25
  0
POLYLINE
  5
45
330
1F
100
AcDbEntity
  8
_U+30EC_U+30A4_U+30E4_U+30FC 1
 62
     7
420
 16777215
370
    25
100
AcDb2dPolyline
 66
     1
 10
0.0
 20
0.0
 30
0.0
  0
VERTEX
  5
46
330
45
100
AcDbEntity
  8
_U+30EC_U+30A4_U+30E4_U+30FC 1
 62
     7
420
 16777215
370
    25
100
AcDbVertex
100
AcDb2dVertex
 10
76.93483609187727
 20
-158.2139541271131
 30
0.0
  0
VERTEX
  5
47
330
45
100
AcDbEntity
  8
_U+30EC_U+30A4_U+30E4_U+30FC 1
 62
     7
420
 16777215
370
    25
100
AcDbVertex
100
AcDb2dVertex
 10
99.93463939489939
 20
-158.2139541271131
 30
0.0
  0
SEQEND
  5
48
330
45
100
AcDbEntity
  8
_U+30EC_U+30A4_U+30E4_U+30FC 1
 62
     7
420
 16777215
370
    25
  0
POLYLINE
  5
49
330
1F
100
AcDbEntity
  8
_U+30EC_U+30A4_U+30E4_U+30FC 1
 62
     7
420
 16777215
370
    25
100
AcDb2dPolyline
 66
     1
 10
0.0
 20
0.0
 30
0.0
  0
VERTEX
  5
4A
330
49
100
AcDbEntity
  8
_U+30EC_U+30A4_U+30E4_U+30FC 1
 62
     7
420
 16777215
370
    25
100
AcDbVertex
100
AcDb2dVertex
 10
51.43457535446133
 20
-107.2141408065298
 30
0.0
  0
VERTEX
  5
4B
330
49
100
AcDbEntity
  8
_U+30EC_U+30A4_U+30E4_U+30FC 1
 62
     7
420
 16777215
370
    25
100
AcDbVertex
100
AcDb2dVertex
 10
74.93497225491626
 20
-107.2141408065298
 30
0.0
  0
SEQEND
  5
4C
330
49
100
AcDbEntity
  8
_U+30EC_U+30A4_U+30E4_U+30FC 1
 62
     7
420
 16777215
370
    25
  0
POLYLINE
  5
4D
330
1F
100
AcDbEntity
  8
_U+30EC_U+30A4_U+30E4_U+30FC 1
 62
     7
420
 16777215
370
    25
100
AcDb2dPolyline
 66
     1
 10
0.0
 20
0.0
 30
0.0
  0
VERTEX
  5
4E
330
4D
100
AcDbEntity
  8
_U+30EC_U+30A4_U+30E4_U+30FC 1
 62
     7
420
 16777215
370
    25
100
AcDbVertex
100
AcDb2dVertex
 10
100.9347643693841
 20
-108.2145833062797
 30
0.0
  0
VERTEX
  5
4F
330
4D
100
AcDbEntity
  8
_U+30EC_U+30A4_U+30E4_U+30FC 1
 62
     7
420
 16777215
370
    25
100
AcDbVertex
100
AcDb2dVertex
 10
100.9347643693841
 20
-157.2134763495856
 30
0.0
  0
SEQEND
  5
50
330
4D
100
AcDbEntity
  8
_U+30EC_U+30A4_U+30E4_U+30FC 1
 62
     7
420
 16777215
370
    25
  0
POLYLINE
  5
51
330
1F
100
AcDbEntity
  8
_U+30EC_U+30A4_U+30E4_U+30FC 1
 62
     7
420
 16777215
370
    25
100
AcDb2dPolyline
 66
     1
 10
0.0
 20
0.0
 30
0.0
  0
VERTEX
  5
52
330
51
100
AcDbEntity
  8
_U+30EC_U+30A4_U+30E4_U+30FC 1
 62
     7
420
 16777215
370
    25
100
AcDbVertex
100
AcDb2dVertex
 10
75.93471109212729
 20
-108.2145833062797
 30
0.0
  0
VERTEX
  5
53
330
51
100
AcDbEntity
  8
_U+30EC_U+30A4_U+30E4_U+30FC 1
 62
     7
420
 16777215
370
    25
100
AcDbVertex
100
AcDb2dVertex
 10
75.93471109212729
 20
-157.2134763495856
 30
0.0
  0
SEQEND
  5
54
330
51
100
AcDbEntity
  8
_U+30EC_U+30A4_U+30E4_U+30FC 1
 62
     7
420
 16777215
370
    25
  0
POLYLINE
  5
55
330
1F
100
AcDbEntity
  8
_U+30EC_U+30A4_U+30E4_U+30FC 1
 62
     7
420
 16777215
370
    25
100
AcDb2dPolyline
 66
     1
 10
0.0
 20
0.0
 30
0.0
  0
VERTEX
  5
56
330
55
100
AcDbEntity
  8
_U+30EC_U+30A4_U+30E4_U+30FC 1
 62
     7
420
 16777215
370
    25
100
AcDbVertex
100
AcDb2dVertex
 10
101.9348540660919
 20
-107.2141408065298
 30
0.0
  0
VERTEX
  5
57
330
55
100
AcDbEntity
  8
_U+30EC_U+30A4_U+30E4_U+30FC 1
 62
     7
420
 16777215
370
    25
100
AcDbVertex
100
AcDb2dVertex
 10
125.434898188778
 20
-107.2141408065298
 30
0.0
  0
SEQEND
  5
58
330
55
100
AcDbEntity
  8
_U+30EC_U+30A4_U+30E4_U+30FC 1
 62
     7
420
 16777215
370
    25
  0
POLYLINE
  5
59
330
1F
100
AcDbEntity
  8
_U+30EC_U+30A4_U+30E4_U+30FC 1
 62
     7
420
 16777215
370
    25
100
AcDb2dPolyline
 66
     1
 10
0.0
 20
0.0
 30
0.0
  0
VERTEX
  5
5A
330
59
100
AcDbEntity
  8
_U+30EC_U+30A4_U+30E4_U+30FC 1
 62
     7
420
 16777215
370
    25
100
AcDbVertex
100
AcDb2dVertex
 10
120.934900248027
 20
-108.2145833062797
 30
0.0
  0
VERTEX
  5
5B
330
59
100
AcDbEntity
  8
_U+30EC_U+30A4_U+30E4_U+30FC 1
 62
     7
420
 16777215
370
    25
100
AcDbVertex
100
AcDb2dVertex
 10
125.434898188778
 20
-108.2145833062797
 30
0.0
  0
SEQEND
  5
5C
330
59
100
AcDbEntity
  8
_U+30EC_U+30A4_U+30E4_U+30FC 1
 62
     7
420
 16777215
370
    25
  0
SPLINE
  5
5D
330
1F
100
AcDbEntity
  8
_U+30EC_U+30A4_U+30E4_U+30FC 1
 62
     7
420
 16777215
370
    25
100
AcDbSpline
210
0.0
220
0.0
230
1.0
 70
     8
 71
     3
 72
    11
 73
     7
 74
     0
 42
0.0000000001
 43
0.0000000001
 12
1.0
 22
0.0
 32
0.0
 13
1.0
 23
0.0
 33
0.0
 40
0.0
 40
0.0
 40
0.0
 40
0.0
 40
1.0
 40
1.0
 40
1.0
 40
2.0
 40
2.0
 40
2.0
 40
2.0
 10
125.434898188778
 20
-108.2145833062797
 30
0.0
 10
125.7108409595159
 20
-108.2145833062797
 30
0.0
 10
125.934784287136
 20
-107.9906399730024
 30
0.0
 10
125.934784287136
 20
-107.714344417516
 30
0.0
 10
125.934784287136
 20
-107.4380488620295
 30
0.0
 10
125.7108409595159
 20
-107.2141408065298
 30
0.0
 10
125.434898188778
 20
-107.2141408065298
 30
0.0
  0
SPLINE
  5
5E
330
1F
100
AcDbEntity
  8
_U+30EC_U+30A4_U+30E4_U+30FC 1
 62
     7
420
 16777215
370
    25
100
AcDbSpline
210
0.0
220
0.0
230
1.0
 70
     8
 71
     3
 72
    11
 73
     7
 74
     0
 42
0.0000000001
 43
0.0000000001
 12
1.0
 22
0.0
 32
0.0
 13
1.0
 23
0.0
 33
0.0
 40
0.0
 40
0.0
 40
0.0
 40
0.0
 40
1.0
 40
1.0
 40
1.0
 40
2.0
 40
2.0
 40
2.0
 40
2.0
 10
51.43457535446133
 20
-107.2141408065298
 30
0.0
 10
51.15863258372344
 20
-107.2141408065298
 30
0.0
 10
50.93468925610338
 20
-107.4380488620295
 30
0.0
 10
50.93468925610338
 20
-107.714344417516
 30
0.0
 10
50.93468925610338
 20
-107.9906399730024
 30
0.0
 10
51.15863258372344
 20
-108.2145833062797
 30
0.0
 10
51.43457535446133
 20
-108.2145833062797
 30
0.0
  0
SPLINE
  5
5F
330
1F
100
AcDbEntity
  8
_U+30EC_U+30A4_U+30E4_U+30FC 1
 62
     7
420
 16777215
370
    25
100
AcDbSpline
210
0.0
220
0.0
230
1.0
 70
     8
 71
     3
 72
     8
 73
     4
 74
     0
 42
0.0000000001
 43
0.0000000001
 12
1.0
 22
0.0
 32
0.0
 13
1.0
 23
0.0
 33
0.0
 40
0.0
 40
0.0
 40
0.0
 40
0.0
 40
1.0
 40
1.0
 40
1.0
 40
1.0
 10
75.93471109212729
 20
-108.2145833062797
 30
0.0
 10
75.93471109212729
 20
-107.6619921953068
 30
0.0
 10
75.48685779639204
 20
-107.2141408065298
 30
0.0
 10
74.93497225491626
 20
-107.2141408065298
 30
0.0
  0
SPLINE
  5
60
330
1F
100
AcDbEntity
  8
_U+30EC_U+30A4_U+30E4_U+30FC 1
 62
     7
420
 16777215
370
    25
100
AcDbSpline
210
0.0
220
0.0
230
1.0
 70
     8
 71
     3
 72
     8
 73
     4
 74
     0
 42
0.0000000001
 43
0.0000000001
 12
1.0
 22
0.0
 32
0.0
 13
1.0
 23
0.0
 33
0.0
 40
0.0
 40
0.0
 40
0.0
 40
0.0
 40
1.0
 40
1.0
 40
1.0
 40
1.0
 10
75.93471109212729
 20
-157.2134763495856
 30
0.0
 10
75.93471109212729
 20
-157.7660674605585
 30
0.0
 10
76.38259582909541
 20
-158.2139541271131
 30
0.0
 10
76.93483609187727
 20
-158.2139541271131
 30
0.0
  0
SPLINE
  5
61
330
1F
100
AcDbEntity
  8
_U+30EC_U+30A4_U+30E4_U+30FC 1
 62
     7
420
 16777215
370
    25
100
AcDbSpline
210
0.0
220
0.0
230
1.0
 70
     8
 71
     3
 72
     8
 73
     4
 74
     0
 42
0.0000000001
 43
0.0000000001
 12
1.0
 22
0.0
 32
0.0
 13
1.0
 23
0.0
 33
0.0
 40
0.0
 40
0.0
 40
0.0
 40
0.0
 40
1.0
 40
1.0
 40
1.0
 40
1.0
 10
99.93463939489939
 20
-158.2139541271131
 30
0.0
 10
100.4868777141439
 20
-158.2139541271131
 30
0.0
 10
100.9347643693841
 20
-157.7660674605585
 30
0.0
 10
100.9347643693841
 20
-157.2134763495856
 30
0.0
  0
SPLINE
  5
62
330
1F
100
AcDbEntity
  8
_U+30EC_U+30A4_U+30E4_U+30FC 1
 62
     7
420
 16777215
370
    25
100
AcDbSpline
210
0.0
220
0.0
230
1.0
 70
     8
 71
     3
 72
     8
 73
     4
 74
     0
 42
0.0000000001
 43
0.0000000001
 12
1.0
 22
0.0
 32
0.0
 13
1.0
 23
0.0
 33
0.0
 40
0.0
 40
0.0
 40
0.0
 40
0.0
 40
1.0
 40
1.0
 40
1.0
 40
1.0
 10
101.9348540660919
 20
-107.2141408065298
 30
0.0
 10
101.3826157468473
 20
-107.2141408065298
 30
0.0
 10
100.9347643693841
 20
-107.6619921953068
 30
0.0
 10
100.9347643693841
 20
-108.2145833062797
 30
0.0
  0
SPLINE
  5
63
330
1F
100
AcDbEntity
  8
_U+30EC_U+30A4_U+30E4_U+30FC 1
 62
     7
420
 16777215
370
     9
100
AcDbSpline
210
0.0
220
0.0
230
1.0
 70
    11
 71
     3
 72
    17
 73
    13
 74
     0
 42
0.0000000001
 43
0.0000000001
 12
1.0
 22
0.0
 32
0.0
 13
1.0
 23
0.0
 33
0.0
 40
0.0
 40
0.0
 40
0.0
 40
0.0
 40
1.0
 40
1.0
 40
1.0
 40
2.0
 40
2.0
 40
2.0
 40
3.0
 40
3.0
 40
3.0
 40
4.0
 40
4.0
 40
4.0
 40
4.0
 10
130.03476751587
 20
-158.2139541271131
 30
0.0
 10
130.03476751587
 20
-158.15881496046
 30
0.0
 10
129.9900000170121
 20
-158.1140474604714
 30
0.0
 10
129.9348608517522
 20
-158.1140474604714
 30
0.0
 10
129.8794041865004
 20
-158.1140474604714
 30
0.0
 10
129.8346366876425
 20
-158.15881496046
 30
0.0
 10
129.8346366876425
 20
-158.2139541271131
 30
0.0
 10
129.8346366876425
 20
-158.269058015988
 30
0.0
 10
129.8794041865004
 20
-158.3138607937547
 30
0.0
 10
129.9348608517522
 20
-158.3138607937547
 30
0.0
 10
129.9900000170121
 20
-158.3138607937547
 30
0.0
 10
130.03476751587
 20
-158.269058015988
 30
0.0
 10
130.03476751587
 20
-158.2139541271131
 30
0.0
  0
SPLINE
  5
64
330
1F
100
AcDbEntity
  8
_U+30EC_U+30A4_U+30E4_U+30FC 1
 62
     7
420
 16777215
370
     9
100
AcDbSpline
210
0.0
220
0.0
230
1.0
 70
    11
 71
     3
 72
    17
 73
    13
 74
     0
 42
0.0000000001
 43
0.0000000001
 12
1.0
 22
0.0
 32
0.0
 13
1.0
 23
0.0
 33
0.0
 40
0.0
 40
0.0
 40
0.0
 40
0.0
 40
1.0
 40
1.0
 40
1.0
 40
2.0
 40
2.0
 40
2.0
 40
3.0
 40
3.0
 40
3.0
 40
4.0
 40
4.0
 40
4.0
 40
4.0
 10
126.0346909512538
 20
-103.2143816408632
 30
0.0
 10
126.0346909512538
 20
-103.1592424742101
 30
0.0
 10
125.9898881746191
 20
-103.1144749742213
 30
0.0
 10
125.934784287136
 20
-103.1144749742213
 30
0.0
 10
125.879645121876
 20
-103.1144749742213
 30
0.0
 10
125.8348776230181
 20
-103.1592424742101
 30
0.0
 10
125.8348776230181
 20
-103.2143816408632
 30
0.0
 10
125.8348776230181
 20
-103.2694855297381
 30
0.0
 10
125.879645121876
 20
-103.3142883075049
 30
0.0
 10
125.934784287136
 20
-103.3142883075049
 30
0.0
 10
125.9898881746191
 20
-103.3142883075049
 30
0.0
 10
126.0346909512538
 20
-103.2694855297381
 30
0.0
 10
126.0346909512538
 20
-103.2143816408632
 30
0.0
  0
SPLINE
  5
65
330
1F
100
AcDbEntity
  8
_U+30EC_U+30A4_U+30E4_U+30FC 1
 62
     7
420
 16777215
370
     9
100
AcDbSpline
210
0.0
220
0.0
230
1.0
 70
    11
 71
     3
 72
    17
 73
    13
 74
     0
 42
0.0000000001
 43
0.0000000001
 12
1.0
 22
0.0
 32
0.0
 13
1.0
 23
0.0
 33
0.0
 40
0.0
 40
0.0
 40
0.0
 40
0.0
 40
1.0
 40
1.0
 40
1.0
 40
2.0
 40
2.0
 40
2.0
 40
3.0
 40
3.0
 40
3.0
 40
4.0
 40
4.0
 40
4.0
 40
4.0
 10
130.03476751587
 20
-108.2145833062797
 30
0.0
 10
130.03476751587
 20
-108.1594794174045
 30
0.0
 10
129.9900000170121
 20
-108.114676639638
 30
0.0
 10
129.9348608517522
 20
-108.114676639638
 30
0.0
 10
129.8794041865004
 20
-108.114676639638
 30
0.0
 10
129.8346366876425
 20
-108.1594794174045
 30
0.0
 10
129.8346366876425
 20
-108.2145833062797
 30
0.0
 10
129.8346366876425
 20
-108.2697224729324
 30
0.0
 10
129.8794041865004
 20
-108.3144899729213
 30
0.0
 10
129.9348608517522
 20
-108.3144899729213
 30
0.0
 10
129.9900000170121
 20
-108.3144899729213
 30
0.0
 10
130.03476751587
 20
-108.2697224729324
 30
0.0
 10
130.03476751587
 20
-108.2145833062797
 30
0.0
  0
SPLINE
  5
66
330
1F
100
AcDbEntity
  8
_U+30EC_U+30A4_U+30E4_U+30FC 1
 62
     7
420
 16777215
370
     9
100
AcDbSpline
210
0.0
220
0.0
230
1.0
 70
    11
 71
     3
 72
    17
 73
    13
 74
     0
 42
0.0000000001
 43
0.0000000001
 12
1.0
 22
0.0
 32
0.0
 13
1.0
 23
0.0
 33
0.0
 40
0.0
 40
0.0
 40
0.0
 40
0.0
 40
1.0
 40
1.0
 40
1.0
 40
2.0
 40
2.0
 40
2.0
 40
3.0
 40
3.0
 40
3.0
 40
4.0
 40
4.0
 40
4.0
 40
4.0
 10
101.0346710335019
 20
-103.2143816408632
 30
0.0
 10
101.0346710335019
 20
-103.1592424742101
 30
0.0
 10
100.9898682568671
 20
-103.1144749742213
 30
0.0
 10
100.9347643693841
 20
-103.1144749742213
 30
0.0
 10
100.8796277525581
 20
-103.1144749742213
 30
0.0
 10
100.8348577052662
 20
-103.1592424742101
 30
0.0
 10
100.8348577052662
 20
-103.2143816408632
 30
0.0
 10
100.8348577052662
 20
-103.2694855297381
 30
0.0
 10
100.8796277525581
 20
-103.3142883075049
 30
0.0
 10
100.9347643693841
 20
-103.3142883075049
 30
0.0
 10
100.9898682568671
 20
-103.3142883075049
 30
0.0
 10
101.0346710335019
 20
-103.2694855297381
 30
0.0
 10
101.0346710335019
 20
-103.2143816408632
 30
0.0
  0
SPLINE
  5
67
330
1F
100
AcDbEntity
  8
_U+30EC_U+30A4_U+30E4_U+30FC 1
 62
     7
420
 16777215
370
     9
100
AcDbSpline
210
0.0
220
0.0
230
1.0
 70
    11
 71
     3
 72
    17
 73
    13
 74
     0
 42
0.0000000001
 43
0.0000000001
 12
1.0
 22
0.0
 32
0.0
 13
1.0
 23
0.0
 33
0.0
 40
0.0
 40
0.0
 40
0.0
 40
0.0
 40
1.0
 40
1.0
 40
1.0
 40
2.0
 40
2.0
 40
2.0
 40
3.0
 40
3.0
 40
3.0
 40
4.0
 40
4.0
 40
4.0
 40
4.0
 10
76.03465111575
 20
-103.2143816408632
 30
0.0
 10
76.03465111575
 20
-103.1592424742101
 30
0.0
 10
75.98984833911524
 20
-103.1144749742213
 30
0.0
 10
75.93471109212729
 20
-103.1144749742213
 30
0.0
 10
75.87960528637221
 20
-103.1144749742213
 30
0.0
 10
75.83480250973746
 20
-103.1592424742101
 30
0.0
 10
75.83480250973746
 20
-103.2143816408632
 30
0.0
 10
75.83480250973746
 20
-103.2694855297381
 30
0.0
 10
75.87960528637221
 20
-103.3142883075049
 30
0.0
 10
75.93471109212729
 20
-103.3142883075049
 30
0.0
 10
75.98984833911524
 20
-103.3142883075049
 30
0.0
 10
76.03465111575
 20
-103.2694855297381
 30
0.0
 10
76.03465111575
 20
-103.2143816408632
 30
0.0
  0
SPLINE
  5
68
330
1F
100
AcDbEntity
  8
_U+30EC_U+30A4_U+30E4_U+30FC 1
 62
     7
420
 16777215
370
     9
100
AcDbSpline
210
0.0
220
0.0
230
1.0
 70
    11
 71
     3
 72
    17
 73
    13
 74
     0
 42
0.0000000001
 43
0.0000000001
 12
1.0
 22
0.0
 32
0.0
 13
1.0
 23
0.0
 33
0.0
 40
0.0
 40
0.0
 40
0.0
 40
0.0
 40
1.0
 40
1.0
 40
1.0
 40
2.0
 40
2.0
 40
2.0
 40
3.0
 40
3.0
 40
3.0
 40
4.0
 40
4.0
 40
4.0
 40
4.0
 10
51.03494998724133
 20
-103.2143816408632
 30
0.0
 10
51.03494998724133
 20
-103.1592424742101
 30
0.0
 10
50.9901811991321
 20
-103.1144749742213
 30
0.0
 10
50.93468925610338
 20
-103.1144749742213
 30
0.0
 10
50.8795853686203
 20
-103.1144749742213
 30
0.0
 10
50.83478259198554
 20
-103.1592424742101
 30
0.0
 10
50.83478259198554
 20
-103.2143816408632
 30
0.0
 10
50.83478259198554
 20
-103.2694855297381
 30
0.0
 10
50.8795853686203
 20
-103.3142883075049
 30
0.0
 10
50.93468925610338
 20
-103.3142883075049
 30
0.0
 10
50.9901811991321
 20
-103.3142883075049
 30
0.0
 10
51.03494998724133
 20
-103.2694855297381
 30
0.0
 10
51.03494998724133
 20
-103.2143816408632
 30
0.0
  0
POLYLINE
  5
69
330
1F
100
AcDbEntity
  8
_U+30EC_U+30A4_U+30E4_U+30FC 1
 62
     7
420
 16777215
370
     9
100
AcDb2dPolyline
 66
     1
 10
0.0
 20
0.0
 30
0.0
  0
VERTEX
  5
6A
330
69
100
AcDbEntity
  8
_U+30EC_U+30A4_U+30E4_U+30FC 1
 62
     7
420
 16777215
370
     9
100
AcDbVertex
100
AcDb2dVertex
 10
50.93468925610338
 20
-103.2143816408632
 30
0.0
  0
VERTEX
  5
6B
330
69
100
AcDbEntity
  8
_U+30EC_U+30A4_U+30E4_U+30FC 1
 62
     7
420
 16777215
370
     9
100
AcDbVertex
100
AcDb2dVertex
 10
75.93471109212729
 20
-103.2143816408632
 30
0.0
  0
SEQEND
  5
6C
330
69
100
AcDbEntity
  8
_U+30EC_U+30A4_U+30E4_U+30FC 1
 62
     7
420
 16777215
370
     9
  0
POLYLINE
  5
6D
330
1F
100
AcDbEntity
  8
_U+30EC_U+30A4_U+30E4_U+30FC 1
 62
     7
420
 16777215
370
     9
100
AcDb2dPolyline
 66
     1
 10
0.0
 20
0.0
 30
0.0
  0
VERTEX
  5
6E
330
6D
100
AcDbEntity
  8
_U+30EC_U+30A4_U+30E4_U+30FC 1
 62
     7
420
 16777215
370
     9
100
AcDbVertex
100
AcDb2dVertex
 10
50.93468925610338
 20
-105.1746266403731
 30
0.0
  0
VERTEX
  5
6F
330
6D
100
AcDbEntity
  8
_U+30EC_U+30A4_U+30E4_U+30FC 1
 62
     7
420
 16777215
370
     9
100
AcDbVertex
100
AcDb2dVertex
 10
50.93468925610338
 20
-102.2146094188907
 30
0.0
  0
SEQEND
  5
70
330
6D
100
AcDbEntity
  8
_U+30EC_U+30A4_U+30E4_U+30FC 1
 62
     7
420
 16777215
370
     9
  0
POLYLINE
  5
71
330
1F
100
AcDbEntity
  8
_U+30EC_U+30A4_U+30E4_U+30FC 1
 62
     7
420
 16777215
370
     9
100
AcDb2dPolyline
 66
     1
 10
0.0
 20
0.0
 30
0.0
  0
VERTEX
  5
72
330
71
100
AcDbEntity
  8
_U+30EC_U+30A4_U+30E4_U+30FC 1
 62
     7
420
 16777215
370
     9
100
AcDbVertex
100
AcDb2dVertex
 10
75.93471109212729
 20
-105.6741599735816
 30
0.0
  0
VERTEX
  5
73
330
71
100
AcDbEntity
  8
_U+30EC_U+30A4_U+30E4_U+30FC 1
 62
     7
420
 16777215
370
     9
100
AcDbVertex
100
AcDb2dVertex
 10
75.93471109212729
 20
-102.2146094188907
 30
0.0
  0
SEQEND
  5
74
330
71
100
AcDbEntity
  8
_U+30EC_U+30A4_U+30E4_U+30FC 1
 62
     7
420
 16777215
370
     9
  0
INSERT
  5
76
330
1F
100
AcDbEntity
  8
_U+30EC_U+30A4_U+30E4_U+30FC 1
100
AcDbBlockReference
  2
block 2
 10
0.0
 20
0.0
 30
0.0
  0
POLYLINE
  5
7D
330
1F
100
AcDbEntity
  8
_U+30EC_U+30A4_U+30E4_U+30FC 1
 62
     7
420
 16777215
370
     9
100
AcDb2dPolyline
 66
     1
 10
0.0
 20
0.0
 30
0.0
  0
VERTEX
  5
7E
330
7D
100
AcDbEntity
  8
_U+30EC_U+30A4_U+30E4_U+30FC 1
 62
     7
420
 16777215
370
     9
100
AcDbVertex
100
AcDb2dVertex
 10
75.93471109212729
 20
-103.2143816408632
 30
0.0
  0
VERTEX
  5
7F
330
7D
100
AcDbEntity
  8
_U+30EC_U+30A4_U+30E4_U+30FC 1
 62
     7
420
 16777215
370
     9
100
AcDbVertex
100
AcDb2dVertex
 10
100.9347643693841
 20
-103.2143816408632
 30
0.0
  0
SEQEND
  5
80
330
7D
100
AcDbEntity
  8
_U+30EC_U+30A4_U+30E4_U+30FC 1
 62
     7
420
 16777215
370
     9
  0
POLYLINE
  5
81
330
1F
100
AcDbEntity
  8
_U+30EC_U+30A4_U+30E4_U+30FC 1
 62
     7
420
 16777215
370
     9
100
AcDb2dPolyline
 66
     1
 10
0.0
 20
0.0
 30
0.0
  0
VERTEX
  5
82
330
81
100
AcDbEntity
  8
_U+30EC_U+30A4_U+30E4_U+30FC 1
 62
     7
420
 16777215
370
     9
100
AcDbVertex
100
AcDb2dVertex
 10
100.9347643693841
 20
-105.6741599735816
 30
0.0
  0
VERTEX
  5
83
330
81
100
AcDbEntity
  8
_U+30EC_U+30A4_U+30E4_U+30FC 1
 62
     7
420
 16777215
370
     9
100
AcDbVertex
100
AcDb2dVertex
 10
100.9347643693841
 20
-102.2146094188907
 30
0.0
  0
SEQEND
  5
84
330
81
100
AcDbEntity
  8
_U+30EC_U+30A4_U+30E4_U+30FC 1
 62
     7
420
 16777215
370
     9
  0
INSERT
  5
86
330
1F
100
AcDbEntity
  8
_U+30EC_U+30A4_U+30E4_U+30FC 1
100
AcDbBlockReference
  2
block 3
 10
0.0
 20
0.0
 30
0.0
  0
POLYLINE
  5
8D
330
1F
100
AcDbEntity
  8
_U+30EC_U+30A4_U+30E4_U+30FC 1
 62
     7
420
 16777215
370
     9
100
AcDb2dPolyline
 66
     1
 10
0.0
 20
0.0
 30
0.0
  0
VERTEX
  5
8E
330
8D
100
AcDbEntity
  8
_U+30EC_U+30A4_U+30E4_U+30FC 1
 62
     7
420
 16777215
370
     9
100
AcDbVertex
100
AcDb2dVertex
 10
100.9347643693841
 20
-103.2143816408632
 30
0.0
  0
VERTEX
  5
8F
330
8D
100
AcDbEntity
  8
_U+30EC_U+30A4_U+30E4_U+30FC 1
 62
     7
420
 16777215
370
     9
100
AcDbVertex
100
AcDb2dVertex
 10
125.934784287136
 20
-103.2143816408632
 30
0.0
  0
SEQEND
  5
90
330
8D
100
AcDbEntity
  8
_U+30EC_U+30A4_U+30E4_U+30FC 1
 62
     7
420
 16777215
370
     9
  0
POLYLINE
  5
91
330
1F
100
AcDbEntity
  8
_U+30EC_U+30A4_U+30E4_U+30FC 1
 62
     7
420
 16777215
370
     9
100
AcDb2dPolyline
 66
     1
 10
0.0
 20
0.0
 30
0.0
  0
VERTEX
  5
92
330
91
100
AcDbEntity
  8
_U+30EC_U+30A4_U+30E4_U+30FC 1
 62
     7
420
 16777215
370
     9
100
AcDbVertex
100
AcDb2dVertex
 10
125.934784287136
 20
-105.1746266403731
 30
0.0
  0
VERTEX
  5
93
330
91
100
AcDbEntity
  8
_U+30EC_U+30A4_U+30E4_U+30FC 1
 62
     7
420
 16777215
370
     9
100
AcDbVertex
100
AcDb2dVertex
 10
125.934784287136
 20
-102.2146094188907
 30
0.0
  0
SEQEND
  5
94
330
91
100
AcDbEntity
  8
_U+30EC_U+30A4_U+30E4_U+30FC 1
 62
     7
420
 16777215
370
     9
  0
INSERT
  5
96
330
1F
100
AcDbEntity
  8
_U+30EC_U+30A4_U+30E4_U+30FC 1
100
AcDbBlockReference
  2
block 4
 10
0.0
 20
0.0
 30
0.0
  0
POLYLINE
  5
9D
330
1F
100
AcDbEntity
  8
_U+30EC_U+30A4_U+30E4_U+30FC 1
 62
     7
420
 16777215
370
     9
100
AcDb2dPolyline
 66
     1
 10
0.0
 20
0.0
 30
0.0
  0
VERTEX
  5
9E
330
9D
100
AcDbEntity
  8
_U+30EC_U+30A4_U+30E4_U+30FC 1
 62
     7
420
 16777215
370
     9
100
AcDbVertex
100
AcDb2dVertex
 10
129.9348608517522
 20
-158.2139541271131
 30
0.0
  0
VERTEX
  5
9F
330
9D
100
AcDbEntity
  8
_U+30EC_U+30A4_U+30E4_U+30FC 1
 62
     7
420
 16777215
370
     9
100
AcDbVertex
100
AcDb2dVertex
 10
129.9348608517522
 20
-108.2145833062797
 30
0.0
  0
SEQEND
  5
A0
330
9D
100
AcDbEntity
  8
_U+30EC_U+30A4_U+30E4_U+30FC 1
 62
     7
420
 16777215
370
     9
  0
POLYLINE
  5
A1
330
1F
100
AcDbEntity
  8
_U+30EC_U+30A4_U+30E4_U+30FC 1
 62
     7
420
 16777215
370
     9
100
AcDb2dPolyline
 66
     1
 10
0.0
 20
0.0
 30
0.0
  0
VERTEX
  5
A2
330
A1
100
AcDbEntity
  8
_U+30EC_U+30A4_U+30E4_U+30FC 1
 62
     7
420
 16777215
370
     9
100
AcDbVertex
100
AcDb2dVertex
 10
102.4747098856523
 20
-158.2139541271131
 30
0.0
  0
VERTEX
  5
A3
330
A1
100
AcDbEntity
  8
_U+30EC_U+30A4_U+30E4_U+30FC 1
 62
     7
420
 16777215
370
     9
100
AcDbVertex
100
AcDb2dVertex
 10
130.9346330484681
 20
-158.2139541271131
 30
0.0
  0
SEQEND
  5
A4
330
A1
100
AcDbEntity
  8
_U+30EC_U+30A4_U+30E4_U+30FC 1
 62
     7
420
 16777215
370
     9
  0
POLYLINE
  5
A5
330
1F
100
AcDbEntity
  8
_U+30EC_U+30A4_U+30E4_U+30FC 1
 62
     7
420
 16777215
370
     9
100
AcDb2dPolyline
 66
     1
 10
0.0
 20
0.0
 30
0.0
  0
VERTEX
  5
A6
330
A5
100
AcDbEntity
  8
_U+30EC_U+30A4_U+30E4_U+30FC 1
 62
     7
420
 16777215
370
     9
100
AcDbVertex
100
AcDb2dVertex
 10
127.9746159017622
 20
-108.2145833062797
 30
0.0
  0
VERTEX
  5
A7
330
A5
100
AcDbEntity
  8
_U+30EC_U+30A4_U+30E4_U+30FC 1
 62
     7
420
 16777215
370
     9
100
AcDbVertex
100
AcDb2dVertex
 10
130.9346330484681
 20
-108.2145833062797
 30
0.0
  0
SEQEND
  5
A8
330
A5
100
AcDbEntity
  8
_U+30EC_U+30A4_U+30E4_U+30FC 1
 62
     7
420
 16777215
370
     9
  0
INSERT
  5
AA
330
1F
100
AcDbEntity
  8
_U+30EC_U+30A4_U+30E4_U+30FC 1
100
AcDbBlockReference
  2
block 5
 10
0.0
 20
0.0
 30
0.0
  0
POLYLINE
  5
B2
330
1F
100
AcDbEntity
  8
_U+30EC_U+30A4_U+30E4_U+30FC 1
  6
AI-Linetype-1
 62
   251
420
  5855577
370
    25
100
AcDb2dPolyline
 66
     1
 10
0.0
 20
0.0
 30
0.0
  0
VERTEX
  5
B3
330
B2
100
AcDbEntity
  8
_U+30EC_U+30A4_U+30E4_U+30FC 1
  6
AI-Linetype-1
 62
   251
420
  5855577
370
    25
100
AcDbVertex
100
AcDb2dVertex
 10
120.934900248027
 20
-109.263956083795
 30
0.0
  0
VERTEX
  5
B4
330
B2
100
AcDbEntity
  8
_U+30EC_U+30A4_U+30E4_U+30FC 1
  6
AI-Linetype-1
 62
   251
420
  5855577
370
    25
100
AcDbVertex
100
AcDb2dVertex
 10
126.5139042723614
 20
-109.263956083795
 30
0.0
  0
VERTEX
  5
B5
330
B2
100
AcDbEntity
  8
_U+30EC_U+30A4_U+30E4_U+30FC 1
  6
AI-Linetype-1
 62
   251
420
  5855577
370
    25
100
AcDbVertex
100
AcDb2dVertex
 10
126.5139042723614
 20
-108.4529905284423
 30
0.0
  0
VERTEX
  5
B6
330
B2
100
AcDbEntity
  8
_U+30EC_U+30A4_U+30E4_U+30FC 1
  6
AI-Linetype-1
 62
   251
420
  5855577
370
    25
100
AcDbVertex
100
AcDb2dVertex
 10
126.5139042723614
 20
-106.2495052512153
 30
0.0
  0
VERTEX
  5
B7
330
B2
100
AcDbEntity
  8
_U+30EC_U+30A4_U+30E4_U+30FC 1
  6
AI-Linetype-1
 62
   251
420
  5855577
370
    25
100
AcDbVertex
100
AcDb2dVertex
 10
100.1561485559149
 20
-106.2495052512153
 30
0.0
  0
VERTEX
  5
B8
330
B2
100
AcDbEntity
  8
_U+30EC_U+30A4_U+30E4_U+30FC 1
  6
AI-Linetype-1
 62
   251
420
  5855577
370
    25
100
AcDbVertex
100
AcDb2dVertex
 10
100.1561485559149
 20
-157.4387955161958
 30
0.0
  0
VERTEX
  5
B9
330
B2
100
AcDbEntity
  8
_U+30EC_U+30A4_U+30E4_U+30FC 1
  6
AI-Linetype-1
 62
   251
420
  5855577
370
    25
100
AcDbVertex
100
AcDb2dVertex
 10
76.59514443478396
 20
-157.4387955161958
 30
0.0
  0
VERTEX
  5
BA
330
B2
100
AcDbEntity
  8
_U+30EC_U+30A4_U+30E4_U+30FC 1
  6
AI-Linetype-1
 62
   251
420
  5855577
370
    25
100
AcDbVertex
100
AcDb2dVertex
 10
76.59514443478396
 20
-106.1647680290145
 30
0.0
  0
VERTEX
  5
BB
330
B2
100
AcDbEntity
  8
_U+30EC_U+30A4_U+30E4_U+30FC 1
  6
AI-Linetype-1
 62
   251
420
  5855577
370
    25
100
AcDbVertex
100
AcDb2dVertex
 10
50.06791427821665
 20
-106.1647680290145
 30
0.0
  0
VERTEX
  5
BC
330
B2
100
AcDbEntity
  8
_U+30EC_U+30A4_U+30E4_U+30FC 1
  6
AI-Linetype-1
 62
   251
420
  5855577
370
    25
100
AcDbVertex
100
AcDb2dVertex
 10
50.06791427821665
 20
-108.4529905284423
 30
0.0
  0
VERTEX
  5
BD
330
B2
100
AcDbEntity
  8
_U+30EC_U+30A4_U+30E4_U+30FC 1
  6
AI-Linetype-1
 62
   251
420
  5855577
370
    25
100
AcDbVertex
100
AcDb2dVertex
 10
50.06791427821665
 20
-109.263956083795
 30
0.0
  0
VERTEX
  5
BE
330
B2
100
AcDbEntity
  8
_U+30EC_U+30A4_U+30E4_U+30FC 1
  6
AI-Linetype-1
 62
   251
420
  5855577
370
    25
100
AcDbVertex
100
AcDb2dVertex
 10
55.93457329521237
 20
-109.263956083795
 30
0.0
  0
SEQEND
  5
C0
330
B2
100
AcDbEntity
  8
_U+30EC_U+30A4_U+30E4_U+30FC 1
  6
AI-Linetype-1
 62
   251
420
  5855577
370
    25
  0
ENDSEC
  0
SECTION
  2
OBJECTS
  0
DICTIONARY
  5
C
330
0
100
AcDbDictionary
281
     1
  3
ACAD_GROUP
350
D
  3
ACAD_LAYOUT
350
1A
  3
ACAD_MATERIAL
350
3B
  3
ACAD_MLEADERSTYLE
350
C2
  3
ACAD_MLINESTYLE
350
17
  3
ACAD_PLOTSETTINGS
350
19
  3
ACAD_PLOTSTYLENAME
350
E
  3
ACAD_TABLESTYLE
350
C1
  3
ACAD_VISUALSTYLE
350
2A
  0
SUN
  5
3F
330
29
100
AcDbSun
 90
        1
290
     0
 63
     7
421
 16777215
 40
1.0
291
     1
 91
  2455826
 92
 54000000
292
     0
 70
     2
 71
   256
280
     1
  0
DICTIONARY
  5
D
102
{ACAD_REACTORS
330
C
102
}
330
C
100
AcDbDictionary
281
     1
  0
DICTIONARY
  5
1A
102
{ACAD_REACTORS
330
C
102
}
330
C
100
AcDbDictionary
281
     1
  3
Layout1
350
1E
  3
Layout2
350
26
  3
Model
350
22
  0
DICTIONARY
  5
3B
102
{ACAD_REACTORS
330
C
102
}
330
C
100
AcDbDictionary
281
     1
  3
ByBlock
350
3D
  3
ByLayer
350
3C
  3
Global
350
3E
  0
DICTIONARY
  5
C2
102
{ACAD_REACTORS
330
C
102
}
330
C
100
AcDbDictionary
281
     1
  0
DICTIONARY
  5
17
102
{ACAD_REACTORS
330
C
102
}
330
C
100
AcDbDictionary
281
     1
  3
Standard
350
18
  0
DICTIONARY
  5
19
102
{ACAD_REACTORS
330
C
102
}
330
C
100
AcDbDictionary
281
     1
  0
ACDBDICTIONARYWDFLT
  5
E
102
{ACAD_REACTORS
330
C
102
}
330
C
100
AcDbDictionary
281
     1
  3
Normal
350
F
100
AcDbDictionaryWithDefault
340
F
  0
DICTIONARY
  5
C1
102
{ACAD_REACTORS
330
C
102
}
330
C
100
AcDbDictionary
281
     1
  0
DICTIONARY
  5
2A
102
{ACAD_REACTORS
330
C
102
}
330
C
100
AcDbDictionary
281
     1
  3
2dWireframe
350
2F
  3
3D Hidden
350
31
  3
3dWireframe
350
30
  3
Basic
350
32
  3
Brighten
350
36
  3
ColorChange
350
3A
  3
Conceptual
350
34
  3
Dim
350
35
  3
Facepattern
350
39
  3
Flat
350
2B
  3
FlatWithEdges
350
2C
  3
Gouraud
350
2D
  3
GouraudWithEdges
350
2E
  3
Linepattern
350
38
  3
Realistic
350
33
  3
Thicken
350
37
  0
LAYOUT
  5
1E
102
{ACAD_REACTORS
330
1A
102
}
330
1A
100
AcDbPlotSettings
  1

  2
none_device
  4

  6

 40
0.0
 41
0.0
 42
0.0
 43
0.0
 44
0.0
 45
0.0
 46
0.0
 47
0.0
 48
0.0
 49
0.0
140
0.0
141
0.0
142
1.0
143
1.0
 70
   688
 72
     0
 73
     0
 74
     5
  7

 75
    16
 76
     0
 77
     2
 78
   300
147
1.0
148
0.0
149
0.0
100
AcDbLayout
  1
Layout1
 70
     1
 71
     1
 10
0.0
 20
0.0
 11
12.0
 21
9.0
 12
0.0
 22
0.0
 32
0.0
 14
1.000000000000000E+20
 24
1.000000000000000E+20
 34
1.000000000000000E+20
 15
-1.000000000000000E+20
 25
-1.000000000000000E+20
 35
-1.000000000000000E+20
146
0.0
 13
0.0
 23
0.0
 33
0.0
 16
1.0
 26
0.0
 36
0.0
 17
0.0
 27
1.0
 37
0.0
 76
     0
330
1B
  0
LAYOUT
  5
26
102
{ACAD_REACTORS
330
1A
102
}
330
1A
100
AcDbPlotSettings
  1

  2
none_device
  4

  6

 40
0.0
 41
0.0
 42
0.0
 43
0.0
 44
0.0
 45
0.0
 46
0.0
 47
0.0
 48
0.0
 49
0.0
140
0.0
141
0.0
142
1.0
143
1.0
 70
   688
 72
     0
 73
     0
 74
     5
  7

 75
    16
 76
     0
 77
     2
 78
   300
147
1.0
148
0.0
149
0.0
100
AcDbLayout
  1
Layout2
 70
     1
 71
     2
 10
0.0
 20
0.0
 11
0.0
 21
0.0
 12
0.0
 22
0.0
 32
0.0
 14
0.0
 24
0.0
 34
0.0
 15
0.0
 25
0.0
 35
0.0
146
0.0
 13
0.0
 23
0.0
 33
0.0
 16
1.0
 26
0.0
 36
0.0
 17
0.0
 27
1.0
 37
0.0
 76
     0
330
23
  0
LAYOUT
  5
22
102
{ACAD_REACTORS
330
1A
102
}
330
1A
100
AcDbPlotSettings
  1

  2
none_device
  4

  6

 40
0.0
 41
0.0
 42
0.0
 43
0.0
 44
0.0
 45
0.0
 46
0.0
 47
0.0
 48
0.0
 49
0.0
140
0.0
141
0.0
142
1.0
143
1.0
 70
  1712
 72
     0
 73
     0
 74
     0
  7

 75
     0
 76
     0
 77
     2
 78
   300
147
1.0
148
0.0
149
0.0
100
AcDbLayout
  1
Model
 70
     1
 71
     0
 10
0.0
 20
0.0
 11
12.0
 21
9.0
 12
0.0
 22
0.0
 32
0.0
 14
1.000000000000000E+20
 24
1.000000000000000E+20
 34
1.000000000000000E+20
 15
-1.000000000000000E+20
 25
-1.000000000000000E+20
 35
-1.000000000000000E+20
146
0.0
 13
0.0
 23
0.0
 33
0.0
 16
1.0
 26
0.0
 36
0.0
 17
0.0
 27
1.0
 37
0.0
 76
     0
330
1F
331
29
  0
MATERIAL
  5
3D
102
{ACAD_REACTORS
330
3B
102
}
330
3B
100
AcDbMaterial
  1
ByBlock
 72
     1
 94
      127
  0
MATERIAL
  5
3C
102
{ACAD_REACTORS
330
3B
102
}
330
3B
100
AcDbMaterial
  1
ByLayer
 72
     1
 94
      127
  0
MATERIAL
  5
3E
102
{ACAD_REACTORS
330
3B
102
}
330
3B
100
AcDbMaterial
  1
Global
 72
     1
 94
      127
  0
MLINESTYLE
  5
18
102
{ACAD_REACTORS
330
17
102
}
330
17
100
AcDbMlineStyle
  2
Standard
 70
     0
  3

 62
   256
 51
90.0
 52
90.0
 71
     2
 49
0.5
 62
   256
  6
BYLAYER
 49
-0.5
 62
   256
  6
BYLAYER
  0
ACDBPLACEHOLDER
  5
F
102
{ACAD_REACTORS
330
E
102
}
330
E
  0
VISUALSTYLE
  5
2F
102
{ACAD_REACTORS
330
2A
102
}
330
2A
100
AcDbVisualStyle
  2
2dWireframe
 70
     4
177
     2
291
     0
 71
     0
176
     1
 72
     2
176
     1
 73
     0
176
     1
 90
        0
176
     1
 40
-0.6
176
     1
 41
-30.0
176
     1
 62
     5
 63
     7
421
 16777215
176
     1
 74
     1
176
     1
 91
        4
176
     1
 64
     7
176
     1
 65
   257
176
     1
 75
     1
176
     1
175
     1
176
     1
 42
1.0
176
     1
 92
        0
176
     1
 66
   257
176
     1
 43
1.0
176
     1
 76
     1
176
     1
 77
     6
176
     1
 78
     2
176
     1
 67
     7
176
     1
 79
     5
176
     1
170
     0
176
     1
171
     0
176
     1
290
     0
176
     1
 93
        1
176
     1
 44
0.0
176
     1
173
     0
176
     1
  0
VISUALSTYLE
  5
31
102
{ACAD_REACTORS
330
2A
102
}
330
2A
100
AcDbVisualStyle
  2
3D Hidden
 70
     6
177
     2
291
     0
 71
     1
176
     1
 72
     2
176
     1
 73
     2
176
     1
 90
        0
176
     1
 40
-0.6
176
     1
 41
-30.0
176
     1
 62
     5
 63
     7
421
 16777215
176
     1
 74
     2
176
     1
 91
        2
176
     1
 64
     7
176
     1
 65
   257
176
     1
 75
     2
176
     1
175
     1
176
     1
 42
40.0
176
     1
 92
        0
176
     1
 66
   257
176
     1
 43
1.0
176
     1
 76
     1
176
     1
 77
     6
176
     1
 78
     2
176
     1
 67
     7
176
     1
 79
     3
176
     1
170
     0
176
     1
171
     0
176
     1
290
     0
176
     1
 93
        1
176
     1
 44
0.0
176
     1
173
     0
176
     1
  0
VISUALSTYLE
  5
30
102
{ACAD_REACTORS
330
2A
102
}
330
2A
100
AcDbVisualStyle
  2
3dWireframe
 70
     5
177
     2
291
     0
 71
     0
176
     1
 72
     2
176
     1
 73
     0
176
     1
 90
        0
176
     1
 40
-0.6
176
     1
 41
-30.0
176
     1
 62
     5
 63
     7
421
 16777215
176
     1
 74
     1
176
     1
 91
        4
176
     1
 64
     7
176
     1
 65
   257
176
     1
 75
     1
176
     1
175
     1
176
     1
 42
1.0
176
     1
 92
        0
176
     1
 66
   257
176
     1
 43
1.0
176
     1
 76
     1
176
     1
 77
     6
176
     1
 78
     2
176
     1
 67
     7
176
     1
 79
     5
176
     1
170
     0
176
     1
171
     0
176
     1
290
     0
176
     1
 93
        1
176
     1
 44
0.0
176
     1
173
     0
176
     1
  0
VISUALSTYLE
  5
32
102
{ACAD_REACTORS
330
2A
102
}
330
2A
100
AcDbVisualStyle
  2
Basic
 70
     7
177
     2
291
     1
 71
     1
176
     1
 72
     0
176
     1
 73
     1
176
     1
 90
        0
176
     1
 40
-0.6
176
     1
 41
-30.0
176
     1
 62
     5
 63
     7
421
 16777215
176
     1
 74
     0
176
     1
 91
        4
176
     1
 64
     7
176
     1
 65
   257
176
     1
 75
     1
176
     1
175
     1
176
     1
 42
1.0
176
     1
 92
        8
176
     1
 66
     7
176
     1
 43
1.0
176
     1
 76
     1
176
     1
 77
     6
176
     1
 78
     2
176
     1
 67
     7
176
     1
 79
     5
176
     1
170
     0
176
     1
171
     0
176
     1
290
     0
176
     1
 93
        1
176
     1
 44
0.0
176
     1
173
     0
176
     1
  0
VISUALSTYLE
  5
36
102
{ACAD_REACTORS
330
2A
102
}
330
2A
100
AcDbVisualStyle
  2
Brighten
 70
    12
177
     2
291
     1
 71
     2
176
     1
 72
     2
176
     1
 73
     0
176
     1
 90
        0
176
     1
 40
-0.6
176
     1
 41
-30.0
176
     1
 62
     5
 63
     7
421
 16777215
176
     1
 74
     1
176
     1
 91
        4
176
     1
 64
     7
176
     1
 65
   257
176
     1
 75
     1
176
     1
175
     1
176
     1
 42
1.0
176
     1
 92
        8
176
     1
 66
     7
176
     1
 43
1.0
176
     1
 76
     1
176
     1
 77
     6
176
     1
 78
     2
176
     1
 67
     7
176
     1
 79
     5
176
     1
170
     0
176
     1
171
     0
176
     1
290
     0
176
     1
 93
        1
176
     1
 44
50.0
176
     1
173
     0
176
     1
  0
VISUALSTYLE
  5
3A
102
{ACAD_REACTORS
330
2A
102
}
330
2A
100
AcDbVisualStyle
  2
ColorChange
 70
    16
177
     2
291
     1
 71
     2
176
     1
 72
     2
176
     1
 73
     3
176
     1
 90
        0
176
     1
 40
-0.6
176
     1
 41
-30.0
176
     1
 62
     5
 63
     8
421
  8421504
176
     1
 74
     1
176
     1
 91
        4
176
     1
 64
     7
176
     1
 65
   257
176
     1
 75
     1
176
     1
175
     1
176
     1
 42
1.0
176
     1
 92
        8
176
     1
 66
     8
424
  8421504
176
     1
 43
1.0
176
     1
 76
     1
176
     1
 77
     6
176
     1
 78
     2
176
     1
 67
     7
176
     1
 79
     5
176
     1
170
     0
176
     1
171
     0
176
     1
290
     0
176
     1
 93
        1
176
     1
 44
0.0
176
     1
173
     0
176
     1
  0
VISUALSTYLE
  5
34
102
{ACAD_REACTORS
330
2A
102
}
330
2A
100
AcDbVisualStyle
  2
Conceptual
 70
     9
177
     2
291
     0
 71
     3
176
     1
 72
     2
176
     1
 73
     0
176
     1
 90
        0
176
     1
 40
-0.6
176
     1
 41
-30.0
176
     1
 62
     5
 63
     7
421
 16777215
176
     1
 74
     2
176
     1
 91
        2
176
     1
 64
     7
176
     1
 65
   257
176
     1
 75
     1
176
     1
175
     1
176
     1
 42
40.0
176
     1
 92
        8
176
     1
 66
     7
176
     1
 43
1.0
176
     1
 76
     1
176
     1
 77
     6
176
     1
 78
     2
176
     1
 67
     7
176
     1
 79
     3
176
     1
170
     0
176
     1
171
     0
176
     1
290
     0
176
     1
 93
        1
176
     1
 44
0.0
176
     1
173
     0
176
     1
  0
VISUALSTYLE
  5
35
102
{ACAD_REACTORS
330
2A
102
}
330
2A
100
AcDbVisualStyle
  2
Dim
 70
    11
177
     2
291
     1
 71
     2
176
     1
 72
     2
176
     1
 73
     0
176
     1
 90
        0
176
     1
 40
-0.6
176
     1
 41
-30.0
176
     1
 62
     5
 63
     7
421
 16777215
176
     1
 74
     1
176
     1
 91
        4
176
     1
 64
     7
176
     1
 65
   257
176
     1
 75
     1
176
     1
175
     1
176
     1
 42
1.0
176
     1
 92
        8
176
     1
 66
     7
176
     1
 43
1.0
176
     1
 76
     1
176
     1
 77
     6
176
     1
 78
     2
176
     1
 67
     7
176
     1
 79
     5
176
     1
170
     0
176
     1
171
     0
176
     1
290
     0
176
     1
 93
        1
176
     1
 44
-50.0
176
     1
173
     0
176
     1
  0
VISUALSTYLE
  5
39
102
{ACAD_REACTORS
330
2A
102
}
330
2A
100
AcDbVisualStyle
  2
Facepattern
 70
    15
177
     2
291
     1
 71
     2
176
     1
 72
     2
176
     1
 73
     0
176
     1
 90
        0
176
     1
 40
-0.6
176
     1
 41
-30.0
176
     1
 62
     5
 63
     7
421
 16777215
176
     1
 74
     1
176
     1
 91
        4
176
     1
 64
     7
176
     1
 65
   257
176
     1
 75
     1
176
     1
175
     1
176
     1
 42
1.0
176
     1
 92
        8
176
     1
 66
     7
176
     1
 43
1.0
176
     1
 76
     1
176
     1
 77
     6
176
     1
 78
     2
176
     1
 67
     7
176
     1
 79
     5
176
     1
170
     0
176
     1
171
     0
176
     1
290
     0
176
     1
 93
        1
176
     1
 44
0.0
176
     1
173
     0
176
     1
  0
VISUALSTYLE
  5
2B
102
{ACAD_REACTORS
330
2A
102
}
330
2A
100
AcDbVisualStyle
  2
Flat
 70
     0
177
     2
291
     1
 71
     2
176
     1
 72
     1
176
     1
 73
     1
176
     1
 90
        2
176
     1
 40
-0.6
176
     1
 41
30.0
176
     1
 62
     5
 63
     7
421
 16777215
176
     1
 74
     0
176
     1
 91
        4
176
     1
 64
     7
176
     1
 65
   257
176
     1
 75
     1
176
     1
175
     1
176
     1
 42
1.0
176
     1
 92
        8
176
     1
 66
     7
176
     1
 43
1.0
176
     1
 76
     1
176
     1
 77
     6
176
     1
 78
     2
176
     1
 67
     7
176
     1
 79
     5
176
     1
170
     0
176
     1
171
     0
176
     1
290
     0
176
     1
 93
       13
176
     1
 44
0.0
176
     1
173
     0
176
     1
  0
VISUALSTYLE
  5
2C
102
{ACAD_REACTORS
330
2A
102
}
330
2A
100
AcDbVisualStyle
  2
FlatWithEdges
 70
     1
177
     2
291
     1
 71
     2
176
     1
 72
     1
176
     1
 73
     1
176
     1
 90
        2
176
     1
 40
-0.6
176
     1
 41
30.0
176
     1
 62
     5
 63
     7
421
 16777215
176
     1
 74
     1
176
     1
 91
        4
176
     1
 64
     7
176
     1
 65
   257
176
     1
 75
     1
176
     1
175
     1
176
     1
 42
1.0
176
     1
 92
        0
176
     1
 66
   257
176
     1
 43
1.0
176
     1
 76
     1
176
     1
 77
     6
176
     1
 78
     2
176
     1
 67
     7
176
     1
 79
     5
176
     1
170
     0
176
     1
171
     0
176
     1
290
     0
176
     1
 93
       13
176
     1
 44
0.0
176
     1
173
     0
176
     1
  0
VISUALSTYLE
  5
2D
102
{ACAD_REACTORS
330
2A
102
}
330
2A
100
AcDbVisualStyle
  2
Gouraud
 70
     2
177
     2
291
     1
 71
     2
176
     1
 72
     2
176
     1
 73
     1
176
     1
 90
        2
176
     1
 40
-0.6
176
     1
 41
30.0
176
     1
 62
     5
 63
     7
421
 16777215
176
     1
 74
     0
176
     1
 91
        4
176
     1
 64
     7
176
     1
 65
   257
176
     1
 75
     1
176
     1
175
     1
176
     1
 42
1.0
176
     1
 92
        0
176
     1
 66
     7
176
     1
 43
1.0
176
     1
 76
     1
176
     1
 77
     6
176
     1
 78
     2
176
     1
 67
     7
176
     1
 79
     5
176
     1
170
     0
176
     1
171
     0
176
     1
290
     0
176
     1
 93
       13
176
     1
 44
0.0
176
     1
173
     0
176
     1
  0
VISUALSTYLE
  5
2E
102
{ACAD_REACTORS
330
2A
102
}
330
2A
100
AcDbVisualStyle
  2
GouraudWithEdges
 70
     3
177
     2
291
     1
 71
     2
176
     1
 72
     2
176
     1
 73
     1
176
     1
 90
        2
176
     1
 40
-0.6
176
     1
 41
30.0
176
     1
 62
     5
 63
     7
421
 16777215
176
     1
 74
     1
176
     1
 91
        4
176
     1
 64
     7
176
     1
 65
   257
176
     1
 75
     1
176
     1
175
     1
176
     1
 42
1.0
176
     1
 92
        0
176
     1
 66
   257
176
     1
 43
1.0
176
     1
 76
     1
176
     1
 77
     6
176
     1
 78
     2
176
     1
 67
     7
176
     1
 79
     5
176
     1
170
     0
176
     1
171
     0
176
     1
290
     0
176
     1
 93
       13
176
     1
 44
0.0
176
     1
173
     0
176
     1
  0
VISUALSTYLE
  5
38
102
{ACAD_REACTORS
330
2A
102
}
330
2A
100
AcDbVisualStyle
  2
Linepattern
 70
    14
177
     2
291
     1
 71
     2
176
     1
 72
     2
176
     1
 73
     0
176
     1
 90
        0
176
     1
 40
-0.6
176
     1
 41
-30.0
176
     1
 62
     5
 63
     7
421
 16777215
176
     1
 74
     1
176
     1
 91
        4
176
     1
 64
     7
176
     1
 65
   257
176
     1
 75
     7
176
     1
175
     7
176
     1
 42
1.0
176
     1
 92
        8
176
     1
 66
     7
176
     1
 43
1.0
176
     1
 76
     1
176
     1
 77
     6
176
     1
 78
     2
176
     1
 67
     7
176
     1
 79
     5
176
     1
170
     0
176
     1
171
     0
176
     1
290
     0
176
     1
 93
        1
176
     1
 44
0.0
176
     1
173
     0
176
     1
  0
VISUALSTYLE
  5
33
102
{ACAD_REACTORS
330
2A
102
}
330
2A
100
AcDbVisualStyle
  2
Realistic
 70
     8
177
     2
291
     0
 71
     2
176
     1
 72
     2
176
     1
 73
     0
176
     1
 90
        0
176
     1
 40
-0.6
176
     1
 41
-30.0
176
     1
 62
     5
 63
     7
421
 16777215
176
     1
 74
     1
176
     1
 91
        0
176
     1
 64
     7
176
     1
 65
   257
176
     1
 75
     1
176
     1
175
     1
176
     1
 42
1.0
176
     1
 92
        8
176
     1
 66
     8
424
  7895160
176
     1
 43
1.0
176
     1
 76
     1
176
     1
 77
     6
176
     1
 78
     2
176
     1
 67
     7
176
     1
 79
     5
176
     1
170
     0
176
     1
171
     0
176
     1
290
     0
176
     1
 93
       13
176
     1
 44
0.0
176
     1
173
     0
176
     1
  0
VISUALSTYLE
  5
37
102
{ACAD_REACTORS
330
2A
102
}
330
2A
100
AcDbVisualStyle
  2
Thicken
 70
    13
177
     2
291
     1
 71
     2
176
     1
 72
     2
176
     1
 73
     0
176
     1
 90
        0
176
     1
 40
-0.6
176
     1
 41
-30.0
176
     1
 62
     5
 63
     7
421
 16777215
176
     1
 74
     1
176
     1
 91
        4
176
     1
 64
     7
176
     1
 65
   257
176
     1
 75
     1
176
     1
175
     1
176
     1
 42
1.0
176
     1
 92
       12
176
     1
 66
     7
176
     1
 43
1.0
176
     1
 76
     1
176
     1
 77
     6
176
     1
 78
     2
176
     1
 67
     7
176
     1
 79
     5
176
     1
170
     0
176
     1
171
     0
176
     1
290
     0
176
     1
 93
        1
176
     1
 44
0.0
176
     1
173
     0
176
     1
  0
ENDSEC
  0
EOF
