  0
SECTION
  2
HEADER
  9
$ACADVER
  1
AC1024
  9
$ACADMAINTVER
 70
     6
  9
$DWGCODEPAGE
  3
UNDEFINED
  9
$INSBASE
 10
0.0
 20
0.0
 30
0.0
  9
$EXTMIN
 10
1.000000000000000E+20
 20
1.000000000000000E+20
 30
1.000000000000000E+20
  9
$EXTMAX
 10
-1.000000000000000E+20
 20
-1.000000000000000E+20
 30
-1.000000000000000E+20
  9
$LIMMIN
 10
0.0
 20
0.0
  9
$LIMMAX
 10
12.0
 20
9.0
  9
$ORTHOMODE
 70
     0
  9
$REGENMODE
 70
     1
  9
$FILLMODE
 70
     1
  9
$QTEXTMODE
 70
     0
  9
$MIRRTEXT
 70
     1
  9
$LTSCALE
 40
1.0
  9
$ATTMODE
 70
     1
  9
$TEXTSIZE
 40
0.2
  9
$TRACEWID
 40
0.05
  9
$TEXTSTYLE
  7
Standard
  9
$CLAYER
  8
0
  9
$CELTYPE
  6
ByLayer
  9
$CECOLOR
 62
   256
  9
$CELTSCALE
 40
1.0
  9
$DISPSILH
 70
     0
  9
$DIMSCALE
 40
1.0
  9
$DIMASZ
 40
0.18
  9
$DIMEXO
 40
0.0625
  9
$DIMDLI
 40
0.38
  9
$DIMRND
 40
0.0
  9
$DIMDLE
 40
0.0
  9
$DIMEXE
 40
0.18
  9
$DIMTP
 40
0.0
  9
$DIMTM
 40
0.0
  9
$DIMTXT
 40
0.18
  9
$DIMCEN
 40
0.09
  9
$DIMTSZ
 40
0.0
  9
$DIMTOL
 70
     0
  9
$DIMLIM
 70
     0
  9
$DIMTIH
 70
     1
  9
$DIMTOH
 70
     1
  9
$DIMSE1
 70
     0
  9
$DIMSE2
 70
     0
  9
$DIMTAD
 70
     0
  9
$DIMZIN
 70
     0
  9
$DIMBLK
  1

  9
$DIMASO
 70
     1
  9
$DIMSHO
 70
     1
  9
$DIMPOST
  1

  9
$DIMAPOST
  1

  9
$DIMALT
 70
     0
  9
$DIMALTD
 70
     2
  9
$DIMALTF
 40
25.4
  9
$DIMLFAC
 40
1.0
  9
$DIMTOFL
 70
     0
  9
$DIMTVP
 40
0.0
  9
$DIMTIX
 70
     0
  9
$DIMSOXD
 70
     0
  9
$DIMSAH
 70
     0
  9
$DIMBLK1
  1

  9
$DIMBLK2
  1

  9
$DIMSTYLE
  2
Standard
  9
$DIMCLRD
 70
     0
  9
$DIMCLRE
 70
     0
  9
$DIMCLRT
 70
     0
  9
$DIMTFAC
 40
1.0
  9
$DIMGAP
 40
0.09
  9
$DIMJUST
 70
     0
  9
$DIMSD1
 70
     0
  9
$DIMSD2
 70
     0
  9
$DIMTOLJ
 70
     1
  9
$DIMTZIN
 70
     0
  9
$DIMALTZ
 70
     0
  9
$DIMALTTZ
 70
     0
  9
$DIMUPT
 70
     0
  9
$DIMDEC
 70
     4
  9
$DIMTDEC
 70
     4
  9
$DIMALTU
 70
     2
  9
$DIMALTTD
 70
     2
  9
$DIMTXSTY
  7
Standard
  9
$DIMAUNIT
 70
     0
  9
$DIMADEC
 70
     0
  9
$DIMALTRND
 40
0.0
  9
$DIMAZIN
 70
     0
  9
$DIMDSEP
 70
    46
  9
$DIMATFIT
 70
     3
  9
$DIMFRAC
 70
     0
  9
$DIMLDRBLK
  1

  9
$DIMLUNIT
 70
     2
  9
$DIMLWD
 70
    -2
  9
$DIMLWE
 70
    -2
  9
$DIMTMOVE
 70
     0
  9
$DIMFXL
 40
1.0
  9
$DIMFXLON
 70
     0
  9
$DIMJOGANG
 40
0.7853981633974483
  9
$DIMTFILL
 70
     0
  9
$DIMTFILLCLR
 70
     0
  9
$DIMARCSYM
 70
     0
  9
$DIMLTYPE
  6

  9
$DIMLTEX1
  6

  9
$DIMLTEX2
  6

  9
$DIMTXTDIRECTION
 70
     0
  9
$LUNITS
 70
     2
  9
$LUPREC
 70
     4
  9
$SKETCHINC
 40
0.1
  9
$FILLETRAD
 40
0.5
  9
$AUNITS
 70
     0
  9
$AUPREC
 70
     0
  9
$MENU
  1
.
  9
$ELEVATION
 40
0.0
  9
$PELEVATION
 40
0.0
  9
$THICKNESS
 40
0.0
  9
$LIMCHECK
 70
     0
  9
$CHAMFERA
 40
0.5
  9
$CHAMFERB
 40
0.5
  9
$CHAMFERC
 40
1.0
  9
$CHAMFERD
 40
0.0
  9
$SKPOLY
 70
     0
  9
$TDCREATE
 40
2457917.626168982
  9
$TDUCREATE
 40
2457917.251168982
  9
$TDUPDATE
 40
2457917.626168982
  9
$TDUUPDATE
 40
2457917.251168982
  9
$TDINDWG
 40
0.0000000116
  9
$TDUSRTIMER
 40
0.0000000116
  9
$USRTIMER
 70
     1
  9
$ANGBASE
 50
0.0
  9
$ANGDIR
 70
     0
  9
$PDMODE
 70
     0
  9
$PDSIZE
 40
0.0
  9
$PLINEWID
 40
0.0
  9
$SPLFRAME
 70
     0
  9
$SPLINETYPE
 70
     6
  9
$SPLINESEGS
 70
     8
  9
$HANDSEED
  5
C2
  9
$SURFTAB1
 70
     6
  9
$SURFTAB2
 70
     6
  9
$SURFTYPE
 70
     6
  9
$SURFU
 70
     6
  9
$SURFV
 70
     6
  9
$UCSBASE
  2

  9
$UCSNAME
  2

  9
$UCSORG
 10
0.0
 20
0.0
 30
0.0
  9
$UCSXDIR
 10
1.0
 20
0.0
 30
0.0
  9
$UCSYDIR
 10
0.0
 20
1.0
 30
0.0
  9
$UCSORTHOREF
  2

  9
$UCSORTHOVIEW
 70
     0
  9
$UCSORGTOP
 10
0.0
 20
0.0
 30
0.0
  9
$UCSORGBOTTOM
 10
0.0
 20
0.0
 30
0.0
  9
$UCSORGLEFT
 10
0.0
 20
0.0
 30
0.0
  9
$UCSORGRIGHT
 10
0.0
 20
0.0
 30
0.0
  9
$UCSORGFRONT
 10
0.0
 20
0.0
 30
0.0
  9
$UCSORGBACK
 10
0.0
 20
0.0
 30
0.0
  9
$PUCSBASE
  2

  9
$PUCSNAME
  2

  9
$PUCSORG
 10
0.0
 20
0.0
 30
0.0
  9
$PUCSXDIR
 10
1.0
 20
0.0
 30
0.0
  9
$PUCSYDIR
 10
0.0
 20
1.0
 30
0.0
  9
$PUCSORTHOREF
  2

  9
$PUCSORTHOVIEW
 70
     0
  9
$PUCSORGTOP
 10
0.0
 20
0.0
 30
0.0
  9
$PUCSORGBOTTOM
 10
0.0
 20
0.0
 30
0.0
  9
$PUCSORGLEFT
 10
0.0
 20
0.0
 30
0.0
  9
$PUCSORGRIGHT
 10
0.0
 20
0.0
 30
0.0
  9
$PUCSORGFRONT
 10
0.0
 20
0.0
 30
0.0
  9
$PUCSORGBACK
 10
0.0
 20
0.0
 30
0.0
  9
$USERI1
 70
     0
  9
$USERI2
 70
     0
  9
$USERI3
 70
     0
  9
$USERI4
 70
     0
  9
$USERI5
 70
     0
  9
$USERR1
 40
0.0
  9
$USERR2
 40
0.0
  9
$USERR3
 40
0.0
  9
$USERR4
 40
0.0
  9
$USERR5
 40
0.0
  9
$WORLDVIEW
 70
     1
  9
$SHADEDGE
 70
     3
  9
$SHADEDIF
 70
    70
  9
$TILEMODE
 70
     1
  9
$MAXACTVP
 70
    64
  9
$PINSBASE
 10
0.0
 20
0.0
 30
0.0
  9
$PLIMCHECK
 70
     0
  9
$PEXTMIN
 10
1.000000000000000E+20
 20
1.000000000000000E+20
 30
1.000000000000000E+20
  9
$PEXTMAX
 10
-1.000000000000000E+20
 20
-1.000000000000000E+20
 30
-1.000000000000000E+20
  9
$PLIMMIN
 10
0.0
 20
0.0
  9
$PLIMMAX
 10
12.0
 20
9.0
  9
$UNITMODE
 70
     0
  9
$VISRETAIN
 70
     1
  9
$PLINEGEN
 70
     0
  9
$PSLTSCALE
 70
     1
  9
$TREEDEPTH
 70
  3020
  9
$CMLSTYLE
  2
Standard
  9
$CMLJUST
 70
     0
  9
$CMLSCALE
 40
1.0
  9
$PROXYGRAPHICS
 70
     1
  9
$MEASUREMENT
 70
     0
  9
$CELWEIGHT
370
    -1
  9
$ENDCAPS
280
     0
  9
$JOINSTYLE
280
     0
  9
$LWDISPLAY
290
     1
  9
$INSUNITS
 70
     1
  9
$HYPERLINKBASE
  1

  9
$STYLESHEET
  1

  9
$XEDIT
290
     1
  9
$CEPSNTYPE
380
     0
  9
$PSTYLEMODE
290
     1
  9
$FINGERPRINTGUID
  2
{8C9E632E-924D-F68B-07D4-8A593FF34CBD}
  9
$VERSIONGUID
  2
{FAEB1C32-E019-11D5-929B-00C0DF256EC4}
  9
$EXTNAMES
290
     1
  9
$PSVPSCALE
 40
0.0
  9
$OLESTARTUP
290
     0
  9
$SORTENTS
280
   127
  9
$INDEXCTL
280
     0
  9
$HIDETEXT
280
     1
  9
$XCLIPFRAME
280
     2
  9
$HALOGAP
280
     0
  9
$OBSCOLOR
 70
   257
  9
$OBSLTYPE
280
     0
  9
$INTERSECTIONDISPLAY
280
     0
  9
$INTERSECTIONCOLOR
 70
   257
  9
$DIMASSOC
280
     2
  9
$PROJECTNAME
  1

  9
$CAMERADISPLAY
290
     0
  9
$LENSLENGTH
 40
50.0
  9
$CAMERAHEIGHT
 40
0.0
  9
$STEPSPERSEC
 40
2.0
  9
$STEPSIZE
 40
6.0
  9
$3DDWFPREC
 40
2.0
  9
$PSOLWIDTH
 40
0.25
  9
$PSOLHEIGHT
 40
4.0
  9
$LOFTANG1
 40
1.570796326794897
  9
$LOFTANG2
 40
1.570796326794897
  9
$LOFTMAG1
 40
0.0
  9
$LOFTMAG2
 40
0.0
  9
$LOFTPARAM
 70
     7
  9
$LOFTNORMALS
280
     1
  9
$LATITUDE
 40
37.795
  9
$LONGITUDE
 40
-122.394
  9
$NORTHDIRECTION
 40
0.0
  9
$TIMEZONE
 70
 -8000
  9
$LIGHTGLYPHDISPLAY
280
     1
  9
$TILEMODELIGHTSYNCH
280
     1
  9
$CMATERIAL
347
3C
  9
$SOLIDHIST
280
     1
  9
$SHOWHIST
280
     1
  9
$DWFFRAME
280
     2
  9
$DGNFRAME
280
     2
  9
$REALWORLDSCALE
290
     1
  9
$INTERFERECOLOR
 62
   256
  9
$CSHADOW
280
     0
  9
$SHADOWPLANELOCATION
 40
0.0
  0
ENDSEC
  0
SECTION
  2
CLASSES
  0
CLASS
  1
ACDBDICTIONARYWDFLT
  2
AcDbDictionaryWithDefault
  3
ObjectDBX Classes
 90
        0
 91
        4
280
     0
281
     0
  0
CLASS
  1
VISUALSTYLE
  2
AcDbVisualStyle
  3
ObjectDBX Classes
 90
     4095
 91
        4
280
     0
281
     0
  0
CLASS
  1
MATERIAL
  2
AcDbMaterial
  3
ObjectDBX Classes
 90
     1153
 91
        4
280
     0
281
     0
  0
CLASS
  1
SUN
  2
AcDbSun
  3
SCENEOE
 90
     1024
 91
        4
280
     0
281
     0
  0
ENDSEC
  0
SECTION
  2
TABLES
  0
TABLE
  2
VPORT
  5
8
330
0
100
AcDbSymbolTable
 70
     1
  0
VPORT
  5
29
330
8
100
AcDbSymbolTableRecord
100
AcDbViewportTableRecord
  2
*Active
 70
     0
 10
0.0
 20
0.0
 11
1.0
 21
1.0
 12
0.0
 22
0.0
 13
0.0
 23
0.0
 14
0.5
 24
0.5
 15
0.5
 25
0.5
 16
0.0
 26
0.0
 36
1.0
 17
91.00082462281999
 27
-128.4993055234307
 37
0.0
 40
256.9986110468615
 41
0.7081814508812795
 42
50.0
 43
0.0
 44
0.0
 50
0.0
 51
0.0
 71
     0
 72
   100
 73
     1
 74
     3
 75
     0
 76
     0
 77
     0
 78
     0
281
     0
 65
     1
110
0.0
120
0.0
130
0.0
111
1.0
121
0.0
131
0.0
112
0.0
122
1.0
132
0.0
 79
     0
146
0.0
 60
     3
 61
     5
292
     1
282
     1
141
0.0
142
0.0
 63
   250
361
3F
  0
ENDTAB
  0
TABLE
  2
LTYPE
  5
5
330
0
100
AcDbSymbolTable
 70
     2
  0
LTYPE
  5
14
330
5
100
AcDbSymbolTableRecord
100
AcDbLinetypeTableRecord
  2
ByBlock
 70
     0
  3

 72
    65
 73
     0
 40
0.0
  0
LTYPE
  5
15
330
5
100
AcDbSymbolTableRecord
100
AcDbLinetypeTableRecord
  2
ByLayer
 70
     0
  3

 72
    65
 73
     0
 40
0.0
  0
LTYPE
  5
16
330
5
100
AcDbSymbolTableRecord
100
AcDbLinetypeTableRecord
  2
Continuous
 70
     0
  3
Solid line
 72
    65
 73
     0
 40
0.0
  0
LTYPE
  5
BE
330
5
100
AcDbSymbolTableRecord
100
AcDbLinetypeTableRecord
  2
AI-Linetype-1
 70
     0
  3
Adobe Illustrator Linetype No. 1
 72
    65
 73
     2
 40
1.411111110758333
 49
0.7055555553791667
 74
     0
 49
-0.7055555553791667
 74
     0
  0
ENDTAB
  0
TABLE
  2
LAYER
  5
2
330
0
100
AcDbSymbolTable
 70
     2
  0
LAYER
  5
10
330
2
100
AcDbSymbolTableRecord
100
AcDbLayerTableRecord
  2
0
 70
     0
 62
     7
  6
Continuous
370
    -3
390
F
347
3E
  0
LAYER
  5
40
330
2
100
AcDbSymbolTableRecord
100
AcDbLayerTableRecord
  2
_U+30EC_U+30A4_U+30E4_U+30FC 1
 70
     0
 62
     7
  6
Continuous
370
    -3
390
F
347
3E
  0
ENDTAB
  0
TABLE
  2
STYLE
  5
3
330
0
100
AcDbSymbolTable
 70
     1
  0
STYLE
  5
11
330
3
100
AcDbSymbolTableRecord
100
AcDbTextStyleTableRecord
  2
Standard
 70
     0
 40
0.0
 41
1.0
 50
0.0
 71
     0
 42
0.2
  3
txt
  4

  0
ENDTAB
  0
TABLE
  2
VIEW
  5
6
330
0
100
AcDbSymbolTable
 70
     0
  0
ENDTAB
  0
TABLE
  2
UCS
  5
7
330
0
100
AcDbSymbolTable
 70
     0
  0
ENDTAB
  0
TABLE
  2
APPID
  5
9
330
0
100
AcDbSymbolTable
 70
     1
  0
APPID
  5
12
330
9
100
AcDbSymbolTableRecord
100
AcDbRegAppTableRecord
  2
ACAD
 70
     0
  0
ENDTAB
  0
TABLE
  2
DIMSTYLE
  5
A
330
0
100
AcDbSymbolTable
 70
     1
100
AcDbDimStyleTable
  0
DIMSTYLE
105
27
330
A
100
AcDbSymbolTableRecord
100
AcDbDimStyleTableRecord
  2
Standard
 70
     0
178
     0
340
11
  0
ENDTAB
  0
TABLE
  2
BLOCK_RECORD
  5
1
330
0
100
AcDbSymbolTable
 70
     5
  0
BLOCK_RECORD
  5
1F
330
1
100
AcDbSymbolTableRecord
100
AcDbBlockTableRecord
  2
*Model_Space
340
22
 70
     0
280
     1
281
     0
  0
BLOCK_RECORD
  5
1B
330
1
100
AcDbSymbolTableRecord
100
AcDbBlockTableRecord
  2
*Paper_Space
340
1E
 70
     0
280
     1
281
     0
  0
BLOCK_RECORD
  5
23
330
1
100
AcDbSymbolTableRecord
100
AcDbBlockTableRecord
  2
*Paper_Space0
340
26
 70
     0
280
     1
281
     0
  0
BLOCK_RECORD
  5
75
330
1
100
AcDbSymbolTableRecord
100
AcDbBlockTableRecord
  2
block 2
340
0
102
{BLKREFS
331
76
102
}
 70
     0
280
     1
281
     0
  0
BLOCK_RECORD
  5
89
330
1
100
AcDbSymbolTableRecord
100
AcDbBlockTableRecord
  2
block 3
340
0
102
{BLKREFS
331
8A
102
}
 70
     0
280
     1
281
     0
  0
BLOCK_RECORD
  5
99
330
1
100
AcDbSymbolTableRecord
100
AcDbBlockTableRecord
  2
block 4
340
0
102
{BLKREFS
331
9A
102
}
 70
     0
280
     1
281
     0
  0
BLOCK_RECORD
  5
A9
330
1
100
AcDbSymbolTableRecord
100
AcDbBlockTableRecord
  2
block 5
340
0
102
{BLKREFS
331
AA
102
}
 70
     0
280
     1
281
     0
  0
ENDTAB
  0
ENDSEC
  0
SECTION
  2
BLOCKS
  0
BLOCK
  5
20
330
1F
100
AcDbEntity
  8
0
100
AcDbBlockBegin
  2
*Model_Space
 70
     0
 10
0.0
 20
0.0
 30
0.0
  3
*Model_Space
  1

  0
ENDBLK
  5
21
330
1F
100
AcDbEntity
  8
0
100
AcDbBlockEnd
  0
BLOCK
  5
1C
330
1B
100
AcDbEntity
 67
     1
  8
0
100
AcDbBlockBegin
  2
*Paper_Space
 70
     0
 10
0.0
 20
0.0
 30
0.0
  3
*Paper_Space
  1

  0
ENDBLK
  5
1D
330
1B
100
AcDbEntity
 67
     1
  8
0
100
AcDbBlockEnd
  0
BLOCK
  5
24
330
23
100
AcDbEntity
  8
0
100
AcDbBlockBegin
  2
*Paper_Space0
 70
     0
 10
0.0
 20
0.0
 30
0.0
  3
*Paper_Space0
  1

  0
ENDBLK
  5
25
330
23
100
AcDbEntity
  8
0
100
AcDbBlockEnd
  0
BLOCK
  5
77
330
75
100
AcDbEntity
  8
0
100
AcDbBlockBegin
  2
block 2
 70
     0
 10
0.0
 20
0.0
 30
0.0
  3
block 2
  1

  0
SPLINE
  5
79
330
75
100
AcDbEntity
  8
_U+30EC_U+30A4_U+30E4_U+30FC 1
370
     0
100
AcDbSpline
210
0.0
220
0.0
230
1.0
 70
    11
 71
     3
 72
    44
 73
    40
 74
     0
 42
0.0000000001
 43
0.0000000001
 12
1.0
 22
0.0
 32
0.0
 13
1.0
 23
0.0
 33
0.0
 40
0.0
 40
0.0
 40
0.0
 40
0.0
 40
1.0
 40
1.0
 40
1.0
 40
2.0
 40
2.0
 40
2.0
 40
3.0
 40
3.0
 40
3.0
 40
4.0
 40
4.0
 40
4.0
 40
5.0
 40
5.0
 40
5.0
 40
6.0
 40
6.0
 40
6.0
 40
7.0
 40
7.0
 40
7.0
 40
8.0
 40
8.0
 40
8.0
 40
9.0
 40
9.0
 40
9.0
 40
10.0
 40
10.0
 40
10.0
 40
11.0
 40
11.0
 40
11.0
 40
12.0
 40
12.0
 40
12.0
 40
13.0
 40
13.0
 40
13.0
 40
13.0
 10
128.8465711483439
 20
-133.5105414162751
 30
0.0
 10
129.0053900502139
 20
-133.7282714509429
 30
0.0
 10
129.0794596031468
 20
-133.8212890290447
 30
0.0
 10
129.2231200848817
 20
-133.8702093849352
 30
0.0
 10
129.2231200848817
 20
-133.8702093849352
 30
0.0
 10
129.2231200848817
 20
-133.0916178052688
 30
0.0
 10
129.2231200848817
 20
-133.0916178052688
 30
0.0
 10
129.2231200848817
 20
-133.0916178052688
 30
0.0
 10
129.4284477758026
 20
-133.0916178052688
 30
0.0
 10
129.4284477758026
 20
-133.0916178052688
 30
0.0
 10
129.4284477758026
 20
-133.0916178052688
 30
0.0
 10
129.4284477758026
 20
-134.1196342980673
 30
0.0
 10
129.4284477758026
 20
-134.1196342980673
 30
0.0
 10
129.0708468644337
 20
-134.087939419603
 30
0.0
 10
128.9926431969185
 20
-134.0224826053833
 30
0.0
 10
128.6942979278959
 20
-133.6373209301323
 30
0.0
 10
128.495515918397
 20
-133.3813503355783
 30
0.0
 10
128.4276475373375
 20
-133.3158935213585
 30
0.0
 10
128.2901882274761
 20
-133.3158935213585
 30
0.0
 10
128.1716769427835
 20
-133.3158935213585
 30
0.0
 10
128.040763314344
 20
-133.3878960170003
 30
0.0
 10
128.040763314344
 20
-133.584610969208
 30
0.0
 10
128.040763314344
 20
-133.8447156783444
 30
0.0
 10
128.2712402023072
 20
-133.852983907509
 30
0.0
 10
128.3876844297086
 20
-133.8574625316398
 30
0.0
 10
128.3876844297086
 20
-133.8574625316398
 30
0.0
 10
128.3876844297086
 20
-134.0817382477296
 30
0.0
 10
128.3876844297086
 20
-134.0817382477296
 30
0.0
 10
128.2605604063029
 20
-134.0731255090164
 30
0.0
 10
128.1485948030323
 20
-134.0624457130122
 30
0.0
 10
128.0300835183397
 20
-133.9821749882059
 30
0.0
 10
127.8691975591785
 20
-133.8722764422264
 30
0.0
 10
127.8354356234231
 20
-133.6858967764744
 30
0.0
 10
127.8354356234231
 20
-133.5697970586214
 30
0.0
 10
127.8354356234231
 20
-133.2924668720588
 30
0.0
 10
128.0194037223354
 20
-133.0850721238468
 30
0.0
 10
128.2922552847672
 20
-133.0850721238468
 30
0.0
 10
128.5210096249878
 20
-133.0850721238468
 30
0.0
 10
128.620228374963
 20
-133.2015163512482
 30
0.0
 10
128.8465711483439
 20
-133.5105414162751
 30
0.0
  0
HATCH
  5
7A
330
75
100
AcDbEntity
  8
_U+30EC_U+30A4_U+30E4_U+30FC 1
 62
     7
420
 16777215
100
AcDbHatch
 10
0.0
 20
0.0
 30
0.0
210
0.0
220
0.0
230
1.0
  2
SOLID
 70
     1
 71
     0
 91
        1
 92
        1
 93
        1
 72
     4
 94
        3
 73
     0
 74
     1
 95
       44
 96
       40
 40
0.0
 40
0.0
 40
0.0
 40
0.0
 40
1.0
 40
1.0
 40
1.0
 40
2.0
 40
2.0
 40
2.0
 40
3.0
 40
3.0
 40
3.0
 40
4.0
 40
4.0
 40
4.0
 40
5.0
 40
5.0
 40
5.0
 40
6.0
 40
6.0
 40
6.0
 40
7.0
 40
7.0
 40
7.0
 40
8.0
 40
8.0
 40
8.0
 40
9.0
 40
9.0
 40
9.0
 40
10.0
 40
10.0
 40
10.0
 40
11.0
 40
11.0
 40
11.0
 40
12.0
 40
12.0
 40
12.0
 40
13.0
 40
13.0
 40
13.0
 40
13.0
 10
128.8465711483439
 20
-133.5105414162751
 10
129.0053900502139
 20
-133.7282714509429
 10
129.0794596031468
 20
-133.8212890290447
 10
129.2231200848817
 20
-133.8702093849352
 10
129.2231200848817
 20
-133.8702093849352
 10
129.2231200848817
 20
-133.0916178052688
 10
129.2231200848817
 20
-133.0916178052688
 10
129.2231200848817
 20
-133.0916178052688
 10
129.4284477758026
 20
-133.0916178052688
 10
129.4284477758026
 20
-133.0916178052688
 10
129.4284477758026
 20
-133.0916178052688
 10
129.4284477758026
 20
-134.1196342980673
 10
129.4284477758026
 20
-134.1196342980673
 10
129.0708468644337
 20
-134.087939419603
 10
128.9926431969185
 20
-134.0224826053833
 10
128.6942979278959
 20
-133.6373209301323
 10
128.495515918397
 20
-133.3813503355783
 10
128.4276475373375
 20
-133.3158935213585
 10
128.2901882274761
 20
-133.3158935213585
 10
128.1716769427835
 20
-133.3158935213585
 10
128.040763314344
 20
-133.3878960170003
 10
128.040763314344
 20
-133.584610969208
 10
128.040763314344
 20
-133.8447156783444
 10
128.2712402023072
 20
-133.852983907509
 10
128.3876844297086
 20
-133.8574625316398
 10
128.3876844297086
 20
-133.8574625316398
 10
128.3876844297086
 20
-134.0817382477296
 10
128.3876844297086
 20
-134.0817382477296
 10
128.2605604063029
 20
-134.0731255090164
 10
128.1485948030323
 20
-134.0624457130122
 10
128.0300835183397
 20
-133.9821749882059
 10
127.8691975591785
 20
-133.8722764422264
 10
127.8354356234231
 20
-133.6858967764744
 10
127.8354356234231
 20
-133.5697970586214
 10
127.8354356234231
 20
-133.2924668720588
 10
128.0194037223354
 20
-133.0850721238468
 10
128.2922552847672
 20
-133.0850721238468
 10
128.5210096249878
 20
-133.0850721238468
 10
128.620228374963
 20
-133.2015163512482
 10
128.8465711483439
 20
-133.5105414162751
 97
        0
 97
        0
 75
     2
 76
     1
 98
        0
  0
SPLINE
  5
7B
330
75
100
AcDbEntity
  8
_U+30EC_U+30A4_U+30E4_U+30FC 1
370
     0
100
AcDbSpline
210
0.0
220
0.0
230
1.0
 70
    11
 71
     3
 72
    53
 73
    49
 74
     0
 42
0.0000000001
 43
0.0000000001
 12
1.0
 22
0.0
 32
0.0
 13
1.0
 23
0.0
 33
0.0
 40
0.0
 40
0.0
 40
0.0
 40
0.0
 40
1.0
 40
1.0
 40
1.0
 40
2.0
 40
2.0
 40
2.0
 40
3.0
 40
3.0
 40
3.0
 40
4.0
 40
4.0
 40
4.0
 40
5.0
 40
5.0
 40
5.0
 40
6.0
 40
6.0
 40
6.0
 40
7.0
 40
7.0
 40
7.0
 40
8.0
 40
8.0
 40
8.0
 40
9.0
 40
9.0
 40
9.0
 40
10.0
 40
10.0
 40
10.0
 40
11.0
 40
11.0
 40
11.0
 40
12.0
 40
12.0
 40
12.0
 40
13.0
 40
13.0
 40
13.0
 40
14.0
 40
14.0
 40
14.0
 40
15.0
 40
15.0
 40
15.0
 40
16.0
 40
16.0
 40
16.0
 40
16.0
 10
129.4790906794358
 20
-132.4456624017844
 30
0.0
 10
129.4790906794358
 20
-132.5238660692996
 30
0.0
 10
129.4622097115581
 20
-132.6254963861145
 30
0.0
 10
129.3988199546295
 20
-132.7271267029293
 30
0.0
 10
129.28892140865
 20
-132.9004150058374
 30
0.0
 10
129.157663270662
 20
-132.9217745978459
 30
0.0
 10
129.0498317819737
 20
-132.9407226230148
 30
0.0
 10
129.0498317819737
 20
-132.9407226230148
 30
0.0
 10
129.0498317819737
 20
-132.7185139642162
 30
0.0
 10
129.0498317819737
 20
-132.7185139642162
 30
0.0
 10
129.2486137914726
 20
-132.6637369460007
 30
0.0
 10
129.2782416126457
 20
-132.536612922595
 30
0.0
 10
129.2782416126457
 20
-132.4435953444933
 30
0.0
 10
129.2782416126457
 20
-132.3040689773406
 30
0.0
 10
129.178678353122
 20
-132.1517957568926
 30
0.0
 10
128.9461344078676
 20
-132.1517957568926
 30
0.0
 10
128.6901638133136
 20
-132.1517957568926
 30
0.0
 10
128.620228374963
 20
-132.3316297412227
 30
0.0
 10
128.620228374963
 20
-132.4522080832064
 30
0.0
 10
128.620228374963
 20
-132.4839029616707
 30
0.0
 10
128.620228374963
 20
-132.6254963861145
 30
0.0
 10
128.7494194556599
 20
-132.7143798496339
 30
0.0
 10
128.7494194556599
 20
-132.7143798496339
 30
0.0
 10
128.730471430491
 20
-132.8900797193816
 30
0.0
 10
128.730471430491
 20
-132.8900797193816
 30
0.0
 10
128.730471430491
 20
-132.8900797193816
 30
0.0
 10
127.8840114697651
 20
-132.7695013773979
 30
0.0
 10
127.8840114697651
 20
-132.7695013773979
 30
0.0
 10
127.8840114697651
 20
-132.7695013773979
 30
0.0
 10
127.8840114697651
 20
-131.9909097977314
 30
0.0
 10
127.8840114697651
 20
-131.9909097977314
 30
0.0
 10
127.8840114697651
 20
-131.9909097977314
 30
0.0
 10
128.0786593646817
 20
-131.9909097977314
 30
0.0
 10
128.0786593646817
 20
-131.9909097977314
 30
0.0
 10
128.0786593646817
 20
-131.9909097977314
 30
0.0
 10
128.0786593646817
 20
-132.6065483609456
 30
0.0
 10
128.0786593646817
 20
-132.6065483609456
 30
0.0
 10
128.0786593646817
 20
-132.6065483609456
 30
0.0
 10
128.5017170902704
 20
-132.6720051751653
 30
0.0
 10
128.5017170902704
 20
-132.6720051751653
 30
0.0
 10
128.467955154515
 20
-132.6106824755279
 30
0.0
 10
128.4276475373375
 20
-132.5283446934304
 30
0.0
 10
128.4276475373375
 20
-132.4098334087378
 30
0.0
 10
128.4276475373375
 20
-132.1559298714749
 30
0.0
 10
128.6140272030896
 20
-131.9189073020897
 30
0.0
 10
128.9271863826988
 20
-131.9189073020897
 30
0.0
 10
129.2444796768903
 20
-131.9189073020897
 30
0.0
 10
129.4790906794358
 20
-132.1431830181795
 30
0.0
 10
129.4790906794358
 20
-132.4456624017844
 30
0.0
  0
HATCH
  5
7C
330
75
100
AcDbEntity
  8
_U+30EC_U+30A4_U+30E4_U+30FC 1
 62
     7
420
 16777215
100
AcDbHatch
 10
0.0
 20
0.0
 30
0.0
210
0.0
220
0.0
230
1.0
  2
SOLID
 70
     1
 71
     0
 91
        1
 92
        1
 93
        1
 72
     4
 94
        3
 73
     0
 74
     1
 95
       53
 96
       49
 40
0.0
 40
0.0
 40
0.0
 40
0.0
 40
1.0
 40
1.0
 40
1.0
 40
2.0
 40
2.0
 40
2.0
 40
3.0
 40
3.0
 40
3.0
 40
4.0
 40
4.0
 40
4.0
 40
5.0
 40
5.0
 40
5.0
 40
6.0
 40
6.0
 40
6.0
 40
7.0
 40
7.0
 40
7.0
 40
8.0
 40
8.0
 40
8.0
 40
9.0
 40
9.0
 40
9.0
 40
10.0
 40
10.0
 40
10.0
 40
11.0
 40
11.0
 40
11.0
 40
12.0
 40
12.0
 40
12.0
 40
13.0
 40
13.0
 40
13.0
 40
14.0
 40
14.0
 40
14.0
 40
15.0
 40
15.0
 40
15.0
 40
16.0
 40
16.0
 40
16.0
 40
16.0
 10
129.4790906794358
 20
-132.4456624017844
 10
129.4790906794358
 20
-132.5238660692996
 10
129.4622097115581
 20
-132.6254963861145
 10
129.3988199546295
 20
-132.7271267029293
 10
129.28892140865
 20
-132.9004150058374
 10
129.157663270662
 20
-132.9217745978459
 10
129.0498317819737
 20
-132.9407226230148
 10
129.0498317819737
 20
-132.9407226230148
 10
129.0498317819737
 20
-132.7185139642162
 10
129.0498317819737
 20
-132.7185139642162
 10
129.2486137914726
 20
-132.6637369460007
 10
129.2782416126457
 20
-132.536612922595
 10
129.2782416126457
 20
-132.4435953444933
 10
129.2782416126457
 20
-132.3040689773406
 10
129.178678353122
 20
-132.1517957568926
 10
128.9461344078676
 20
-132.1517957568926
 10
128.6901638133136
 20
-132.1517957568926
 10
128.620228374963
 20
-132.3316297412227
 10
128.620228374963
 20
-132.4522080832064
 10
128.620228374963
 20
-132.4839029616707
 10
128.620228374963
 20
-132.6254963861145
 10
128.7494194556599
 20
-132.7143798496339
 10
128.7494194556599
 20
-132.7143798496339
 10
128.730471430491
 20
-132.8900797193816
 10
128.730471430491
 20
-132.8900797193816
 10
128.730471430491
 20
-132.8900797193816
 10
127.8840114697651
 20
-132.7695013773979
 10
127.8840114697651
 20
-132.7695013773979
 10
127.8840114697651
 20
-132.7695013773979
 10
127.8840114697651
 20
-131.9909097977314
 10
127.8840114697651
 20
-131.9909097977314
 10
127.8840114697651
 20
-131.9909097977314
 10
128.0786593646817
 20
-131.9909097977314
 10
128.0786593646817
 20
-131.9909097977314
 10
128.0786593646817
 20
-131.9909097977314
 10
128.0786593646817
 20
-132.6065483609456
 10
128.0786593646817
 20
-132.6065483609456
 10
128.0786593646817
 20
-132.6065483609456
 10
128.5017170902704
 20
-132.6720051751653
 10
128.5017170902704
 20
-132.6720051751653
 10
128.467955154515
 20
-132.6106824755279
 10
128.4276475373375
 20
-132.5283446934304
 10
128.4276475373375
 20
-132.4098334087378
 10
128.4276475373375
 20
-132.1559298714749
 10
128.6140272030896
 20
-131.9189073020897
 10
128.9271863826988
 20
-131.9189073020897
 10
129.2444796768903
 20
-131.9189073020897
 10
129.4790906794358
 20
-132.1431830181795
 10
129.4790906794358
 20
-132.4456624017844
 97
        0
 97
        0
 75
     2
 76
     1
 98
        0
  0
ENDBLK
  5
78
330
75
100
AcDbEntity
  8
0
100
AcDbBlockEnd
  0
BLOCK
  5
8B
330
89
100
AcDbEntity
  8
0
100
AcDbBlockBegin
  2
block 3
 70
     0
 10
0.0
 20
0.0
 30
0.0
  3
block 3
  1

  0
SPLINE
  5
8D
330
89
100
AcDbEntity
  8
_U+30EC_U+30A4_U+30E4_U+30FC 1
370
     0
100
AcDbSpline
210
0.0
220
0.0
230
1.0
 70
    11
 71
     3
 72
    44
 73
    40
 74
     0
 42
0.0000000001
 43
0.0000000001
 12
1.0
 22
0.0
 32
0.0
 13
1.0
 23
0.0
 33
0.0
 40
0.0
 40
0.0
 40
0.0
 40
0.0
 40
1.0
 40
1.0
 40
1.0
 40
2.0
 40
2.0
 40
2.0
 40
3.0
 40
3.0
 40
3.0
 40
4.0
 40
4.0
 40
4.0
 40
5.0
 40
5.0
 40
5.0
 40
6.0
 40
6.0
 40
6.0
 40
7.0
 40
7.0
 40
7.0
 40
8.0
 40
8.0
 40
8.0
 40
9.0
 40
9.0
 40
9.0
 40
10.0
 40
10.0
 40
10.0
 40
11.0
 40
11.0
 40
11.0
 40
12.0
 40
12.0
 40
12.0
 40
13.0
 40
13.0
 40
13.0
 40
13.0
 10
63.07866480627895
 20
-114.286219589484
 30
0.0
 10
62.86076251683689
 20
-114.4448662365798
 30
0.0
 10
62.76757268396089
 20
-114.5189357895126
 30
0.0
 10
62.71899683761887
 20
-114.6627685260218
 30
0.0
 10
62.71899683761887
 20
-114.6627685260218
 30
0.0
 10
63.49741616251107
 20
-114.6627685260218
 30
0.0
 10
63.49741616251107
 20
-114.6627685260218
 30
0.0
 10
63.49741616251107
 20
-114.6627685260218
 30
0.0
 10
63.49741616251107
 20
-114.8679239621684
 30
0.0
 10
63.49741616251107
 20
-114.8679239621684
 30
0.0
 10
63.49741616251107
 20
-114.8679239621684
 30
0.0
 10
62.46939966971252
 20
-114.8679239621684
 30
0.0
 10
62.46939966971252
 20
-114.8679239621684
 30
0.0
 10
62.50109454817682
 20
-114.5103230507995
 30
0.0
 10
62.56672361717082
 20
-114.4321193832843
 30
0.0
 10
62.95171303764749
 20
-114.1337741142617
 30
0.0
 10
63.20768363220155
 20
-113.9349921047628
 30
0.0
 10
63.2731404464213
 20
-113.8672959784776
 30
0.0
 10
63.2731404464213
 20
-113.7298366686162
 30
0.0
 10
63.2731404464213
 20
-113.6113253839236
 30
0.0
 10
63.20131020555385
 20
-113.4802395007098
 30
0.0
 10
63.00459525334607
 20
-113.4802395007098
 30
0.0
 10
62.74431828943545
 20
-113.4802395007098
 30
0.0
 10
62.73587780549659
 20
-113.710716388673
 30
0.0
 10
62.73157143614003
 20
-113.8271606160745
 30
0.0
 10
62.73157143614003
 20
-113.8271606160745
 30
0.0
 10
62.50746797482452
 20
-113.8271606160745
 30
0.0
 10
62.50746797482452
 20
-113.8271606160745
 30
0.0
 10
62.51590845876338
 20
-113.700208847443
 30
0.0
 10
62.5264159999934
 20
-113.5880709893981
 30
0.0
 10
62.60685897957399
 20
-113.4695597047055
 30
0.0
 10
62.71675752555345
 20
-113.3088460003186
 30
0.0
 10
62.90296493653121
 20
-113.2749118097889
 30
0.0
 10
63.01940916393265
 20
-113.2749118097889
 30
0.0
 10
63.296567095721
 20
-113.2749118097889
 30
0.0
 10
63.50378958915878
 20
-113.4590521634755
 30
0.0
 10
63.50378958915878
 20
-113.7319037259073
 30
0.0
 10
63.50378958915878
 20
-113.9603135565794
 30
0.0
 10
63.3875176165316
 20
-114.0598768161031
 30
0.0
 10
63.07866480627895
 20
-114.286219589484
 30
0.0
  0
HATCH
  5
8E
330
89
100
AcDbEntity
  8
_U+30EC_U+30A4_U+30E4_U+30FC 1
 62
     7
420
 16777215
100
AcDbHatch
 10
0.0
 20
0.0
 30
0.0
210
0.0
220
0.0
230
1.0
  2
SOLID
 70
     1
 71
     0
 91
        1
 92
        1
 93
        1
 72
     4
 94
        3
 73
     0
 74
     1
 95
       44
 96
       40
 40
0.0
 40
0.0
 40
0.0
 40
0.0
 40
1.0
 40
1.0
 40
1.0
 40
2.0
 40
2.0
 40
2.0
 40
3.0
 40
3.0
 40
3.0
 40
4.0
 40
4.0
 40
4.0
 40
5.0
 40
5.0
 40
5.0
 40
6.0
 40
6.0
 40
6.0
 40
7.0
 40
7.0
 40
7.0
 40
8.0
 40
8.0
 40
8.0
 40
9.0
 40
9.0
 40
9.0
 40
10.0
 40
10.0
 40
10.0
 40
11.0
 40
11.0
 40
11.0
 40
12.0
 40
12.0
 40
12.0
 40
13.0
 40
13.0
 40
13.0
 40
13.0
 10
63.07866480627895
 20
-114.286219589484
 10
62.86076251683689
 20
-114.4448662365798
 10
62.76757268396089
 20
-114.5189357895126
 10
62.71899683761887
 20
-114.6627685260218
 10
62.71899683761887
 20
-114.6627685260218
 10
63.49741616251107
 20
-114.6627685260218
 10
63.49741616251107
 20
-114.6627685260218
 10
63.49741616251107
 20
-114.6627685260218
 10
63.49741616251107
 20
-114.8679239621684
 10
63.49741616251107
 20
-114.8679239621684
 10
63.49741616251107
 20
-114.8679239621684
 10
62.46939966971252
 20
-114.8679239621684
 10
62.46939966971252
 20
-114.8679239621684
 10
62.50109454817682
 20
-114.5103230507995
 10
62.56672361717082
 20
-114.4321193832843
 10
62.95171303764749
 20
-114.1337741142617
 10
63.20768363220155
 20
-113.9349921047628
 10
63.2731404464213
 20
-113.8672959784776
 10
63.2731404464213
 20
-113.7298366686162
 10
63.2731404464213
 20
-113.6113253839236
 10
63.20131020555385
 20
-113.4802395007098
 10
63.00459525334607
 20
-113.4802395007098
 10
62.74431828943545
 20
-113.4802395007098
 10
62.73587780549659
 20
-113.710716388673
 10
62.73157143614003
 20
-113.8271606160745
 10
62.73157143614003
 20
-113.8271606160745
 10
62.50746797482452
 20
-113.8271606160745
 10
62.50746797482452
 20
-113.8271606160745
 10
62.51590845876338
 20
-113.700208847443
 10
62.5264159999934
 20
-113.5880709893981
 10
62.60685897957399
 20
-113.4695597047055
 10
62.71675752555345
 20
-113.3088460003186
 10
62.90296493653121
 20
-113.2749118097889
 10
63.01940916393265
 20
-113.2749118097889
 10
63.296567095721
 20
-113.2749118097889
 10
63.50378958915878
 20
-113.4590521634755
 10
63.50378958915878
 20
-113.7319037259073
 10
63.50378958915878
 20
-113.9603135565794
 10
63.3875176165316
 20
-114.0598768161031
 10
63.07866480627895
 20
-114.286219589484
 97
        0
 97
        0
 75
     2
 76
     1
 98
        0
  0
SPLINE
  5
8F
330
89
100
AcDbEntity
  8
_U+30EC_U+30A4_U+30E4_U+30FC 1
370
     0
100
AcDbSpline
210
0.0
220
0.0
230
1.0
 70
    11
 71
     3
 72
    53
 73
    49
 74
     0
 42
0.0000000001
 43
0.0000000001
 12
1.0
 22
0.0
 32
0.0
 13
1.0
 23
0.0
 33
0.0
 40
0.0
 40
0.0
 40
0.0
 40
0.0
 40
1.0
 40
1.0
 40
1.0
 40
2.0
 40
2.0
 40
2.0
 40
3.0
 40
3.0
 40
3.0
 40
4.0
 40
4.0
 40
4.0
 40
5.0
 40
5.0
 40
5.0
 40
6.0
 40
6.0
 40
6.0
 40
7.0
 40
7.0
 40
7.0
 40
8.0
 40
8.0
 40
8.0
 40
9.0
 40
9.0
 40
9.0
 40
10.0
 40
10.0
 40
10.0
 40
11.0
 40
11.0
 40
11.0
 40
12.0
 40
12.0
 40
12.0
 40
13.0
 40
13.0
 40
13.0
 40
14.0
 40
14.0
 40
14.0
 40
15.0
 40
15.0
 40
15.0
 40
16.0
 40
16.0
 40
16.0
 40
16.0
 10
64.14337156599541
 20
-114.9187391205759
 30
0.0
 10
64.06499564370597
 20
-114.9187391205759
 30
0.0
 10
63.96353758166537
 20
-114.9016858979239
 30
0.0
 10
63.8619072648505
 20
-114.8382961409953
 30
0.0
 10
63.68844670716817
 20
-114.7282253402416
 30
0.0
 10
63.66725936993388
 20
-114.5971394570278
 30
0.0
 10
63.64831134476501
 20
-114.4893079683395
 30
0.0
 10
63.64831134476501
 20
-114.4893079683395
 30
0.0
 10
63.87034774878936
 20
-114.4893079683395
 30
0.0
 10
63.87034774878936
 20
-114.4893079683395
 30
0.0
 10
63.92546927655336
 20
-114.6880899778384
 30
0.0
 10
64.05242104518481
 20
-114.7177177990116
 30
0.0
 10
64.14543862328657
 20
-114.7177177990116
 30
0.0
 10
64.28513724521343
 20
-114.7177177990116
 30
0.0
 10
64.43741046566149
 20
-114.6183267942621
 30
0.0
 10
64.43741046566149
 20
-114.3856105942335
 30
0.0
 10
64.43741046566149
 20
-114.1296399996794
 30
0.0
 10
64.25757648133144
 20
-114.0598768161031
 30
0.0
 10
64.1369981393477
 20
-114.0598768161031
 30
0.0
 10
64.1053032608834
 20
-114.0598768161031
 30
0.0
 10
63.96353758166537
 20
-114.0598768161031
 30
0.0
 10
63.87465411814592
 20
-114.1888956420257
 30
0.0
 10
63.87465411814592
 20
-114.1888956420257
 30
0.0
 10
63.69912650317244
 20
-114.1697753620826
 30
0.0
 10
63.69912650317244
 20
-114.1697753620826
 30
0.0
 10
63.69912650317244
 20
-114.1697753620826
 30
0.0
 10
63.81970484515619
 20
-113.3236599109052
 30
0.0
 10
63.81970484515619
 20
-113.3236599109052
 30
0.0
 10
63.81970484515619
 20
-113.3236599109052
 30
0.0
 10
64.5981241700484
 20
-113.3236599109052
 30
0.0
 10
64.5981241700484
 20
-113.3236599109052
 30
0.0
 10
64.5981241700484
 20
-113.3236599109052
 30
0.0
 10
64.5981241700484
 20
-113.5183078058218
 30
0.0
 10
64.5981241700484
 20
-113.5183078058218
 30
0.0
 10
64.5981241700484
 20
-113.5183078058218
 30
0.0
 10
63.98248560683425
 20
-113.5183078058218
 30
0.0
 10
63.98248560683425
 20
-113.5183078058218
 30
0.0
 10
63.98248560683425
 20
-113.5183078058218
 30
0.0
 10
63.9170287926145
 20
-113.9413655314105
 30
0.0
 10
63.9170287926145
 20
-113.9413655314105
 30
0.0
 10
63.97835149225195
 20
-113.9074313408808
 30
0.0
 10
64.06086152912367
 20
-113.8672959784776
 30
0.0
 10
64.179200559042
 20
-113.8672959784776
 30
0.0
 10
64.43310409630492
 20
-113.8672959784776
 30
0.0
 10
64.6701266656901
 20
-114.0535033894554
 30
0.0
 10
64.6701266656901
 20
-114.3664903142903
 30
0.0
 10
64.6701266656901
 20
-114.6839558632561
 30
0.0
 10
64.44585094960034
 20
-114.9187391205759
 30
0.0
 10
64.14337156599541
 20
-114.9187391205759
 30
0.0
  0
HATCH
  5
90
330
89
100
AcDbEntity
  8
_U+30EC_U+30A4_U+30E4_U+30FC 1
 62
     7
420
 16777215
100
AcDbHatch
 10
0.0
 20
0.0
 30
0.0
210
0.0
220
0.0
230
1.0
  2
SOLID
 70
     1
 71
     0
 91
        1
 92
        1
 93
        1
 72
     4
 94
        3
 73
     0
 74
     1
 95
       53
 96
       49
 40
0.0
 40
0.0
 40
0.0
 40
0.0
 40
1.0
 40
1.0
 40
1.0
 40
2.0
 40
2.0
 40
2.0
 40
3.0
 40
3.0
 40
3.0
 40
4.0
 40
4.0
 40
4.0
 40
5.0
 40
5.0
 40
5.0
 40
6.0
 40
6.0
 40
6.0
 40
7.0
 40
7.0
 40
7.0
 40
8.0
 40
8.0
 40
8.0
 40
9.0
 40
9.0
 40
9.0
 40
10.0
 40
10.0
 40
10.0
 40
11.0
 40
11.0
 40
11.0
 40
12.0
 40
12.0
 40
12.0
 40
13.0
 40
13.0
 40
13.0
 40
14.0
 40
14.0
 40
14.0
 40
15.0
 40
15.0
 40
15.0
 40
16.0
 40
16.0
 40
16.0
 40
16.0
 10
64.14337156599541
 20
-114.9187391205759
 10
64.06499564370597
 20
-114.9187391205759
 10
63.96353758166537
 20
-114.9016858979239
 10
63.8619072648505
 20
-114.8382961409953
 10
63.68844670716817
 20
-114.7282253402416
 10
63.66725936993388
 20
-114.5971394570278
 10
63.64831134476501
 20
-114.4893079683395
 10
63.64831134476501
 20
-114.4893079683395
 10
63.87034774878936
 20
-114.4893079683395
 10
63.87034774878936
 20
-114.4893079683395
 10
63.92546927655336
 20
-114.6880899778384
 10
64.05242104518481
 20
-114.7177177990116
 10
64.14543862328657
 20
-114.7177177990116
 10
64.28513724521343
 20
-114.7177177990116
 10
64.43741046566149
 20
-114.6183267942621
 10
64.43741046566149
 20
-114.3856105942335
 10
64.43741046566149
 20
-114.1296399996794
 10
64.25757648133144
 20
-114.0598768161031
 10
64.1369981393477
 20
-114.0598768161031
 10
64.1053032608834
 20
-114.0598768161031
 10
63.96353758166537
 20
-114.0598768161031
 10
63.87465411814592
 20
-114.1888956420257
 10
63.87465411814592
 20
-114.1888956420257
 10
63.69912650317244
 20
-114.1697753620826
 10
63.69912650317244
 20
-114.1697753620826
 10
63.69912650317244
 20
-114.1697753620826
 10
63.81970484515619
 20
-113.3236599109052
 10
63.81970484515619
 20
-113.3236599109052
 10
63.81970484515619
 20
-113.3236599109052
 10
64.5981241700484
 20
-113.3236599109052
 10
64.5981241700484
 20
-113.3236599109052
 10
64.5981241700484
 20
-113.3236599109052
 10
64.5981241700484
 20
-113.5183078058218
 10
64.5981241700484
 20
-113.5183078058218
 10
64.5981241700484
 20
-113.5183078058218
 10
63.98248560683425
 20
-113.5183078058218
 10
63.98248560683425
 20
-113.5183078058218
 10
63.98248560683425
 20
-113.5183078058218
 10
63.9170287926145
 20
-113.9413655314105
 10
63.9170287926145
 20
-113.9413655314105
 10
63.97835149225195
 20
-113.9074313408808
 10
64.06086152912367
 20
-113.8672959784776
 10
64.179200559042
 20
-113.8672959784776
 10
64.43310409630492
 20
-113.8672959784776
 10
64.6701266656901
 20
-114.0535033894554
 10
64.6701266656901
 20
-114.3664903142903
 10
64.6701266656901
 20
-114.6839558632561
 10
64.44585094960034
 20
-114.9187391205759
 10
64.14337156599541
 20
-114.9187391205759
 97
        0
 97
        0
 75
     2
 76
     1
 98
        0
  0
ENDBLK
  5
8C
330
89
100
AcDbEntity
  8
0
100
AcDbBlockEnd
  0
BLOCK
  5
9B
330
99
100
AcDbEntity
  8
0
100
AcDbBlockBegin
  2
block 4
 70
     0
 10
0.0
 20
0.0
 30
0.0
  3
block 4
  1

  0
SPLINE
  5
9D
330
99
100
AcDbEntity
  8
_U+30EC_U+30A4_U+30E4_U+30FC 1
370
     0
100
AcDbSpline
210
0.0
220
0.0
230
1.0
 70
    11
 71
     3
 72
    44
 73
    40
 74
     0
 42
0.0000000001
 43
0.0000000001
 12
1.0
 22
0.0
 32
0.0
 13
1.0
 23
0.0
 33
0.0
 40
0.0
 40
0.0
 40
0.0
 40
0.0
 40
1.0
 40
1.0
 40
1.0
 40
2.0
 40
2.0
 40
2.0
 40
3.0
 40
3.0
 40
3.0
 40
4.0
 40
4.0
 40
4.0
 40
5.0
 40
5.0
 40
5.0
 40
6.0
 40
6.0
 40
6.0
 40
7.0
 40
7.0
 40
7.0
 40
8.0
 40
8.0
 40
8.0
 40
9.0
 40
9.0
 40
9.0
 40
10.0
 40
10.0
 40
10.0
 40
11.0
 40
11.0
 40
11.0
 40
12.0
 40
12.0
 40
12.0
 40
13.0
 40
13.0
 40
13.0
 40
13.0
 10
88.07868921409144
 20
-114.286219589484
 30
0.0
 10
87.86078692464939
 20
-114.4448662365798
 30
0.0
 10
87.76759709177338
 20
-114.5189357895126
 30
0.0
 10
87.71902124543136
 20
-114.6627685260218
 30
0.0
 10
87.71902124543136
 20
-114.6627685260218
 30
0.0
 10
88.49744057032356
 20
-114.6627685260218
 30
0.0
 10
88.49744057032356
 20
-114.6627685260218
 30
0.0
 10
88.49744057032356
 20
-114.6627685260218
 30
0.0
 10
88.49744057032356
 20
-114.8679239621684
 30
0.0
 10
88.49744057032356
 20
-114.8679239621684
 30
0.0
 10
88.49744057032356
 20
-114.8679239621684
 30
0.0
 10
87.469424077525
 20
-114.8679239621684
 30
0.0
 10
87.469424077525
 20
-114.8679239621684
 30
0.0
 10
87.50111895598931
 20
-114.5103230507995
 30
0.0
 10
87.56674802498331
 20
-114.4321193832843
 30
0.0
 10
87.95173744545998
 20
-114.1337741142617
 30
0.0
 10
88.20770804001405
 20
-113.9349921047628
 30
0.0
 10
88.2731648542338
 20
-113.8672959784776
 30
0.0
 10
88.2731648542338
 20
-113.7298366686162
 30
0.0
 10
88.2731648542338
 20
-113.6113253839236
 30
0.0
 10
88.20133461336634
 20
-113.4802395007098
 30
0.0
 10
88.00461966115857
 20
-113.4802395007098
 30
0.0
 10
87.74434269724794
 20
-113.4802395007098
 30
0.0
 10
87.73590221330909
 20
-113.710716388673
 30
0.0
 10
87.73159584395252
 20
-113.8271606160745
 30
0.0
 10
87.73159584395252
 20
-113.8271606160745
 30
0.0
 10
87.50749238263703
 20
-113.8271606160745
 30
0.0
 10
87.50749238263703
 20
-113.8271606160745
 30
0.0
 10
87.51593286657588
 20
-113.700208847443
 30
0.0
 10
87.5264404078059
 20
-113.5880709893981
 30
0.0
 10
87.60688338738647
 20
-113.4695597047055
 30
0.0
 10
87.71678193336595
 20
-113.3088460003186
 30
0.0
 10
87.9029893443437
 20
-113.2749118097889
 30
0.0
 10
88.01943357174514
 20
-113.2749118097889
 30
0.0
 10
88.29659150353349
 20
-113.2749118097889
 30
0.0
 10
88.50381399697127
 20
-113.4590521634755
 30
0.0
 10
88.50381399697127
 20
-113.7319037259073
 30
0.0
 10
88.50381399697127
 20
-113.9603135565794
 30
0.0
 10
88.38754202434409
 20
-114.0598768161031
 30
0.0
 10
88.07868921409144
 20
-114.286219589484
 30
0.0
  0
HATCH
  5
9E
330
99
100
AcDbEntity
  8
_U+30EC_U+30A4_U+30E4_U+30FC 1
 62
     7
420
 16777215
100
AcDbHatch
 10
0.0
 20
0.0
 30
0.0
210
0.0
220
0.0
230
1.0
  2
SOLID
 70
     1
 71
     0
 91
        1
 92
        1
 93
        1
 72
     4
 94
        3
 73
     0
 74
     1
 95
       44
 96
       40
 40
0.0
 40
0.0
 40
0.0
 40
0.0
 40
1.0
 40
1.0
 40
1.0
 40
2.0
 40
2.0
 40
2.0
 40
3.0
 40
3.0
 40
3.0
 40
4.0
 40
4.0
 40
4.0
 40
5.0
 40
5.0
 40
5.0
 40
6.0
 40
6.0
 40
6.0
 40
7.0
 40
7.0
 40
7.0
 40
8.0
 40
8.0
 40
8.0
 40
9.0
 40
9.0
 40
9.0
 40
10.0
 40
10.0
 40
10.0
 40
11.0
 40
11.0
 40
11.0
 40
12.0
 40
12.0
 40
12.0
 40
13.0
 40
13.0
 40
13.0
 40
13.0
 10
88.07868921409144
 20
-114.286219589484
 10
87.86078692464939
 20
-114.4448662365798
 10
87.76759709177338
 20
-114.5189357895126
 10
87.71902124543136
 20
-114.6627685260218
 10
87.71902124543136
 20
-114.6627685260218
 10
88.49744057032356
 20
-114.6627685260218
 10
88.49744057032356
 20
-114.6627685260218
 10
88.49744057032356
 20
-114.6627685260218
 10
88.49744057032356
 20
-114.8679239621684
 10
88.49744057032356
 20
-114.8679239621684
 10
88.49744057032356
 20
-114.8679239621684
 10
87.469424077525
 20
-114.8679239621684
 10
87.469424077525
 20
-114.8679239621684
 10
87.50111895598931
 20
-114.5103230507995
 10
87.56674802498331
 20
-114.4321193832843
 10
87.95173744545998
 20
-114.1337741142617
 10
88.20770804001405
 20
-113.9349921047628
 10
88.2731648542338
 20
-113.8672959784776
 10
88.2731648542338
 20
-113.7298366686162
 10
88.2731648542338
 20
-113.6113253839236
 10
88.20133461336634
 20
-113.4802395007098
 10
88.00461966115857
 20
-113.4802395007098
 10
87.74434269724794
 20
-113.4802395007098
 10
87.73590221330909
 20
-113.710716388673
 10
87.73159584395252
 20
-113.8271606160745
 10
87.73159584395252
 20
-113.8271606160745
 10
87.50749238263703
 20
-113.8271606160745
 10
87.50749238263703
 20
-113.8271606160745
 10
87.51593286657588
 20
-113.700208847443
 10
87.5264404078059
 20
-113.5880709893981
 10
87.60688338738647
 20
-113.4695597047055
 10
87.71678193336595
 20
-113.3088460003186
 10
87.9029893443437
 20
-113.2749118097889
 10
88.01943357174514
 20
-113.2749118097889
 10
88.29659150353349
 20
-113.2749118097889
 10
88.50381399697127
 20
-113.4590521634755
 10
88.50381399697127
 20
-113.7319037259073
 10
88.50381399697127
 20
-113.9603135565794
 10
88.38754202434409
 20
-114.0598768161031
 10
88.07868921409144
 20
-114.286219589484
 97
        0
 97
        0
 75
     2
 76
     1
 98
        0
  0
SPLINE
  5
9F
330
99
100
AcDbEntity
  8
_U+30EC_U+30A4_U+30E4_U+30FC 1
370
     0
100
AcDbSpline
210
0.0
220
0.0
230
1.0
 70
    11
 71
     3
 72
    53
 73
    49
 74
     0
 42
0.0000000001
 43
0.0000000001
 12
1.0
 22
0.0
 32
0.0
 13
1.0
 23
0.0
 33
0.0
 40
0.0
 40
0.0
 40
0.0
 40
0.0
 40
1.0
 40
1.0
 40
1.0
 40
2.0
 40
2.0
 40
2.0
 40
3.0
 40
3.0
 40
3.0
 40
4.0
 40
4.0
 40
4.0
 40
5.0
 40
5.0
 40
5.0
 40
6.0
 40
6.0
 40
6.0
 40
7.0
 40
7.0
 40
7.0
 40
8.0
 40
8.0
 40
8.0
 40
9.0
 40
9.0
 40
9.0
 40
10.0
 40
10.0
 40
10.0
 40
11.0
 40
11.0
 40
11.0
 40
12.0
 40
12.0
 40
12.0
 40
13.0
 40
13.0
 40
13.0
 40
14.0
 40
14.0
 40
14.0
 40
15.0
 40
15.0
 40
15.0
 40
16.0
 40
16.0
 40
16.0
 40
16.0
 10
89.14322371903364
 20
-114.9187391205759
 30
0.0
 10
89.06502005151847
 20
-114.9187391205759
 30
0.0
 10
88.9633897347036
 20
-114.9016858979239
 30
0.0
 10
88.86210392743726
 20
-114.8382961409953
 30
0.0
 10
88.68847111498066
 20
-114.7282253402416
 30
0.0
 10
88.66728377774638
 20
-114.5971394570278
 30
0.0
 10
88.64833575257751
 20
-114.4893079683395
 30
0.0
 10
88.64833575257751
 20
-114.4893079683395
 30
0.0
 10
88.87037215660186
 20
-114.4893079683395
 30
0.0
 10
88.87037215660186
 20
-114.4893079683395
 30
0.0
 10
88.92549368436585
 20
-114.6880899778384
 30
0.0
 10
89.05227319822305
 20
-114.7177177990116
 30
0.0
 10
89.1452907763248
 20
-114.7177177990116
 30
0.0
 10
89.28516165302594
 20
-114.7177177990116
 30
0.0
 10
89.43743487347398
 20
-114.6183267942621
 30
0.0
 10
89.43743487347398
 20
-114.3856105942335
 30
0.0
 10
89.43743487347398
 20
-114.1296399996794
 30
0.0
 10
89.25760088914393
 20
-114.0598768161031
 30
0.0
 10
89.1370225471602
 20
-114.0598768161031
 30
0.0
 10
89.10532766869589
 20
-114.0598768161031
 30
0.0
 10
88.9633897347036
 20
-114.0598768161031
 30
0.0
 10
88.87450627118416
 20
-114.1888956420257
 30
0.0
 10
88.87450627118416
 20
-114.1888956420257
 30
0.0
 10
88.69915091098494
 20
-114.1697753620826
 30
0.0
 10
88.69915091098494
 20
-114.1697753620826
 30
0.0
 10
88.69915091098494
 20
-114.1697753620826
 30
0.0
 10
88.81972925296868
 20
-113.3236599109052
 30
0.0
 10
88.81972925296868
 20
-113.3236599109052
 30
0.0
 10
88.81972925296868
 20
-113.3236599109052
 30
0.0
 10
89.59832083263515
 20
-113.3236599109052
 30
0.0
 10
89.59832083263515
 20
-113.3236599109052
 30
0.0
 10
89.59832083263515
 20
-113.3236599109052
 30
0.0
 10
89.59832083263515
 20
-113.5183078058218
 30
0.0
 10
89.59832083263515
 20
-113.5183078058218
 30
0.0
 10
89.59832083263515
 20
-113.5183078058218
 30
0.0
 10
88.982682269421
 20
-113.5183078058218
 30
0.0
 10
88.982682269421
 20
-113.5183078058218
 30
0.0
 10
88.982682269421
 20
-113.5183078058218
 30
0.0
 10
88.91688094565272
 20
-113.9413655314105
 30
0.0
 10
88.91688094565272
 20
-113.9413655314105
 30
0.0
 10
88.97820364529018
 20
-113.9074313408808
 30
0.0
 10
89.06088593693617
 20
-113.8672959784776
 30
0.0
 10
89.17939722162876
 20
-113.8672959784776
 30
0.0
 10
89.43330075889168
 20
-113.8672959784776
 30
0.0
 10
89.66997881872834
 20
-114.0535033894554
 30
0.0
 10
89.66997881872834
 20
-114.3664903142903
 30
0.0
 10
89.66997881872834
 20
-114.6839558632561
 30
0.0
 10
89.44570310263857
 20
-114.9187391205759
 30
0.0
 10
89.14322371903364
 20
-114.9187391205759
 30
0.0
  0
HATCH
  5
A0
330
99
100
AcDbEntity
  8
_U+30EC_U+30A4_U+30E4_U+30FC 1
 62
     7
420
 16777215
100
AcDbHatch
 10
0.0
 20
0.0
 30
0.0
210
0.0
220
0.0
230
1.0
  2
SOLID
 70
     1
 71
     0
 91
        1
 92
        1
 93
        1
 72
     4
 94
        3
 73
     0
 74
     1
 95
       53
 96
       49
 40
0.0
 40
0.0
 40
0.0
 40
0.0
 40
1.0
 40
1.0
 40
1.0
 40
2.0
 40
2.0
 40
2.0
 40
3.0
 40
3.0
 40
3.0
 40
4.0
 40
4.0
 40
4.0
 40
5.0
 40
5.0
 40
5.0
 40
6.0
 40
6.0
 40
6.0
 40
7.0
 40
7.0
 40
7.0
 40
8.0
 40
8.0
 40
8.0
 40
9.0
 40
9.0
 40
9.0
 40
10.0
 40
10.0
 40
10.0
 40
11.0
 40
11.0
 40
11.0
 40
12.0
 40
12.0
 40
12.0
 40
13.0
 40
13.0
 40
13.0
 40
14.0
 40
14.0
 40
14.0
 40
15.0
 40
15.0
 40
15.0
 40
16.0
 40
16.0
 40
16.0
 40
16.0
 10
89.14322371903364
 20
-114.9187391205759
 10
89.06502005151847
 20
-114.9187391205759
 10
88.9633897347036
 20
-114.9016858979239
 10
88.86210392743726
 20
-114.8382961409953
 10
88.68847111498066
 20
-114.7282253402416
 10
88.66728377774638
 20
-114.5971394570278
 10
88.64833575257751
 20
-114.4893079683395
 10
88.64833575257751
 20
-114.4893079683395
 10
88.87037215660186
 20
-114.4893079683395
 10
88.87037215660186
 20
-114.4893079683395
 10
88.92549368436585
 20
-114.6880899778384
 10
89.05227319822305
 20
-114.7177177990116
 10
89.1452907763248
 20
-114.7177177990116
 10
89.28516165302594
 20
-114.7177177990116
 10
89.43743487347398
 20
-114.6183267942621
 10
89.43743487347398
 20
-114.3856105942335
 10
89.43743487347398
 20
-114.1296399996794
 10
89.25760088914393
 20
-114.0598768161031
 10
89.1370225471602
 20
-114.0598768161031
 10
89.10532766869589
 20
-114.0598768161031
 10
88.9633897347036
 20
-114.0598768161031
 10
88.87450627118416
 20
-114.1888956420257
 10
88.87450627118416
 20
-114.1888956420257
 10
88.69915091098494
 20
-114.1697753620826
 10
88.69915091098494
 20
-114.1697753620826
 10
88.69915091098494
 20
-114.1697753620826
 10
88.81972925296868
 20
-113.3236599109052
 10
88.81972925296868
 20
-113.3236599109052
 10
88.81972925296868
 20
-113.3236599109052
 10
89.59832083263515
 20
-113.3236599109052
 10
89.59832083263515
 20
-113.3236599109052
 10
89.59832083263515
 20
-113.3236599109052
 10
89.59832083263515
 20
-113.5183078058218
 10
89.59832083263515
 20
-113.5183078058218
 10
89.59832083263515
 20
-113.5183078058218
 10
88.982682269421
 20
-113.5183078058218
 10
88.982682269421
 20
-113.5183078058218
 10
88.982682269421
 20
-113.5183078058218
 10
88.91688094565272
 20
-113.9413655314105
 10
88.91688094565272
 20
-113.9413655314105
 10
88.97820364529018
 20
-113.9074313408808
 10
89.06088593693617
 20
-113.8672959784776
 10
89.17939722162876
 20
-113.8672959784776
 10
89.43330075889168
 20
-113.8672959784776
 10
89.66997881872834
 20
-114.0535033894554
 10
89.66997881872834
 20
-114.3664903142903
 10
89.66997881872834
 20
-114.6839558632561
 10
89.44570310263857
 20
-114.9187391205759
 10
89.14322371903364
 20
-114.9187391205759
 97
        0
 97
        0
 75
     2
 76
     1
 98
        0
  0
ENDBLK
  5
9C
330
99
100
AcDbEntity
  8
0
100
AcDbBlockEnd
  0
BLOCK
  5
AB
330
A9
100
AcDbEntity
  8
0
100
AcDbBlockBegin
  2
block 5
 70
     0
 10
0.0
 20
0.0
 30
0.0
  3
block 5
  1

  0
SPLINE
  5
AD
330
A9
100
AcDbEntity
  8
_U+30EC_U+30A4_U+30E4_U+30FC 1
370
     0
100
AcDbSpline
210
0.0
220
0.0
230
1.0
 70
    11
 71
     3
 72
    44
 73
    40
 74
     0
 42
0.0000000001
 43
0.0000000001
 12
1.0
 22
0.0
 32
0.0
 13
1.0
 23
0.0
 33
0.0
 40
0.0
 40
0.0
 40
0.0
 40
0.0
 40
1.0
 40
1.0
 40
1.0
 40
2.0
 40
2.0
 40
2.0
 40
3.0
 40
3.0
 40
3.0
 40
4.0
 40
4.0
 40
4.0
 40
5.0
 40
5.0
 40
5.0
 40
6.0
 40
6.0
 40
6.0
 40
7.0
 40
7.0
 40
7.0
 40
8.0
 40
8.0
 40
8.0
 40
9.0
 40
9.0
 40
9.0
 40
10.0
 40
10.0
 40
10.0
 40
11.0
 40
11.0
 40
11.0
 40
12.0
 40
12.0
 40
12.0
 40
13.0
 40
13.0
 40
13.0
 40
13.0
 10
113.0783691123554
 20
-114.286219589484
 30
0.0
 10
112.8606390776876
 20
-114.4448662365798
 30
0.0
 10
112.7676214995859
 20
-114.5189357895126
 30
0.0
 10
112.7187011436953
 20
-114.6627685260218
 30
0.0
 10
112.7187011436953
 20
-114.6627685260218
 30
0.0
 10
113.4972927233618
 20
-114.6627685260218
 30
0.0
 10
113.4972927233618
 20
-114.6627685260218
 30
0.0
 10
113.4972927233618
 20
-114.6627685260218
 30
0.0
 10
113.4972927233618
 20
-114.8679239621684
 30
0.0
 10
113.4972927233618
 20
-114.8679239621684
 30
0.0
 10
113.4972927233618
 20
-114.8679239621684
 30
0.0
 10
112.4692762305632
 20
-114.8679239621684
 30
0.0
 10
112.4692762305632
 20
-114.8679239621684
 30
0.0
 10
112.5009711090275
 20
-114.5103230507995
 30
0.0
 10
112.5664279232473
 20
-114.4321193832843
 30
0.0
 10
112.9515895984982
 20
-114.1337741142617
 30
0.0
 10
113.2075601930523
 20
-113.9349921047628
 30
0.0
 10
113.273017007272
 20
-113.8672959784776
 30
0.0
 10
113.273017007272
 20
-113.7298366686162
 30
0.0
 10
113.273017007272
 20
-113.6113253839236
 30
0.0
 10
113.2010145116303
 20
-113.4802395007098
 30
0.0
 10
113.0042995594225
 20
-113.4802395007098
 30
0.0
 10
112.7441948502862
 20
-113.4802395007098
 30
0.0
 10
112.7359266211216
 20
-113.710716388673
 30
0.0
 10
112.7314479969908
 20
-113.8271606160745
 30
0.0
 10
112.7314479969908
 20
-113.8271606160745
 30
0.0
 10
112.507172280901
 20
-113.8271606160745
 30
0.0
 10
112.507172280901
 20
-113.8271606160745
 30
0.0
 10
112.5157850196141
 20
-113.700208847443
 30
0.0
 10
112.5264648156184
 20
-113.5880709893981
 30
0.0
 10
112.6067355404247
 20
-113.4695597047055
 30
0.0
 10
112.7166340864042
 20
-113.3088460003186
 30
0.0
 10
112.9030137521562
 20
-113.2749118097889
 30
0.0
 10
113.0191134700091
 20
-113.2749118097889
 30
0.0
 10
113.2964436565717
 20
-113.2749118097889
 30
0.0
 10
113.5038384047838
 20
-113.4590521634755
 30
0.0
 10
113.5038384047838
 20
-113.7319037259073
 30
0.0
 10
113.5038384047838
 20
-113.9603135565794
 30
0.0
 10
113.3873941773823
 20
-114.0598768161031
 30
0.0
 10
113.0783691123554
 20
-114.286219589484
 30
0.0
  0
HATCH
  5
AE
330
A9
100
AcDbEntity
  8
_U+30EC_U+30A4_U+30E4_U+30FC 1
 62
     7
420
 16777215
100
AcDbHatch
 10
0.0
 20
0.0
 30
0.0
210
0.0
220
0.0
230
1.0
  2
SOLID
 70
     1
 71
     0
 91
        1
 92
        1
 93
        1
 72
     4
 94
        3
 73
     0
 74
     1
 95
       44
 96
       40
 40
0.0
 40
0.0
 40
0.0
 40
0.0
 40
1.0
 40
1.0
 40
1.0
 40
2.0
 40
2.0
 40
2.0
 40
3.0
 40
3.0
 40
3.0
 40
4.0
 40
4.0
 40
4.0
 40
5.0
 40
5.0
 40
5.0
 40
6.0
 40
6.0
 40
6.0
 40
7.0
 40
7.0
 40
7.0
 40
8.0
 40
8.0
 40
8.0
 40
9.0
 40
9.0
 40
9.0
 40
10.0
 40
10.0
 40
10.0
 40
11.0
 40
11.0
 40
11.0
 40
12.0
 40
12.0
 40
12.0
 40
13.0
 40
13.0
 40
13.0
 40
13.0
 10
113.0783691123554
 20
-114.286219589484
 10
112.8606390776876
 20
-114.4448662365798
 10
112.7676214995859
 20
-114.5189357895126
 10
112.7187011436953
 20
-114.6627685260218
 10
112.7187011436953
 20
-114.6627685260218
 10
113.4972927233618
 20
-114.6627685260218
 10
113.4972927233618
 20
-114.6627685260218
 10
113.4972927233618
 20
-114.6627685260218
 10
113.4972927233618
 20
-114.8679239621684
 10
113.4972927233618
 20
-114.8679239621684
 10
113.4972927233618
 20
-114.8679239621684
 10
112.4692762305632
 20
-114.8679239621684
 10
112.4692762305632
 20
-114.8679239621684
 10
112.5009711090275
 20
-114.5103230507995
 10
112.5664279232473
 20
-114.4321193832843
 10
112.9515895984982
 20
-114.1337741142617
 10
113.2075601930523
 20
-113.9349921047628
 10
113.273017007272
 20
-113.8672959784776
 10
113.273017007272
 20
-113.7298366686162
 10
113.273017007272
 20
-113.6113253839236
 10
113.2010145116303
 20
-113.4802395007098
 10
113.0042995594225
 20
-113.4802395007098
 10
112.7441948502862
 20
-113.4802395007098
 10
112.7359266211216
 20
-113.710716388673
 10
112.7314479969908
 20
-113.8271606160745
 10
112.7314479969908
 20
-113.8271606160745
 10
112.507172280901
 20
-113.8271606160745
 10
112.507172280901
 20
-113.8271606160745
 10
112.5157850196141
 20
-113.700208847443
 10
112.5264648156184
 20
-113.5880709893981
 10
112.6067355404247
 20
-113.4695597047055
 10
112.7166340864042
 20
-113.3088460003186
 10
112.9030137521562
 20
-113.2749118097889
 10
113.0191134700091
 20
-113.2749118097889
 10
113.2964436565717
 20
-113.2749118097889
 10
113.5038384047838
 20
-113.4590521634755
 10
113.5038384047838
 20
-113.7319037259073
 10
113.5038384047838
 20
-113.9603135565794
 10
113.3873941773823
 20
-114.0598768161031
 10
113.0783691123554
 20
-114.286219589484
 97
        0
 97
        0
 75
     2
 76
     1
 98
        0
  0
SPLINE
  5
AF
330
A9
100
AcDbEntity
  8
_U+30EC_U+30A4_U+30E4_U+30FC 1
370
     0
100
AcDbSpline
210
0.0
220
0.0
230
1.0
 70
    11
 71
     3
 72
    53
 73
    49
 74
     0
 42
0.0000000001
 43
0.0000000001
 12
1.0
 22
0.0
 32
0.0
 13
1.0
 23
0.0
 33
0.0
 40
0.0
 40
0.0
 40
0.0
 40
0.0
 40
1.0
 40
1.0
 40
1.0
 40
2.0
 40
2.0
 40
2.0
 40
3.0
 40
3.0
 40
3.0
 40
4.0
 40
4.0
 40
4.0
 40
5.0
 40
5.0
 40
5.0
 40
6.0
 40
6.0
 40
6.0
 40
7.0
 40
7.0
 40
7.0
 40
8.0
 40
8.0
 40
8.0
 40
9.0
 40
9.0
 40
9.0
 40
10.0
 40
10.0
 40
10.0
 40
11.0
 40
11.0
 40
11.0
 40
12.0
 40
12.0
 40
12.0
 40
13.0
 40
13.0
 40
13.0
 40
14.0
 40
14.0
 40
14.0
 40
15.0
 40
15.0
 40
15.0
 40
16.0
 40
16.0
 40
16.0
 40
16.0
 10
114.1432481268461
 20
-114.9187391205759
 30
0.0
 10
114.065044459331
 20
-114.9187391205759
 30
0.0
 10
113.9634141425161
 20
-114.9016858979239
 30
0.0
 10
113.8617838257012
 20
-114.8382961409953
 30
0.0
 10
113.6884955227932
 20
-114.7282253402416
 30
0.0
 10
113.6671359307846
 20
-114.5971394570278
 30
0.0
 10
113.6481879056157
 20
-114.4893079683395
 30
0.0
 10
113.6481879056157
 20
-114.4893079683395
 30
0.0
 10
113.8703965644143
 20
-114.4893079683395
 30
0.0
 10
113.8703965644143
 20
-114.4893079683395
 30
0.0
 10
113.9251735826298
 20
-114.6880899778384
 30
0.0
 10
114.0522976060355
 20
-114.7177177990116
 30
0.0
 10
114.1453151841373
 20
-114.7177177990116
 30
0.0
 10
114.2848415512899
 20
-114.7177177990116
 30
0.0
 10
114.437114771738
 20
-114.6183267942621
 30
0.0
 10
114.437114771738
 20
-114.3856105942335
 30
0.0
 10
114.437114771738
 20
-114.1296399996794
 30
0.0
 10
114.2572807874079
 20
-114.0598768161031
 30
0.0
 10
114.1367024454242
 20
-114.0598768161031
 30
0.0
 10
114.1050075669599
 20
-114.0598768161031
 30
0.0
 10
113.9634141425161
 20
-114.0598768161031
 30
0.0
 10
113.8745306789966
 20
-114.1888956420257
 30
0.0
 10
113.8745306789966
 20
-114.1888956420257
 30
0.0
 10
113.6988308092489
 20
-114.1697753620826
 30
0.0
 10
113.6988308092489
 20
-114.1697753620826
 30
0.0
 10
113.6988308092489
 20
-114.1697753620826
 30
0.0
 10
113.8194091512326
 20
-113.3236599109052
 30
0.0
 10
113.8194091512326
 20
-113.3236599109052
 30
0.0
 10
113.8194091512326
 20
-113.3236599109052
 30
0.0
 10
114.5980007308991
 20
-113.3236599109052
 30
0.0
 10
114.5980007308991
 20
-113.3236599109052
 30
0.0
 10
114.5980007308991
 20
-113.3236599109052
 30
0.0
 10
114.5980007308991
 20
-113.5183078058218
 30
0.0
 10
114.5980007308991
 20
-113.5183078058218
 30
0.0
 10
114.5980007308991
 20
-113.5183078058218
 30
0.0
 10
113.982362167685
 20
-113.5183078058218
 30
0.0
 10
113.982362167685
 20
-113.5183078058218
 30
0.0
 10
113.982362167685
 20
-113.5183078058218
 30
0.0
 10
113.9169053534652
 20
-113.9413655314105
 30
0.0
 10
113.9169053534652
 20
-113.9413655314105
 30
0.0
 10
113.9782280531027
 20
-113.9074313408808
 30
0.0
 10
114.0605658352001
 20
-113.8672959784776
 30
0.0
 10
114.1790771198927
 20
-113.8672959784776
 30
0.0
 10
114.4329806571557
 20
-113.8672959784776
 30
0.0
 10
114.6700032265408
 20
-114.0535033894554
 30
0.0
 10
114.6700032265408
 20
-114.3664903142903
 30
0.0
 10
114.6700032265408
 20
-114.6839558632561
 30
0.0
 10
114.4457275104511
 20
-114.9187391205759
 30
0.0
 10
114.1432481268461
 20
-114.9187391205759
 30
0.0
  0
HATCH
  5
B0
330
A9
100
AcDbEntity
  8
_U+30EC_U+30A4_U+30E4_U+30FC 1
 62
     7
420
 16777215
100
AcDbHatch
 10
0.0
 20
0.0
 30
0.0
210
0.0
220
0.0
230
1.0
  2
SOLID
 70
     1
 71
     0
 91
        1
 92
        1
 93
        1
 72
     4
 94
        3
 73
     0
 74
     1
 95
       53
 96
       49
 40
0.0
 40
0.0
 40
0.0
 40
0.0
 40
1.0
 40
1.0
 40
1.0
 40
2.0
 40
2.0
 40
2.0
 40
3.0
 40
3.0
 40
3.0
 40
4.0
 40
4.0
 40
4.0
 40
5.0
 40
5.0
 40
5.0
 40
6.0
 40
6.0
 40
6.0
 40
7.0
 40
7.0
 40
7.0
 40
8.0
 40
8.0
 40
8.0
 40
9.0
 40
9.0
 40
9.0
 40
10.0
 40
10.0
 40
10.0
 40
11.0
 40
11.0
 40
11.0
 40
12.0
 40
12.0
 40
12.0
 40
13.0
 40
13.0
 40
13.0
 40
14.0
 40
14.0
 40
14.0
 40
15.0
 40
15.0
 40
15.0
 40
16.0
 40
16.0
 40
16.0
 40
16.0
 10
114.1432481268461
 20
-114.9187391205759
 10
114.065044459331
 20
-114.9187391205759
 10
113.9634141425161
 20
-114.9016858979239
 10
113.8617838257012
 20
-114.8382961409953
 10
113.6884955227932
 20
-114.7282253402416
 10
113.6671359307846
 20
-114.5971394570278
 10
113.6481879056157
 20
-114.4893079683395
 10
113.6481879056157
 20
-114.4893079683395
 10
113.8703965644143
 20
-114.4893079683395
 10
113.8703965644143
 20
-114.4893079683395
 10
113.9251735826298
 20
-114.6880899778384
 10
114.0522976060355
 20
-114.7177177990116
 10
114.1453151841373
 20
-114.7177177990116
 10
114.2848415512899
 20
-114.7177177990116
 10
114.437114771738
 20
-114.6183267942621
 10
114.437114771738
 20
-114.3856105942335
 10
114.437114771738
 20
-114.1296399996794
 10
114.2572807874079
 20
-114.0598768161031
 10
114.1367024454242
 20
-114.0598768161031
 10
114.1050075669599
 20
-114.0598768161031
 10
113.9634141425161
 20
-114.0598768161031
 10
113.8745306789966
 20
-114.1888956420257
 10
113.8745306789966
 20
-114.1888956420257
 10
113.6988308092489
 20
-114.1697753620826
 10
113.6988308092489
 20
-114.1697753620826
 10
113.6988308092489
 20
-114.1697753620826
 10
113.8194091512326
 20
-113.3236599109052
 10
113.8194091512326
 20
-113.3236599109052
 10
113.8194091512326
 20
-113.3236599109052
 10
114.5980007308991
 20
-113.3236599109052
 10
114.5980007308991
 20
-113.3236599109052
 10
114.5980007308991
 20
-113.3236599109052
 10
114.5980007308991
 20
-113.5183078058218
 10
114.5980007308991
 20
-113.5183078058218
 10
114.5980007308991
 20
-113.5183078058218
 10
113.982362167685
 20
-113.5183078058218
 10
113.982362167685
 20
-113.5183078058218
 10
113.982362167685
 20
-113.5183078058218
 10
113.9169053534652
 20
-113.9413655314105
 10
113.9169053534652
 20
-113.9413655314105
 10
113.9782280531027
 20
-113.9074313408808
 10
114.0605658352001
 20
-113.8672959784776
 10
114.1790771198927
 20
-113.8672959784776
 10
114.4329806571557
 20
-113.8672959784776
 10
114.6700032265408
 20
-114.0535033894554
 10
114.6700032265408
 20
-114.3664903142903
 10
114.6700032265408
 20
-114.6839558632561
 10
114.4457275104511
 20
-114.9187391205759
 10
114.1432481268461
 20
-114.9187391205759
 97
        0
 97
        0
 75
     2
 76
     1
 98
        0
  0
ENDBLK
  5
AC
330
A9
100
AcDbEntity
  8
0
100
AcDbBlockEnd
  0
ENDSEC
  0
SECTION
  2
ENTITIES
  0
POLYLINE
  5
41
330
1F
100
AcDbEntity
  8
_U+30EC_U+30A4_U+30E4_U+30FC 1
 62
     7
420
 16777215
370
    25
100
AcDb2dPolyline
 66
     1
 10
0.0
 20
0.0
 30
0.0
  0
VERTEX
  5
42
330
41
100
AcDbEntity
  8
_U+30EC_U+30A4_U+30E4_U+30FC 1
 62
     7
420
 16777215
370
    25
100
AcDbVertex
100
AcDb2dVertex
 10
51.5740989620129
 20
-120.5135808032049
 30
0.0
  0
VERTEX
  5
43
330
41
100
AcDbEntity
  8
_U+30EC_U+30A4_U+30E4_U+30FC 1
 62
     7
420
 16777215
370
    25
100
AcDbVertex
100
AcDb2dVertex
 10
56.07409690276394
 20
-120.5135808032049
 30
0.0
  0
SEQEND
  5
44
330
41
100
AcDbEntity
  8
_U+30EC_U+30A4_U+30E4_U+30FC 1
 62
     7
420
 16777215
370
    25
  0
POLYLINE
  5
45
330
1F
100
AcDbEntity
  8
_U+30EC_U+30A4_U+30E4_U+30FC 1
 62
     7
420
 16777215
370
    25
100
AcDb2dPolyline
 66
     1
 10
0.0
 20
0.0
 30
0.0
  0
VERTEX
  5
46
330
45
100
AcDbEntity
  8
_U+30EC_U+30A4_U+30E4_U+30FC 1
 62
     7
420
 16777215
370
    25
100
AcDbVertex
100
AcDb2dVertex
 10
77.07418331406481
 20
-145.5136013525103
 30
0.0
  0
VERTEX
  5
47
330
45
100
AcDbEntity
  8
_U+30EC_U+30A4_U+30E4_U+30FC 1
 62
     7
420
 16777215
370
    25
100
AcDbVertex
100
AcDb2dVertex
 10
100.0738102246822
 20
-145.5136013525103
 30
0.0
  0
SEQEND
  5
48
330
45
100
AcDbEntity
  8
_U+30EC_U+30A4_U+30E4_U+30FC 1
 62
     7
420
 16777215
370
    25
  0
POLYLINE
  5
49
330
1F
100
AcDbEntity
  8
_U+30EC_U+30A4_U+30E4_U+30FC 1
 62
     7
420
 16777215
370
    25
100
AcDb2dPolyline
 66
     1
 10
0.0
 20
0.0
 30
0.0
  0
VERTEX
  5
4A
330
49
100
AcDbEntity
  8
_U+30EC_U+30A4_U+30E4_U+30FC 1
 62
     7
420
 16777215
370
    25
100
AcDbVertex
100
AcDb2dVertex
 10
51.5740989620129
 20
-119.5138085812327
 30
0.0
  0
VERTEX
  5
4B
330
49
100
AcDbEntity
  8
_U+30EC_U+30A4_U+30E4_U+30FC 1
 62
     7
420
 16777215
370
    25
100
AcDbVertex
100
AcDb2dVertex
 10
75.07414308469905
 20
-119.5138085812327
 30
0.0
  0
SEQEND
  5
4C
330
49
100
AcDbEntity
  8
_U+30EC_U+30A4_U+30E4_U+30FC 1
 62
     7
420
 16777215
370
    25
  0
POLYLINE
  5
4D
330
1F
100
AcDbEntity
  8
_U+30EC_U+30A4_U+30E4_U+30FC 1
 62
     7
420
 16777215
370
    25
100
AcDb2dPolyline
 66
     1
 10
0.0
 20
0.0
 30
0.0
  0
VERTEX
  5
4E
330
4D
100
AcDbEntity
  8
_U+30EC_U+30A4_U+30E4_U+30FC 1
 62
     7
420
 16777215
370
    25
100
AcDbVertex
100
AcDb2dVertex
 10
101.0742879769356
 20
-120.5135808032049
 30
0.0
  0
VERTEX
  5
4F
330
4D
100
AcDbEntity
  8
_U+30EC_U+30A4_U+30E4_U+30FC 1
 62
     7
420
 16777215
370
    25
100
AcDbVertex
100
AcDb2dVertex
 10
101.0742879769356
 20
-144.5138291305384
 30
0.0
  0
SEQEND
  5
50
330
4D
100
AcDbEntity
  8
_U+30EC_U+30A4_U+30E4_U+30FC 1
 62
     7
420
 16777215
370
    25
  0
POLYLINE
  5
51
330
1F
100
AcDbEntity
  8
_U+30EC_U+30A4_U+30E4_U+30FC 1
 62
     7
420
 16777215
370
    25
100
AcDb2dPolyline
 66
     1
 10
0.0
 20
0.0
 30
0.0
  0
VERTEX
  5
52
330
51
100
AcDbEntity
  8
_U+30EC_U+30A4_U+30E4_U+30FC 1
 62
     7
420
 16777215
370
    25
100
AcDbVertex
100
AcDb2dVertex
 10
76.07409167029934
 20
-120.5135808032049
 30
0.0
  0
VERTEX
  5
53
330
51
100
AcDbEntity
  8
_U+30EC_U+30A4_U+30E4_U+30FC 1
 62
     7
420
 16777215
370
    25
100
AcDbVertex
100
AcDb2dVertex
 10
76.07409167029934
 20
-144.5138291305384
 30
0.0
  0
SEQEND
  5
54
330
51
100
AcDbEntity
  8
_U+30EC_U+30A4_U+30E4_U+30FC 1
 62
     7
420
 16777215
370
    25
  0
POLYLINE
  5
55
330
1F
100
AcDbEntity
  8
_U+30EC_U+30A4_U+30E4_U+30FC 1
 62
     7
420
 16777215
370
    25
100
AcDb2dPolyline
 66
     1
 10
0.0
 20
0.0
 30
0.0
  0
VERTEX
  5
56
330
55
100
AcDbEntity
  8
_U+30EC_U+30A4_U+30E4_U+30FC 1
 62
     7
420
 16777215
370
    25
100
AcDbVertex
100
AcDb2dVertex
 10
102.0740601736515
 20
-119.5138085812327
 30
0.0
  0
VERTEX
  5
57
330
55
100
AcDbEntity
  8
_U+30EC_U+30A4_U+30E4_U+30FC 1
 62
     7
420
 16777215
370
    25
100
AcDbVertex
100
AcDb2dVertex
 10
125.5744249686067
 20
-119.5138085812327
 30
0.0
  0
SEQEND
  5
58
330
55
100
AcDbEntity
  8
_U+30EC_U+30A4_U+30E4_U+30FC 1
 62
     7
420
 16777215
370
    25
  0
POLYLINE
  5
59
330
1F
100
AcDbEntity
  8
_U+30EC_U+30A4_U+30E4_U+30FC 1
 62
     7
420
 16777215
370
    25
100
AcDb2dPolyline
 66
     1
 10
0.0
 20
0.0
 30
0.0
  0
VERTEX
  5
5A
330
59
100
AcDbEntity
  8
_U+30EC_U+30A4_U+30E4_U+30FC 1
 62
     7
420
 16777215
370
    25
100
AcDbVertex
100
AcDb2dVertex
 10
121.0744238555786
 20
-120.5135808032049
 30
0.0
  0
VERTEX
  5
5B
330
59
100
AcDbEntity
  8
_U+30EC_U+30A4_U+30E4_U+30FC 1
 62
     7
420
 16777215
370
    25
100
AcDbVertex
100
AcDb2dVertex
 10
125.5744249686067
 20
-120.5135808032049
 30
0.0
  0
SEQEND
  5
5C
330
59
100
AcDbEntity
  8
_U+30EC_U+30A4_U+30E4_U+30FC 1
 62
     7
420
 16777215
370
    25
  0
SPLINE
  5
5D
330
1F
100
AcDbEntity
  8
_U+30EC_U+30A4_U+30E4_U+30FC 1
 62
     7
420
 16777215
370
    25
100
AcDbSpline
210
0.0
220
0.0
230
1.0
 70
     8
 71
     3
 72
    11
 73
     7
 74
     0
 42
0.0000000001
 43
0.0000000001
 12
1.0
 22
0.0
 32
0.0
 13
1.0
 23
0.0
 33
0.0
 40
0.0
 40
0.0
 40
0.0
 40
0.0
 40
1.0
 40
1.0
 40
1.0
 40
2.0
 40
2.0
 40
2.0
 40
2.0
 10
125.5744249686067
 20
-120.5135808032049
 30
0.0
 10
125.8500117892987
 20
-120.5135808032049
 30
0.0
 10
126.0739583018149
 20
-120.2899902477054
 30
0.0
 10
126.0739583018149
 20
-120.0136946922187
 30
0.0
 10
126.0739583018149
 20
-119.73775191451
 30
0.0
 10
125.8500117892987
 20
-119.5138085812327
 30
0.0
 10
125.5744249686067
 20
-119.5138085812327
 30
0.0
  0
SPLINE
  5
5E
330
1F
100
AcDbEntity
  8
_U+30EC_U+30A4_U+30E4_U+30FC 1
 62
     7
420
 16777215
370
    25
100
AcDbSpline
210
0.0
220
0.0
230
1.0
 70
     8
 71
     3
 72
    11
 73
     7
 74
     0
 42
0.0000000001
 43
0.0000000001
 12
1.0
 22
0.0
 32
0.0
 13
1.0
 23
0.0
 33
0.0
 40
0.0
 40
0.0
 40
0.0
 40
0.0
 40
1.0
 40
1.0
 40
1.0
 40
2.0
 40
2.0
 40
2.0
 40
2.0
 10
51.5740989620129
 20
-119.5138085812327
 30
0.0
 10
51.29797980239061
 20
-119.5138085812327
 30
0.0
 10
51.07407175254743
 20
-119.73775191451
 30
0.0
 10
51.07407175254743
 20
-120.0136946922187
 30
0.0
 10
51.07407175254743
 20
-120.2899902477054
 30
0.0
 10
51.29797980239061
 20
-120.5135808032049
 30
0.0
 10
51.5740989620129
 20
-120.5135808032049
 30
0.0
  0
SPLINE
  5
5F
330
1F
100
AcDbEntity
  8
_U+30EC_U+30A4_U+30E4_U+30FC 1
 62
     7
420
 16777215
370
    25
100
AcDbSpline
210
0.0
220
0.0
230
1.0
 70
     8
 71
     3
 72
     8
 73
     4
 74
     0
 42
0.0000000001
 43
0.0000000001
 12
1.0
 22
0.0
 32
0.0
 13
1.0
 23
0.0
 33
0.0
 40
0.0
 40
0.0
 40
0.0
 40
0.0
 40
1.0
 40
1.0
 40
1.0
 40
1.0
 10
76.07409167029934
 20
-120.5135808032049
 30
0.0
 10
76.07409167029934
 20
-119.9616599700098
 30
0.0
 10
75.62638331442668
 20
-119.5138085812327
 30
0.0
 10
75.07414308469905
 20
-119.5138085812327
 30
0.0
  0
SPLINE
  5
60
330
1F
100
AcDbEntity
  8
_U+30EC_U+30A4_U+30E4_U+30FC 1
 62
     7
420
 16777215
370
    25
100
AcDbSpline
210
0.0
220
0.0
230
1.0
 70
     8
 71
     3
 72
     8
 73
     4
 74
     0
 42
0.0000000001
 43
0.0000000001
 12
1.0
 22
0.0
 32
0.0
 13
1.0
 23
0.0
 33
0.0
 40
0.0
 40
0.0
 40
0.0
 40
0.0
 40
1.0
 40
1.0
 40
1.0
 40
1.0
 10
76.07409167029934
 20
-144.5138291305384
 30
0.0
 10
76.07409167029934
 20
-145.0660674637335
 30
0.0
 10
76.5217666588782
 20
-145.5136013525103
 30
0.0
 10
77.07418331406481
 20
-145.5136013525103
 30
0.0
  0
SPLINE
  5
61
330
1F
100
AcDbEntity
  8
_U+30EC_U+30A4_U+30E4_U+30FC 1
 62
     7
420
 16777215
370
    25
100
AcDbSpline
210
0.0
220
0.0
230
1.0
 70
     8
 71
     3
 72
     8
 73
     4
 74
     0
 42
0.0000000001
 43
0.0000000001
 12
1.0
 22
0.0
 32
0.0
 13
1.0
 23
0.0
 33
0.0
 40
0.0
 40
0.0
 40
0.0
 40
0.0
 40
1.0
 40
1.0
 40
1.0
 40
1.0
 10
100.0738102246822
 20
-145.5136013525103
 30
0.0
 10
100.6264013216955
 20
-145.5136013525103
 30
0.0
 10
101.0742879769356
 20
-145.0660674637335
 30
0.0
 10
101.0742879769356
 20
-144.5138291305384
 30
0.0
  0
SPLINE
  5
62
330
1F
100
AcDbEntity
  8
_U+30EC_U+30A4_U+30E4_U+30FC 1
 62
     7
420
 16777215
370
    25
100
AcDbSpline
210
0.0
220
0.0
230
1.0
 70
     8
 71
     3
 72
     8
 73
     4
 74
     0
 42
0.0000000001
 43
0.0000000001
 12
1.0
 22
0.0
 32
0.0
 13
1.0
 23
0.0
 33
0.0
 40
0.0
 40
0.0
 40
0.0
 40
0.0
 40
1.0
 40
1.0
 40
1.0
 40
1.0
 10
102.0740601736515
 20
-119.5138085812327
 30
0.0
 10
101.5221393543989
 20
-119.5138085812327
 30
0.0
 10
101.0742879769356
 20
-119.9616599700098
 30
0.0
 10
101.0742879769356
 20
-120.5135808032049
 30
0.0
  0
SPLINE
  5
63
330
1F
100
AcDbEntity
  8
_U+30EC_U+30A4_U+30E4_U+30FC 1
 62
     7
420
 16777215
370
     9
100
AcDbSpline
210
0.0
220
0.0
230
1.0
 70
    11
 71
     3
 72
    17
 73
    13
 74
     0
 42
0.0000000001
 43
0.0000000001
 12
1.0
 22
0.0
 32
0.0
 13
1.0
 23
0.0
 33
0.0
 40
0.0
 40
0.0
 40
0.0
 40
0.0
 40
1.0
 40
1.0
 40
1.0
 40
2.0
 40
2.0
 40
2.0
 40
3.0
 40
3.0
 40
3.0
 40
4.0
 40
4.0
 40
4.0
 40
4.0
 10
130.1742944119007
 20
-145.5136013525103
 30
0.0
 10
130.1742944119007
 20
-145.4584621858579
 30
0.0
 10
130.1295236245637
 20
-145.4136946858687
 30
0.0
 10
130.0743844593038
 20
-145.4136946858687
 30
0.0
 10
130.0185750162831
 20
-145.4136946858687
 30
0.0
 10
129.9738075174253
 20
-145.4584621858579
 30
0.0
 10
129.9738075174253
 20
-145.5136013525103
 30
0.0
 10
129.9738075174253
 20
-145.569058019163
 30
0.0
 10
130.0185750162831
 20
-145.6138607969297
 30
0.0
 10
130.0743844593038
 20
-145.6138607969297
 30
0.0
 10
130.1295236245637
 20
-145.6138607969297
 30
0.0
 10
130.1742944119007
 20
-145.569058019163
 30
0.0
 10
130.1742944119007
 20
-145.5136013525103
 30
0.0
  0
SPLINE
  5
64
330
1F
100
AcDbEntity
  8
_U+30EC_U+30A4_U+30E4_U+30FC 1
 62
     7
420
 16777215
370
     9
100
AcDbSpline
210
0.0
220
0.0
230
1.0
 70
    11
 71
     3
 72
    17
 73
    13
 74
     0
 42
0.0000000001
 43
0.0000000001
 12
1.0
 22
0.0
 32
0.0
 13
1.0
 23
0.0
 33
0.0
 40
0.0
 40
0.0
 40
0.0
 40
0.0
 40
1.0
 40
1.0
 40
1.0
 40
2.0
 40
2.0
 40
2.0
 40
3.0
 40
3.0
 40
3.0
 40
4.0
 40
4.0
 40
4.0
 40
4.0
 10
126.1738617810366
 20
-115.5136966377884
 30
0.0
 10
126.1738617810366
 20
-115.4585927489131
 30
0.0
 10
126.1290942821787
 20
-115.4137899711464
 30
0.0
 10
126.0739583018149
 20
-115.4137899711464
 30
0.0
 10
126.0188512294357
 20
-115.4137899711464
 30
0.0
 10
125.9740484528009
 20
-115.4585927489131
 30
0.0
 10
125.9740484528009
 20
-115.5136966377884
 30
0.0
 10
125.9740484528009
 20
-115.5691885822189
 30
0.0
 10
126.0188512294357
 20
-115.6139560822075
 30
0.0
 10
126.0739583018149
 20
-115.6139560822075
 30
0.0
 10
126.1290942821787
 20
-115.6139560822075
 30
0.0
 10
126.1738617810366
 20
-115.5691885822189
 30
0.0
 10
126.1738617810366
 20
-115.5136966377884
 30
0.0
  0
SPLINE
  5
65
330
1F
100
AcDbEntity
  8
_U+30EC_U+30A4_U+30E4_U+30FC 1
 62
     7
420
 16777215
370
     9
100
AcDbSpline
210
0.0
220
0.0
230
1.0
 70
    11
 71
     3
 72
    17
 73
    13
 74
     0
 42
0.0000000001
 43
0.0000000001
 12
1.0
 22
0.0
 32
0.0
 13
1.0
 23
0.0
 33
0.0
 40
0.0
 40
0.0
 40
0.0
 40
0.0
 40
1.0
 40
1.0
 40
1.0
 40
2.0
 40
2.0
 40
2.0
 40
3.0
 40
3.0
 40
3.0
 40
4.0
 40
4.0
 40
4.0
 40
4.0
 10
130.1742944119007
 20
-120.5135808032049
 30
0.0
 10
130.1742944119007
 20
-120.4584416365522
 30
0.0
 10
130.1295236245637
 20
-120.4136741365633
 30
0.0
 10
130.0743844593038
 20
-120.4136741365633
 30
0.0
 10
130.0185750162831
 20
-120.4136741365633
 30
0.0
 10
129.9738075174253
 20
-120.4584416365522
 30
0.0
 10
129.9738075174253
 20
-120.5135808032049
 30
0.0
 10
129.9738075174253
 20
-120.5690374698576
 30
0.0
 10
130.0185750162831
 20
-120.6138402476243
 30
0.0
 10
130.0743844593038
 20
-120.6138402476243
 30
0.0
 10
130.1295236245637
 20
-120.6138402476243
 30
0.0
 10
130.1742944119007
 20
-120.5690374698576
 30
0.0
 10
130.1742944119007
 20
-120.5135808032049
 30
0.0
  0
SPLINE
  5
66
330
1F
100
AcDbEntity
  8
_U+30EC_U+30A4_U+30E4_U+30FC 1
 62
     7
420
 16777215
370
     9
100
AcDbSpline
210
0.0
220
0.0
230
1.0
 70
    11
 71
     3
 72
    17
 73
    13
 74
     0
 42
0.0000000001
 43
0.0000000001
 12
1.0
 22
0.0
 32
0.0
 13
1.0
 23
0.0
 33
0.0
 40
0.0
 40
0.0
 40
0.0
 40
0.0
 40
1.0
 40
1.0
 40
1.0
 40
2.0
 40
2.0
 40
2.0
 40
3.0
 40
3.0
 40
3.0
 40
4.0
 40
4.0
 40
4.0
 40
4.0
 10
101.1741971969286
 20
-115.5136966377884
 30
0.0
 10
101.1741971969286
 20
-115.4585927489131
 30
0.0
 10
101.1293944191618
 20
-115.4137899711464
 30
0.0
 10
101.0742879769356
 20
-115.4137899711464
 30
0.0
 10
101.0191488116757
 20
-115.4137899711464
 30
0.0
 10
100.9743813128178
 20
-115.4585927489131
 30
0.0
 10
100.9743813128178
 20
-115.5136966377884
 30
0.0
 10
100.9743813128178
 20
-115.5691885822189
 30
0.0
 10
101.0191488116757
 20
-115.6139560822075
 30
0.0
 10
101.0742879769356
 20
-115.6139560822075
 30
0.0
 10
101.1293944191618
 20
-115.6139560822075
 30
0.0
 10
101.1741971969286
 20
-115.5691885822189
 30
0.0
 10
101.1741971969286
 20
-115.5136966377884
 30
0.0
  0
SPLINE
  5
67
330
1F
100
AcDbEntity
  8
_U+30EC_U+30A4_U+30E4_U+30FC 1
 62
     7
420
 16777215
370
     9
100
AcDbSpline
210
0.0
220
0.0
230
1.0
 70
    11
 71
     3
 72
    17
 73
    13
 74
     0
 42
0.0000000001
 43
0.0000000001
 12
1.0
 22
0.0
 32
0.0
 13
1.0
 23
0.0
 33
0.0
 40
0.0
 40
0.0
 40
0.0
 40
0.0
 40
1.0
 40
1.0
 40
1.0
 40
2.0
 40
2.0
 40
2.0
 40
3.0
 40
3.0
 40
3.0
 40
4.0
 40
4.0
 40
4.0
 40
4.0
 10
76.17417472330156
 20
-115.5136966377884
 30
0.0
 10
76.17417472330156
 20
-115.4585927489131
 30
0.0
 10
76.12937194666681
 20
-115.4137899711464
 30
0.0
 10
76.07409167029934
 20
-115.4137899711464
 30
0.0
 10
76.0189525050394
 20
-115.4137899711464
 30
0.0
 10
75.9741850061815
 20
-115.4585927489131
 30
0.0
 10
75.9741850061815
 20
-115.5136966377884
 30
0.0
 10
75.9741850061815
 20
-115.5691885822189
 30
0.0
 10
76.0189525050394
 20
-115.6139560822075
 30
0.0
 10
76.07409167029934
 20
-115.6139560822075
 30
0.0
 10
76.12937194666681
 20
-115.6139560822075
 30
0.0
 10
76.17417472330156
 20
-115.5691885822189
 30
0.0
 10
76.17417472330156
 20
-115.5136966377884
 30
0.0
  0
SPLINE
  5
68
330
1F
100
AcDbEntity
  8
_U+30EC_U+30A4_U+30E4_U+30FC 1
 62
     7
420
 16777215
370
     9
100
AcDbSpline
210
0.0
220
0.0
230
1.0
 70
    11
 71
     3
 72
    17
 73
    13
 74
     0
 42
0.0000000001
 43
0.0000000001
 12
1.0
 22
0.0
 32
0.0
 13
1.0
 23
0.0
 33
0.0
 40
0.0
 40
0.0
 40
0.0
 40
0.0
 40
1.0
 40
1.0
 40
1.0
 40
2.0
 40
2.0
 40
2.0
 40
3.0
 40
3.0
 40
3.0
 40
4.0
 40
4.0
 40
4.0
 40
4.0
 10
51.17411952777277
 20
-115.5136966377884
 30
0.0
 10
51.17411952777277
 20
-115.4585927489131
 30
0.0
 10
51.12935202891489
 20
-115.4137899711464
 30
0.0
 10
51.07407175254743
 20
-115.4137899711464
 30
0.0
 10
51.01893258728748
 20
-115.4137899711464
 30
0.0
 10
50.97416508842959
 20
-115.4585927489131
 30
0.0
 10
50.97416508842959
 20
-115.5136966377884
 30
0.0
 10
50.97416508842959
 20
-115.5691885822189
 30
0.0
 10
51.01893258728748
 20
-115.6139560822075
 30
0.0
 10
51.07407175254743
 20
-115.6139560822075
 30
0.0
 10
51.12935202891489
 20
-115.6139560822075
 30
0.0
 10
51.17411952777277
 20
-115.5691885822189
 30
0.0
 10
51.17411952777277
 20
-115.5136966377884
 30
0.0
  0
POLYLINE
  5
69
330
1F
100
AcDbEntity
  8
_U+30EC_U+30A4_U+30E4_U+30FC 1
 62
     7
420
 16777215
370
     9
100
AcDb2dPolyline
 66
     1
 10
0.0
 20
0.0
 30
0.0
  0
VERTEX
  5
6A
330
69
100
AcDbEntity
  8
_U+30EC_U+30A4_U+30E4_U+30FC 1
 62
     7
420
 16777215
370
     9
100
AcDbVertex
100
AcDb2dVertex
 10
130.0743844593038
 20
-145.5136013525103
 30
0.0
  0
VERTEX
  5
6B
330
69
100
AcDbEntity
  8
_U+30EC_U+30A4_U+30E4_U+30FC 1
 62
     7
420
 16777215
370
     9
100
AcDbVertex
100
AcDb2dVertex
 10
130.0743844593038
 20
-120.5135808032049
 30
0.0
  0
SEQEND
  5
6C
330
69
100
AcDbEntity
  8
_U+30EC_U+30A4_U+30E4_U+30FC 1
 62
     7
420
 16777215
370
     9
  0
POLYLINE
  5
6D
330
1F
100
AcDbEntity
  8
_U+30EC_U+30A4_U+30E4_U+30FC 1
 62
     7
420
 16777215
370
     9
100
AcDb2dPolyline
 66
     1
 10
0.0
 20
0.0
 30
0.0
  0
VERTEX
  5
6E
330
6D
100
AcDbEntity
  8
_U+30EC_U+30A4_U+30E4_U+30FC 1
 62
     7
420
 16777215
370
     9
100
AcDbVertex
100
AcDb2dVertex
 10
102.6142360854576
 20
-145.5136013525103
 30
0.0
  0
VERTEX
  5
6F
330
6D
100
AcDbEntity
  8
_U+30EC_U+30A4_U+30E4_U+30FC 1
 62
     7
420
 16777215
370
     9
100
AcDbVertex
100
AcDb2dVertex
 10
131.0741566560197
 20
-145.5136013525103
 30
0.0
  0
SEQEND
  5
70
330
6D
100
AcDbEntity
  8
_U+30EC_U+30A4_U+30E4_U+30FC 1
 62
     7
420
 16777215
370
     9
  0
POLYLINE
  5
71
330
1F
100
AcDbEntity
  8
_U+30EC_U+30A4_U+30E4_U+30FC 1
 62
     7
420
 16777215
370
     9
100
AcDb2dPolyline
 66
     1
 10
0.0
 20
0.0
 30
0.0
  0
VERTEX
  5
72
330
71
100
AcDbEntity
  8
_U+30EC_U+30A4_U+30E4_U+30FC 1
 62
     7
420
 16777215
370
     9
100
AcDbVertex
100
AcDb2dVertex
 10
128.1141395093138
 20
-120.5135808032049
 30
0.0
  0
VERTEX
  5
73
330
71
100
AcDbEntity
  8
_U+30EC_U+30A4_U+30E4_U+30FC 1
 62
     7
420
 16777215
370
     9
100
AcDbVertex
100
AcDb2dVertex
 10
131.0741566560197
 20
-120.5135808032049
 30
0.0
  0
SEQEND
  5
74
330
71
100
AcDbEntity
  8
_U+30EC_U+30A4_U+30E4_U+30FC 1
 62
     7
420
 16777215
370
     9
  0
INSERT
  5
76
330
1F
100
AcDbEntity
  8
_U+30EC_U+30A4_U+30E4_U+30FC 1
100
AcDbBlockReference
  2
block 2
 10
0.0
 20
0.0
 30
0.0
  0
POLYLINE
  5
7D
330
1F
100
AcDbEntity
  8
_U+30EC_U+30A4_U+30E4_U+30FC 1
 62
     7
420
 16777215
370
     9
100
AcDb2dPolyline
 66
     1
 10
0.0
 20
0.0
 30
0.0
  0
VERTEX
  5
7E
330
7D
100
AcDbEntity
  8
_U+30EC_U+30A4_U+30E4_U+30FC 1
 62
     7
420
 16777215
370
     9
100
AcDbVertex
100
AcDb2dVertex
 10
51.07407175254743
 20
-115.5136966377884
 30
0.0
  0
VERTEX
  5
7F
330
7D
100
AcDbEntity
  8
_U+30EC_U+30A4_U+30E4_U+30FC 1
 62
     7
420
 16777215
370
     9
100
AcDbVertex
100
AcDb2dVertex
 10
76.07409167029934
 20
-115.5136966377884
 30
0.0
  0
SEQEND
  5
80
330
7D
100
AcDbEntity
  8
_U+30EC_U+30A4_U+30E4_U+30FC 1
 62
     7
420
 16777215
370
     9
  0
POLYLINE
  5
81
330
1F
100
AcDbEntity
  8
_U+30EC_U+30A4_U+30E4_U+30FC 1
 62
     7
420
 16777215
370
     9
100
AcDb2dPolyline
 66
     1
 10
0.0
 20
0.0
 30
0.0
  0
VERTEX
  5
82
330
81
100
AcDbEntity
  8
_U+30EC_U+30A4_U+30E4_U+30FC 1
 62
     7
420
 16777215
370
     9
100
AcDbVertex
100
AcDb2dVertex
 10
51.07407175254743
 20
-117.4736241372984
 30
0.0
  0
VERTEX
  5
83
330
81
100
AcDbEntity
  8
_U+30EC_U+30A4_U+30E4_U+30FC 1
 62
     7
420
 16777215
370
     9
100
AcDbVertex
100
AcDb2dVertex
 10
51.07407175254743
 20
-114.5136069158159
 30
0.0
  0
SEQEND
  5
84
330
81
100
AcDbEntity
  8
_U+30EC_U+30A4_U+30E4_U+30FC 1
 62
     7
420
 16777215
370
     9
  0
POLYLINE
  5
85
330
1F
100
AcDbEntity
  8
_U+30EC_U+30A4_U+30E4_U+30FC 1
 62
     7
420
 16777215
370
     9
100
AcDb2dPolyline
 66
     1
 10
0.0
 20
0.0
 30
0.0
  0
VERTEX
  5
86
330
85
100
AcDbEntity
  8
_U+30EC_U+30A4_U+30E4_U+30FC 1
 62
     7
420
 16777215
370
     9
100
AcDbVertex
100
AcDb2dVertex
 10
76.07409167029934
 20
-117.9738630260621
 30
0.0
  0
VERTEX
  5
87
330
85
100
AcDbEntity
  8
_U+30EC_U+30A4_U+30E4_U+30FC 1
 62
     7
420
 16777215
370
     9
100
AcDbVertex
100
AcDb2dVertex
 10
76.07409167029934
 20
-114.5136069158159
 30
0.0
  0
SEQEND
  5
88
330
85
100
AcDbEntity
  8
_U+30EC_U+30A4_U+30E4_U+30FC 1
 62
     7
420
 16777215
370
     9
  0
INSERT
  5
8A
330
1F
100
AcDbEntity
  8
_U+30EC_U+30A4_U+30E4_U+30FC 1
100
AcDbBlockReference
  2
block 3
 10
0.0
 20
0.0
 30
0.0
  0
POLYLINE
  5
91
330
1F
100
AcDbEntity
  8
_U+30EC_U+30A4_U+30E4_U+30FC 1
 62
     7
420
 16777215
370
     9
100
AcDb2dPolyline
 66
     1
 10
0.0
 20
0.0
 30
0.0
  0
VERTEX
  5
92
330
91
100
AcDbEntity
  8
_U+30EC_U+30A4_U+30E4_U+30FC 1
 62
     7
420
 16777215
370
     9
100
AcDbVertex
100
AcDb2dVertex
 10
76.07409167029934
 20
-115.5136966377884
 30
0.0
  0
VERTEX
  5
93
330
91
100
AcDbEntity
  8
_U+30EC_U+30A4_U+30E4_U+30FC 1
 62
     7
420
 16777215
370
     9
100
AcDbVertex
100
AcDb2dVertex
 10
101.0742879769356
 20
-115.5136966377884
 30
0.0
  0
SEQEND
  5
94
330
91
100
AcDbEntity
  8
_U+30EC_U+30A4_U+30E4_U+30FC 1
 62
     7
420
 16777215
370
     9
  0
POLYLINE
  5
95
330
1F
100
AcDbEntity
  8
_U+30EC_U+30A4_U+30E4_U+30FC 1
 62
     7
420
 16777215
370
     9
100
AcDb2dPolyline
 66
     1
 10
0.0
 20
0.0
 30
0.0
  0
VERTEX
  5
96
330
95
100
AcDbEntity
  8
_U+30EC_U+30A4_U+30E4_U+30FC 1
 62
     7
420
 16777215
370
     9
100
AcDbVertex
100
AcDb2dVertex
 10
101.0742879769356
 20
-117.9738630260621
 30
0.0
  0
VERTEX
  5
97
330
95
100
AcDbEntity
  8
_U+30EC_U+30A4_U+30E4_U+30FC 1
 62
     7
420
 16777215
370
     9
100
AcDbVertex
100
AcDb2dVertex
 10
101.0742879769356
 20
-114.5136069158159
 30
0.0
  0
SEQEND
  5
98
330
95
100
AcDbEntity
  8
_U+30EC_U+30A4_U+30E4_U+30FC 1
 62
     7
420
 16777215
370
     9
  0
INSERT
  5
9A
330
1F
100
AcDbEntity
  8
_U+30EC_U+30A4_U+30E4_U+30FC 1
100
AcDbBlockReference
  2
block 4
 10
0.0
 20
0.0
 30
0.0
  0
POLYLINE
  5
A1
330
1F
100
AcDbEntity
  8
_U+30EC_U+30A4_U+30E4_U+30FC 1
 62
     7
420
 16777215
370
     9
100
AcDb2dPolyline
 66
     1
 10
0.0
 20
0.0
 30
0.0
  0
VERTEX
  5
A2
330
A1
100
AcDbEntity
  8
_U+30EC_U+30A4_U+30E4_U+30FC 1
 62
     7
420
 16777215
370
     9
100
AcDbVertex
100
AcDb2dVertex
 10
101.0742879769356
 20
-115.5136966377884
 30
0.0
  0
VERTEX
  5
A3
330
A1
100
AcDbEntity
  8
_U+30EC_U+30A4_U+30E4_U+30FC 1
 62
     7
420
 16777215
370
     9
100
AcDbVertex
100
AcDb2dVertex
 10
126.0739583018149
 20
-115.5136966377884
 30
0.0
  0
SEQEND
  5
A4
330
A1
100
AcDbEntity
  8
_U+30EC_U+30A4_U+30E4_U+30FC 1
 62
     7
420
 16777215
370
     9
  0
POLYLINE
  5
A5
330
1F
100
AcDbEntity
  8
_U+30EC_U+30A4_U+30E4_U+30FC 1
 62
     7
420
 16777215
370
     9
100
AcDb2dPolyline
 66
     1
 10
0.0
 20
0.0
 30
0.0
  0
VERTEX
  5
A6
330
A5
100
AcDbEntity
  8
_U+30EC_U+30A4_U+30E4_U+30FC 1
 62
     7
420
 16777215
370
     9
100
AcDbVertex
100
AcDb2dVertex
 10
126.0739583018149
 20
-117.4736241372984
 30
0.0
  0
VERTEX
  5
A7
330
A5
100
AcDbEntity
  8
_U+30EC_U+30A4_U+30E4_U+30FC 1
 62
     7
420
 16777215
370
     9
100
AcDbVertex
100
AcDb2dVertex
 10
126.0739583018149
 20
-114.5136069158159
 30
0.0
  0
SEQEND
  5
A8
330
A5
100
AcDbEntity
  8
_U+30EC_U+30A4_U+30E4_U+30FC 1
 62
     7
420
 16777215
370
     9
  0
INSERT
  5
AA
330
1F
100
AcDbEntity
  8
_U+30EC_U+30A4_U+30E4_U+30FC 1
100
AcDbBlockReference
  2
block 5
 10
0.0
 20
0.0
 30
0.0
  0
POLYLINE
  5
B1
330
1F
100
AcDbEntity
  8
_U+30EC_U+30A4_U+30E4_U+30FC 1
  6
AI-Linetype-1
 62
   251
420
  5855577
370
    25
100
AcDb2dPolyline
 66
     1
 10
0.0
 20
0.0
 30
0.0
  0
VERTEX
  5
B2
330
B1
100
AcDbEntity
  8
_U+30EC_U+30A4_U+30E4_U+30FC 1
  6
AI-Linetype-1
 62
   251
420
  5855577
370
    25
100
AcDbVertex
100
AcDb2dVertex
 10
121.0744238555786
 20
-121.2904327474553
 30
0.0
  0
VERTEX
  5
B3
330
B1
100
AcDbEntity
  8
_U+30EC_U+30A4_U+30E4_U+30FC 1
  6
AI-Linetype-1
 62
   251
420
  5855577
370
    25
100
AcDbVertex
100
AcDb2dVertex
 10
126.7478312108379
 20
-121.2904327474553
 30
0.0
  0
VERTEX
  5
B4
330
B1
100
AcDbEntity
  8
_U+30EC_U+30A4_U+30E4_U+30FC 1
  6
AI-Linetype-1
 62
   251
420
  5855577
370
    25
100
AcDbVertex
100
AcDb2dVertex
 10
126.7478312108379
 20
-120.6017752476273
 30
0.0
  0
VERTEX
  5
B5
330
B1
100
AcDbEntity
  8
_U+30EC_U+30A4_U+30E4_U+30FC 1
  6
AI-Linetype-1
 62
   251
420
  5855577
370
    25
100
AcDbVertex
100
AcDb2dVertex
 10
126.7478312108379
 20
-118.7369213592048
 30
0.0
  0
VERTEX
  5
B6
330
B1
100
AcDbEntity
  8
_U+30EC_U+30A4_U+30E4_U+30FC 1
  6
AI-Linetype-1
 62
   251
420
  5855577
370
    25
100
AcDbVertex
100
AcDb2dVertex
 10
100.2205657764937
 20
-118.7369213592048
 30
0.0
  0
VERTEX
  5
B7
330
B1
100
AcDbEntity
  8
_U+30EC_U+30A4_U+30E4_U+30FC 1
  6
AI-Linetype-1
 62
   251
420
  5855577
370
    25
100
AcDbVertex
100
AcDb2dVertex
 10
100.2205657764937
 20
-144.6709210749434
 30
0.0
  0
VERTEX
  5
B8
330
B1
100
AcDbEntity
  8
_U+30EC_U+30A4_U+30E4_U+30FC 1
  6
AI-Linetype-1
 62
   251
420
  5855577
370
    25
100
AcDbVertex
100
AcDb2dVertex
 10
76.57482443530236
 20
-144.6709210749434
 30
0.0
  0
VERTEX
  5
B9
330
B1
100
AcDbEntity
  8
_U+30EC_U+30A4_U+30E4_U+30FC 1
  6
AI-Linetype-1
 62
   251
420
  5855577
370
    25
100
AcDbVertex
100
AcDb2dVertex
 10
76.57482443530236
 20
-118.7369213592048
 30
0.0
  0
VERTEX
  5
BA
330
B1
100
AcDbEntity
  8
_U+30EC_U+30A4_U+30E4_U+30FC 1
  6
AI-Linetype-1
 62
   251
420
  5855577
370
    25
100
AcDbVertex
100
AcDb2dVertex
 10
50.04777066761944
 20
-118.7369213592048
 30
0.0
  0
VERTEX
  5
BB
330
B1
100
AcDbEntity
  8
_U+30EC_U+30A4_U+30E4_U+30FC 1
  6
AI-Linetype-1
 62
   251
420
  5855577
370
    25
100
AcDbVertex
100
AcDb2dVertex
 10
50.04777066761944
 20
-121.0255319141882
 30
0.0
  0
VERTEX
  5
BC
330
B1
100
AcDbEntity
  8
_U+30EC_U+30A4_U+30E4_U+30FC 1
  6
AI-Linetype-1
 62
   251
420
  5855577
370
    25
100
AcDbVertex
100
AcDb2dVertex
 10
50.04777066761944
 20
-121.2904327474553
 30
0.0
  0
VERTEX
  5
BD
330
B1
100
AcDbEntity
  8
_U+30EC_U+30A4_U+30E4_U+30FC 1
  6
AI-Linetype-1
 62
   251
420
  5855577
370
    25
100
AcDbVertex
100
AcDb2dVertex
 10
56.07409690276394
 20
-121.2904327474553
 30
0.0
  0
SEQEND
  5
BF
330
B1
100
AcDbEntity
  8
_U+30EC_U+30A4_U+30E4_U+30FC 1
  6
AI-Linetype-1
 62
   251
420
  5855577
370
    25
  0
ENDSEC
  0
SECTION
  2
OBJECTS
  0
DICTIONARY
  5
C
330
0
100
AcDbDictionary
281
     1
  3
ACAD_GROUP
350
D
  3
ACAD_LAYOUT
350
1A
  3
ACAD_MATERIAL
350
3B
  3
ACAD_MLEADERSTYLE
350
C1
  3
ACAD_MLINESTYLE
350
17
  3
ACAD_PLOTSETTINGS
350
19
  3
ACAD_PLOTSTYLENAME
350
E
  3
ACAD_TABLESTYLE
350
C0
  3
ACAD_VISUALSTYLE
350
2A
  0
SUN
  5
3F
330
29
100
AcDbSun
 90
        1
290
     0
 63
     7
421
 16777215
 40
1.0
291
     1
 91
  2455826
 92
 54000000
292
     0
 70
     2
 71
   256
280
     1
  0
DICTIONARY
  5
D
102
{ACAD_REACTORS
330
C
102
}
330
C
100
AcDbDictionary
281
     1
  0
DICTIONARY
  5
1A
102
{ACAD_REACTORS
330
C
102
}
330
C
100
AcDbDictionary
281
     1
  3
Layout1
350
1E
  3
Layout2
350
26
  3
Model
350
22
  0
DICTIONARY
  5
3B
102
{ACAD_REACTORS
330
C
102
}
330
C
100
AcDbDictionary
281
     1
  3
ByBlock
350
3D
  3
ByLayer
350
3C
  3
Global
350
3E
  0
DICTIONARY
  5
C1
102
{ACAD_REACTORS
330
C
102
}
330
C
100
AcDbDictionary
281
     1
  0
DICTIONARY
  5
17
102
{ACAD_REACTORS
330
C
102
}
330
C
100
AcDbDictionary
281
     1
  3
Standard
350
18
  0
DICTIONARY
  5
19
102
{ACAD_REACTORS
330
C
102
}
330
C
100
AcDbDictionary
281
     1
  0
ACDBDICTIONARYWDFLT
  5
E
102
{ACAD_REACTORS
330
C
102
}
330
C
100
AcDbDictionary
281
     1
  3
Normal
350
F
100
AcDbDictionaryWithDefault
340
F
  0
DICTIONARY
  5
C0
102
{ACAD_REACTORS
330
C
102
}
330
C
100
AcDbDictionary
281
     1
  0
DICTIONARY
  5
2A
102
{ACAD_REACTORS
330
C
102
}
330
C
100
AcDbDictionary
281
     1
  3
2dWireframe
350
2F
  3
3D Hidden
350
31
  3
3dWireframe
350
30
  3
Basic
350
32
  3
Brighten
350
36
  3
ColorChange
350
3A
  3
Conceptual
350
34
  3
Dim
350
35
  3
Facepattern
350
39
  3
Flat
350
2B
  3
FlatWithEdges
350
2C
  3
Gouraud
350
2D
  3
GouraudWithEdges
350
2E
  3
Linepattern
350
38
  3
Realistic
350
33
  3
Thicken
350
37
  0
LAYOUT
  5
1E
102
{ACAD_REACTORS
330
1A
102
}
330
1A
100
AcDbPlotSettings
  1

  2
none_device
  4

  6

 40
0.0
 41
0.0
 42
0.0
 43
0.0
 44
0.0
 45
0.0
 46
0.0
 47
0.0
 48
0.0
 49
0.0
140
0.0
141
0.0
142
1.0
143
1.0
 70
   688
 72
     0
 73
     0
 74
     5
  7

 75
    16
 76
     0
 77
     2
 78
   300
147
1.0
148
0.0
149
0.0
100
AcDbLayout
  1
Layout1
 70
     1
 71
     1
 10
0.0
 20
0.0
 11
12.0
 21
9.0
 12
0.0
 22
0.0
 32
0.0
 14
1.000000000000000E+20
 24
1.000000000000000E+20
 34
1.000000000000000E+20
 15
-1.000000000000000E+20
 25
-1.000000000000000E+20
 35
-1.000000000000000E+20
146
0.0
 13
0.0
 23
0.0
 33
0.0
 16
1.0
 26
0.0
 36
0.0
 17
0.0
 27
1.0
 37
0.0
 76
     0
330
1B
  0
LAYOUT
  5
26
102
{ACAD_REACTORS
330
1A
102
}
330
1A
100
AcDbPlotSettings
  1

  2
none_device
  4

  6

 40
0.0
 41
0.0
 42
0.0
 43
0.0
 44
0.0
 45
0.0
 46
0.0
 47
0.0
 48
0.0
 49
0.0
140
0.0
141
0.0
142
1.0
143
1.0
 70
   688
 72
     0
 73
     0
 74
     5
  7

 75
    16
 76
     0
 77
     2
 78
   300
147
1.0
148
0.0
149
0.0
100
AcDbLayout
  1
Layout2
 70
     1
 71
     2
 10
0.0
 20
0.0
 11
0.0
 21
0.0
 12
0.0
 22
0.0
 32
0.0
 14
0.0
 24
0.0
 34
0.0
 15
0.0
 25
0.0
 35
0.0
146
0.0
 13
0.0
 23
0.0
 33
0.0
 16
1.0
 26
0.0
 36
0.0
 17
0.0
 27
1.0
 37
0.0
 76
     0
330
23
  0
LAYOUT
  5
22
102
{ACAD_REACTORS
330
1A
102
}
330
1A
100
AcDbPlotSettings
  1

  2
none_device
  4

  6

 40
0.0
 41
0.0
 42
0.0
 43
0.0
 44
0.0
 45
0.0
 46
0.0
 47
0.0
 48
0.0
 49
0.0
140
0.0
141
0.0
142
1.0
143
1.0
 70
  1712
 72
     0
 73
     0
 74
     0
  7

 75
     0
 76
     0
 77
     2
 78
   300
147
1.0
148
0.0
149
0.0
100
AcDbLayout
  1
Model
 70
     1
 71
     0
 10
0.0
 20
0.0
 11
12.0
 21
9.0
 12
0.0
 22
0.0
 32
0.0
 14
1.000000000000000E+20
 24
1.000000000000000E+20
 34
1.000000000000000E+20
 15
-1.000000000000000E+20
 25
-1.000000000000000E+20
 35
-1.000000000000000E+20
146
0.0
 13
0.0
 23
0.0
 33
0.0
 16
1.0
 26
0.0
 36
0.0
 17
0.0
 27
1.0
 37
0.0
 76
     0
330
1F
331
29
  0
MATERIAL
  5
3D
102
{ACAD_REACTORS
330
3B
102
}
330
3B
100
AcDbMaterial
  1
ByBlock
 72
     1
 94
      127
  0
MATERIAL
  5
3C
102
{ACAD_REACTORS
330
3B
102
}
330
3B
100
AcDbMaterial
  1
ByLayer
 72
     1
 94
      127
  0
MATERIAL
  5
3E
102
{ACAD_REACTORS
330
3B
102
}
330
3B
100
AcDbMaterial
  1
Global
 72
     1
 94
      127
  0
MLINESTYLE
  5
18
102
{ACAD_REACTORS
330
17
102
}
330
17
100
AcDbMlineStyle
  2
Standard
 70
     0
  3

 62
   256
 51
90.0
 52
90.0
 71
     2
 49
0.5
 62
   256
  6
BYLAYER
 49
-0.5
 62
   256
  6
BYLAYER
  0
ACDBPLACEHOLDER
  5
F
102
{ACAD_REACTORS
330
E
102
}
330
E
  0
VISUALSTYLE
  5
2F
102
{ACAD_REACTORS
330
2A
102
}
330
2A
100
AcDbVisualStyle
  2
2dWireframe
 70
     4
177
     2
291
     0
 71
     0
176
     1
 72
     2
176
     1
 73
     0
176
     1
 90
        0
176
     1
 40
-0.6
176
     1
 41
-30.0
176
     1
 62
     5
 63
     7
421
 16777215
176
     1
 74
     1
176
     1
 91
        4
176
     1
 64
     7
176
     1
 65
   257
176
     1
 75
     1
176
     1
175
     1
176
     1
 42
1.0
176
     1
 92
        0
176
     1
 66
   257
176
     1
 43
1.0
176
     1
 76
     1
176
     1
 77
     6
176
     1
 78
     2
176
     1
 67
     7
176
     1
 79
     5
176
     1
170
     0
176
     1
171
     0
176
     1
290
     0
176
     1
 93
        1
176
     1
 44
0.0
176
     1
173
     0
176
     1
  0
VISUALSTYLE
  5
31
102
{ACAD_REACTORS
330
2A
102
}
330
2A
100
AcDbVisualStyle
  2
3D Hidden
 70
     6
177
     2
291
     0
 71
     1
176
     1
 72
     2
176
     1
 73
     2
176
     1
 90
        0
176
     1
 40
-0.6
176
     1
 41
-30.0
176
     1
 62
     5
 63
     7
421
 16777215
176
     1
 74
     2
176
     1
 91
        2
176
     1
 64
     7
176
     1
 65
   257
176
     1
 75
     2
176
     1
175
     1
176
     1
 42
40.0
176
     1
 92
        0
176
     1
 66
   257
176
     1
 43
1.0
176
     1
 76
     1
176
     1
 77
     6
176
     1
 78
     2
176
     1
 67
     7
176
     1
 79
     3
176
     1
170
     0
176
     1
171
     0
176
     1
290
     0
176
     1
 93
        1
176
     1
 44
0.0
176
     1
173
     0
176
     1
  0
VISUALSTYLE
  5
30
102
{ACAD_REACTORS
330
2A
102
}
330
2A
100
AcDbVisualStyle
  2
3dWireframe
 70
     5
177
     2
291
     0
 71
     0
176
     1
 72
     2
176
     1
 73
     0
176
     1
 90
        0
176
     1
 40
-0.6
176
     1
 41
-30.0
176
     1
 62
     5
 63
     7
421
 16777215
176
     1
 74
     1
176
     1
 91
        4
176
     1
 64
     7
176
     1
 65
   257
176
     1
 75
     1
176
     1
175
     1
176
     1
 42
1.0
176
     1
 92
        0
176
     1
 66
   257
176
     1
 43
1.0
176
     1
 76
     1
176
     1
 77
     6
176
     1
 78
     2
176
     1
 67
     7
176
     1
 79
     5
176
     1
170
     0
176
     1
171
     0
176
     1
290
     0
176
     1
 93
        1
176
     1
 44
0.0
176
     1
173
     0
176
     1
  0
VISUALSTYLE
  5
32
102
{ACAD_REACTORS
330
2A
102
}
330
2A
100
AcDbVisualStyle
  2
Basic
 70
     7
177
     2
291
     1
 71
     1
176
     1
 72
     0
176
     1
 73
     1
176
     1
 90
        0
176
     1
 40
-0.6
176
     1
 41
-30.0
176
     1
 62
     5
 63
     7
421
 16777215
176
     1
 74
     0
176
     1
 91
        4
176
     1
 64
     7
176
     1
 65
   257
176
     1
 75
     1
176
     1
175
     1
176
     1
 42
1.0
176
     1
 92
        8
176
     1
 66
     7
176
     1
 43
1.0
176
     1
 76
     1
176
     1
 77
     6
176
     1
 78
     2
176
     1
 67
     7
176
     1
 79
     5
176
     1
170
     0
176
     1
171
     0
176
     1
290
     0
176
     1
 93
        1
176
     1
 44
0.0
176
     1
173
     0
176
     1
  0
VISUALSTYLE
  5
36
102
{ACAD_REACTORS
330
2A
102
}
330
2A
100
AcDbVisualStyle
  2
Brighten
 70
    12
177
     2
291
     1
 71
     2
176
     1
 72
     2
176
     1
 73
     0
176
     1
 90
        0
176
     1
 40
-0.6
176
     1
 41
-30.0
176
     1
 62
     5
 63
     7
421
 16777215
176
     1
 74
     1
176
     1
 91
        4
176
     1
 64
     7
176
     1
 65
   257
176
     1
 75
     1
176
     1
175
     1
176
     1
 42
1.0
176
     1
 92
        8
176
     1
 66
     7
176
     1
 43
1.0
176
     1
 76
     1
176
     1
 77
     6
176
     1
 78
     2
176
     1
 67
     7
176
     1
 79
     5
176
     1
170
     0
176
     1
171
     0
176
     1
290
     0
176
     1
 93
        1
176
     1
 44
50.0
176
     1
173
     0
176
     1
  0
VISUALSTYLE
  5
3A
102
{ACAD_REACTORS
330
2A
102
}
330
2A
100
AcDbVisualStyle
  2
ColorChange
 70
    16
177
     2
291
     1
 71
     2
176
     1
 72
     2
176
     1
 73
     3
176
     1
 90
        0
176
     1
 40
-0.6
176
     1
 41
-30.0
176
     1
 62
     5
 63
     8
421
  8421504
176
     1
 74
     1
176
     1
 91
        4
176
     1
 64
     7
176
     1
 65
   257
176
     1
 75
     1
176
     1
175
     1
176
     1
 42
1.0
176
     1
 92
        8
176
     1
 66
     8
424
  8421504
176
     1
 43
1.0
176
     1
 76
     1
176
     1
 77
     6
176
     1
 78
     2
176
     1
 67
     7
176
     1
 79
     5
176
     1
170
     0
176
     1
171
     0
176
     1
290
     0
176
     1
 93
        1
176
     1
 44
0.0
176
     1
173
     0
176
     1
  0
VISUALSTYLE
  5
34
102
{ACAD_REACTORS
330
2A
102
}
330
2A
100
AcDbVisualStyle
  2
Conceptual
 70
     9
177
     2
291
     0
 71
     3
176
     1
 72
     2
176
     1
 73
     0
176
     1
 90
        0
176
     1
 40
-0.6
176
     1
 41
-30.0
176
     1
 62
     5
 63
     7
421
 16777215
176
     1
 74
     2
176
     1
 91
        2
176
     1
 64
     7
176
     1
 65
   257
176
     1
 75
     1
176
     1
175
     1
176
     1
 42
40.0
176
     1
 92
        8
176
     1
 66
     7
176
     1
 43
1.0
176
     1
 76
     1
176
     1
 77
     6
176
     1
 78
     2
176
     1
 67
     7
176
     1
 79
     3
176
     1
170
     0
176
     1
171
     0
176
     1
290
     0
176
     1
 93
        1
176
     1
 44
0.0
176
     1
173
     0
176
     1
  0
VISUALSTYLE
  5
35
102
{ACAD_REACTORS
330
2A
102
}
330
2A
100
AcDbVisualStyle
  2
Dim
 70
    11
177
     2
291
     1
 71
     2
176
     1
 72
     2
176
     1
 73
     0
176
     1
 90
        0
176
     1
 40
-0.6
176
     1
 41
-30.0
176
     1
 62
     5
 63
     7
421
 16777215
176
     1
 74
     1
176
     1
 91
        4
176
     1
 64
     7
176
     1
 65
   257
176
     1
 75
     1
176
     1
175
     1
176
     1
 42
1.0
176
     1
 92
        8
176
     1
 66
     7
176
     1
 43
1.0
176
     1
 76
     1
176
     1
 77
     6
176
     1
 78
     2
176
     1
 67
     7
176
     1
 79
     5
176
     1
170
     0
176
     1
171
     0
176
     1
290
     0
176
     1
 93
        1
176
     1
 44
-50.0
176
     1
173
     0
176
     1
  0
VISUALSTYLE
  5
39
102
{ACAD_REACTORS
330
2A
102
}
330
2A
100
AcDbVisualStyle
  2
Facepattern
 70
    15
177
     2
291
     1
 71
     2
176
     1
 72
     2
176
     1
 73
     0
176
     1
 90
        0
176
     1
 40
-0.6
176
     1
 41
-30.0
176
     1
 62
     5
 63
     7
421
 16777215
176
     1
 74
     1
176
     1
 91
        4
176
     1
 64
     7
176
     1
 65
   257
176
     1
 75
     1
176
     1
175
     1
176
     1
 42
1.0
176
     1
 92
        8
176
     1
 66
     7
176
     1
 43
1.0
176
     1
 76
     1
176
     1
 77
     6
176
     1
 78
     2
176
     1
 67
     7
176
     1
 79
     5
176
     1
170
     0
176
     1
171
     0
176
     1
290
     0
176
     1
 93
        1
176
     1
 44
0.0
176
     1
173
     0
176
     1
  0
VISUALSTYLE
  5
2B
102
{ACAD_REACTORS
330
2A
102
}
330
2A
100
AcDbVisualStyle
  2
Flat
 70
     0
177
     2
291
     1
 71
     2
176
     1
 72
     1
176
     1
 73
     1
176
     1
 90
        2
176
     1
 40
-0.6
176
     1
 41
30.0
176
     1
 62
     5
 63
     7
421
 16777215
176
     1
 74
     0
176
     1
 91
        4
176
     1
 64
     7
176
     1
 65
   257
176
     1
 75
     1
176
     1
175
     1
176
     1
 42
1.0
176
     1
 92
        8
176
     1
 66
     7
176
     1
 43
1.0
176
     1
 76
     1
176
     1
 77
     6
176
     1
 78
     2
176
     1
 67
     7
176
     1
 79
     5
176
     1
170
     0
176
     1
171
     0
176
     1
290
     0
176
     1
 93
       13
176
     1
 44
0.0
176
     1
173
     0
176
     1
  0
VISUALSTYLE
  5
2C
102
{ACAD_REACTORS
330
2A
102
}
330
2A
100
AcDbVisualStyle
  2
FlatWithEdges
 70
     1
177
     2
291
     1
 71
     2
176
     1
 72
     1
176
     1
 73
     1
176
     1
 90
        2
176
     1
 40
-0.6
176
     1
 41
30.0
176
     1
 62
     5
 63
     7
421
 16777215
176
     1
 74
     1
176
     1
 91
        4
176
     1
 64
     7
176
     1
 65
   257
176
     1
 75
     1
176
     1
175
     1
176
     1
 42
1.0
176
     1
 92
        0
176
     1
 66
   257
176
     1
 43
1.0
176
     1
 76
     1
176
     1
 77
     6
176
     1
 78
     2
176
     1
 67
     7
176
     1
 79
     5
176
     1
170
     0
176
     1
171
     0
176
     1
290
     0
176
     1
 93
       13
176
     1
 44
0.0
176
     1
173
     0
176
     1
  0
VISUALSTYLE
  5
2D
102
{ACAD_REACTORS
330
2A
102
}
330
2A
100
AcDbVisualStyle
  2
Gouraud
 70
     2
177
     2
291
     1
 71
     2
176
     1
 72
     2
176
     1
 73
     1
176
     1
 90
        2
176
     1
 40
-0.6
176
     1
 41
30.0
176
     1
 62
     5
 63
     7
421
 16777215
176
     1
 74
     0
176
     1
 91
        4
176
     1
 64
     7
176
     1
 65
   257
176
     1
 75
     1
176
     1
175
     1
176
     1
 42
1.0
176
     1
 92
        0
176
     1
 66
     7
176
     1
 43
1.0
176
     1
 76
     1
176
     1
 77
     6
176
     1
 78
     2
176
     1
 67
     7
176
     1
 79
     5
176
     1
170
     0
176
     1
171
     0
176
     1
290
     0
176
     1
 93
       13
176
     1
 44
0.0
176
     1
173
     0
176
     1
  0
VISUALSTYLE
  5
2E
102
{ACAD_REACTORS
330
2A
102
}
330
2A
100
AcDbVisualStyle
  2
GouraudWithEdges
 70
     3
177
     2
291
     1
 71
     2
176
     1
 72
     2
176
     1
 73
     1
176
     1
 90
        2
176
     1
 40
-0.6
176
     1
 41
30.0
176
     1
 62
     5
 63
     7
421
 16777215
176
     1
 74
     1
176
     1
 91
        4
176
     1
 64
     7
176
     1
 65
   257
176
     1
 75
     1
176
     1
175
     1
176
     1
 42
1.0
176
     1
 92
        0
176
     1
 66
   257
176
     1
 43
1.0
176
     1
 76
     1
176
     1
 77
     6
176
     1
 78
     2
176
     1
 67
     7
176
     1
 79
     5
176
     1
170
     0
176
     1
171
     0
176
     1
290
     0
176
     1
 93
       13
176
     1
 44
0.0
176
     1
173
     0
176
     1
  0
VISUALSTYLE
  5
38
102
{ACAD_REACTORS
330
2A
102
}
330
2A
100
AcDbVisualStyle
  2
Linepattern
 70
    14
177
     2
291
     1
 71
     2
176
     1
 72
     2
176
     1
 73
     0
176
     1
 90
        0
176
     1
 40
-0.6
176
     1
 41
-30.0
176
     1
 62
     5
 63
     7
421
 16777215
176
     1
 74
     1
176
     1
 91
        4
176
     1
 64
     7
176
     1
 65
   257
176
     1
 75
     7
176
     1
175
     7
176
     1
 42
1.0
176
     1
 92
        8
176
     1
 66
     7
176
     1
 43
1.0
176
     1
 76
     1
176
     1
 77
     6
176
     1
 78
     2
176
     1
 67
     7
176
     1
 79
     5
176
     1
170
     0
176
     1
171
     0
176
     1
290
     0
176
     1
 93
        1
176
     1
 44
0.0
176
     1
173
     0
176
     1
  0
VISUALSTYLE
  5
33
102
{ACAD_REACTORS
330
2A
102
}
330
2A
100
AcDbVisualStyle
  2
Realistic
 70
     8
177
     2
291
     0
 71
     2
176
     1
 72
     2
176
     1
 73
     0
176
     1
 90
        0
176
     1
 40
-0.6
176
     1
 41
-30.0
176
     1
 62
     5
 63
     7
421
 16777215
176
     1
 74
     1
176
     1
 91
        0
176
     1
 64
     7
176
     1
 65
   257
176
     1
 75
     1
176
     1
175
     1
176
     1
 42
1.0
176
     1
 92
        8
176
     1
 66
     8
424
  7895160
176
     1
 43
1.0
176
     1
 76
     1
176
     1
 77
     6
176
     1
 78
     2
176
     1
 67
     7
176
     1
 79
     5
176
     1
170
     0
176
     1
171
     0
176
     1
290
     0
176
     1
 93
       13
176
     1
 44
0.0
176
     1
173
     0
176
     1
  0
VISUALSTYLE
  5
37
102
{ACAD_REACTORS
330
2A
102
}
330
2A
100
AcDbVisualStyle
  2
Thicken
 70
    13
177
     2
291
     1
 71
     2
176
     1
 72
     2
176
     1
 73
     0
176
     1
 90
        0
176
     1
 40
-0.6
176
     1
 41
-30.0
176
     1
 62
     5
 63
     7
421
 16777215
176
     1
 74
     1
176
     1
 91
        4
176
     1
 64
     7
176
     1
 65
   257
176
     1
 75
     1
176
     1
175
     1
176
     1
 42
1.0
176
     1
 92
       12
176
     1
 66
     7
176
     1
 43
1.0
176
     1
 76
     1
176
     1
 77
     6
176
     1
 78
     2
176
     1
 67
     7
176
     1
 79
     5
176
     1
170
     0
176
     1
171
     0
176
     1
290
     0
176
     1
 93
        1
176
     1
 44
0.0
176
     1
173
     0
176
     1
  0
ENDSEC
  0
EOF
