  0
SECTION
  2
HEADER
  9
$ACADVER
  1
AC1024
  9
$ACADMAINTVER
 70
     6
  9
$DWGCODEPAGE
  3
UNDEFINED
  9
$INSBASE
 10
0.0
 20
0.0
 30
0.0
  9
$EXTMIN
 10
1.000000000000000E+20
 20
1.000000000000000E+20
 30
1.000000000000000E+20
  9
$EXTMAX
 10
-1.000000000000000E+20
 20
-1.000000000000000E+20
 30
-1.000000000000000E+20
  9
$LIMMIN
 10
0.0
 20
0.0
  9
$LIMMAX
 10
12.0
 20
9.0
  9
$ORTHOMODE
 70
     0
  9
$REGENMODE
 70
     1
  9
$FILLMODE
 70
     1
  9
$QTEXTMODE
 70
     0
  9
$MIRRTEXT
 70
     1
  9
$LTSCALE
 40
1.0
  9
$ATTMODE
 70
     1
  9
$TEXTSIZE
 40
0.2
  9
$TRACEWID
 40
0.05
  9
$TEXTSTYLE
  7
Standard
  9
$CLAYER
  8
0
  9
$CELTYPE
  6
ByLayer
  9
$CECOLOR
 62
   256
  9
$CELTSCALE
 40
1.0
  9
$DISPSILH
 70
     0
  9
$DIMSCALE
 40
1.0
  9
$DIMASZ
 40
0.18
  9
$DIMEXO
 40
0.0625
  9
$DIMDLI
 40
0.38
  9
$DIMRND
 40
0.0
  9
$DIMDLE
 40
0.0
  9
$DIMEXE
 40
0.18
  9
$DIMTP
 40
0.0
  9
$DIMTM
 40
0.0
  9
$DIMTXT
 40
0.18
  9
$DIMCEN
 40
0.09
  9
$DIMTSZ
 40
0.0
  9
$DIMTOL
 70
     0
  9
$DIMLIM
 70
     0
  9
$DIMTIH
 70
     1
  9
$DIMTOH
 70
     1
  9
$DIMSE1
 70
     0
  9
$DIMSE2
 70
     0
  9
$DIMTAD
 70
     0
  9
$DIMZIN
 70
     0
  9
$DIMBLK
  1

  9
$DIMASO
 70
     1
  9
$DIMSHO
 70
     1
  9
$DIMPOST
  1

  9
$DIMAPOST
  1

  9
$DIMALT
 70
     0
  9
$DIMALTD
 70
     2
  9
$DIMALTF
 40
25.4
  9
$DIMLFAC
 40
1.0
  9
$DIMTOFL
 70
     0
  9
$DIMTVP
 40
0.0
  9
$DIMTIX
 70
     0
  9
$DIMSOXD
 70
     0
  9
$DIMSAH
 70
     0
  9
$DIMBLK1
  1

  9
$DIMBLK2
  1

  9
$DIMSTYLE
  2
Standard
  9
$DIMCLRD
 70
     0
  9
$DIMCLRE
 70
     0
  9
$DIMCLRT
 70
     0
  9
$DIMTFAC
 40
1.0
  9
$DIMGAP
 40
0.09
  9
$DIMJUST
 70
     0
  9
$DIMSD1
 70
     0
  9
$DIMSD2
 70
     0
  9
$DIMTOLJ
 70
     1
  9
$DIMTZIN
 70
     0
  9
$DIMALTZ
 70
     0
  9
$DIMALTTZ
 70
     0
  9
$DIMUPT
 70
     0
  9
$DIMDEC
 70
     4
  9
$DIMTDEC
 70
     4
  9
$DIMALTU
 70
     2
  9
$DIMALTTD
 70
     2
  9
$DIMTXSTY
  7
Standard
  9
$DIMAUNIT
 70
     0
  9
$DIMADEC
 70
     0
  9
$DIMALTRND
 40
0.0
  9
$DIMAZIN
 70
     0
  9
$DIMDSEP
 70
    46
  9
$DIMATFIT
 70
     3
  9
$DIMFRAC
 70
     0
  9
$DIMLDRBLK
  1

  9
$DIMLUNIT
 70
     2
  9
$DIMLWD
 70
    -2
  9
$DIMLWE
 70
    -2
  9
$DIMTMOVE
 70
     0
  9
$DIMFXL
 40
1.0
  9
$DIMFXLON
 70
     0
  9
$DIMJOGANG
 40
0.7853981633974483
  9
$DIMTFILL
 70
     0
  9
$DIMTFILLCLR
 70
     0
  9
$DIMARCSYM
 70
     0
  9
$DIMLTYPE
  6

  9
$DIMLTEX1
  6

  9
$DIMLTEX2
  6

  9
$DIMTXTDIRECTION
 70
     0
  9
$LUNITS
 70
     2
  9
$LUPREC
 70
     4
  9
$SKETCHINC
 40
0.1
  9
$FILLETRAD
 40
0.5
  9
$AUNITS
 70
     0
  9
$AUPREC
 70
     0
  9
$MENU
  1
.
  9
$ELEVATION
 40
0.0
  9
$PELEVATION
 40
0.0
  9
$THICKNESS
 40
0.0
  9
$LIMCHECK
 70
     0
  9
$CHAMFERA
 40
0.5
  9
$CHAMFERB
 40
0.5
  9
$CHAMFERC
 40
1.0
  9
$CHAMFERD
 40
0.0
  9
$SKPOLY
 70
     0
  9
$TDCREATE
 40
2457917.626064803
  9
$TDUCREATE
 40
2457917.251064815
  9
$TDUPDATE
 40
2457917.626064803
  9
$TDUUPDATE
 40
2457917.251064815
  9
$TDINDWG
 40
0.0000000116
  9
$TDUSRTIMER
 40
0.0000000116
  9
$USRTIMER
 70
     1
  9
$ANGBASE
 50
0.0
  9
$ANGDIR
 70
     0
  9
$PDMODE
 70
     0
  9
$PDSIZE
 40
0.0
  9
$PLINEWID
 40
0.0
  9
$SPLFRAME
 70
     0
  9
$SPLINETYPE
 70
     6
  9
$SPLINESEGS
 70
     8
  9
$HANDSEED
  5
BC
  9
$SURFTAB1
 70
     6
  9
$SURFTAB2
 70
     6
  9
$SURFTYPE
 70
     6
  9
$SURFU
 70
     6
  9
$SURFV
 70
     6
  9
$UCSBASE
  2

  9
$UCSNAME
  2

  9
$UCSORG
 10
0.0
 20
0.0
 30
0.0
  9
$UCSXDIR
 10
1.0
 20
0.0
 30
0.0
  9
$UCSYDIR
 10
0.0
 20
1.0
 30
0.0
  9
$UCSORTHOREF
  2

  9
$UCSORTHOVIEW
 70
     0
  9
$UCSORGTOP
 10
0.0
 20
0.0
 30
0.0
  9
$UCSORGBOTTOM
 10
0.0
 20
0.0
 30
0.0
  9
$UCSORGLEFT
 10
0.0
 20
0.0
 30
0.0
  9
$UCSORGRIGHT
 10
0.0
 20
0.0
 30
0.0
  9
$UCSORGFRONT
 10
0.0
 20
0.0
 30
0.0
  9
$UCSORGBACK
 10
0.0
 20
0.0
 30
0.0
  9
$PUCSBASE
  2

  9
$PUCSNAME
  2

  9
$PUCSORG
 10
0.0
 20
0.0
 30
0.0
  9
$PUCSXDIR
 10
1.0
 20
0.0
 30
0.0
  9
$PUCSYDIR
 10
0.0
 20
1.0
 30
0.0
  9
$PUCSORTHOREF
  2

  9
$PUCSORTHOVIEW
 70
     0
  9
$PUCSORGTOP
 10
0.0
 20
0.0
 30
0.0
  9
$PUCSORGBOTTOM
 10
0.0
 20
0.0
 30
0.0
  9
$PUCSORGLEFT
 10
0.0
 20
0.0
 30
0.0
  9
$PUCSORGRIGHT
 10
0.0
 20
0.0
 30
0.0
  9
$PUCSORGFRONT
 10
0.0
 20
0.0
 30
0.0
  9
$PUCSORGBACK
 10
0.0
 20
0.0
 30
0.0
  9
$USERI1
 70
     0
  9
$USERI2
 70
     0
  9
$USERI3
 70
     0
  9
$USERI4
 70
     0
  9
$USERI5
 70
     0
  9
$USERR1
 40
0.0
  9
$USERR2
 40
0.0
  9
$USERR3
 40
0.0
  9
$USERR4
 40
0.0
  9
$USERR5
 40
0.0
  9
$WORLDVIEW
 70
     1
  9
$SHADEDGE
 70
     3
  9
$SHADEDIF
 70
    70
  9
$TILEMODE
 70
     1
  9
$MAXACTVP
 70
    64
  9
$PINSBASE
 10
0.0
 20
0.0
 30
0.0
  9
$PLIMCHECK
 70
     0
  9
$PEXTMIN
 10
1.000000000000000E+20
 20
1.000000000000000E+20
 30
1.000000000000000E+20
  9
$PEXTMAX
 10
-1.000000000000000E+20
 20
-1.000000000000000E+20
 30
-1.000000000000000E+20
  9
$PLIMMIN
 10
0.0
 20
0.0
  9
$PLIMMAX
 10
12.0
 20
9.0
  9
$UNITMODE
 70
     0
  9
$VISRETAIN
 70
     1
  9
$PLINEGEN
 70
     0
  9
$PSLTSCALE
 70
     1
  9
$TREEDEPTH
 70
  3020
  9
$CMLSTYLE
  2
Standard
  9
$CMLJUST
 70
     0
  9
$CMLSCALE
 40
1.0
  9
$PROXYGRAPHICS
 70
     1
  9
$MEASUREMENT
 70
     0
  9
$CELWEIGHT
370
    -1
  9
$ENDCAPS
280
     0
  9
$JOINSTYLE
280
     0
  9
$LWDISPLAY
290
     1
  9
$INSUNITS
 70
     1
  9
$HYPERLINKBASE
  1

  9
$STYLESHEET
  1

  9
$XEDIT
290
     1
  9
$CEPSNTYPE
380
     0
  9
$PSTYLEMODE
290
     1
  9
$FINGERPRINTGUID
  2
{40731B48-E30A-F120-3581-3E21F9B52CDB}
  9
$VERSIONGUID
  2
{FAEB1C32-E019-11D5-929B-00C0DF256EC4}
  9
$EXTNAMES
290
     1
  9
$PSVPSCALE
 40
0.0
  9
$OLESTARTUP
290
     0
  9
$SORTENTS
280
   127
  9
$INDEXCTL
280
     0
  9
$HIDETEXT
280
     1
  9
$XCLIPFRAME
280
     2
  9
$HALOGAP
280
     0
  9
$OBSCOLOR
 70
   257
  9
$OBSLTYPE
280
     0
  9
$INTERSECTIONDISPLAY
280
     0
  9
$INTERSECTIONCOLOR
 70
   257
  9
$DIMASSOC
280
     2
  9
$PROJECTNAME
  1

  9
$CAMERADISPLAY
290
     0
  9
$LENSLENGTH
 40
50.0
  9
$CAMERAHEIGHT
 40
0.0
  9
$STEPSPERSEC
 40
2.0
  9
$STEPSIZE
 40
6.0
  9
$3DDWFPREC
 40
2.0
  9
$PSOLWIDTH
 40
0.25
  9
$PSOLHEIGHT
 40
4.0
  9
$LOFTANG1
 40
1.570796326794897
  9
$LOFTANG2
 40
1.570796326794897
  9
$LOFTMAG1
 40
0.0
  9
$LOFTMAG2
 40
0.0
  9
$LOFTPARAM
 70
     7
  9
$LOFTNORMALS
280
     1
  9
$LATITUDE
 40
37.795
  9
$LONGITUDE
 40
-122.394
  9
$NORTHDIRECTION
 40
0.0
  9
$TIMEZONE
 70
 -8000
  9
$LIGHTGLYPHDISPLAY
280
     1
  9
$TILEMODELIGHTSYNCH
280
     1
  9
$CMATERIAL
347
3C
  9
$SOLIDHIST
280
     1
  9
$SHOWHIST
280
     1
  9
$DWFFRAME
280
     2
  9
$DGNFRAME
280
     2
  9
$REALWORLDSCALE
290
     1
  9
$INTERFERECOLOR
 62
   256
  9
$CSHADOW
280
     0
  9
$SHADOWPLANELOCATION
 40
0.0
  0
ENDSEC
  0
SECTION
  2
CLASSES
  0
CLASS
  1
ACDBDICTIONARYWDFLT
  2
AcDbDictionaryWithDefault
  3
ObjectDBX Classes
 90
        0
 91
        4
280
     0
281
     0
  0
CLASS
  1
VISUALSTYLE
  2
AcDbVisualStyle
  3
ObjectDBX Classes
 90
     4095
 91
        4
280
     0
281
     0
  0
CLASS
  1
MATERIAL
  2
AcDbMaterial
  3
ObjectDBX Classes
 90
     1153
 91
        4
280
     0
281
     0
  0
CLASS
  1
SUN
  2
AcDbSun
  3
SCENEOE
 90
     1024
 91
        4
280
     0
281
     0
  0
ENDSEC
  0
SECTION
  2
TABLES
  0
TABLE
  2
VPORT
  5
8
330
0
100
AcDbSymbolTable
 70
     1
  0
VPORT
  5
29
330
8
100
AcDbSymbolTableRecord
100
AcDbViewportTableRecord
  2
*Active
 70
     0
 10
0.0
 20
0.0
 11
1.0
 21
1.0
 12
0.0
 22
0.0
 13
0.0
 23
0.0
 14
0.5
 24
0.5
 15
0.5
 25
0.5
 16
0.0
 26
0.0
 36
1.0
 17
91.00082462281999
 27
-128.4993055234307
 37
0.0
 40
256.9986110468615
 41
0.7081814508812795
 42
50.0
 43
0.0
 44
0.0
 50
0.0
 51
0.0
 71
     0
 72
   100
 73
     1
 74
     3
 75
     0
 76
     0
 77
     0
 78
     0
281
     0
 65
     1
110
0.0
120
0.0
130
0.0
111
1.0
121
0.0
131
0.0
112
0.0
122
1.0
132
0.0
 79
     0
146
0.0
 60
     3
 61
     5
292
     1
282
     1
141
0.0
142
0.0
 63
   250
361
3F
  0
ENDTAB
  0
TABLE
  2
LTYPE
  5
5
330
0
100
AcDbSymbolTable
 70
     2
  0
LTYPE
  5
14
330
5
100
AcDbSymbolTableRecord
100
AcDbLinetypeTableRecord
  2
ByBlock
 70
     0
  3

 72
    65
 73
     0
 40
0.0
  0
LTYPE
  5
15
330
5
100
AcDbSymbolTableRecord
100
AcDbLinetypeTableRecord
  2
ByLayer
 70
     0
  3

 72
    65
 73
     0
 40
0.0
  0
LTYPE
  5
16
330
5
100
AcDbSymbolTableRecord
100
AcDbLinetypeTableRecord
  2
Continuous
 70
     0
  3
Solid line
 72
    65
 73
     0
 40
0.0
  0
LTYPE
  5
B8
330
5
100
AcDbSymbolTableRecord
100
AcDbLinetypeTableRecord
  2
AI-Linetype-1
 70
     0
  3
Adobe Illustrator Linetype No. 1
 72
    65
 73
     2
 40
1.411111110758333
 49
0.7055555553791667
 74
     0
 49
-0.7055555553791667
 74
     0
  0
ENDTAB
  0
TABLE
  2
LAYER
  5
2
330
0
100
AcDbSymbolTable
 70
     2
  0
LAYER
  5
10
330
2
100
AcDbSymbolTableRecord
100
AcDbLayerTableRecord
  2
0
 70
     0
 62
     7
  6
Continuous
370
    -3
390
F
347
3E
  0
LAYER
  5
40
330
2
100
AcDbSymbolTableRecord
100
AcDbLayerTableRecord
  2
_U+30EC_U+30A4_U+30E4_U+30FC 1
 70
     0
 62
     7
  6
Continuous
370
    -3
390
F
347
3E
  0
ENDTAB
  0
TABLE
  2
STYLE
  5
3
330
0
100
AcDbSymbolTable
 70
     1
  0
STYLE
  5
11
330
3
100
AcDbSymbolTableRecord
100
AcDbTextStyleTableRecord
  2
Standard
 70
     0
 40
0.0
 41
1.0
 50
0.0
 71
     0
 42
0.2
  3
txt
  4

  0
ENDTAB
  0
TABLE
  2
VIEW
  5
6
330
0
100
AcDbSymbolTable
 70
     0
  0
ENDTAB
  0
TABLE
  2
UCS
  5
7
330
0
100
AcDbSymbolTable
 70
     0
  0
ENDTAB
  0
TABLE
  2
APPID
  5
9
330
0
100
AcDbSymbolTable
 70
     1
  0
APPID
  5
12
330
9
100
AcDbSymbolTableRecord
100
AcDbRegAppTableRecord
  2
ACAD
 70
     0
  0
ENDTAB
  0
TABLE
  2
DIMSTYLE
  5
A
330
0
100
AcDbSymbolTable
 70
     1
100
AcDbDimStyleTable
  0
DIMSTYLE
105
27
330
A
100
AcDbSymbolTableRecord
100
AcDbDimStyleTableRecord
  2
Standard
 70
     0
178
     0
340
11
  0
ENDTAB
  0
TABLE
  2
BLOCK_RECORD
  5
1
330
0
100
AcDbSymbolTable
 70
     4
  0
BLOCK_RECORD
  5
1F
330
1
100
AcDbSymbolTableRecord
100
AcDbBlockTableRecord
  2
*Model_Space
340
22
 70
     0
280
     1
281
     0
  0
BLOCK_RECORD
  5
1B
330
1
100
AcDbSymbolTableRecord
100
AcDbBlockTableRecord
  2
*Paper_Space
340
1E
 70
     0
280
     1
281
     0
  0
BLOCK_RECORD
  5
23
330
1
100
AcDbSymbolTableRecord
100
AcDbBlockTableRecord
  2
*Paper_Space0
340
26
 70
     0
280
     1
281
     0
  0
BLOCK_RECORD
  5
6B
330
1
100
AcDbSymbolTableRecord
100
AcDbBlockTableRecord
  2
block 2
340
0
102
{BLKREFS
331
6C
102
}
 70
     0
280
     1
281
     0
  0
BLOCK_RECORD
  5
73
330
1
100
AcDbSymbolTableRecord
100
AcDbBlockTableRecord
  2
block 3
340
0
102
{BLKREFS
331
74
102
}
 70
     0
280
     1
281
     0
  0
BLOCK_RECORD
  5
7C
330
1
100
AcDbSymbolTableRecord
100
AcDbBlockTableRecord
  2
block 4
340
0
102
{BLKREFS
331
7D
102
}
 70
     0
280
     1
281
     0
  0
ENDTAB
  0
ENDSEC
  0
SECTION
  2
BLOCKS
  0
BLOCK
  5
20
330
1F
100
AcDbEntity
  8
0
100
AcDbBlockBegin
  2
*Model_Space
 70
     0
 10
0.0
 20
0.0
 30
0.0
  3
*Model_Space
  1

  0
ENDBLK
  5
21
330
1F
100
AcDbEntity
  8
0
100
AcDbBlockEnd
  0
BLOCK
  5
1C
330
1B
100
AcDbEntity
 67
     1
  8
0
100
AcDbBlockBegin
  2
*Paper_Space
 70
     0
 10
0.0
 20
0.0
 30
0.0
  3
*Paper_Space
  1

  0
ENDBLK
  5
1D
330
1B
100
AcDbEntity
 67
     1
  8
0
100
AcDbBlockEnd
  0
BLOCK
  5
24
330
23
100
AcDbEntity
  8
0
100
AcDbBlockBegin
  2
*Paper_Space0
 70
     0
 10
0.0
 20
0.0
 30
0.0
  3
*Paper_Space0
  1

  0
ENDBLK
  5
25
330
23
100
AcDbEntity
  8
0
100
AcDbBlockEnd
  0
BLOCK
  5
6D
330
6B
100
AcDbEntity
  8
0
100
AcDbBlockBegin
  2
block 2
 70
     0
 10
0.0
 20
0.0
 30
0.0
  3
block 2
  1

  0
SPLINE
  5
6F
330
6B
100
AcDbEntity
  8
_U+30EC_U+30A4_U+30E4_U+30FC 1
370
     0
100
AcDbSpline
210
0.0
220
0.0
230
1.0
 70
    11
 71
     3
 72
    44
 73
    40
 74
     0
 42
0.0000000001
 43
0.0000000001
 12
1.0
 22
0.0
 32
0.0
 13
1.0
 23
0.0
 33
0.0
 40
0.0
 40
0.0
 40
0.0
 40
0.0
 40
1.0
 40
1.0
 40
1.0
 40
2.0
 40
2.0
 40
2.0
 40
3.0
 40
3.0
 40
3.0
 40
4.0
 40
4.0
 40
4.0
 40
5.0
 40
5.0
 40
5.0
 40
6.0
 40
6.0
 40
6.0
 40
7.0
 40
7.0
 40
7.0
 40
8.0
 40
8.0
 40
8.0
 40
9.0
 40
9.0
 40
9.0
 40
10.0
 40
10.0
 40
10.0
 40
11.0
 40
11.0
 40
11.0
 40
12.0
 40
12.0
 40
12.0
 40
13.0
 40
13.0
 40
13.0
 40
13.0
 10
87.72332761478792
 20
-98.41759302010047
 30
0.0
 10
87.49043915998503
 20
-98.57623966719622
 30
0.0
 10
87.39104815523558
 20
-98.65030922012909
 30
0.0
 10
87.3390272134083
 20
-98.79414195663827
 30
0.0
 10
87.3390272134083
 20
-98.79414195663827
 30
0.0
 10
88.17101777309614
 20
-98.79414195663827
 30
0.0
 10
88.17101777309614
 20
-98.79414195663827
 30
0.0
 10
88.17101777309614
 20
-98.79414195663827
 30
0.0
 10
88.17101777309614
 20
-98.9992973927849
 30
0.0
 10
88.17101777309614
 20
-98.9992973927849
 30
0.0
 10
88.17101777309614
 20
-98.9992973927849
 30
0.0
 10
87.0722045680757
 20
-98.9992973927849
 30
0.0
 10
87.0722045680757
 20
-98.9992973927849
 30
0.0
 10
87.10613875860541
 20
-98.64169648141596
 30
0.0
 10
87.17624645173025
 20
-98.5634928139008
 30
0.0
 10
87.58776310744334
 20
-98.26514754487816
 30
0.0
 10
87.86130368897217
 20
-98.06636553537925
 30
0.0
 10
87.93141138209701
 20
-97.99866940909409
 30
0.0
 10
87.93141138209701
 20
-97.86121009923262
 30
0.0
 10
87.93141138209701
 20
-97.74269881454002
 30
0.0
 10
87.85458575277595
 20
-97.61161293132626
 30
0.0
 10
87.64426267340144
 20
-97.61161293132626
 30
0.0
 10
87.36607121296751
 20
-97.61161293132626
 30
0.0
 10
87.35711396470586
 20
-97.84208981928948
 30
0.0
 10
87.35263534057503
 20
-97.95853404669093
 30
0.0
 10
87.35263534057503
 20
-97.95853404669093
 30
0.0
 10
87.11285669480165
 20
-97.95853404669093
 30
0.0
 10
87.11285669480165
 20
-97.95853404669093
 30
0.0
 10
87.12198619783756
 20
-97.83158227805947
 30
0.0
 10
87.13335501293889
 20
-97.71944442001458
 30
0.0
 10
87.21913789052161
 20
-97.600933135322
 30
0.0
 10
87.33678790134289
 20
-97.44021943093509
 30
0.0
 10
87.53574216561607
 20
-97.40628524040538
 30
0.0
 10
87.66011011263359
 20
-97.40628524040538
 30
0.0
 10
87.95621606959081
 20
-97.40628524040538
 30
0.0
 10
88.17773570929238
 20
-97.59042559409198
 30
0.0
 10
88.17773570929238
 20
-97.86327715652376
 30
0.0
 10
88.17773570929238
 20
-98.09168698719583
 30
0.0
 10
88.05336776227486
 20
-98.19125024671955
 30
0.0
 10
87.72332761478792
 20
-98.41759302010047
 30
0.0
  0
HATCH
  5
70
330
6B
100
AcDbEntity
  8
_U+30EC_U+30A4_U+30E4_U+30FC 1
 62
     7
420
 16777215
100
AcDbHatch
 10
0.0
 20
0.0
 30
0.0
210
0.0
220
0.0
230
1.0
  2
SOLID
 70
     1
 71
     0
 91
        1
 92
        1
 93
        1
 72
     4
 94
        3
 73
     0
 74
     1
 95
       44
 96
       40
 40
0.0
 40
0.0
 40
0.0
 40
0.0
 40
1.0
 40
1.0
 40
1.0
 40
2.0
 40
2.0
 40
2.0
 40
3.0
 40
3.0
 40
3.0
 40
4.0
 40
4.0
 40
4.0
 40
5.0
 40
5.0
 40
5.0
 40
6.0
 40
6.0
 40
6.0
 40
7.0
 40
7.0
 40
7.0
 40
8.0
 40
8.0
 40
8.0
 40
9.0
 40
9.0
 40
9.0
 40
10.0
 40
10.0
 40
10.0
 40
11.0
 40
11.0
 40
11.0
 40
12.0
 40
12.0
 40
12.0
 40
13.0
 40
13.0
 40
13.0
 40
13.0
 10
87.72332761478792
 20
-98.41759302010047
 10
87.49043915998503
 20
-98.57623966719622
 10
87.39104815523558
 20
-98.65030922012909
 10
87.3390272134083
 20
-98.79414195663827
 10
87.3390272134083
 20
-98.79414195663827
 10
88.17101777309614
 20
-98.79414195663827
 10
88.17101777309614
 20
-98.79414195663827
 10
88.17101777309614
 20
-98.79414195663827
 10
88.17101777309614
 20
-98.9992973927849
 10
88.17101777309614
 20
-98.9992973927849
 10
88.17101777309614
 20
-98.9992973927849
 10
87.0722045680757
 20
-98.9992973927849
 10
87.0722045680757
 20
-98.9992973927849
 10
87.10613875860541
 20
-98.64169648141596
 10
87.17624645173025
 20
-98.5634928139008
 10
87.58776310744334
 20
-98.26514754487816
 10
87.86130368897217
 20
-98.06636553537925
 10
87.93141138209701
 20
-97.99866940909409
 10
87.93141138209701
 20
-97.86121009923262
 10
87.93141138209701
 20
-97.74269881454002
 10
87.85458575277595
 20
-97.61161293132626
 10
87.64426267340144
 20
-97.61161293132626
 10
87.36607121296751
 20
-97.61161293132626
 10
87.35711396470586
 20
-97.84208981928948
 10
87.35263534057503
 20
-97.95853404669093
 10
87.35263534057503
 20
-97.95853404669093
 10
87.11285669480165
 20
-97.95853404669093
 10
87.11285669480165
 20
-97.95853404669093
 10
87.12198619783756
 20
-97.83158227805947
 10
87.13335501293889
 20
-97.71944442001458
 10
87.21913789052161
 20
-97.600933135322
 10
87.33678790134289
 20
-97.44021943093509
 10
87.53574216561607
 20
-97.40628524040538
 10
87.66011011263359
 20
-97.40628524040538
 10
87.95621606959081
 20
-97.40628524040538
 10
88.17773570929238
 20
-97.59042559409198
 10
88.17773570929238
 20
-97.86327715652376
 10
88.17773570929238
 20
-98.09168698719583
 10
88.05336776227486
 20
-98.19125024671955
 10
87.72332761478792
 20
-98.41759302010047
 97
        0
 97
        0
 75
     2
 76
     1
 98
        0
  0
SPLINE
  5
71
330
6B
100
AcDbEntity
  8
_U+30EC_U+30A4_U+30E4_U+30FC 1
370
     0
100
AcDbSpline
210
0.0
220
0.0
230
1.0
 70
    11
 71
     3
 72
    53
 73
    49
 74
     0
 42
0.0000000001
 43
0.0000000001
 12
1.0
 22
0.0
 32
0.0
 13
1.0
 23
0.0
 33
0.0
 40
0.0
 40
0.0
 40
0.0
 40
0.0
 40
1.0
 40
1.0
 40
1.0
 40
2.0
 40
2.0
 40
2.0
 40
3.0
 40
3.0
 40
3.0
 40
4.0
 40
4.0
 40
4.0
 40
5.0
 40
5.0
 40
5.0
 40
6.0
 40
6.0
 40
6.0
 40
7.0
 40
7.0
 40
7.0
 40
8.0
 40
8.0
 40
8.0
 40
9.0
 40
9.0
 40
9.0
 40
10.0
 40
10.0
 40
10.0
 40
11.0
 40
11.0
 40
11.0
 40
12.0
 40
12.0
 40
12.0
 40
13.0
 40
13.0
 40
13.0
 40
14.0
 40
14.0
 40
14.0
 40
15.0
 40
15.0
 40
15.0
 40
16.0
 40
16.0
 40
16.0
 40
16.0
 10
88.86124265356594
 20
-99.05011255119234
 30
0.0
 10
88.77787134282289
 20
-99.05011255119234
 30
0.0
 10
88.66900632548901
 20
-99.03305932854035
 30
0.0
 10
88.56083032725216
 20
-98.96966957161176
 30
0.0
 10
88.37513968059719
 20
-98.85959877085803
 30
0.0
 10
88.35274655994307
 20
-98.72851288764427
 30
0.0
 10
88.33224824180583
 20
-98.62068139895595
 30
0.0
 10
88.33224824180583
 20
-98.62068139895595
 30
0.0
 10
88.56978757551381
 20
-98.62068139895595
 30
0.0
 10
88.56978757551381
 20
-98.62068139895595
 30
0.0
 10
88.62835419876305
 20
-98.81946340845487
 30
0.0
 10
88.7640909608819
 20
-98.84909122962802
 30
0.0
 10
88.86365422040562
 20
-98.84909122962802
 30
0.0
 10
89.01282685491694
 20
-98.84909122962802
 30
0.0
 10
89.17543536182073
 20
-98.74970022487855
 30
0.0
 10
89.17543536182073
 20
-98.51698402484992
 30
0.0
 10
89.17543536182073
 20
-98.26101343029586
 30
0.0
 10
88.98354354329231
 20
-98.19125024671955
 30
0.0
 10
88.85469697214397
 20
-98.19125024671955
 30
0.0
 10
88.82059052684
 20
-98.19125024671955
 30
0.0
 10
88.66900632548901
 20
-98.19125024671955
 30
0.0
 10
88.57426619964463
 20
-98.32026907264216
 30
0.0
 10
88.57426619964463
 20
-98.32026907264216
 30
0.0
 10
88.38650849569852
 20
-98.30114879269902
 30
0.0
 10
88.38650849569852
 20
-98.30114879269902
 30
0.0
 10
88.38650849569852
 20
-98.30114879269902
 30
0.0
 10
88.51535506684687
 20
-97.45503334152167
 30
0.0
 10
88.51535506684687
 20
-97.45503334152167
 30
0.0
 10
88.51535506684687
 20
-97.45503334152167
 30
0.0
 10
89.34734562653469
 20
-97.45503334152167
 30
0.0
 10
89.34734562653469
 20
-97.45503334152167
 30
0.0
 10
89.34734562653469
 20
-97.45503334152167
 30
0.0
 10
89.34734562653469
 20
-97.64968123643828
 30
0.0
 10
89.34734562653469
 20
-97.64968123643828
 30
0.0
 10
89.34734562653469
 20
-97.64968123643828
 30
0.0
 10
88.6896768984005
 20
-97.64968123643828
 30
0.0
 10
88.6896768984005
 20
-97.64968123643828
 30
0.0
 10
88.6896768984005
 20
-97.64968123643828
 30
0.0
 10
88.61939695050141
 20
-98.07273896202696
 30
0.0
 10
88.61939695050141
 20
-98.07273896202696
 30
0.0
 10
88.68485376472115
 20
-98.03880477149725
 30
0.0
 10
88.77304820914355
 20
-97.99866940909409
 30
0.0
 10
88.89982772300074
 20
-97.99866940909409
 30
0.0
 10
89.1709567376899
 20
-97.99866940909409
 30
0.0
 10
89.42417125585577
 20
-98.18487682007184
 30
0.0
 10
89.42417125585577
 20
-98.4978637449068
 30
0.0
 10
89.42417125585577
 20
-98.81532929387257
 30
0.0
 10
89.18473711963091
 20
-99.05011255119234
 30
0.0
 10
88.86124265356594
 20
-99.05011255119234
 30
0.0
  0
HATCH
  5
72
330
6B
100
AcDbEntity
  8
_U+30EC_U+30A4_U+30E4_U+30FC 1
 62
     7
420
 16777215
100
AcDbHatch
 10
0.0
 20
0.0
 30
0.0
210
0.0
220
0.0
230
1.0
  2
SOLID
 70
     1
 71
     0
 91
        1
 92
        1
 93
        1
 72
     4
 94
        3
 73
     0
 74
     1
 95
       53
 96
       49
 40
0.0
 40
0.0
 40
0.0
 40
0.0
 40
1.0
 40
1.0
 40
1.0
 40
2.0
 40
2.0
 40
2.0
 40
3.0
 40
3.0
 40
3.0
 40
4.0
 40
4.0
 40
4.0
 40
5.0
 40
5.0
 40
5.0
 40
6.0
 40
6.0
 40
6.0
 40
7.0
 40
7.0
 40
7.0
 40
8.0
 40
8.0
 40
8.0
 40
9.0
 40
9.0
 40
9.0
 40
10.0
 40
10.0
 40
10.0
 40
11.0
 40
11.0
 40
11.0
 40
12.0
 40
12.0
 40
12.0
 40
13.0
 40
13.0
 40
13.0
 40
14.0
 40
14.0
 40
14.0
 40
15.0
 40
15.0
 40
15.0
 40
16.0
 40
16.0
 40
16.0
 40
16.0
 10
88.86124265356594
 20
-99.05011255119234
 10
88.77787134282289
 20
-99.05011255119234
 10
88.66900632548901
 20
-99.03305932854035
 10
88.56083032725216
 20
-98.96966957161176
 10
88.37513968059719
 20
-98.85959877085803
 10
88.35274655994307
 20
-98.72851288764427
 10
88.33224824180583
 20
-98.62068139895595
 10
88.33224824180583
 20
-98.62068139895595
 10
88.56978757551381
 20
-98.62068139895595
 10
88.56978757551381
 20
-98.62068139895595
 10
88.62835419876305
 20
-98.81946340845487
 10
88.7640909608819
 20
-98.84909122962802
 10
88.86365422040562
 20
-98.84909122962802
 10
89.01282685491694
 20
-98.84909122962802
 10
89.17543536182073
 20
-98.74970022487855
 10
89.17543536182073
 20
-98.51698402484992
 10
89.17543536182073
 20
-98.26101343029586
 10
88.98354354329231
 20
-98.19125024671955
 10
88.85469697214397
 20
-98.19125024671955
 10
88.82059052684
 20
-98.19125024671955
 10
88.66900632548901
 20
-98.19125024671955
 10
88.57426619964463
 20
-98.32026907264216
 10
88.57426619964463
 20
-98.32026907264216
 10
88.38650849569852
 20
-98.30114879269902
 10
88.38650849569852
 20
-98.30114879269902
 10
88.38650849569852
 20
-98.30114879269902
 10
88.51535506684687
 20
-97.45503334152167
 10
88.51535506684687
 20
-97.45503334152167
 10
88.51535506684687
 20
-97.45503334152167
 10
89.34734562653469
 20
-97.45503334152167
 10
89.34734562653469
 20
-97.45503334152167
 10
89.34734562653469
 20
-97.45503334152167
 10
89.34734562653469
 20
-97.64968123643828
 10
89.34734562653469
 20
-97.64968123643828
 10
89.34734562653469
 20
-97.64968123643828
 10
88.6896768984005
 20
-97.64968123643828
 10
88.6896768984005
 20
-97.64968123643828
 10
88.6896768984005
 20
-97.64968123643828
 10
88.61939695050141
 20
-98.07273896202696
 10
88.61939695050141
 20
-98.07273896202696
 10
88.68485376472115
 20
-98.03880477149725
 10
88.77304820914355
 20
-97.99866940909409
 10
88.89982772300074
 20
-97.99866940909409
 10
89.1709567376899
 20
-97.99866940909409
 10
89.42417125585577
 20
-98.18487682007184
 10
89.42417125585577
 20
-98.4978637449068
 10
89.42417125585577
 20
-98.81532929387257
 10
89.18473711963091
 20
-99.05011255119234
 10
88.86124265356594
 20
-99.05011255119234
 97
        0
 97
        0
 75
     2
 76
     1
 98
        0
  0
ENDBLK
  5
6E
330
6B
100
AcDbEntity
  8
0
100
AcDbBlockEnd
  0
BLOCK
  5
75
330
73
100
AcDbEntity
  8
0
100
AcDbBlockBegin
  2
block 3
 70
     0
 10
0.0
 20
0.0
 30
0.0
  3
block 3
  1

  0
SPLINE
  5
77
330
73
100
AcDbEntity
  8
_U+30EC_U+30A4_U+30E4_U+30FC 1
370
     0
100
AcDbSpline
210
0.0
220
0.0
230
1.0
 70
    11
 71
     3
 72
    53
 73
    49
 74
     0
 42
0.0000000001
 43
0.0000000001
 12
1.0
 22
0.0
 32
0.0
 13
1.0
 23
0.0
 33
0.0
 40
0.0
 40
0.0
 40
0.0
 40
0.0
 40
1.0
 40
1.0
 40
1.0
 40
2.0
 40
2.0
 40
2.0
 40
3.0
 40
3.0
 40
3.0
 40
4.0
 40
4.0
 40
4.0
 40
5.0
 40
5.0
 40
5.0
 40
6.0
 40
6.0
 40
6.0
 40
7.0
 40
7.0
 40
7.0
 40
8.0
 40
8.0
 40
8.0
 40
9.0
 40
9.0
 40
9.0
 40
10.0
 40
10.0
 40
10.0
 40
11.0
 40
11.0
 40
11.0
 40
12.0
 40
12.0
 40
12.0
 40
13.0
 40
13.0
 40
13.0
 40
14.0
 40
14.0
 40
14.0
 40
15.0
 40
15.0
 40
15.0
 40
16.0
 40
16.0
 40
16.0
 40
16.0
 10
87.60361054667548
 20
-159.0500677770778
 30
0.0
 10
87.51989472638392
 20
-159.0500677770778
 30
0.0
 10
87.41137421859855
 20
-159.0331868092
 30
0.0
 10
87.30285371081318
 20
-158.9697970522714
 30
0.0
 10
87.11750757370673
 20
-158.859898506292
 30
0.0
 10
87.09494219827835
 20
-158.728640368304
 30
0.0
 10
87.07444388014112
 20
-158.6208088796157
 30
0.0
 10
87.07444388014112
 20
-158.6208088796157
 30
0.0
 10
87.31198321384909
 20
-158.6208088796157
 30
0.0
 10
87.31198321384909
 20
-158.6208088796157
 30
0.0
 10
87.37072209187261
 20
-158.8195908891146
 30
0.0
 10
87.50628659921718
 20
-158.8492187102877
 30
0.0
 10
87.6058498587409
 20
-158.8492187102877
 30
0.0
 10
87.75502249325223
 20
-158.8492187102877
 30
0.0
 10
87.91780325493028
 20
-158.749655450764
 30
0.0
 10
87.91780325493028
 20
-158.5171115055096
 30
0.0
 10
87.91780325493028
 20
-158.2611409109556
 30
0.0
 10
87.72556692685333
 20
-158.191205472605
 30
0.0
 10
87.59672035570499
 20
-158.191205472605
 30
0.0
 10
87.56278616517528
 20
-158.191205472605
 30
0.0
 10
87.41137421859855
 20
-158.191205472605
 30
0.0
 10
87.31646183797992
 20
-158.3203965533019
 30
0.0
 10
87.31646183797992
 20
-158.3203965533019
 30
0.0
 10
87.1287041340338
 20
-158.301448528133
 30
0.0
 10
87.1287041340338
 20
-158.301448528133
 30
0.0
 10
87.1287041340338
 20
-158.301448528133
 30
0.0
 10
87.25755070518214
 20
-157.4549885674071
 30
0.0
 10
87.25755070518214
 20
-157.4549885674071
 30
0.0
 10
87.25755070518214
 20
-157.4549885674071
 30
0.0
 10
88.08954126486998
 20
-157.4549885674071
 30
0.0
 10
88.08954126486998
 20
-157.4549885674071
 30
0.0
 10
88.08954126486998
 20
-157.4549885674071
 30
0.0
 10
88.08954126486998
 20
-157.6496364623237
 30
0.0
 10
88.08954126486998
 20
-157.6496364623237
 30
0.0
 10
88.08954126486998
 20
-157.6496364623237
 30
0.0
 10
87.43170028196153
 20
-157.6496364623237
 30
0.0
 10
87.43170028196153
 20
-157.6496364623237
 30
0.0
 10
87.43170028196153
 20
-157.6496364623237
 30
0.0
 10
87.36159258883669
 20
-158.0726941879124
 30
0.0
 10
87.36159258883669
 20
-158.0726941879124
 30
0.0
 10
87.4272216578307
 20
-158.0389322521569
 30
0.0
 10
87.5154161022531
 20
-157.9986246349795
 30
0.0
 10
87.64202336133603
 20
-157.9986246349795
 30
0.0
 10
87.91332463079945
 20
-157.9986246349795
 30
0.0
 10
88.16653914896531
 20
-158.1850043007315
 30
0.0
 10
88.16653914896531
 20
-158.4981634803407
 30
0.0
 10
88.16653914896531
 20
-158.8154567745323
 30
0.0
 10
87.92693275796618
 20
-159.0500677770778
 30
0.0
 10
87.60361054667548
 20
-159.0500677770778
 30
0.0
  0
HATCH
  5
78
330
73
100
AcDbEntity
  8
_U+30EC_U+30A4_U+30E4_U+30FC 1
 62
     7
420
 16777215
100
AcDbHatch
 10
0.0
 20
0.0
 30
0.0
210
0.0
220
0.0
230
1.0
  2
SOLID
 70
     1
 71
     0
 91
        1
 92
        1
 93
        1
 72
     4
 94
        3
 73
     0
 74
     1
 95
       53
 96
       49
 40
0.0
 40
0.0
 40
0.0
 40
0.0
 40
1.0
 40
1.0
 40
1.0
 40
2.0
 40
2.0
 40
2.0
 40
3.0
 40
3.0
 40
3.0
 40
4.0
 40
4.0
 40
4.0
 40
5.0
 40
5.0
 40
5.0
 40
6.0
 40
6.0
 40
6.0
 40
7.0
 40
7.0
 40
7.0
 40
8.0
 40
8.0
 40
8.0
 40
9.0
 40
9.0
 40
9.0
 40
10.0
 40
10.0
 40
10.0
 40
11.0
 40
11.0
 40
11.0
 40
12.0
 40
12.0
 40
12.0
 40
13.0
 40
13.0
 40
13.0
 40
14.0
 40
14.0
 40
14.0
 40
15.0
 40
15.0
 40
15.0
 40
16.0
 40
16.0
 40
16.0
 40
16.0
 10
87.60361054667548
 20
-159.0500677770778
 10
87.51989472638392
 20
-159.0500677770778
 10
87.41137421859855
 20
-159.0331868092
 10
87.30285371081318
 20
-158.9697970522714
 10
87.11750757370673
 20
-158.859898506292
 10
87.09494219827835
 20
-158.728640368304
 10
87.07444388014112
 20
-158.6208088796157
 10
87.07444388014112
 20
-158.6208088796157
 10
87.31198321384909
 20
-158.6208088796157
 10
87.31198321384909
 20
-158.6208088796157
 10
87.37072209187261
 20
-158.8195908891146
 10
87.50628659921718
 20
-158.8492187102877
 10
87.6058498587409
 20
-158.8492187102877
 10
87.75502249325223
 20
-158.8492187102877
 10
87.91780325493028
 20
-158.749655450764
 10
87.91780325493028
 20
-158.5171115055096
 10
87.91780325493028
 20
-158.2611409109556
 10
87.72556692685333
 20
-158.191205472605
 10
87.59672035570499
 20
-158.191205472605
 10
87.56278616517528
 20
-158.191205472605
 10
87.41137421859855
 20
-158.191205472605
 10
87.31646183797992
 20
-158.3203965533019
 10
87.31646183797992
 20
-158.3203965533019
 10
87.1287041340338
 20
-158.301448528133
 10
87.1287041340338
 20
-158.301448528133
 10
87.1287041340338
 20
-158.301448528133
 10
87.25755070518214
 20
-157.4549885674071
 10
87.25755070518214
 20
-157.4549885674071
 10
87.25755070518214
 20
-157.4549885674071
 10
88.08954126486998
 20
-157.4549885674071
 10
88.08954126486998
 20
-157.4549885674071
 10
88.08954126486998
 20
-157.4549885674071
 10
88.08954126486998
 20
-157.6496364623237
 10
88.08954126486998
 20
-157.6496364623237
 10
88.08954126486998
 20
-157.6496364623237
 10
87.43170028196153
 20
-157.6496364623237
 10
87.43170028196153
 20
-157.6496364623237
 10
87.43170028196153
 20
-157.6496364623237
 10
87.36159258883669
 20
-158.0726941879124
 10
87.36159258883669
 20
-158.0726941879124
 10
87.4272216578307
 20
-158.0389322521569
 10
87.5154161022531
 20
-157.9986246349795
 10
87.64202336133603
 20
-157.9986246349795
 10
87.91332463079945
 20
-157.9986246349795
 10
88.16653914896531
 20
-158.1850043007315
 10
88.16653914896531
 20
-158.4981634803407
 10
88.16653914896531
 20
-158.8154567745323
 10
87.92693275796618
 20
-159.0500677770778
 10
87.60361054667548
 20
-159.0500677770778
 97
        0
 97
        0
 75
     2
 76
     1
 98
        0
  0
SPLINE
  5
79
330
73
100
AcDbEntity
  8
_U+30EC_U+30A4_U+30E4_U+30FC 1
370
     0
100
AcDbSpline
210
0.0
220
0.0
230
1.0
 70
    11
 71
     3
 72
    29
 73
    25
 74
     0
 42
0.0000000001
 43
0.0000000001
 12
1.0
 22
0.0
 32
0.0
 13
1.0
 23
0.0
 33
0.0
 40
0.0
 40
0.0
 40
0.0
 40
0.0
 40
1.0
 40
1.0
 40
1.0
 40
2.0
 40
2.0
 40
2.0
 40
3.0
 40
3.0
 40
3.0
 40
4.0
 40
4.0
 40
4.0
 40
5.0
 40
5.0
 40
5.0
 40
6.0
 40
6.0
 40
6.0
 40
7.0
 40
7.0
 40
7.0
 40
8.0
 40
8.0
 40
8.0
 40
8.0
 10
89.30669349980874
 20
-158.8216579464057
 30
0.0
 10
89.19128280105288
 20
-159.0311197519089
 30
0.0
 10
89.00593666394644
 20
-159.0500677770778
 30
0.0
 10
88.88156871692891
 20
-159.0500677770778
 30
0.0
 10
88.71000296176348
 20
-159.0500677770778
 30
0.0
 10
88.55841876041248
 20
-159.0035589880269
 30
0.0
 10
88.45678844359762
 20
-158.8216579464057
 30
0.0
 10
88.34585636897256
 20
-158.6270100514891
 30
0.0
 10
88.32553030560959
 20
-158.3903319916524
 30
0.0
 10
88.32553030560959
 20
-158.2273789752001
 30
0.0
 10
88.32553030560959
 20
-158.0833739839167
 30
0.0
 10
88.34361705690715
 20
-157.8315375039449
 30
0.0
 10
88.45678844359762
 20
-157.632755494446
 30
0.0
 10
88.57185463280496
 20
-157.4298393703648
 30
0.0
 10
88.74376489751893
 20
-157.4064127210651
 30
0.0
 10
88.88156871692891
 20
-157.4064127210651
 30
0.0
 10
89.05141192435174
 20
-157.4064127210651
 30
0.0
 10
89.20506318299388
 20
-157.4508544528248
 30
0.0
 10
89.30669349980874
 20
-157.632755494446
 30
0.0
 10
89.41314695030297
 20
-157.8253363320715
 30
0.0
 10
89.43795163779677
 20
-158.0537461627435
 30
0.0
 10
89.43795163779677
 20
-158.2273789752001
 30
0.0
 10
89.43795163779677
 20
-158.398600220817
 30
0.0
 10
89.41521400759412
 20
-158.6290771087803
 30
0.0
 10
89.30669349980874
 20
-158.8216579464057
 30
0.0
  0
SPLINE
  5
7A
330
73
100
AcDbEntity
  8
_U+30EC_U+30A4_U+30E4_U+30FC 1
370
     0
100
AcDbSpline
210
0.0
220
0.0
230
1.0
 70
    11
 71
     3
 72
    17
 73
    13
 74
     0
 42
0.0000000001
 43
0.0000000001
 12
1.0
 22
0.0
 32
0.0
 13
1.0
 23
0.0
 33
0.0
 40
0.0
 40
0.0
 40
0.0
 40
0.0
 40
1.0
 40
1.0
 40
1.0
 40
2.0
 40
2.0
 40
2.0
 40
3.0
 40
3.0
 40
3.0
 40
4.0
 40
4.0
 40
4.0
 40
4.0
 10
88.88156871692891
 20
-157.5989935586905
 30
0.0
 10
88.61491832637059
 20
-157.5989935586905
 30
0.0
 10
88.56530895138299
 20
-157.8825249171266
 30
0.0
 10
88.56530895138299
 20
-158.2273789752001
 30
0.0
 10
88.56530895138299
 20
-158.5467393266828
 30
0.0
 10
88.60354951126925
 20
-158.8554198821612
 30
0.0
 10
88.88156871692891
 20
-158.8554198821612
 30
0.0
 10
89.14615205019611
 20
-158.8554198821612
 30
0.0
 10
89.19817299202337
 20
-158.5743000905648
 30
0.0
 10
89.19817299202337
 20
-158.2273789752001
 30
0.0
 10
89.19817299202337
 20
-157.9076741141689
 30
0.0
 10
89.15752086529743
 20
-157.5989935586905
 30
0.0
 10
88.88156871692891
 20
-157.5989935586905
 30
0.0
  0
HATCH
  5
7B
330
73
100
AcDbEntity
  8
_U+30EC_U+30A4_U+30E4_U+30FC 1
 62
     7
420
 16777215
100
AcDbHatch
 10
0.0
 20
0.0
 30
0.0
210
0.0
220
0.0
230
1.0
  2
SOLID
 70
     1
 71
     0
 91
        2
 92
        1
 93
        1
 72
     4
 94
        3
 73
     0
 74
     1
 95
       29
 96
       25
 40
0.0
 40
0.0
 40
0.0
 40
0.0
 40
1.0
 40
1.0
 40
1.0
 40
2.0
 40
2.0
 40
2.0
 40
3.0
 40
3.0
 40
3.0
 40
4.0
 40
4.0
 40
4.0
 40
5.0
 40
5.0
 40
5.0
 40
6.0
 40
6.0
 40
6.0
 40
7.0
 40
7.0
 40
7.0
 40
8.0
 40
8.0
 40
8.0
 40
8.0
 10
89.30669349980874
 20
-158.8216579464057
 10
89.19128280105288
 20
-159.0311197519089
 10
89.00593666394644
 20
-159.0500677770778
 10
88.88156871692891
 20
-159.0500677770778
 10
88.71000296176348
 20
-159.0500677770778
 10
88.55841876041248
 20
-159.0035589880269
 10
88.45678844359762
 20
-158.8216579464057
 10
88.34585636897256
 20
-158.6270100514891
 10
88.32553030560959
 20
-158.3903319916524
 10
88.32553030560959
 20
-158.2273789752001
 10
88.32553030560959
 20
-158.0833739839167
 10
88.34361705690715
 20
-157.8315375039449
 10
88.45678844359762
 20
-157.632755494446
 10
88.57185463280496
 20
-157.4298393703648
 10
88.74376489751893
 20
-157.4064127210651
 10
88.88156871692891
 20
-157.4064127210651
 10
89.05141192435174
 20
-157.4064127210651
 10
89.20506318299388
 20
-157.4508544528248
 10
89.30669349980874
 20
-157.632755494446
 10
89.41314695030297
 20
-157.8253363320715
 10
89.43795163779677
 20
-158.0537461627435
 10
89.43795163779677
 20
-158.2273789752001
 10
89.43795163779677
 20
-158.398600220817
 10
89.41521400759412
 20
-158.6290771087803
 10
89.30669349980874
 20
-158.8216579464057
 97
        0
 97
        0
 92
        1
 93
        1
 72
     4
 94
        3
 73
     0
 74
     1
 95
       17
 96
       13
 40
0.0
 40
0.0
 40
0.0
 40
0.0
 40
1.0
 40
1.0
 40
1.0
 40
2.0
 40
2.0
 40
2.0
 40
3.0
 40
3.0
 40
3.0
 40
4.0
 40
4.0
 40
4.0
 40
4.0
 10
88.88156871692891
 20
-157.5989935586905
 10
88.61491832637059
 20
-157.5989935586905
 10
88.56530895138299
 20
-157.8825249171266
 10
88.56530895138299
 20
-158.2273789752001
 10
88.56530895138299
 20
-158.5467393266828
 10
88.60354951126925
 20
-158.8554198821612
 10
88.88156871692891
 20
-158.8554198821612
 10
89.14615205019611
 20
-158.8554198821612
 10
89.19817299202337
 20
-158.5743000905648
 10
89.19817299202337
 20
-158.2273789752001
 10
89.19817299202337
 20
-157.9076741141689
 10
89.15752086529743
 20
-157.5989935586905
 10
88.88156871692891
 20
-157.5989935586905
 97
        0
 97
        0
 75
     2
 76
     1
 98
        0
  0
ENDBLK
  5
76
330
73
100
AcDbEntity
  8
0
100
AcDbBlockEnd
  0
BLOCK
  5
7E
330
7C
100
AcDbEntity
  8
0
100
AcDbBlockBegin
  2
block 4
 70
     0
 10
0.0
 20
0.0
 30
0.0
  3
block 4
  1

  0
SPLINE
  5
80
330
7C
100
AcDbEntity
  8
_U+30EC_U+30A4_U+30E4_U+30FC 1
370
     0
100
AcDbSpline
210
0.0
220
0.0
230
1.0
 70
    11
 71
     3
 72
    53
 73
    49
 74
     0
 42
0.0000000001
 43
0.0000000001
 12
1.0
 22
0.0
 32
0.0
 13
1.0
 23
0.0
 33
0.0
 40
0.0
 40
0.0
 40
0.0
 40
0.0
 40
1.0
 40
1.0
 40
1.0
 40
2.0
 40
2.0
 40
2.0
 40
3.0
 40
3.0
 40
3.0
 40
4.0
 40
4.0
 40
4.0
 40
5.0
 40
5.0
 40
5.0
 40
6.0
 40
6.0
 40
6.0
 40
7.0
 40
7.0
 40
7.0
 40
8.0
 40
8.0
 40
8.0
 40
9.0
 40
9.0
 40
9.0
 40
10.0
 40
10.0
 40
10.0
 40
11.0
 40
11.0
 40
11.0
 40
12.0
 40
12.0
 40
12.0
 40
13.0
 40
13.0
 40
13.0
 40
14.0
 40
14.0
 40
14.0
 40
15.0
 40
15.0
 40
15.0
 40
16.0
 40
16.0
 40
16.0
 40
16.0
 10
115.9519232566023
 20
-131.9998670459931
 30
0.0
 10
115.9519232566023
 20
-132.0835828662847
 30
0.0
 10
115.9350422887246
 20
-132.1917588645215
 30
0.0
 10
115.871652531796
 20
-132.3006238818554
 30
0.0
 10
115.7617539858165
 20
-132.4859700189618
 30
0.0
 10
115.6304958478285
 20
-132.508363139616
 30
0.0
 10
115.5226643591402
 20
-132.5286892029789
 30
0.0
 10
115.5226643591402
 20
-132.5286892029789
 30
0.0
 10
115.5226643591402
 20
-132.2913221240452
 30
0.0
 10
115.5226643591402
 20
-132.2913221240452
 30
0.0
 10
115.7214463686391
 20
-132.232755500796
 30
0.0
 10
115.7510741898122
 20
-132.0970187386771
 30
0.0
 10
115.7510741898122
 20
-131.9974554791534
 30
0.0
 10
115.7510741898122
 20
-131.8482828446421
 30
0.0
 10
115.6515109302885
 20
-131.6853298281898
 30
0.0
 10
115.4189669850341
 20
-131.6853298281898
 30
0.0
 10
115.1629963904801
 20
-131.6853298281898
 30
0.0
 10
115.0930609521295
 20
-131.8775661562667
 30
0.0
 10
115.0930609521295
 20
-132.0064127274151
 30
0.0
 10
115.0930609521295
 20
-132.040519172719
 30
0.0
 10
115.0930609521295
 20
-132.1917588645215
 30
0.0
 10
115.2222520328264
 20
-132.2868434999144
 30
0.0
 10
115.2222520328264
 20
-132.2868434999144
 30
0.0
 10
115.2033040076575
 20
-132.4746012038605
 30
0.0
 10
115.2033040076575
 20
-132.4746012038605
 30
0.0
 10
115.2033040076575
 20
-132.4746012038605
 30
0.0
 10
114.3568440469316
 20
-132.3457546327122
 30
0.0
 10
114.3568440469316
 20
-132.3457546327122
 30
0.0
 10
114.3568440469316
 20
-132.3457546327122
 30
0.0
 10
114.3568440469316
 20
-131.5137640730243
 30
0.0
 10
114.3568440469316
 20
-131.5137640730243
 30
0.0
 10
114.3568440469316
 20
-131.5137640730243
 30
0.0
 10
114.5514919418482
 20
-131.5137640730243
 30
0.0
 10
114.5514919418482
 20
-131.5137640730243
 30
0.0
 10
114.5514919418482
 20
-131.5137640730243
 30
0.0
 10
114.5514919418482
 20
-132.1714328011585
 30
0.0
 10
114.5514919418482
 20
-132.1714328011585
 30
0.0
 10
114.5514919418482
 20
-132.1714328011585
 30
0.0
 10
114.9745496674369
 20
-132.2417127490576
 30
0.0
 10
114.9745496674369
 20
-132.2417127490576
 30
0.0
 10
114.9407877316815
 20
-132.1762559348379
 30
0.0
 10
114.900480114504
 20
-132.0880614904155
 30
0.0
 10
114.900480114504
 20
-131.9612819765583
 30
0.0
 10
114.900480114504
 20
-131.6901529618691
 30
0.0
 10
115.0868597802561
 20
-131.4369384437033
 30
0.0
 10
115.4000189598653
 20
-131.4369384437033
 30
0.0
 10
115.7173122540568
 20
-131.4369384437033
 30
0.0
 10
115.9519232566023
 20
-131.6763725799281
 30
0.0
 10
115.9519232566023
 20
-131.9998670459931
 30
0.0
  0
HATCH
  5
81
330
7C
100
AcDbEntity
  8
_U+30EC_U+30A4_U+30E4_U+30FC 1
 62
     7
420
 16777215
100
AcDbHatch
 10
0.0
 20
0.0
 30
0.0
210
0.0
220
0.0
230
1.0
  2
SOLID
 70
     1
 71
     0
 91
        1
 92
        1
 93
        1
 72
     4
 94
        3
 73
     0
 74
     1
 95
       53
 96
       49
 40
0.0
 40
0.0
 40
0.0
 40
0.0
 40
1.0
 40
1.0
 40
1.0
 40
2.0
 40
2.0
 40
2.0
 40
3.0
 40
3.0
 40
3.0
 40
4.0
 40
4.0
 40
4.0
 40
5.0
 40
5.0
 40
5.0
 40
6.0
 40
6.0
 40
6.0
 40
7.0
 40
7.0
 40
7.0
 40
8.0
 40
8.0
 40
8.0
 40
9.0
 40
9.0
 40
9.0
 40
10.0
 40
10.0
 40
10.0
 40
11.0
 40
11.0
 40
11.0
 40
12.0
 40
12.0
 40
12.0
 40
13.0
 40
13.0
 40
13.0
 40
14.0
 40
14.0
 40
14.0
 40
15.0
 40
15.0
 40
15.0
 40
16.0
 40
16.0
 40
16.0
 40
16.0
 10
115.9519232566023
 20
-131.9998670459931
 10
115.9519232566023
 20
-132.0835828662847
 10
115.9350422887246
 20
-132.1917588645215
 10
115.871652531796
 20
-132.3006238818554
 10
115.7617539858165
 20
-132.4859700189618
 10
115.6304958478285
 20
-132.508363139616
 10
115.5226643591402
 20
-132.5286892029789
 10
115.5226643591402
 20
-132.5286892029789
 10
115.5226643591402
 20
-132.2913221240452
 10
115.5226643591402
 20
-132.2913221240452
 10
115.7214463686391
 20
-132.232755500796
 10
115.7510741898122
 20
-132.0970187386771
 10
115.7510741898122
 20
-131.9974554791534
 10
115.7510741898122
 20
-131.8482828446421
 10
115.6515109302885
 20
-131.6853298281898
 10
115.4189669850341
 20
-131.6853298281898
 10
115.1629963904801
 20
-131.6853298281898
 10
115.0930609521295
 20
-131.8775661562667
 10
115.0930609521295
 20
-132.0064127274151
 10
115.0930609521295
 20
-132.040519172719
 10
115.0930609521295
 20
-132.1917588645215
 10
115.2222520328264
 20
-132.2868434999144
 10
115.2222520328264
 20
-132.2868434999144
 10
115.2033040076575
 20
-132.4746012038605
 10
115.2033040076575
 20
-132.4746012038605
 10
115.2033040076575
 20
-132.4746012038605
 10
114.3568440469316
 20
-132.3457546327122
 10
114.3568440469316
 20
-132.3457546327122
 10
114.3568440469316
 20
-132.3457546327122
 10
114.3568440469316
 20
-131.5137640730243
 10
114.3568440469316
 20
-131.5137640730243
 10
114.3568440469316
 20
-131.5137640730243
 10
114.5514919418482
 20
-131.5137640730243
 10
114.5514919418482
 20
-131.5137640730243
 10
114.5514919418482
 20
-131.5137640730243
 10
114.5514919418482
 20
-132.1714328011585
 10
114.5514919418482
 20
-132.1714328011585
 10
114.5514919418482
 20
-132.1714328011585
 10
114.9745496674369
 20
-132.2417127490576
 10
114.9745496674369
 20
-132.2417127490576
 10
114.9407877316815
 20
-132.1762559348379
 10
114.900480114504
 20
-132.0880614904155
 10
114.900480114504
 20
-131.9612819765583
 10
114.900480114504
 20
-131.6901529618691
 10
115.0868597802561
 20
-131.4369384437033
 10
115.4000189598653
 20
-131.4369384437033
 10
115.7173122540568
 20
-131.4369384437033
 10
115.9519232566023
 20
-131.6763725799281
 10
115.9519232566023
 20
-131.9998670459931
 97
        0
 97
        0
 75
     2
 76
     1
 98
        0
  0
SPLINE
  5
82
330
7C
100
AcDbEntity
  8
_U+30EC_U+30A4_U+30E4_U+30FC 1
370
     0
100
AcDbSpline
210
0.0
220
0.0
230
1.0
 70
    11
 71
     3
 72
    29
 73
    25
 74
     0
 42
0.0000000001
 43
0.0000000001
 12
1.0
 22
0.0
 32
0.0
 13
1.0
 23
0.0
 33
0.0
 40
0.0
 40
0.0
 40
0.0
 40
0.0
 40
1.0
 40
1.0
 40
1.0
 40
2.0
 40
2.0
 40
2.0
 40
3.0
 40
3.0
 40
3.0
 40
4.0
 40
4.0
 40
4.0
 40
5.0
 40
5.0
 40
5.0
 40
6.0
 40
6.0
 40
6.0
 40
7.0
 40
7.0
 40
7.0
 40
8.0
 40
8.0
 40
8.0
 40
8.0
 10
115.7235134259302
 20
-130.2966118380856
 30
0.0
 10
115.9329752314334
 20
-130.4120225368414
 30
0.0
 10
115.9519232566023
 20
-130.5973686739479
 30
0.0
 10
115.9519232566023
 20
-130.7217366209654
 30
0.0
 10
115.9519232566023
 20
-130.8933023761308
 30
0.0
 10
115.9054144675514
 20
-131.0448865774818
 30
0.0
 10
115.7235134259302
 20
-131.1465168942967
 30
0.0
 10
115.5288655310136
 20
-131.2574489689218
 30
0.0
 10
115.292187471177
 20
-131.2777750322847
 30
0.0
 10
115.1292344547246
 20
-131.2777750322847
 30
0.0
 10
114.9852294634412
 20
-131.2777750322847
 30
0.0
 10
114.7333929834694
 20
-131.2595160262129
 30
0.0
 10
114.5346109739705
 20
-131.1465168942967
 30
0.0
 10
114.3316948498893
 20
-131.0314507050894
 30
0.0
 10
114.3082682005896
 20
-130.8595404403754
 30
0.0
 10
114.3082682005896
 20
-130.7217366209654
 30
0.0
 10
114.3082682005896
 20
-130.5518934135426
 30
0.0
 10
114.3527099323493
 20
-130.3982421549005
 30
0.0
 10
114.5346109739705
 20
-130.2966118380856
 30
0.0
 10
114.727191811596
 20
-130.1901583875914
 30
0.0
 10
114.955601642268
 20
-130.1653537000976
 30
0.0
 10
115.1292344547246
 20
-130.1653537000976
 30
0.0
 10
115.3004557003416
 20
-130.1653537000976
 30
0.0
 10
115.5309325883048
 20
-130.1880913303002
 30
0.0
 10
115.7235134259302
 20
-130.2966118380856
 30
0.0
  0
SPLINE
  5
83
330
7C
100
AcDbEntity
  8
_U+30EC_U+30A4_U+30E4_U+30FC 1
370
     0
100
AcDbSpline
210
0.0
220
0.0
230
1.0
 70
    11
 71
     3
 72
    17
 73
    13
 74
     0
 42
0.0000000001
 43
0.0000000001
 12
1.0
 22
0.0
 32
0.0
 13
1.0
 23
0.0
 33
0.0
 40
0.0
 40
0.0
 40
0.0
 40
0.0
 40
1.0
 40
1.0
 40
1.0
 40
2.0
 40
2.0
 40
2.0
 40
3.0
 40
3.0
 40
3.0
 40
4.0
 40
4.0
 40
4.0
 40
4.0
 10
114.5008490382151
 20
-130.7217366209654
 30
0.0
 10
114.5008490382151
 20
-130.9883870115237
 30
0.0
 10
114.7843803966511
 20
-131.0379963865113
 30
0.0
 10
115.1292344547246
 20
-131.0379963865113
 30
0.0
 10
115.4485948062073
 20
-131.0379963865113
 30
0.0
 10
115.7572753616857
 20
-130.9997558266251
 30
0.0
 10
115.7572753616857
 20
-130.7217366209654
 30
0.0
 10
115.7572753616857
 20
-130.4571532876982
 30
0.0
 10
115.4761555700893
 20
-130.405132345871
 30
0.0
 10
115.1292344547246
 20
-130.405132345871
 30
0.0
 10
114.8095295936935
 20
-130.405132345871
 30
0.0
 10
114.5008490382151
 20
-130.4457844725969
 30
0.0
 10
114.5008490382151
 20
-130.7217366209654
 30
0.0
  0
HATCH
  5
84
330
7C
100
AcDbEntity
  8
_U+30EC_U+30A4_U+30E4_U+30FC 1
 62
     7
420
 16777215
100
AcDbHatch
 10
0.0
 20
0.0
 30
0.0
210
0.0
220
0.0
230
1.0
  2
SOLID
 70
     1
 71
     0
 91
        2
 92
        1
 93
        1
 72
     4
 94
        3
 73
     0
 74
     1
 95
       29
 96
       25
 40
0.0
 40
0.0
 40
0.0
 40
0.0
 40
1.0
 40
1.0
 40
1.0
 40
2.0
 40
2.0
 40
2.0
 40
3.0
 40
3.0
 40
3.0
 40
4.0
 40
4.0
 40
4.0
 40
5.0
 40
5.0
 40
5.0
 40
6.0
 40
6.0
 40
6.0
 40
7.0
 40
7.0
 40
7.0
 40
8.0
 40
8.0
 40
8.0
 40
8.0
 10
115.7235134259302
 20
-130.2966118380856
 10
115.9329752314334
 20
-130.4120225368414
 10
115.9519232566023
 20
-130.5973686739479
 10
115.9519232566023
 20
-130.7217366209654
 10
115.9519232566023
 20
-130.8933023761308
 10
115.9054144675514
 20
-131.0448865774818
 10
115.7235134259302
 20
-131.1465168942967
 10
115.5288655310136
 20
-131.2574489689218
 10
115.292187471177
 20
-131.2777750322847
 10
115.1292344547246
 20
-131.2777750322847
 10
114.9852294634412
 20
-131.2777750322847
 10
114.7333929834694
 20
-131.2595160262129
 10
114.5346109739705
 20
-131.1465168942967
 10
114.3316948498893
 20
-131.0314507050894
 10
114.3082682005896
 20
-130.8595404403754
 10
114.3082682005896
 20
-130.7217366209654
 10
114.3082682005896
 20
-130.5518934135426
 10
114.3527099323493
 20
-130.3982421549005
 10
114.5346109739705
 20
-130.2966118380856
 10
114.727191811596
 20
-130.1901583875914
 10
114.955601642268
 20
-130.1653537000976
 10
115.1292344547246
 20
-130.1653537000976
 10
115.3004557003416
 20
-130.1653537000976
 10
115.5309325883048
 20
-130.1880913303002
 10
115.7235134259302
 20
-130.2966118380856
 97
        0
 97
        0
 92
        1
 93
        1
 72
     4
 94
        3
 73
     0
 74
     1
 95
       17
 96
       13
 40
0.0
 40
0.0
 40
0.0
 40
0.0
 40
1.0
 40
1.0
 40
1.0
 40
2.0
 40
2.0
 40
2.0
 40
3.0
 40
3.0
 40
3.0
 40
4.0
 40
4.0
 40
4.0
 40
4.0
 10
114.5008490382151
 20
-130.7217366209654
 10
114.5008490382151
 20
-130.9883870115237
 10
114.7843803966511
 20
-131.0379963865113
 10
115.1292344547246
 20
-131.0379963865113
 10
115.4485948062073
 20
-131.0379963865113
 10
115.7572753616857
 20
-130.9997558266251
 10
115.7572753616857
 20
-130.7217366209654
 10
115.7572753616857
 20
-130.4571532876982
 10
115.4761555700893
 20
-130.405132345871
 10
115.1292344547246
 20
-130.405132345871
 10
114.8095295936935
 20
-130.405132345871
 10
114.5008490382151
 20
-130.4457844725969
 10
114.5008490382151
 20
-130.7217366209654
 97
        0
 97
        0
 75
     2
 76
     1
 98
        0
  0
ENDBLK
  5
7F
330
7C
100
AcDbEntity
  8
0
100
AcDbBlockEnd
  0
ENDSEC
  0
SECTION
  2
ENTITIES
  0
POLYLINE
  5
41
330
1F
100
AcDbEntity
  8
_U+30EC_U+30A4_U+30E4_U+30FC 1
 62
     7
420
 16777215
370
    25
100
AcDb2dPolyline
 66
     1
 10
0.0
 20
0.0
 30
0.0
  0
VERTEX
  5
42
330
41
100
AcDbEntity
  8
_U+30EC_U+30A4_U+30E4_U+30FC 1
 62
     7
420
 16777215
370
    25
100
AcDbVertex
100
AcDb2dVertex
 10
76.7531183196426
 20
-106.3504349734124
 30
0.0
  0
VERTEX
  5
43
330
41
100
AcDbEntity
  8
_U+30EC_U+30A4_U+30E4_U+30FC 1
 62
     7
420
 16777215
370
    25
100
AcDbVertex
100
AcDb2dVertex
 10
79.753105187551
 20
-106.3504349734124
 30
0.0
  0
SEQEND
  5
44
330
41
100
AcDbEntity
  8
_U+30EC_U+30A4_U+30E4_U+30FC 1
 62
     7
420
 16777215
370
    25
  0
POLYLINE
  5
45
330
1F
100
AcDbEntity
  8
_U+30EC_U+30A4_U+30E4_U+30FC 1
 62
     7
420
 16777215
370
    25
100
AcDb2dPolyline
 66
     1
 10
0.0
 20
0.0
 30
0.0
  0
VERTEX
  5
46
330
45
100
AcDbEntity
  8
_U+30EC_U+30A4_U+30E4_U+30FC 1
 62
     7
420
 16777215
370
    25
100
AcDbVertex
100
AcDb2dVertex
 10
63.25280699739756
 20
-156.3504760720238
 30
0.0
  0
VERTEX
  5
47
330
45
100
AcDbEntity
  8
_U+30EC_U+30A4_U+30E4_U+30FC 1
 62
     7
420
 16777215
370
    25
100
AcDbVertex
100
AcDb2dVertex
 10
86.85311056197033
 20
-156.3504760720238
 30
0.0
  0
SEQEND
  5
48
330
45
100
AcDbEntity
  8
_U+30EC_U+30A4_U+30E4_U+30FC 1
 62
     7
420
 16777215
370
    25
  0
POLYLINE
  5
49
330
1F
100
AcDbEntity
  8
_U+30EC_U+30A4_U+30E4_U+30FC 1
 62
     7
420
 16777215
370
    25
100
AcDb2dPolyline
 66
     1
 10
0.0
 20
0.0
 30
0.0
  0
VERTEX
  5
4A
330
49
100
AcDbEntity
  8
_U+30EC_U+30A4_U+30E4_U+30FC 1
 62
     7
420
 16777215
370
    25
100
AcDbVertex
100
AcDb2dVertex
 10
76.7531183196426
 20
-105.3506627514402
 30
0.0
  0
VERTEX
  5
4B
330
49
100
AcDbEntity
  8
_U+30EC_U+30A4_U+30E4_U+30FC 1
 62
     7
420
 16777215
370
    25
100
AcDbVertex
100
AcDb2dVertex
 10
86.85311056197033
 20
-105.3506627514402
 30
0.0
  0
SEQEND
  5
4C
330
49
100
AcDbEntity
  8
_U+30EC_U+30A4_U+30E4_U+30FC 1
 62
     7
420
 16777215
370
    25
  0
POLYLINE
  5
4D
330
1F
100
AcDbEntity
  8
_U+30EC_U+30A4_U+30E4_U+30FC 1
 62
     7
420
 16777215
370
    25
100
AcDb2dPolyline
 66
     1
 10
0.0
 20
0.0
 30
0.0
  0
VERTEX
  5
4E
330
4D
100
AcDbEntity
  8
_U+30EC_U+30A4_U+30E4_U+30FC 1
 62
     7
420
 16777215
370
    25
100
AcDbVertex
100
AcDb2dVertex
 10
76.7531183196426
 20
-104.3509258072455
 30
0.0
  0
VERTEX
  5
4F
330
4D
100
AcDbEntity
  8
_U+30EC_U+30A4_U+30E4_U+30FC 1
 62
     7
420
 16777215
370
    25
100
AcDbVertex
100
AcDb2dVertex
 10
99.75274717731763
 20
-104.3509258072455
 30
0.0
  0
SEQEND
  5
50
330
4D
100
AcDbEntity
  8
_U+30EC_U+30A4_U+30E4_U+30FC 1
 62
     7
420
 16777215
370
    25
  0
POLYLINE
  5
51
330
1F
100
AcDbEntity
  8
_U+30EC_U+30A4_U+30E4_U+30FC 1
 62
     7
420
 16777215
370
    25
100
AcDb2dPolyline
 66
     1
 10
0.0
 20
0.0
 30
0.0
  0
VERTEX
  5
52
330
51
100
AcDbEntity
  8
_U+30EC_U+30A4_U+30E4_U+30FC 1
 62
     7
420
 16777215
370
    25
100
AcDbVertex
100
AcDb2dVertex
 10
87.85320025867813
 20
-106.3504349734124
 30
0.0
  0
VERTEX
  5
53
330
51
100
AcDbEntity
  8
_U+30EC_U+30A4_U+30E4_U+30FC 1
 62
     7
420
 16777215
370
    25
100
AcDbVertex
100
AcDb2dVertex
 10
87.85320025867813
 20
-155.3507391278287
 30
0.0
  0
SEQEND
  5
54
330
51
100
AcDbEntity
  8
_U+30EC_U+30A4_U+30E4_U+30FC 1
 62
     7
420
 16777215
370
    25
  0
POLYLINE
  5
55
330
1F
100
AcDbEntity
  8
_U+30EC_U+30A4_U+30E4_U+30FC 1
 62
     7
420
 16777215
370
    25
100
AcDb2dPolyline
 66
     1
 10
0.0
 20
0.0
 30
0.0
  0
VERTEX
  5
56
330
55
100
AcDbEntity
  8
_U+30EC_U+30A4_U+30E4_U+30FC 1
 62
     7
420
 16777215
370
    25
100
AcDbVertex
100
AcDb2dVertex
 10
88.65315912715837
 20
-106.3504349734124
 30
0.0
  0
VERTEX
  5
57
330
55
100
AcDbEntity
  8
_U+30EC_U+30A4_U+30E4_U+30FC 1
 62
     7
420
 16777215
370
    25
100
AcDbVertex
100
AcDb2dVertex
 10
88.65315912715837
 20
-155.3507391278287
 30
0.0
  0
SEQEND
  5
58
330
55
100
AcDbEntity
  8
_U+30EC_U+30A4_U+30E4_U+30FC 1
 62
     7
420
 16777215
370
    25
  0
POLYLINE
  5
59
330
1F
100
AcDbEntity
  8
_U+30EC_U+30A4_U+30E4_U+30FC 1
 62
     7
420
 16777215
370
    25
100
AcDb2dPolyline
 66
     1
 10
0.0
 20
0.0
 30
0.0
  0
VERTEX
  5
5A
330
59
100
AcDbEntity
  8
_U+30EC_U+30A4_U+30E4_U+30FC 1
 62
     7
420
 16777215
370
    25
100
AcDbVertex
100
AcDb2dVertex
 10
89.65293132387428
 20
-156.3504760720238
 30
0.0
  0
VERTEX
  5
5B
330
59
100
AcDbEntity
  8
_U+30EC_U+30A4_U+30E4_U+30FC 1
 62
     7
420
 16777215
370
    25
100
AcDbVertex
100
AcDb2dVertex
 10
113.2530232217858
 20
-156.3504760720238
 30
0.0
  0
SEQEND
  5
5C
330
59
100
AcDbEntity
  8
_U+30EC_U+30A4_U+30E4_U+30FC 1
 62
     7
420
 16777215
370
    25
  0
POLYLINE
  5
5D
330
1F
100
AcDbEntity
  8
_U+30EC_U+30A4_U+30E4_U+30FC 1
 62
     7
420
 16777215
370
    25
100
AcDb2dPolyline
 66
     1
 10
0.0
 20
0.0
 30
0.0
  0
VERTEX
  5
5E
330
5D
100
AcDbEntity
  8
_U+30EC_U+30A4_U+30E4_U+30FC 1
 62
     7
420
 16777215
370
    25
100
AcDbVertex
100
AcDb2dVertex
 10
96.75276030940923
 20
-106.3504349734124
 30
0.0
  0
VERTEX
  5
5F
330
5D
100
AcDbEntity
  8
_U+30EC_U+30A4_U+30E4_U+30FC 1
 62
     7
420
 16777215
370
    25
100
AcDbVertex
100
AcDb2dVertex
 10
99.75274717731763
 20
-106.3504349734124
 30
0.0
  0
SEQEND
  5
60
330
5D
100
AcDbEntity
  8
_U+30EC_U+30A4_U+30E4_U+30FC 1
 62
     7
420
 16777215
370
    25
  0
POLYLINE
  5
61
330
1F
100
AcDbEntity
  8
_U+30EC_U+30A4_U+30E4_U+30FC 1
 62
     7
420
 16777215
370
    25
100
AcDb2dPolyline
 66
     1
 10
0.0
 20
0.0
 30
0.0
  0
VERTEX
  5
62
330
61
100
AcDbEntity
  8
_U+30EC_U+30A4_U+30E4_U+30FC 1
 62
     7
420
 16777215
370
    25
100
AcDbVertex
100
AcDb2dVertex
 10
89.65293132387428
 20
-105.3506627514402
 30
0.0
  0
VERTEX
  5
63
330
61
100
AcDbEntity
  8
_U+30EC_U+30A4_U+30E4_U+30FC 1
 62
     7
420
 16777215
370
    25
100
AcDbVertex
100
AcDb2dVertex
 10
99.75274717731763
 20
-105.3506627514402
 30
0.0
  0
SEQEND
  5
64
330
61
100
AcDbEntity
  8
_U+30EC_U+30A4_U+30E4_U+30FC 1
 62
     7
420
 16777215
370
    25
  0
SPLINE
  5
65
330
1F
100
AcDbEntity
  8
_U+30EC_U+30A4_U+30E4_U+30FC 1
 62
     7
420
 16777215
370
    25
100
AcDbSpline
210
0.0
220
0.0
230
1.0
 70
     8
 71
     3
 72
    11
 73
     7
 74
     0
 42
0.0000000001
 43
0.0000000001
 12
1.0
 22
0.0
 32
0.0
 13
1.0
 23
0.0
 33
0.0
 40
0.0
 40
0.0
 40
0.0
 40
0.0
 40
1.0
 40
1.0
 40
1.0
 40
2.0
 40
2.0
 40
2.0
 40
2.0
 10
99.75274717731763
 20
-106.3504349734124
 30
0.0
 10
100.3049854965622
 20
-106.3504349734124
 30
0.0
 10
100.7528368740254
 20
-105.9025835846353
 30
0.0
 10
100.7528368740254
 20
-105.3506627514402
 30
0.0
 10
100.7528368740254
 20
-104.7980716404673
 30
0.0
 10
100.3049854965622
 20
-104.3509258072455
 30
0.0
 10
99.75274717731763
 20
-104.3509258072455
 30
0.0
  0
SPLINE
  5
66
330
1F
100
AcDbEntity
  8
_U+30EC_U+30A4_U+30E4_U+30FC 1
 62
     7
420
 16777215
370
    25
100
AcDbSpline
210
0.0
220
0.0
230
1.0
 70
     8
 71
     3
 72
    11
 73
     7
 74
     0
 42
0.0000000001
 43
0.0000000001
 12
1.0
 22
0.0
 32
0.0
 13
1.0
 23
0.0
 33
0.0
 40
0.0
 40
0.0
 40
0.0
 40
0.0
 40
1.0
 40
1.0
 40
1.0
 40
2.0
 40
2.0
 40
2.0
 40
2.0
 10
76.7531183196426
 20
-104.3509258072455
 30
0.0
 10
76.20084472262116
 20
-104.3509258072455
 30
0.0
 10
75.7529933451579
 20
-104.7980716404673
 30
0.0
 10
75.7529933451579
 20
-105.3506627514402
 30
0.0
 10
75.7529933451579
 20
-105.9025835846353
 30
0.0
 10
76.20084472262116
 20
-106.3504349734124
 30
0.0
 10
76.7531183196426
 20
-106.3504349734124
 30
0.0
  0
SPLINE
  5
67
330
1F
100
AcDbEntity
  8
_U+30EC_U+30A4_U+30E4_U+30FC 1
 62
     7
420
 16777215
370
    25
100
AcDbSpline
210
0.0
220
0.0
230
1.0
 70
     8
 71
     3
 72
     8
 73
     4
 74
     0
 42
0.0000000001
 43
0.0000000001
 12
1.0
 22
0.0
 32
0.0
 13
1.0
 23
0.0
 33
0.0
 40
0.0
 40
0.0
 40
0.0
 40
0.0
 40
1.0
 40
1.0
 40
1.0
 40
1.0
 10
88.65315912715837
 20
-155.3507391278287
 30
0.0
 10
88.65315912715837
 20
-155.9026246832467
 30
0.0
 10
89.10065772685284
 20
-156.3504760720238
 30
0.0
 10
89.65293132387428
 20
-156.3504760720238
 30
0.0
  0
SPLINE
  5
68
330
1F
100
AcDbEntity
  8
_U+30EC_U+30A4_U+30E4_U+30FC 1
 62
     7
420
 16777215
370
    25
100
AcDbSpline
210
0.0
220
0.0
230
1.0
 70
     8
 71
     3
 72
     8
 73
     4
 74
     0
 42
0.0000000001
 43
0.0000000001
 12
1.0
 22
0.0
 32
0.0
 13
1.0
 23
0.0
 33
0.0
 40
0.0
 40
0.0
 40
0.0
 40
0.0
 40
1.0
 40
1.0
 40
1.0
 40
1.0
 10
86.85311056197033
 20
-156.3504760720238
 30
0.0
 10
87.40534888121489
 20
-156.3504760720238
 30
0.0
 10
87.85320025867813
 20
-155.9026246832467
 30
0.0
 10
87.85320025867813
 20
-155.3507391278287
 30
0.0
  0
SPLINE
  5
69
330
1F
100
AcDbEntity
  8
_U+30EC_U+30A4_U+30E4_U+30FC 1
 62
     7
420
 16777215
370
    25
100
AcDbSpline
210
0.0
220
0.0
230
1.0
 70
     8
 71
     3
 72
     8
 73
     4
 74
     0
 42
0.0000000001
 43
0.0000000001
 12
1.0
 22
0.0
 32
0.0
 13
1.0
 23
0.0
 33
0.0
 40
0.0
 40
0.0
 40
0.0
 40
0.0
 40
1.0
 40
1.0
 40
1.0
 40
1.0
 10
89.65293132387428
 20
-105.3506627514402
 30
0.0
 10
89.10065772685284
 20
-105.3506627514402
 30
0.0
 10
88.65315912715837
 20
-105.7985494179947
 30
0.0
 10
88.65315912715837
 20
-106.3504349734124
 30
0.0
  0
SPLINE
  5
6A
330
1F
100
AcDbEntity
  8
_U+30EC_U+30A4_U+30E4_U+30FC 1
 62
     7
420
 16777215
370
    25
100
AcDbSpline
210
0.0
220
0.0
230
1.0
 70
     8
 71
     3
 72
     8
 73
     4
 74
     0
 42
0.0000000001
 43
0.0000000001
 12
1.0
 22
0.0
 32
0.0
 13
1.0
 23
0.0
 33
0.0
 40
0.0
 40
0.0
 40
0.0
 40
0.0
 40
1.0
 40
1.0
 40
1.0
 40
1.0
 10
87.85320025867813
 20
-106.3504349734124
 30
0.0
 10
87.85320025867813
 20
-105.7985494179947
 30
0.0
 10
87.40534888121489
 20
-105.3506627514402
 30
0.0
 10
86.85311056197033
 20
-105.3506627514402
 30
0.0
  0
INSERT
  5
6C
330
1F
100
AcDbEntity
  8
_U+30EC_U+30A4_U+30E4_U+30FC 1
100
AcDbBlockReference
  2
block 2
 10
0.0
 20
0.0
 30
0.0
  0
INSERT
  5
74
330
1F
100
AcDbEntity
  8
_U+30EC_U+30A4_U+30E4_U+30FC 1
100
AcDbBlockReference
  2
block 3
 10
0.0
 20
0.0
 30
0.0
  0
INSERT
  5
7D
330
1F
100
AcDbEntity
  8
_U+30EC_U+30A4_U+30E4_U+30FC 1
100
AcDbBlockReference
  2
block 4
 10
0.0
 20
0.0
 30
0.0
  0
SPLINE
  5
85
330
1F
100
AcDbEntity
  8
_U+30EC_U+30A4_U+30E4_U+30FC 1
 62
     7
420
 16777215
370
     9
100
AcDbSpline
210
0.0
220
0.0
230
1.0
 70
    11
 71
     3
 72
    17
 73
    13
 74
     0
 42
0.0000000001
 43
0.0000000001
 12
1.0
 22
0.0
 32
0.0
 13
1.0
 23
0.0
 33
0.0
 40
0.0
 40
0.0
 40
0.0
 40
0.0
 40
1.0
 40
1.0
 40
1.0
 40
2.0
 40
2.0
 40
2.0
 40
3.0
 40
3.0
 40
3.0
 40
4.0
 40
4.0
 40
4.0
 40
4.0
 10
75.85290000927574
 20
-100.3504610860234
 30
0.0
 10
75.85290000927574
 20
-100.2953571971484
 30
0.0
 10
75.80813251041786
 20
-100.2505544193817
 30
0.0
 10
75.7529933451579
 20
-100.2505544193817
 30
0.0
 10
75.69788945767483
 20
-100.2505544193817
 30
0.0
 10
75.65308668104008
 20
-100.2953571971484
 30
0.0
 10
75.65308668104008
 20
-100.3504610860234
 30
0.0
 10
75.65308668104008
 20
-100.4056002526765
 30
0.0
 10
75.69788945767483
 20
-100.4503677526653
 30
0.0
 10
75.7529933451579
 20
-100.4503677526653
 30
0.0
 10
75.80813251041786
 20
-100.4503677526653
 30
0.0
 10
75.85290000927574
 20
-100.4056002526765
 30
0.0
 10
75.85290000927574
 20
-100.3504610860234
 30
0.0
  0
SPLINE
  5
86
330
1F
100
AcDbEntity
  8
_U+30EC_U+30A4_U+30E4_U+30FC 1
 62
     7
420
 16777215
370
     9
100
AcDbSpline
210
0.0
220
0.0
230
1.0
 70
    11
 71
     3
 72
    17
 73
    13
 74
     0
 42
0.0000000001
 43
0.0000000001
 12
1.0
 22
0.0
 32
0.0
 13
1.0
 23
0.0
 33
0.0
 40
0.0
 40
0.0
 40
0.0
 40
0.0
 40
1.0
 40
1.0
 40
1.0
 40
2.0
 40
2.0
 40
2.0
 40
3.0
 40
3.0
 40
3.0
 40
4.0
 40
4.0
 40
4.0
 40
4.0
 10
100.8527435381433
 20
-100.3504610860234
 30
0.0
 10
100.8527435381433
 20
-100.2953571971484
 30
0.0
 10
100.8079760392854
 20
-100.2505544193817
 30
0.0
 10
100.7528368740254
 20
-100.2505544193817
 30
0.0
 10
100.6977329865424
 20
-100.2505544193817
 30
0.0
 10
100.6529302099076
 20
-100.2953571971484
 30
0.0
 10
100.6529302099076
 20
-100.3504610860234
 30
0.0
 10
100.6529302099076
 20
-100.4056002526765
 30
0.0
 10
100.6977329865424
 20
-100.4503677526653
 30
0.0
 10
100.7528368740254
 20
-100.4503677526653
 30
0.0
 10
100.8079760392854
 20
-100.4503677526653
 30
0.0
 10
100.8527435381433
 20
-100.4056002526765
 30
0.0
 10
100.8527435381433
 20
-100.3504610860234
 30
0.0
  0
SPLINE
  5
87
330
1F
100
AcDbEntity
  8
_U+30EC_U+30A4_U+30E4_U+30FC 1
 62
     7
420
 16777215
370
     9
100
AcDbSpline
210
0.0
220
0.0
230
1.0
 70
    11
 71
     3
 72
    17
 73
    13
 74
     0
 42
0.0000000001
 43
0.0000000001
 12
1.0
 22
0.0
 32
0.0
 13
1.0
 23
0.0
 33
0.0
 40
0.0
 40
0.0
 40
0.0
 40
0.0
 40
1.0
 40
1.0
 40
1.0
 40
2.0
 40
2.0
 40
2.0
 40
3.0
 40
3.0
 40
3.0
 40
4.0
 40
4.0
 40
4.0
 40
4.0
 10
117.3526889505279
 20
-106.3504349734124
 30
0.0
 10
117.3526889505279
 20
-106.2953310845371
 30
0.0
 10
117.3082389516619
 20
-106.2505283067707
 30
0.0
 10
117.2527822864101
 20
-106.2505283067707
 30
0.0
 10
117.197678398927
 20
-106.2505283067707
 30
0.0
 10
117.1528756222923
 20
-106.2953310845371
 30
0.0
 10
117.1528756222923
 20
-106.3504349734124
 30
0.0
 10
117.1528756222923
 20
-106.4055741400651
 30
0.0
 10
117.197678398927
 20
-106.450341640054
 30
0.0
 10
117.2527822864101
 20
-106.450341640054
 30
0.0
 10
117.3082389516619
 20
-106.450341640054
 30
0.0
 10
117.3526889505279
 20
-106.4055741400651
 30
0.0
 10
117.3526889505279
 20
-106.3504349734124
 30
0.0
  0
SPLINE
  5
88
330
1F
100
AcDbEntity
  8
_U+30EC_U+30A4_U+30E4_U+30FC 1
 62
     7
420
 16777215
370
     9
100
AcDbSpline
210
0.0
220
0.0
230
1.0
 70
    11
 71
     3
 72
    17
 73
    13
 74
     0
 42
0.0000000001
 43
0.0000000001
 12
1.0
 22
0.0
 32
0.0
 13
1.0
 23
0.0
 33
0.0
 40
0.0
 40
0.0
 40
0.0
 40
0.0
 40
1.0
 40
1.0
 40
1.0
 40
2.0
 40
2.0
 40
2.0
 40
3.0
 40
3.0
 40
3.0
 40
4.0
 40
4.0
 40
4.0
 40
4.0
 10
113.3529298859036
 20
-160.3509407932455
 30
0.0
 10
113.3529298859036
 20
-160.2951313488151
 30
0.0
 10
113.3081623870457
 20
-160.2503285710484
 30
0.0
 10
113.2530232217858
 20
-160.2503285710484
 30
0.0
 10
113.1975694161451
 20
-160.2503285710484
 30
0.0
 10
113.1527666383783
 20
-160.2951313488151
 30
0.0
 10
113.1527666383783
 20
-160.3509407932455
 30
0.0
 10
113.1527666383783
 20
-160.4060446821204
 30
0.0
 10
113.1975694161451
 20
-160.4508474598872
 30
0.0
 10
113.2530232217858
 20
-160.4508474598872
 30
0.0
 10
113.3081623870457
 20
-160.4508474598872
 30
0.0
 10
113.3529298859036
 20
-160.4060446821204
 30
0.0
 10
113.3529298859036
 20
-160.3509407932455
 30
0.0
  0
SPLINE
  5
89
330
1F
100
AcDbEntity
  8
_U+30EC_U+30A4_U+30E4_U+30FC 1
 62
     7
420
 16777215
370
     9
100
AcDbSpline
210
0.0
220
0.0
230
1.0
 70
    11
 71
     3
 72
    17
 73
    13
 74
     0
 42
0.0000000001
 43
0.0000000001
 12
1.0
 22
0.0
 32
0.0
 13
1.0
 23
0.0
 33
0.0
 40
0.0
 40
0.0
 40
0.0
 40
0.0
 40
1.0
 40
1.0
 40
1.0
 40
2.0
 40
2.0
 40
2.0
 40
3.0
 40
3.0
 40
3.0
 40
4.0
 40
4.0
 40
4.0
 40
4.0
 10
117.3526889505279
 20
-156.3504760720238
 30
0.0
 10
117.3526889505279
 20
-156.2953721831482
 30
0.0
 10
117.3082389516619
 20
-156.2505694053821
 30
0.0
 10
117.2527822864101
 20
-156.2505694053821
 30
0.0
 10
117.197678398927
 20
-156.2505694053821
 30
0.0
 10
117.1528756222923
 20
-156.2953721831482
 30
0.0
 10
117.1528756222923
 20
-156.3504760720238
 30
0.0
 10
117.1528756222923
 20
-156.4056152386762
 30
0.0
 10
117.197678398927
 20
-156.4503827386654
 30
0.0
 10
117.2527822864101
 20
-156.4503827386654
 30
0.0
 10
117.3082389516619
 20
-156.4503827386654
 30
0.0
 10
117.3526889505279
 20
-156.4056152386762
 30
0.0
 10
117.3526889505279
 20
-156.3504760720238
 30
0.0
  0
SPLINE
  5
8A
330
1F
100
AcDbEntity
  8
_U+30EC_U+30A4_U+30E4_U+30FC 1
 62
     7
420
 16777215
370
     9
100
AcDbSpline
210
0.0
220
0.0
230
1.0
 70
    11
 71
     3
 72
    17
 73
    13
 74
     0
 42
0.0000000001
 43
0.0000000001
 12
1.0
 22
0.0
 32
0.0
 13
1.0
 23
0.0
 33
0.0
 40
0.0
 40
0.0
 40
0.0
 40
0.0
 40
1.0
 40
1.0
 40
1.0
 40
2.0
 40
2.0
 40
2.0
 40
3.0
 40
3.0
 40
3.0
 40
4.0
 40
4.0
 40
4.0
 40
4.0
 10
63.35289165082832
 20
-160.3509407932455
 30
0.0
 10
63.35289165082832
 20
-160.2951313488151
 30
0.0
 10
63.30812255154191
 20
-160.2503285710484
 30
0.0
 10
63.25263060851318
 20
-160.2503285710484
 30
0.0
 10
63.1975267210301
 20
-160.2503285710484
 30
0.0
 10
63.15272394439534
 20
-160.2951313488151
 30
0.0
 10
63.15272394439534
 20
-160.3509407932455
 30
0.0
 10
63.15272394439534
 20
-160.4060446821204
 30
0.0
 10
63.1975267210301
 20
-160.4508474598872
 30
0.0
 10
63.25263060851318
 20
-160.4508474598872
 30
0.0
 10
63.30812255154191
 20
-160.4508474598872
 30
0.0
 10
63.35289165082832
 20
-160.4060446821204
 30
0.0
 10
63.35289165082832
 20
-160.3509407932455
 30
0.0
  0
POLYLINE
  5
8B
330
1F
100
AcDbEntity
  8
_U+30EC_U+30A4_U+30E4_U+30FC 1
 62
     7
420
 16777215
370
     9
100
AcDb2dPolyline
 66
     1
 10
0.0
 20
0.0
 30
0.0
  0
VERTEX
  5
8C
330
8B
100
AcDbEntity
  8
_U+30EC_U+30A4_U+30E4_U+30FC 1
 62
     7
420
 16777215
370
     9
100
AcDbVertex
100
AcDb2dVertex
 10
75.7529933451579
 20
-100.3504610860234
 30
0.0
  0
VERTEX
  5
8D
330
8B
100
AcDbEntity
  8
_U+30EC_U+30A4_U+30E4_U+30FC 1
 62
     7
420
 16777215
370
     9
100
AcDbVertex
100
AcDb2dVertex
 10
100.7528368740254
 20
-100.3504610860234
 30
0.0
  0
SEQEND
  5
8E
330
8B
100
AcDbEntity
  8
_U+30EC_U+30A4_U+30E4_U+30FC 1
 62
     7
420
 16777215
370
     9
  0
POLYLINE
  5
8F
330
1F
100
AcDbEntity
  8
_U+30EC_U+30A4_U+30E4_U+30FC 1
 62
     7
420
 16777215
370
     9
100
AcDb2dPolyline
 66
     1
 10
0.0
 20
0.0
 30
0.0
  0
VERTEX
  5
90
330
8F
100
AcDbEntity
  8
_U+30EC_U+30A4_U+30E4_U+30FC 1
 62
     7
420
 16777215
370
     9
100
AcDbVertex
100
AcDb2dVertex
 10
75.7529933451579
 20
-102.8102746965196
 30
0.0
  0
VERTEX
  5
91
330
8F
100
AcDbEntity
  8
_U+30EC_U+30A4_U+30E4_U+30FC 1
 62
     7
420
 16777215
370
     9
100
AcDbVertex
100
AcDb2dVertex
 10
75.7529933451579
 20
-99.35068886405115
 30
0.0
  0
SEQEND
  5
92
330
8F
100
AcDbEntity
  8
_U+30EC_U+30A4_U+30E4_U+30FC 1
 62
     7
420
 16777215
370
     9
  0
POLYLINE
  5
93
330
1F
100
AcDbEntity
  8
_U+30EC_U+30A4_U+30E4_U+30FC 1
 62
     7
420
 16777215
370
     9
100
AcDb2dPolyline
 66
     1
 10
0.0
 20
0.0
 30
0.0
  0
VERTEX
  5
94
330
93
100
AcDbEntity
  8
_U+30EC_U+30A4_U+30E4_U+30FC 1
 62
     7
420
 16777215
370
     9
100
AcDbVertex
100
AcDb2dVertex
 10
100.7528368740254
 20
-102.8102746965196
 30
0.0
  0
VERTEX
  5
95
330
93
100
AcDbEntity
  8
_U+30EC_U+30A4_U+30E4_U+30FC 1
 62
     7
420
 16777215
370
     9
100
AcDbVertex
100
AcDb2dVertex
 10
100.7528368740254
 20
-99.35068886405115
 30
0.0
  0
SEQEND
  5
96
330
93
100
AcDbEntity
  8
_U+30EC_U+30A4_U+30E4_U+30FC 1
 62
     7
420
 16777215
370
     9
  0
POLYLINE
  5
97
330
1F
100
AcDbEntity
  8
_U+30EC_U+30A4_U+30E4_U+30FC 1
 62
     7
420
 16777215
370
     9
100
AcDb2dPolyline
 66
     1
 10
0.0
 20
0.0
 30
0.0
  0
VERTEX
  5
98
330
97
100
AcDbEntity
  8
_U+30EC_U+30A4_U+30E4_U+30FC 1
 62
     7
420
 16777215
370
     9
100
AcDbVertex
100
AcDb2dVertex
 10
63.25280699739756
 20
-160.3509407932455
 30
0.0
  0
VERTEX
  5
99
330
97
100
AcDbEntity
  8
_U+30EC_U+30A4_U+30E4_U+30FC 1
 62
     7
420
 16777215
370
     9
100
AcDbVertex
100
AcDb2dVertex
 10
113.2530232217858
 20
-160.3509407932455
 30
0.0
  0
SEQEND
  5
9A
330
97
100
AcDbEntity
  8
_U+30EC_U+30A4_U+30E4_U+30FC 1
 62
     7
420
 16777215
370
     9
  0
POLYLINE
  5
9B
330
1F
100
AcDbEntity
  8
_U+30EC_U+30A4_U+30E4_U+30FC 1
 62
     7
420
 16777215
370
     9
100
AcDb2dPolyline
 66
     1
 10
0.0
 20
0.0
 30
0.0
  0
VERTEX
  5
9C
330
9B
100
AcDbEntity
  8
_U+30EC_U+30A4_U+30E4_U+30FC 1
 62
     7
420
 16777215
370
     9
100
AcDbVertex
100
AcDb2dVertex
 10
63.25280699739756
 20
-158.8908994047218
 30
0.0
  0
VERTEX
  5
9D
330
9B
100
AcDbEntity
  8
_U+30EC_U+30A4_U+30E4_U+30FC 1
 62
     7
420
 16777215
370
     9
100
AcDbVertex
100
AcDb2dVertex
 10
63.25280699739756
 20
-161.350713015218
 30
0.0
  0
SEQEND
  5
9E
330
9B
100
AcDbEntity
  8
_U+30EC_U+30A4_U+30E4_U+30FC 1
 62
     7
420
 16777215
370
     9
  0
POLYLINE
  5
9F
330
1F
100
AcDbEntity
  8
_U+30EC_U+30A4_U+30E4_U+30FC 1
 62
     7
420
 16777215
370
     9
100
AcDb2dPolyline
 66
     1
 10
0.0
 20
0.0
 30
0.0
  0
VERTEX
  5
A0
330
9F
100
AcDbEntity
  8
_U+30EC_U+30A4_U+30E4_U+30FC 1
 62
     7
420
 16777215
370
     9
100
AcDbVertex
100
AcDb2dVertex
 10
113.2530232217858
 20
-158.8908994047218
 30
0.0
  0
VERTEX
  5
A1
330
9F
100
AcDbEntity
  8
_U+30EC_U+30A4_U+30E4_U+30FC 1
 62
     7
420
 16777215
370
     9
100
AcDbVertex
100
AcDb2dVertex
 10
113.2530232217858
 20
-161.350713015218
 30
0.0
  0
SEQEND
  5
A2
330
9F
100
AcDbEntity
  8
_U+30EC_U+30A4_U+30E4_U+30FC 1
 62
     7
420
 16777215
370
     9
  0
POLYLINE
  5
A3
330
1F
100
AcDbEntity
  8
_U+30EC_U+30A4_U+30E4_U+30FC 1
 62
     7
420
 16777215
370
     9
100
AcDb2dPolyline
 66
     1
 10
0.0
 20
0.0
 30
0.0
  0
VERTEX
  5
A4
330
A3
100
AcDbEntity
  8
_U+30EC_U+30A4_U+30E4_U+30FC 1
 62
     7
420
 16777215
370
     9
100
AcDbVertex
100
AcDb2dVertex
 10
117.2527822864101
 20
-106.3504349734124
 30
0.0
  0
VERTEX
  5
A5
330
A3
100
AcDbEntity
  8
_U+30EC_U+30A4_U+30E4_U+30FC 1
 62
     7
420
 16777215
370
     9
100
AcDbVertex
100
AcDb2dVertex
 10
117.2527822864101
 20
-156.3504760720238
 30
0.0
  0
SEQEND
  5
A6
330
A3
100
AcDbEntity
  8
_U+30EC_U+30A4_U+30E4_U+30FC 1
 62
     7
420
 16777215
370
     9
  0
POLYLINE
  5
A7
330
1F
100
AcDbEntity
  8
_U+30EC_U+30A4_U+30E4_U+30FC 1
 62
     7
420
 16777215
370
     9
100
AcDb2dPolyline
 66
     1
 10
0.0
 20
0.0
 30
0.0
  0
VERTEX
  5
A8
330
A7
100
AcDbEntity
  8
_U+30EC_U+30A4_U+30E4_U+30FC 1
 62
     7
420
 16777215
370
     9
100
AcDbVertex
100
AcDb2dVertex
 10
102.2928176680706
 20
-106.3504349734124
 30
0.0
  0
VERTEX
  5
A9
330
A7
100
AcDbEntity
  8
_U+30EC_U+30A4_U+30E4_U+30FC 1
 62
     7
420
 16777215
370
     9
100
AcDbVertex
100
AcDb2dVertex
 10
118.2529072608948
 20
-106.3504349734124
 30
0.0
  0
SEQEND
  5
AA
330
A7
100
AcDbEntity
  8
_U+30EC_U+30A4_U+30E4_U+30FC 1
 62
     7
420
 16777215
370
     9
  0
POLYLINE
  5
AB
330
1F
100
AcDbEntity
  8
_U+30EC_U+30A4_U+30E4_U+30FC 1
 62
     7
420
 16777215
370
     9
100
AcDb2dPolyline
 66
     1
 10
0.0
 20
0.0
 30
0.0
  0
VERTEX
  5
AC
330
AB
100
AcDbEntity
  8
_U+30EC_U+30A4_U+30E4_U+30FC 1
 62
     7
420
 16777215
370
     9
100
AcDbVertex
100
AcDb2dVertex
 10
115.79274093477
 20
-156.3504760720238
 30
0.0
  0
VERTEX
  5
AD
330
AB
100
AcDbEntity
  8
_U+30EC_U+30A4_U+30E4_U+30FC 1
 62
     7
420
 16777215
370
     9
100
AcDbVertex
100
AcDb2dVertex
 10
118.2529072608948
 20
-156.3504760720238
 30
0.0
  0
SEQEND
  5
AE
330
AB
100
AcDbEntity
  8
_U+30EC_U+30A4_U+30E4_U+30FC 1
 62
     7
420
 16777215
370
     9
  0
POLYLINE
  5
AF
330
1F
100
AcDbEntity
  8
_U+30EC_U+30A4_U+30E4_U+30FC 1
  6
AI-Linetype-1
 62
   251
420
  5855577
370
    25
100
AcDb2dPolyline
 66
     1
 10
0.0
 20
0.0
 30
0.0
  0
VERTEX
  5
B0
330
AF
100
AcDbEntity
  8
_U+30EC_U+30A4_U+30E4_U+30FC 1
  6
AI-Linetype-1
 62
   251
420
  5855577
370
    25
100
AcDbVertex
100
AcDb2dVertex
 10
96.75276030940923
 20
-107.3502071953846
 30
0.0
  0
VERTEX
  5
B1
330
AF
100
AcDbEntity
  8
_U+30EC_U+30A4_U+30E4_U+30FC 1
  6
AI-Linetype-1
 62
   251
420
  5855577
370
    25
100
AcDbVertex
100
AcDb2dVertex
 10
101.365049974659
 20
-107.3502071953846
 30
0.0
  0
VERTEX
  5
B2
330
AF
100
AcDbEntity
  8
_U+30EC_U+30A4_U+30E4_U+30FC 1
  6
AI-Linetype-1
 62
   251
420
  5855577
370
    25
100
AcDbVertex
100
AcDb2dVertex
 10
101.365049974659
 20
-106.482726640046
 30
0.0
  0
VERTEX
  5
B3
330
AF
100
AcDbEntity
  8
_U+30EC_U+30A4_U+30E4_U+30FC 1
  6
AI-Linetype-1
 62
   251
420
  5855577
370
    25
100
AcDbVertex
100
AcDb2dVertex
 10
101.365049974659
 20
-103.5571758074439
 30
0.0
  0
VERTEX
  5
B4
330
AF
100
AcDbEntity
  8
_U+30EC_U+30A4_U+30E4_U+30FC 1
  6
AI-Linetype-1
 62
   251
420
  5855577
370
    25
100
AcDbVertex
100
AcDb2dVertex
 10
75.2538128023375
 20
-103.5571758074439
 30
0.0
  0
VERTEX
  5
B5
330
AF
100
AcDbEntity
  8
_U+30EC_U+30A4_U+30E4_U+30FC 1
  6
AI-Linetype-1
 62
   251
420
  5855577
370
    25
100
AcDbVertex
100
AcDb2dVertex
 10
75.2538128023375
 20
-106.5709210844684
 30
0.0
  0
VERTEX
  5
B6
330
AF
100
AcDbEntity
  8
_U+30EC_U+30A4_U+30E4_U+30FC 1
  6
AI-Linetype-1
 62
   251
420
  5855577
370
    25
100
AcDbVertex
100
AcDb2dVertex
 10
75.2538128023375
 20
-107.3502071953846
 30
0.0
  0
VERTEX
  5
B7
330
AF
100
AcDbEntity
  8
_U+30EC_U+30A4_U+30E4_U+30FC 1
  6
AI-Linetype-1
 62
   251
420
  5855577
370
    25
100
AcDbVertex
100
AcDb2dVertex
 10
79.753105187551
 20
-107.3502071953846
 30
0.0
  0
SEQEND
  5
B9
330
AF
100
AcDbEntity
  8
_U+30EC_U+30A4_U+30E4_U+30FC 1
  6
AI-Linetype-1
 62
   251
420
  5855577
370
    25
  0
ENDSEC
  0
SECTION
  2
OBJECTS
  0
DICTIONARY
  5
C
330
0
100
AcDbDictionary
281
     1
  3
ACAD_GROUP
350
D
  3
ACAD_LAYOUT
350
1A
  3
ACAD_MATERIAL
350
3B
  3
ACAD_MLEADERSTYLE
350
BB
  3
ACAD_MLINESTYLE
350
17
  3
ACAD_PLOTSETTINGS
350
19
  3
ACAD_PLOTSTYLENAME
350
E
  3
ACAD_TABLESTYLE
350
BA
  3
ACAD_VISUALSTYLE
350
2A
  0
SUN
  5
3F
330
29
100
AcDbSun
 90
        1
290
     0
 63
     7
421
 16777215
 40
1.0
291
     1
 91
  2455826
 92
 54000000
292
     0
 70
     2
 71
   256
280
     1
  0
DICTIONARY
  5
D
102
{ACAD_REACTORS
330
C
102
}
330
C
100
AcDbDictionary
281
     1
  0
DICTIONARY
  5
1A
102
{ACAD_REACTORS
330
C
102
}
330
C
100
AcDbDictionary
281
     1
  3
Layout1
350
1E
  3
Layout2
350
26
  3
Model
350
22
  0
DICTIONARY
  5
3B
102
{ACAD_REACTORS
330
C
102
}
330
C
100
AcDbDictionary
281
     1
  3
ByBlock
350
3D
  3
ByLayer
350
3C
  3
Global
350
3E
  0
DICTIONARY
  5
BB
102
{ACAD_REACTORS
330
C
102
}
330
C
100
AcDbDictionary
281
     1
  0
DICTIONARY
  5
17
102
{ACAD_REACTORS
330
C
102
}
330
C
100
AcDbDictionary
281
     1
  3
Standard
350
18
  0
DICTIONARY
  5
19
102
{ACAD_REACTORS
330
C
102
}
330
C
100
AcDbDictionary
281
     1
  0
ACDBDICTIONARYWDFLT
  5
E
102
{ACAD_REACTORS
330
C
102
}
330
C
100
AcDbDictionary
281
     1
  3
Normal
350
F
100
AcDbDictionaryWithDefault
340
F
  0
DICTIONARY
  5
BA
102
{ACAD_REACTORS
330
C
102
}
330
C
100
AcDbDictionary
281
     1
  0
DICTIONARY
  5
2A
102
{ACAD_REACTORS
330
C
102
}
330
C
100
AcDbDictionary
281
     1
  3
2dWireframe
350
2F
  3
3D Hidden
350
31
  3
3dWireframe
350
30
  3
Basic
350
32
  3
Brighten
350
36
  3
ColorChange
350
3A
  3
Conceptual
350
34
  3
Dim
350
35
  3
Facepattern
350
39
  3
Flat
350
2B
  3
FlatWithEdges
350
2C
  3
Gouraud
350
2D
  3
GouraudWithEdges
350
2E
  3
Linepattern
350
38
  3
Realistic
350
33
  3
Thicken
350
37
  0
LAYOUT
  5
1E
102
{ACAD_REACTORS
330
1A
102
}
330
1A
100
AcDbPlotSettings
  1

  2
none_device
  4

  6

 40
0.0
 41
0.0
 42
0.0
 43
0.0
 44
0.0
 45
0.0
 46
0.0
 47
0.0
 48
0.0
 49
0.0
140
0.0
141
0.0
142
1.0
143
1.0
 70
   688
 72
     0
 73
     0
 74
     5
  7

 75
    16
 76
     0
 77
     2
 78
   300
147
1.0
148
0.0
149
0.0
100
AcDbLayout
  1
Layout1
 70
     1
 71
     1
 10
0.0
 20
0.0
 11
12.0
 21
9.0
 12
0.0
 22
0.0
 32
0.0
 14
1.000000000000000E+20
 24
1.000000000000000E+20
 34
1.000000000000000E+20
 15
-1.000000000000000E+20
 25
-1.000000000000000E+20
 35
-1.000000000000000E+20
146
0.0
 13
0.0
 23
0.0
 33
0.0
 16
1.0
 26
0.0
 36
0.0
 17
0.0
 27
1.0
 37
0.0
 76
     0
330
1B
  0
LAYOUT
  5
26
102
{ACAD_REACTORS
330
1A
102
}
330
1A
100
AcDbPlotSettings
  1

  2
none_device
  4

  6

 40
0.0
 41
0.0
 42
0.0
 43
0.0
 44
0.0
 45
0.0
 46
0.0
 47
0.0
 48
0.0
 49
0.0
140
0.0
141
0.0
142
1.0
143
1.0
 70
   688
 72
     0
 73
     0
 74
     5
  7

 75
    16
 76
     0
 77
     2
 78
   300
147
1.0
148
0.0
149
0.0
100
AcDbLayout
  1
Layout2
 70
     1
 71
     2
 10
0.0
 20
0.0
 11
0.0
 21
0.0
 12
0.0
 22
0.0
 32
0.0
 14
0.0
 24
0.0
 34
0.0
 15
0.0
 25
0.0
 35
0.0
146
0.0
 13
0.0
 23
0.0
 33
0.0
 16
1.0
 26
0.0
 36
0.0
 17
0.0
 27
1.0
 37
0.0
 76
     0
330
23
  0
LAYOUT
  5
22
102
{ACAD_REACTORS
330
1A
102
}
330
1A
100
AcDbPlotSettings
  1

  2
none_device
  4

  6

 40
0.0
 41
0.0
 42
0.0
 43
0.0
 44
0.0
 45
0.0
 46
0.0
 47
0.0
 48
0.0
 49
0.0
140
0.0
141
0.0
142
1.0
143
1.0
 70
  1712
 72
     0
 73
     0
 74
     0
  7

 75
     0
 76
     0
 77
     2
 78
   300
147
1.0
148
0.0
149
0.0
100
AcDbLayout
  1
Model
 70
     1
 71
     0
 10
0.0
 20
0.0
 11
12.0
 21
9.0
 12
0.0
 22
0.0
 32
0.0
 14
1.000000000000000E+20
 24
1.000000000000000E+20
 34
1.000000000000000E+20
 15
-1.000000000000000E+20
 25
-1.000000000000000E+20
 35
-1.000000000000000E+20
146
0.0
 13
0.0
 23
0.0
 33
0.0
 16
1.0
 26
0.0
 36
0.0
 17
0.0
 27
1.0
 37
0.0
 76
     0
330
1F
331
29
  0
MATERIAL
  5
3D
102
{ACAD_REACTORS
330
3B
102
}
330
3B
100
AcDbMaterial
  1
ByBlock
 72
     1
 94
      127
  0
MATERIAL
  5
3C
102
{ACAD_REACTORS
330
3B
102
}
330
3B
100
AcDbMaterial
  1
ByLayer
 72
     1
 94
      127
  0
MATERIAL
  5
3E
102
{ACAD_REACTORS
330
3B
102
}
330
3B
100
AcDbMaterial
  1
Global
 72
     1
 94
      127
  0
MLINESTYLE
  5
18
102
{ACAD_REACTORS
330
17
102
}
330
17
100
AcDbMlineStyle
  2
Standard
 70
     0
  3

 62
   256
 51
90.0
 52
90.0
 71
     2
 49
0.5
 62
   256
  6
BYLAYER
 49
-0.5
 62
   256
  6
BYLAYER
  0
ACDBPLACEHOLDER
  5
F
102
{ACAD_REACTORS
330
E
102
}
330
E
  0
VISUALSTYLE
  5
2F
102
{ACAD_REACTORS
330
2A
102
}
330
2A
100
AcDbVisualStyle
  2
2dWireframe
 70
     4
177
     2
291
     0
 71
     0
176
     1
 72
     2
176
     1
 73
     0
176
     1
 90
        0
176
     1
 40
-0.6
176
     1
 41
-30.0
176
     1
 62
     5
 63
     7
421
 16777215
176
     1
 74
     1
176
     1
 91
        4
176
     1
 64
     7
176
     1
 65
   257
176
     1
 75
     1
176
     1
175
     1
176
     1
 42
1.0
176
     1
 92
        0
176
     1
 66
   257
176
     1
 43
1.0
176
     1
 76
     1
176
     1
 77
     6
176
     1
 78
     2
176
     1
 67
     7
176
     1
 79
     5
176
     1
170
     0
176
     1
171
     0
176
     1
290
     0
176
     1
 93
        1
176
     1
 44
0.0
176
     1
173
     0
176
     1
  0
VISUALSTYLE
  5
31
102
{ACAD_REACTORS
330
2A
102
}
330
2A
100
AcDbVisualStyle
  2
3D Hidden
 70
     6
177
     2
291
     0
 71
     1
176
     1
 72
     2
176
     1
 73
     2
176
     1
 90
        0
176
     1
 40
-0.6
176
     1
 41
-30.0
176
     1
 62
     5
 63
     7
421
 16777215
176
     1
 74
     2
176
     1
 91
        2
176
     1
 64
     7
176
     1
 65
   257
176
     1
 75
     2
176
     1
175
     1
176
     1
 42
40.0
176
     1
 92
        0
176
     1
 66
   257
176
     1
 43
1.0
176
     1
 76
     1
176
     1
 77
     6
176
     1
 78
     2
176
     1
 67
     7
176
     1
 79
     3
176
     1
170
     0
176
     1
171
     0
176
     1
290
     0
176
     1
 93
        1
176
     1
 44
0.0
176
     1
173
     0
176
     1
  0
VISUALSTYLE
  5
30
102
{ACAD_REACTORS
330
2A
102
}
330
2A
100
AcDbVisualStyle
  2
3dWireframe
 70
     5
177
     2
291
     0
 71
     0
176
     1
 72
     2
176
     1
 73
     0
176
     1
 90
        0
176
     1
 40
-0.6
176
     1
 41
-30.0
176
     1
 62
     5
 63
     7
421
 16777215
176
     1
 74
     1
176
     1
 91
        4
176
     1
 64
     7
176
     1
 65
   257
176
     1
 75
     1
176
     1
175
     1
176
     1
 42
1.0
176
     1
 92
        0
176
     1
 66
   257
176
     1
 43
1.0
176
     1
 76
     1
176
     1
 77
     6
176
     1
 78
     2
176
     1
 67
     7
176
     1
 79
     5
176
     1
170
     0
176
     1
171
     0
176
     1
290
     0
176
     1
 93
        1
176
     1
 44
0.0
176
     1
173
     0
176
     1
  0
VISUALSTYLE
  5
32
102
{ACAD_REACTORS
330
2A
102
}
330
2A
100
AcDbVisualStyle
  2
Basic
 70
     7
177
     2
291
     1
 71
     1
176
     1
 72
     0
176
     1
 73
     1
176
     1
 90
        0
176
     1
 40
-0.6
176
     1
 41
-30.0
176
     1
 62
     5
 63
     7
421
 16777215
176
     1
 74
     0
176
     1
 91
        4
176
     1
 64
     7
176
     1
 65
   257
176
     1
 75
     1
176
     1
175
     1
176
     1
 42
1.0
176
     1
 92
        8
176
     1
 66
     7
176
     1
 43
1.0
176
     1
 76
     1
176
     1
 77
     6
176
     1
 78
     2
176
     1
 67
     7
176
     1
 79
     5
176
     1
170
     0
176
     1
171
     0
176
     1
290
     0
176
     1
 93
        1
176
     1
 44
0.0
176
     1
173
     0
176
     1
  0
VISUALSTYLE
  5
36
102
{ACAD_REACTORS
330
2A
102
}
330
2A
100
AcDbVisualStyle
  2
Brighten
 70
    12
177
     2
291
     1
 71
     2
176
     1
 72
     2
176
     1
 73
     0
176
     1
 90
        0
176
     1
 40
-0.6
176
     1
 41
-30.0
176
     1
 62
     5
 63
     7
421
 16777215
176
     1
 74
     1
176
     1
 91
        4
176
     1
 64
     7
176
     1
 65
   257
176
     1
 75
     1
176
     1
175
     1
176
     1
 42
1.0
176
     1
 92
        8
176
     1
 66
     7
176
     1
 43
1.0
176
     1
 76
     1
176
     1
 77
     6
176
     1
 78
     2
176
     1
 67
     7
176
     1
 79
     5
176
     1
170
     0
176
     1
171
     0
176
     1
290
     0
176
     1
 93
        1
176
     1
 44
50.0
176
     1
173
     0
176
     1
  0
VISUALSTYLE
  5
3A
102
{ACAD_REACTORS
330
2A
102
}
330
2A
100
AcDbVisualStyle
  2
ColorChange
 70
    16
177
     2
291
     1
 71
     2
176
     1
 72
     2
176
     1
 73
     3
176
     1
 90
        0
176
     1
 40
-0.6
176
     1
 41
-30.0
176
     1
 62
     5
 63
     8
421
  8421504
176
     1
 74
     1
176
     1
 91
        4
176
     1
 64
     7
176
     1
 65
   257
176
     1
 75
     1
176
     1
175
     1
176
     1
 42
1.0
176
     1
 92
        8
176
     1
 66
     8
424
  8421504
176
     1
 43
1.0
176
     1
 76
     1
176
     1
 77
     6
176
     1
 78
     2
176
     1
 67
     7
176
     1
 79
     5
176
     1
170
     0
176
     1
171
     0
176
     1
290
     0
176
     1
 93
        1
176
     1
 44
0.0
176
     1
173
     0
176
     1
  0
VISUALSTYLE
  5
34
102
{ACAD_REACTORS
330
2A
102
}
330
2A
100
AcDbVisualStyle
  2
Conceptual
 70
     9
177
     2
291
     0
 71
     3
176
     1
 72
     2
176
     1
 73
     0
176
     1
 90
        0
176
     1
 40
-0.6
176
     1
 41
-30.0
176
     1
 62
     5
 63
     7
421
 16777215
176
     1
 74
     2
176
     1
 91
        2
176
     1
 64
     7
176
     1
 65
   257
176
     1
 75
     1
176
     1
175
     1
176
     1
 42
40.0
176
     1
 92
        8
176
     1
 66
     7
176
     1
 43
1.0
176
     1
 76
     1
176
     1
 77
     6
176
     1
 78
     2
176
     1
 67
     7
176
     1
 79
     3
176
     1
170
     0
176
     1
171
     0
176
     1
290
     0
176
     1
 93
        1
176
     1
 44
0.0
176
     1
173
     0
176
     1
  0
VISUALSTYLE
  5
35
102
{ACAD_REACTORS
330
2A
102
}
330
2A
100
AcDbVisualStyle
  2
Dim
 70
    11
177
     2
291
     1
 71
     2
176
     1
 72
     2
176
     1
 73
     0
176
     1
 90
        0
176
     1
 40
-0.6
176
     1
 41
-30.0
176
     1
 62
     5
 63
     7
421
 16777215
176
     1
 74
     1
176
     1
 91
        4
176
     1
 64
     7
176
     1
 65
   257
176
     1
 75
     1
176
     1
175
     1
176
     1
 42
1.0
176
     1
 92
        8
176
     1
 66
     7
176
     1
 43
1.0
176
     1
 76
     1
176
     1
 77
     6
176
     1
 78
     2
176
     1
 67
     7
176
     1
 79
     5
176
     1
170
     0
176
     1
171
     0
176
     1
290
     0
176
     1
 93
        1
176
     1
 44
-50.0
176
     1
173
     0
176
     1
  0
VISUALSTYLE
  5
39
102
{ACAD_REACTORS
330
2A
102
}
330
2A
100
AcDbVisualStyle
  2
Facepattern
 70
    15
177
     2
291
     1
 71
     2
176
     1
 72
     2
176
     1
 73
     0
176
     1
 90
        0
176
     1
 40
-0.6
176
     1
 41
-30.0
176
     1
 62
     5
 63
     7
421
 16777215
176
     1
 74
     1
176
     1
 91
        4
176
     1
 64
     7
176
     1
 65
   257
176
     1
 75
     1
176
     1
175
     1
176
     1
 42
1.0
176
     1
 92
        8
176
     1
 66
     7
176
     1
 43
1.0
176
     1
 76
     1
176
     1
 77
     6
176
     1
 78
     2
176
     1
 67
     7
176
     1
 79
     5
176
     1
170
     0
176
     1
171
     0
176
     1
290
     0
176
     1
 93
        1
176
     1
 44
0.0
176
     1
173
     0
176
     1
  0
VISUALSTYLE
  5
2B
102
{ACAD_REACTORS
330
2A
102
}
330
2A
100
AcDbVisualStyle
  2
Flat
 70
     0
177
     2
291
     1
 71
     2
176
     1
 72
     1
176
     1
 73
     1
176
     1
 90
        2
176
     1
 40
-0.6
176
     1
 41
30.0
176
     1
 62
     5
 63
     7
421
 16777215
176
     1
 74
     0
176
     1
 91
        4
176
     1
 64
     7
176
     1
 65
   257
176
     1
 75
     1
176
     1
175
     1
176
     1
 42
1.0
176
     1
 92
        8
176
     1
 66
     7
176
     1
 43
1.0
176
     1
 76
     1
176
     1
 77
     6
176
     1
 78
     2
176
     1
 67
     7
176
     1
 79
     5
176
     1
170
     0
176
     1
171
     0
176
     1
290
     0
176
     1
 93
       13
176
     1
 44
0.0
176
     1
173
     0
176
     1
  0
VISUALSTYLE
  5
2C
102
{ACAD_REACTORS
330
2A
102
}
330
2A
100
AcDbVisualStyle
  2
FlatWithEdges
 70
     1
177
     2
291
     1
 71
     2
176
     1
 72
     1
176
     1
 73
     1
176
     1
 90
        2
176
     1
 40
-0.6
176
     1
 41
30.0
176
     1
 62
     5
 63
     7
421
 16777215
176
     1
 74
     1
176
     1
 91
        4
176
     1
 64
     7
176
     1
 65
   257
176
     1
 75
     1
176
     1
175
     1
176
     1
 42
1.0
176
     1
 92
        0
176
     1
 66
   257
176
     1
 43
1.0
176
     1
 76
     1
176
     1
 77
     6
176
     1
 78
     2
176
     1
 67
     7
176
     1
 79
     5
176
     1
170
     0
176
     1
171
     0
176
     1
290
     0
176
     1
 93
       13
176
     1
 44
0.0
176
     1
173
     0
176
     1
  0
VISUALSTYLE
  5
2D
102
{ACAD_REACTORS
330
2A
102
}
330
2A
100
AcDbVisualStyle
  2
Gouraud
 70
     2
177
     2
291
     1
 71
     2
176
     1
 72
     2
176
     1
 73
     1
176
     1
 90
        2
176
     1
 40
-0.6
176
     1
 41
30.0
176
     1
 62
     5
 63
     7
421
 16777215
176
     1
 74
     0
176
     1
 91
        4
176
     1
 64
     7
176
     1
 65
   257
176
     1
 75
     1
176
     1
175
     1
176
     1
 42
1.0
176
     1
 92
        0
176
     1
 66
     7
176
     1
 43
1.0
176
     1
 76
     1
176
     1
 77
     6
176
     1
 78
     2
176
     1
 67
     7
176
     1
 79
     5
176
     1
170
     0
176
     1
171
     0
176
     1
290
     0
176
     1
 93
       13
176
     1
 44
0.0
176
     1
173
     0
176
     1
  0
VISUALSTYLE
  5
2E
102
{ACAD_REACTORS
330
2A
102
}
330
2A
100
AcDbVisualStyle
  2
GouraudWithEdges
 70
     3
177
     2
291
     1
 71
     2
176
     1
 72
     2
176
     1
 73
     1
176
     1
 90
        2
176
     1
 40
-0.6
176
     1
 41
30.0
176
     1
 62
     5
 63
     7
421
 16777215
176
     1
 74
     1
176
     1
 91
        4
176
     1
 64
     7
176
     1
 65
   257
176
     1
 75
     1
176
     1
175
     1
176
     1
 42
1.0
176
     1
 92
        0
176
     1
 66
   257
176
     1
 43
1.0
176
     1
 76
     1
176
     1
 77
     6
176
     1
 78
     2
176
     1
 67
     7
176
     1
 79
     5
176
     1
170
     0
176
     1
171
     0
176
     1
290
     0
176
     1
 93
       13
176
     1
 44
0.0
176
     1
173
     0
176
     1
  0
VISUALSTYLE
  5
38
102
{ACAD_REACTORS
330
2A
102
}
330
2A
100
AcDbVisualStyle
  2
Linepattern
 70
    14
177
     2
291
     1
 71
     2
176
     1
 72
     2
176
     1
 73
     0
176
     1
 90
        0
176
     1
 40
-0.6
176
     1
 41
-30.0
176
     1
 62
     5
 63
     7
421
 16777215
176
     1
 74
     1
176
     1
 91
        4
176
     1
 64
     7
176
     1
 65
   257
176
     1
 75
     7
176
     1
175
     7
176
     1
 42
1.0
176
     1
 92
        8
176
     1
 66
     7
176
     1
 43
1.0
176
     1
 76
     1
176
     1
 77
     6
176
     1
 78
     2
176
     1
 67
     7
176
     1
 79
     5
176
     1
170
     0
176
     1
171
     0
176
     1
290
     0
176
     1
 93
        1
176
     1
 44
0.0
176
     1
173
     0
176
     1
  0
VISUALSTYLE
  5
33
102
{ACAD_REACTORS
330
2A
102
}
330
2A
100
AcDbVisualStyle
  2
Realistic
 70
     8
177
     2
291
     0
 71
     2
176
     1
 72
     2
176
     1
 73
     0
176
     1
 90
        0
176
     1
 40
-0.6
176
     1
 41
-30.0
176
     1
 62
     5
 63
     7
421
 16777215
176
     1
 74
     1
176
     1
 91
        0
176
     1
 64
     7
176
     1
 65
   257
176
     1
 75
     1
176
     1
175
     1
176
     1
 42
1.0
176
     1
 92
        8
176
     1
 66
     8
424
  7895160
176
     1
 43
1.0
176
     1
 76
     1
176
     1
 77
     6
176
     1
 78
     2
176
     1
 67
     7
176
     1
 79
     5
176
     1
170
     0
176
     1
171
     0
176
     1
290
     0
176
     1
 93
       13
176
     1
 44
0.0
176
     1
173
     0
176
     1
  0
VISUALSTYLE
  5
37
102
{ACAD_REACTORS
330
2A
102
}
330
2A
100
AcDbVisualStyle
  2
Thicken
 70
    13
177
     2
291
     1
 71
     2
176
     1
 72
     2
176
     1
 73
     0
176
     1
 90
        0
176
     1
 40
-0.6
176
     1
 41
-30.0
176
     1
 62
     5
 63
     7
421
 16777215
176
     1
 74
     1
176
     1
 91
        4
176
     1
 64
     7
176
     1
 65
   257
176
     1
 75
     1
176
     1
175
     1
176
     1
 42
1.0
176
     1
 92
       12
176
     1
 66
     7
176
     1
 43
1.0
176
     1
 76
     1
176
     1
 77
     6
176
     1
 78
     2
176
     1
 67
     7
176
     1
 79
     5
176
     1
170
     0
176
     1
171
     0
176
     1
290
     0
176
     1
 93
        1
176
     1
 44
0.0
176
     1
173
     0
176
     1
  0
ENDSEC
  0
EOF
