  0
SECTION
  2
HEADER
  9
$ACADVER
  1
AC1024
  9
$ACADMAINTVER
 70
     6
  9
$DWGCODEPAGE
  3
UNDEFINED
  9
$INSBASE
 10
0.0
 20
0.0
 30
0.0
  9
$EXTMIN
 10
1.000000000000000E+20
 20
1.000000000000000E+20
 30
1.000000000000000E+20
  9
$EXTMAX
 10
-1.000000000000000E+20
 20
-1.000000000000000E+20
 30
-1.000000000000000E+20
  9
$LIMMIN
 10
0.0
 20
0.0
  9
$LIMMAX
 10
12.0
 20
9.0
  9
$ORTHOMODE
 70
     0
  9
$REGENMODE
 70
     1
  9
$FILLMODE
 70
     1
  9
$QTEXTMODE
 70
     0
  9
$MIRRTEXT
 70
     1
  9
$LTSCALE
 40
1.0
  9
$ATTMODE
 70
     1
  9
$TEXTSIZE
 40
0.2
  9
$TRACEWID
 40
0.05
  9
$TEXTSTYLE
  7
Standard
  9
$CLAYER
  8
0
  9
$CELTYPE
  6
ByLayer
  9
$CECOLOR
 62
   256
  9
$CELTSCALE
 40
1.0
  9
$DISPSILH
 70
     0
  9
$DIMSCALE
 40
1.0
  9
$DIMASZ
 40
0.18
  9
$DIMEXO
 40
0.0625
  9
$DIMDLI
 40
0.38
  9
$DIMRND
 40
0.0
  9
$DIMDLE
 40
0.0
  9
$DIMEXE
 40
0.18
  9
$DIMTP
 40
0.0
  9
$DIMTM
 40
0.0
  9
$DIMTXT
 40
0.18
  9
$DIMCEN
 40
0.09
  9
$DIMTSZ
 40
0.0
  9
$DIMTOL
 70
     0
  9
$DIMLIM
 70
     0
  9
$DIMTIH
 70
     1
  9
$DIMTOH
 70
     1
  9
$DIMSE1
 70
     0
  9
$DIMSE2
 70
     0
  9
$DIMTAD
 70
     0
  9
$DIMZIN
 70
     0
  9
$DIMBLK
  1

  9
$DIMASO
 70
     1
  9
$DIMSHO
 70
     1
  9
$DIMPOST
  1

  9
$DIMAPOST
  1

  9
$DIMALT
 70
     0
  9
$DIMALTD
 70
     2
  9
$DIMALTF
 40
25.4
  9
$DIMLFAC
 40
1.0
  9
$DIMTOFL
 70
     0
  9
$DIMTVP
 40
0.0
  9
$DIMTIX
 70
     0
  9
$DIMSOXD
 70
     0
  9
$DIMSAH
 70
     0
  9
$DIMBLK1
  1

  9
$DIMBLK2
  1

  9
$DIMSTYLE
  2
Standard
  9
$DIMCLRD
 70
     0
  9
$DIMCLRE
 70
     0
  9
$DIMCLRT
 70
     0
  9
$DIMTFAC
 40
1.0
  9
$DIMGAP
 40
0.09
  9
$DIMJUST
 70
     0
  9
$DIMSD1
 70
     0
  9
$DIMSD2
 70
     0
  9
$DIMTOLJ
 70
     1
  9
$DIMTZIN
 70
     0
  9
$DIMALTZ
 70
     0
  9
$DIMALTTZ
 70
     0
  9
$DIMUPT
 70
     0
  9
$DIMDEC
 70
     4
  9
$DIMTDEC
 70
     4
  9
$DIMALTU
 70
     2
  9
$DIMALTTD
 70
     2
  9
$DIMTXSTY
  7
Standard
  9
$DIMAUNIT
 70
     0
  9
$DIMADEC
 70
     0
  9
$DIMALTRND
 40
0.0
  9
$DIMAZIN
 70
     0
  9
$DIMDSEP
 70
    46
  9
$DIMATFIT
 70
     3
  9
$DIMFRAC
 70
     0
  9
$DIMLDRBLK
  1

  9
$DIMLUNIT
 70
     2
  9
$DIMLWD
 70
    -2
  9
$DIMLWE
 70
    -2
  9
$DIMTMOVE
 70
     0
  9
$DIMFXL
 40
1.0
  9
$DIMFXLON
 70
     0
  9
$DIMJOGANG
 40
0.7853981633974483
  9
$DIMTFILL
 70
     0
  9
$DIMTFILLCLR
 70
     0
  9
$DIMARCSYM
 70
     0
  9
$DIMLTYPE
  6

  9
$DIMLTEX1
  6

  9
$DIMLTEX2
  6

  9
$DIMTXTDIRECTION
 70
     0
  9
$LUNITS
 70
     2
  9
$LUPREC
 70
     4
  9
$SKETCHINC
 40
0.1
  9
$FILLETRAD
 40
0.5
  9
$AUNITS
 70
     0
  9
$AUPREC
 70
     0
  9
$MENU
  1
.
  9
$ELEVATION
 40
0.0
  9
$PELEVATION
 40
0.0
  9
$THICKNESS
 40
0.0
  9
$LIMCHECK
 70
     0
  9
$CHAMFERA
 40
0.5
  9
$CHAMFERB
 40
0.5
  9
$CHAMFERC
 40
1.0
  9
$CHAMFERD
 40
0.0
  9
$SKPOLY
 70
     0
  9
$TDCREATE
 40
2457917.625381933
  9
$TDUCREATE
 40
2457917.250381944
  9
$TDUPDATE
 40
2457917.625381933
  9
$TDUUPDATE
 40
2457917.250381944
  9
$TDINDWG
 40
0.0000000116
  9
$TDUSRTIMER
 40
0.0000000116
  9
$USRTIMER
 70
     1
  9
$ANGBASE
 50
0.0
  9
$ANGDIR
 70
     0
  9
$PDMODE
 70
     0
  9
$PDSIZE
 40
0.0
  9
$PLINEWID
 40
0.0
  9
$SPLFRAME
 70
     0
  9
$SPLINETYPE
 70
     6
  9
$SPLINESEGS
 70
     8
  9
$HANDSEED
  5
C1
  9
$SURFTAB1
 70
     6
  9
$SURFTAB2
 70
     6
  9
$SURFTYPE
 70
     6
  9
$SURFU
 70
     6
  9
$SURFV
 70
     6
  9
$UCSBASE
  2

  9
$UCSNAME
  2

  9
$UCSORG
 10
0.0
 20
0.0
 30
0.0
  9
$UCSXDIR
 10
1.0
 20
0.0
 30
0.0
  9
$UCSYDIR
 10
0.0
 20
1.0
 30
0.0
  9
$UCSORTHOREF
  2

  9
$UCSORTHOVIEW
 70
     0
  9
$UCSORGTOP
 10
0.0
 20
0.0
 30
0.0
  9
$UCSORGBOTTOM
 10
0.0
 20
0.0
 30
0.0
  9
$UCSORGLEFT
 10
0.0
 20
0.0
 30
0.0
  9
$UCSORGRIGHT
 10
0.0
 20
0.0
 30
0.0
  9
$UCSORGFRONT
 10
0.0
 20
0.0
 30
0.0
  9
$UCSORGBACK
 10
0.0
 20
0.0
 30
0.0
  9
$PUCSBASE
  2

  9
$PUCSNAME
  2

  9
$PUCSORG
 10
0.0
 20
0.0
 30
0.0
  9
$PUCSXDIR
 10
1.0
 20
0.0
 30
0.0
  9
$PUCSYDIR
 10
0.0
 20
1.0
 30
0.0
  9
$PUCSORTHOREF
  2

  9
$PUCSORTHOVIEW
 70
     0
  9
$PUCSORGTOP
 10
0.0
 20
0.0
 30
0.0
  9
$PUCSORGBOTTOM
 10
0.0
 20
0.0
 30
0.0
  9
$PUCSORGLEFT
 10
0.0
 20
0.0
 30
0.0
  9
$PUCSORGRIGHT
 10
0.0
 20
0.0
 30
0.0
  9
$PUCSORGFRONT
 10
0.0
 20
0.0
 30
0.0
  9
$PUCSORGBACK
 10
0.0
 20
0.0
 30
0.0
  9
$USERI1
 70
     0
  9
$USERI2
 70
     0
  9
$USERI3
 70
     0
  9
$USERI4
 70
     0
  9
$USERI5
 70
     0
  9
$USERR1
 40
0.0
  9
$USERR2
 40
0.0
  9
$USERR3
 40
0.0
  9
$USERR4
 40
0.0
  9
$USERR5
 40
0.0
  9
$WORLDVIEW
 70
     1
  9
$SHADEDGE
 70
     3
  9
$SHADEDIF
 70
    70
  9
$TILEMODE
 70
     1
  9
$MAXACTVP
 70
    64
  9
$PINSBASE
 10
0.0
 20
0.0
 30
0.0
  9
$PLIMCHECK
 70
     0
  9
$PEXTMIN
 10
1.000000000000000E+20
 20
1.000000000000000E+20
 30
1.000000000000000E+20
  9
$PEXTMAX
 10
-1.000000000000000E+20
 20
-1.000000000000000E+20
 30
-1.000000000000000E+20
  9
$PLIMMIN
 10
0.0
 20
0.0
  9
$PLIMMAX
 10
12.0
 20
9.0
  9
$UNITMODE
 70
     0
  9
$VISRETAIN
 70
     1
  9
$PLINEGEN
 70
     0
  9
$PSLTSCALE
 70
     1
  9
$TREEDEPTH
 70
  3020
  9
$CMLSTYLE
  2
Standard
  9
$CMLJUST
 70
     0
  9
$CMLSCALE
 40
1.0
  9
$PROXYGRAPHICS
 70
     1
  9
$MEASUREMENT
 70
     0
  9
$CELWEIGHT
370
    -1
  9
$ENDCAPS
280
     0
  9
$JOINSTYLE
280
     0
  9
$LWDISPLAY
290
     1
  9
$INSUNITS
 70
     1
  9
$HYPERLINKBASE
  1

  9
$STYLESHEET
  1

  9
$XEDIT
290
     1
  9
$CEPSNTYPE
380
     0
  9
$PSTYLEMODE
290
     1
  9
$FINGERPRINTGUID
  2
{68EB849C-9741-99F4-7EF2-8980F6AA620B}
  9
$VERSIONGUID
  2
{FAEB1C32-E019-11D5-929B-00C0DF256EC4}
  9
$EXTNAMES
290
     1
  9
$PSVPSCALE
 40
0.0
  9
$OLESTARTUP
290
     0
  9
$SORTENTS
280
   127
  9
$INDEXCTL
280
     0
  9
$HIDETEXT
280
     1
  9
$XCLIPFRAME
280
     2
  9
$HALOGAP
280
     0
  9
$OBSCOLOR
 70
   257
  9
$OBSLTYPE
280
     0
  9
$INTERSECTIONDISPLAY
280
     0
  9
$INTERSECTIONCOLOR
 70
   257
  9
$DIMASSOC
280
     2
  9
$PROJECTNAME
  1

  9
$CAMERADISPLAY
290
     0
  9
$LENSLENGTH
 40
50.0
  9
$CAMERAHEIGHT
 40
0.0
  9
$STEPSPERSEC
 40
2.0
  9
$STEPSIZE
 40
6.0
  9
$3DDWFPREC
 40
2.0
  9
$PSOLWIDTH
 40
0.25
  9
$PSOLHEIGHT
 40
4.0
  9
$LOFTANG1
 40
1.570796326794897
  9
$LOFTANG2
 40
1.570796326794897
  9
$LOFTMAG1
 40
0.0
  9
$LOFTMAG2
 40
0.0
  9
$LOFTPARAM
 70
     7
  9
$LOFTNORMALS
280
     1
  9
$LATITUDE
 40
37.795
  9
$LONGITUDE
 40
-122.394
  9
$NORTHDIRECTION
 40
0.0
  9
$TIMEZONE
 70
 -8000
  9
$LIGHTGLYPHDISPLAY
280
     1
  9
$TILEMODELIGHTSYNCH
280
     1
  9
$CMATERIAL
347
3C
  9
$SOLIDHIST
280
     1
  9
$SHOWHIST
280
     1
  9
$DWFFRAME
280
     2
  9
$DGNFRAME
280
     2
  9
$REALWORLDSCALE
290
     1
  9
$INTERFERECOLOR
 62
   256
  9
$CSHADOW
280
     0
  9
$SHADOWPLANELOCATION
 40
0.0
  0
ENDSEC
  0
SECTION
  2
CLASSES
  0
CLASS
  1
ACDBDICTIONARYWDFLT
  2
AcDbDictionaryWithDefault
  3
ObjectDBX Classes
 90
        0
 91
        4
280
     0
281
     0
  0
CLASS
  1
VISUALSTYLE
  2
AcDbVisualStyle
  3
ObjectDBX Classes
 90
     4095
 91
        4
280
     0
281
     0
  0
CLASS
  1
MATERIAL
  2
AcDbMaterial
  3
ObjectDBX Classes
 90
     1153
 91
        4
280
     0
281
     0
  0
CLASS
  1
SUN
  2
AcDbSun
  3
SCENEOE
 90
     1024
 91
        4
280
     0
281
     0
  0
ENDSEC
  0
SECTION
  2
TABLES
  0
TABLE
  2
VPORT
  5
8
330
0
100
AcDbSymbolTable
 70
     1
  0
VPORT
  5
29
330
8
100
AcDbSymbolTableRecord
100
AcDbViewportTableRecord
  2
*Active
 70
     0
 10
0.0
 20
0.0
 11
1.0
 21
1.0
 12
0.0
 22
0.0
 13
0.0
 23
0.0
 14
0.5
 24
0.5
 15
0.5
 25
0.5
 16
0.0
 26
0.0
 36
1.0
 17
91.00082462281999
 27
-128.4993055234307
 37
0.0
 40
256.9986110468615
 41
0.7081814508812795
 42
50.0
 43
0.0
 44
0.0
 50
0.0
 51
0.0
 71
     0
 72
   100
 73
     1
 74
     3
 75
     0
 76
     0
 77
     0
 78
     0
281
     0
 65
     1
110
0.0
120
0.0
130
0.0
111
1.0
121
0.0
131
0.0
112
0.0
122
1.0
132
0.0
 79
     0
146
0.0
 60
     3
 61
     5
292
     1
282
     1
141
0.0
142
0.0
 63
   250
361
3F
  0
ENDTAB
  0
TABLE
  2
LTYPE
  5
5
330
0
100
AcDbSymbolTable
 70
     1
  0
LTYPE
  5
14
330
5
100
AcDbSymbolTableRecord
100
AcDbLinetypeTableRecord
  2
ByBlock
 70
     0
  3

 72
    65
 73
     0
 40
0.0
  0
LTYPE
  5
15
330
5
100
AcDbSymbolTableRecord
100
AcDbLinetypeTableRecord
  2
ByLayer
 70
     0
  3

 72
    65
 73
     0
 40
0.0
  0
LTYPE
  5
16
330
5
100
AcDbSymbolTableRecord
100
AcDbLinetypeTableRecord
  2
Continuous
 70
     0
  3
Solid line
 72
    65
 73
     0
 40
0.0
  0
ENDTAB
  0
TABLE
  2
LAYER
  5
2
330
0
100
AcDbSymbolTable
 70
     2
  0
LAYER
  5
10
330
2
100
AcDbSymbolTableRecord
100
AcDbLayerTableRecord
  2
0
 70
     0
 62
     7
  6
Continuous
370
    -3
390
F
347
3E
  0
LAYER
  5
40
330
2
100
AcDbSymbolTableRecord
100
AcDbLayerTableRecord
  2
_U+30EC_U+30A4_U+30E4_U+30FC 1
 70
     0
 62
     7
  6
Continuous
370
    -3
390
F
347
3E
  0
ENDTAB
  0
TABLE
  2
STYLE
  5
3
330
0
100
AcDbSymbolTable
 70
     1
  0
STYLE
  5
11
330
3
100
AcDbSymbolTableRecord
100
AcDbTextStyleTableRecord
  2
Standard
 70
     0
 40
0.0
 41
1.0
 50
0.0
 71
     0
 42
0.2
  3
txt
  4

  0
ENDTAB
  0
TABLE
  2
VIEW
  5
6
330
0
100
AcDbSymbolTable
 70
     0
  0
ENDTAB
  0
TABLE
  2
UCS
  5
7
330
0
100
AcDbSymbolTable
 70
     0
  0
ENDTAB
  0
TABLE
  2
APPID
  5
9
330
0
100
AcDbSymbolTable
 70
     1
  0
APPID
  5
12
330
9
100
AcDbSymbolTableRecord
100
AcDbRegAppTableRecord
  2
ACAD
 70
     0
  0
ENDTAB
  0
TABLE
  2
DIMSTYLE
  5
A
330
0
100
AcDbSymbolTable
 70
     1
100
AcDbDimStyleTable
  0
DIMSTYLE
105
27
330
A
100
AcDbSymbolTableRecord
100
AcDbDimStyleTableRecord
  2
Standard
 70
     0
178
     0
340
11
  0
ENDTAB
  0
TABLE
  2
BLOCK_RECORD
  5
1
330
0
100
AcDbSymbolTable
 70
     5
  0
BLOCK_RECORD
  5
1F
330
1
100
AcDbSymbolTableRecord
100
AcDbBlockTableRecord
  2
*Model_Space
340
22
 70
     0
280
     1
281
     0
  0
BLOCK_RECORD
  5
1B
330
1
100
AcDbSymbolTableRecord
100
AcDbBlockTableRecord
  2
*Paper_Space
340
1E
 70
     0
280
     1
281
     0
  0
BLOCK_RECORD
  5
23
330
1
100
AcDbSymbolTableRecord
100
AcDbBlockTableRecord
  2
*Paper_Space0
340
26
 70
     0
280
     1
281
     0
  0
BLOCK_RECORD
  5
A0
330
1
100
AcDbSymbolTableRecord
100
AcDbBlockTableRecord
  2
block 2
340
0
102
{BLKREFS
331
A1
102
}
 70
     0
280
     1
281
     0
  0
BLOCK_RECORD
  5
A7
330
1
100
AcDbSymbolTableRecord
100
AcDbBlockTableRecord
  2
block 3
340
0
102
{BLKREFS
331
A8
102
}
 70
     0
280
     1
281
     0
  0
BLOCK_RECORD
  5
AF
330
1
100
AcDbSymbolTableRecord
100
AcDbBlockTableRecord
  2
block 4
340
0
102
{BLKREFS
331
B0
102
}
 70
     0
280
     1
281
     0
  0
BLOCK_RECORD
  5
B7
330
1
100
AcDbSymbolTableRecord
100
AcDbBlockTableRecord
  2
block 5
340
0
102
{BLKREFS
331
B8
102
}
 70
     0
280
     1
281
     0
  0
ENDTAB
  0
ENDSEC
  0
SECTION
  2
BLOCKS
  0
BLOCK
  5
20
330
1F
100
AcDbEntity
  8
0
100
AcDbBlockBegin
  2
*Model_Space
 70
     0
 10
0.0
 20
0.0
 30
0.0
  3
*Model_Space
  1

  0
ENDBLK
  5
21
330
1F
100
AcDbEntity
  8
0
100
AcDbBlockEnd
  0
BLOCK
  5
1C
330
1B
100
AcDbEntity
 67
     1
  8
0
100
AcDbBlockBegin
  2
*Paper_Space
 70
     0
 10
0.0
 20
0.0
 30
0.0
  3
*Paper_Space
  1

  0
ENDBLK
  5
1D
330
1B
100
AcDbEntity
 67
     1
  8
0
100
AcDbBlockEnd
  0
BLOCK
  5
24
330
23
100
AcDbEntity
  8
0
100
AcDbBlockBegin
  2
*Paper_Space0
 70
     0
 10
0.0
 20
0.0
 30
0.0
  3
*Paper_Space0
  1

  0
ENDBLK
  5
25
330
23
100
AcDbEntity
  8
0
100
AcDbBlockEnd
  0
BLOCK
  5
A2
330
A0
100
AcDbEntity
  8
0
100
AcDbBlockBegin
  2
block 2
 70
     0
 10
0.0
 20
0.0
 30
0.0
  3
block 2
  1

  0
SPLINE
  5
A4
330
A0
100
AcDbEntity
  8
_U+30EC_U+30A4_U+30E4_U+30FC 1
370
     0
100
AcDbSpline
210
0.0
220
0.0
230
1.0
 70
    11
 71
     3
 72
    32
 73
    28
 74
     0
 42
0.0000000001
 43
0.0000000001
 12
1.0
 22
0.0
 32
0.0
 13
1.0
 23
0.0
 33
0.0
 40
0.0
 40
0.0
 40
0.0
 40
0.0
 40
1.0
 40
1.0
 40
1.0
 40
2.0
 40
2.0
 40
2.0
 40
3.0
 40
3.0
 40
3.0
 40
4.0
 40
4.0
 40
4.0
 40
5.0
 40
5.0
 40
5.0
 40
6.0
 40
6.0
 40
6.0
 40
7.0
 40
7.0
 40
7.0
 40
8.0
 40
8.0
 40
8.0
 40
9.0
 40
9.0
 40
9.0
 40
9.0
 10
104.8621608895831
 20
-136.8274793494737
 30
0.0
 10
104.8621608895831
 20
-137.3790391366622
 30
0.0
 10
104.3081895355549
 20
-137.3879963849238
 30
0.0
 10
104.0942491059209
 20
-137.3879963849238
 30
0.0
 10
103.8637722179577
 20
-137.3879963849238
 30
0.0
 10
103.2164387762792
 20
-137.3676703215609
 30
0.0
 10
103.2164387762792
 20
-136.7864827131992
 30
0.0
 10
103.2164387762792
 20
-136.6011365760928
 30
0.0
 10
103.2863742146298
 20
-136.3389648096653
 30
0.0
 10
103.6184814194079
 20
-136.2983126829393
 30
0.0
 10
103.6184814194079
 20
-136.2983126829393
 30
0.0
 10
103.6184814194079
 20
-136.5267225136114
 30
0.0
 10
103.6184814194079
 20
-136.5267225136114
 30
0.0
 10
103.5612928343527
 20
-136.5380913287127
 30
0.0
 10
103.413153728487
 20
-136.5718532644682
 30
0.0
 10
103.413153728487
 20
-136.7888942800389
 30
0.0
 10
103.413153728487
 20
-137.1010199310025
 30
0.0
 10
103.7411268186828
 20
-137.1437391150196
 30
0.0
 10
103.9461100000551
 20
-137.1575194969606
 30
0.0
 10
103.86790633254
 20
-137.0579562374369
 30
0.0
 10
103.8086506901937
 20
-136.9856092322467
 30
0.0
 10
103.8086506901937
 20
-136.79096133733
 30
0.0
 10
103.8086506901937
 20
-136.5990695188016
 30
0.0
 10
103.9168266884305
 20
-136.2755750527367
 30
0.0
 10
104.3230034461415
 20
-136.2755750527367
 30
0.0
 10
104.6423637976241
 20
-136.2755750527367
 30
0.0
 10
104.8621608895831
 20
-136.4881374441766
 30
0.0
 10
104.8621608895831
 20
-136.8274793494737
 30
0.0
  0
SPLINE
  5
A5
330
A0
100
AcDbEntity
  8
_U+30EC_U+30A4_U+30E4_U+30FC 1
370
     0
100
AcDbSpline
210
0.0
220
0.0
230
1.0
 70
    11
 71
     3
 72
    17
 73
    13
 74
     0
 42
0.0000000001
 43
0.0000000001
 12
1.0
 22
0.0
 32
0.0
 13
1.0
 23
0.0
 33
0.0
 40
0.0
 40
0.0
 40
0.0
 40
0.0
 40
1.0
 40
1.0
 40
1.0
 40
2.0
 40
2.0
 40
2.0
 40
3.0
 40
3.0
 40
3.0
 40
4.0
 40
4.0
 40
4.0
 40
4.0
 10
104.0032985851103
 20
-136.8092203434019
 30
0.0
 10
104.0032985851103
 20
-137.0896511159012
 30
0.0
 10
104.2148274479046
 20
-137.1303032426271
 30
0.0
 10
104.3312716753061
 20
-137.1303032426271
 30
0.0
 10
104.5069715450538
 20
-137.1303032426271
 30
0.0
 10
104.6699245615061
 20
-137.0286729258123
 30
0.0
 10
104.6699245615061
 20
-136.8319579736045
 30
0.0
 10
104.6699245615061
 20
-136.7031114024562
 30
0.0
 10
104.6106689191598
 20
-136.5153536985101
 30
0.0
 10
104.3250705034326
 20
-136.5153536985101
 30
0.0
 10
104.1007947873429
 20
-136.5153536985101
 30
0.0
 10
104.0032985851103
 20
-136.6645263330214
 30
0.0
 10
104.0032985851103
 20
-136.8092203434019
 30
0.0
  0
HATCH
  5
A6
330
A0
100
AcDbEntity
  8
_U+30EC_U+30A4_U+30E4_U+30FC 1
 62
   179
420
  2234388
100
AcDbHatch
 10
0.0
 20
0.0
 30
0.0
210
0.0
220
0.0
230
1.0
  2
SOLID
 70
     1
 71
     0
 91
        2
 92
        1
 93
        1
 72
     4
 94
        3
 73
     0
 74
     1
 95
       32
 96
       28
 40
0.0
 40
0.0
 40
0.0
 40
0.0
 40
1.0
 40
1.0
 40
1.0
 40
2.0
 40
2.0
 40
2.0
 40
3.0
 40
3.0
 40
3.0
 40
4.0
 40
4.0
 40
4.0
 40
5.0
 40
5.0
 40
5.0
 40
6.0
 40
6.0
 40
6.0
 40
7.0
 40
7.0
 40
7.0
 40
8.0
 40
8.0
 40
8.0
 40
9.0
 40
9.0
 40
9.0
 40
9.0
 10
104.8621608895831
 20
-136.8274793494737
 10
104.8621608895831
 20
-137.3790391366622
 10
104.3081895355549
 20
-137.3879963849238
 10
104.0942491059209
 20
-137.3879963849238
 10
103.8637722179577
 20
-137.3879963849238
 10
103.2164387762792
 20
-137.3676703215609
 10
103.2164387762792
 20
-136.7864827131992
 10
103.2164387762792
 20
-136.6011365760928
 10
103.2863742146298
 20
-136.3389648096653
 10
103.6184814194079
 20
-136.2983126829393
 10
103.6184814194079
 20
-136.2983126829393
 10
103.6184814194079
 20
-136.5267225136114
 10
103.6184814194079
 20
-136.5267225136114
 10
103.5612928343527
 20
-136.5380913287127
 10
103.413153728487
 20
-136.5718532644682
 10
103.413153728487
 20
-136.7888942800389
 10
103.413153728487
 20
-137.1010199310025
 10
103.7411268186828
 20
-137.1437391150196
 10
103.9461100000551
 20
-137.1575194969606
 10
103.86790633254
 20
-137.0579562374369
 10
103.8086506901937
 20
-136.9856092322467
 10
103.8086506901937
 20
-136.79096133733
 10
103.8086506901937
 20
-136.5990695188016
 10
103.9168266884305
 20
-136.2755750527367
 10
104.3230034461415
 20
-136.2755750527367
 10
104.6423637976241
 20
-136.2755750527367
 10
104.8621608895831
 20
-136.4881374441766
 10
104.8621608895831
 20
-136.8274793494737
 97
        0
 97
        0
 92
        1
 93
        1
 72
     4
 94
        3
 73
     0
 74
     1
 95
       17
 96
       13
 40
0.0
 40
0.0
 40
0.0
 40
0.0
 40
1.0
 40
1.0
 40
1.0
 40
2.0
 40
2.0
 40
2.0
 40
3.0
 40
3.0
 40
3.0
 40
4.0
 40
4.0
 40
4.0
 40
4.0
 10
104.0032985851103
 20
-136.8092203434019
 10
104.0032985851103
 20
-137.0896511159012
 10
104.2148274479046
 20
-137.1303032426271
 10
104.3312716753061
 20
-137.1303032426271
 10
104.5069715450538
 20
-137.1303032426271
 10
104.6699245615061
 20
-137.0286729258123
 10
104.6699245615061
 20
-136.8319579736045
 10
104.6699245615061
 20
-136.7031114024562
 10
104.6106689191598
 20
-136.5153536985101
 10
104.3250705034326
 20
-136.5153536985101
 10
104.1007947873429
 20
-136.5153536985101
 10
104.0032985851103
 20
-136.6645263330214
 10
104.0032985851103
 20
-136.8092203434019
 97
        0
 97
        0
 75
     2
 76
     1
 98
        0
  0
ENDBLK
  5
A3
330
A0
100
AcDbEntity
  8
0
100
AcDbBlockEnd
  0
BLOCK
  5
A9
330
A7
100
AcDbEntity
  8
0
100
AcDbBlockBegin
  2
block 3
 70
     0
 10
0.0
 20
0.0
 30
0.0
  3
block 3
  1

  0
SPLINE
  5
AB
330
A7
100
AcDbEntity
  8
_U+30EC_U+30A4_U+30E4_U+30FC 1
370
     0
100
AcDbSpline
210
0.0
220
0.0
230
1.0
 70
    11
 71
     3
 72
    26
 73
    22
 74
     0
 42
0.0000000001
 43
0.0000000001
 12
1.0
 22
0.0
 32
0.0
 13
1.0
 23
0.0
 33
0.0
 40
0.0
 40
0.0
 40
0.0
 40
0.0
 40
1.0
 40
1.0
 40
1.0
 40
2.0
 40
2.0
 40
2.0
 40
3.0
 40
3.0
 40
3.0
 40
4.0
 40
4.0
 40
4.0
 40
5.0
 40
5.0
 40
5.0
 40
6.0
 40
6.0
 40
6.0
 40
7.0
 40
7.0
 40
7.0
 40
7.0
 10
104.8115179859499
 20
-127.5129746860037
 30
0.0
 10
104.8115179859499
 20
-127.5129746860037
 30
0.0
 10
103.7073648829273
 20
-127.5129746860037
 30
0.0
 10
103.7073648829273
 20
-127.5129746860037
 30
0.0
 10
103.7073648829273
 20
-127.5129746860037
 30
0.0
 10
103.7073648829273
 20
-127.8654079541448
 30
0.0
 10
103.7073648829273
 20
-127.8654079541448
 30
0.0
 10
103.7073648829273
 20
-127.8654079541448
 30
0.0
 10
103.5592257770616
 20
-127.8654079541448
 30
0.0
 10
103.5592257770616
 20
-127.8654079541448
 30
0.0
 10
103.544411866475
 20
-127.510563119164
 30
0.0
 10
103.3814588500227
 20
-127.4609537441764
 30
0.0
 10
103.2670816799124
 20
-127.4292588657121
 30
0.0
 10
103.2670816799124
 20
-127.4292588657121
 30
0.0
 10
103.2670816799124
 20
-127.2731960402303
 30
0.0
 10
103.2670816799124
 20
-127.2731960402303
 30
0.0
 10
103.2670816799124
 20
-127.2731960402303
 30
0.0
 10
104.8115179859499
 20
-127.2731960402303
 30
0.0
 10
104.8115179859499
 20
-127.2731960402303
 30
0.0
 10
104.8115179859499
 20
-127.2731960402303
 30
0.0
 10
104.8115179859499
 20
-127.5129746860037
 30
0.0
 10
104.8115179859499
 20
-127.5129746860037
 30
0.0
  0
HATCH
  5
AC
330
A7
100
AcDbEntity
  8
_U+30EC_U+30A4_U+30E4_U+30FC 1
 62
   179
420
  2234388
100
AcDbHatch
 10
0.0
 20
0.0
 30
0.0
210
0.0
220
0.0
230
1.0
  2
SOLID
 70
     1
 71
     0
 91
        1
 92
        1
 93
        1
 72
     4
 94
        3
 73
     0
 74
     1
 95
       26
 96
       22
 40
0.0
 40
0.0
 40
0.0
 40
0.0
 40
1.0
 40
1.0
 40
1.0
 40
2.0
 40
2.0
 40
2.0
 40
3.0
 40
3.0
 40
3.0
 40
4.0
 40
4.0
 40
4.0
 40
5.0
 40
5.0
 40
5.0
 40
6.0
 40
6.0
 40
6.0
 40
7.0
 40
7.0
 40
7.0
 40
7.0
 10
104.8115179859499
 20
-127.5129746860037
 10
104.8115179859499
 20
-127.5129746860037
 10
103.7073648829273
 20
-127.5129746860037
 10
103.7073648829273
 20
-127.5129746860037
 10
103.7073648829273
 20
-127.5129746860037
 10
103.7073648829273
 20
-127.8654079541448
 10
103.7073648829273
 20
-127.8654079541448
 10
103.7073648829273
 20
-127.8654079541448
 10
103.5592257770616
 20
-127.8654079541448
 10
103.5592257770616
 20
-127.8654079541448
 10
103.544411866475
 20
-127.510563119164
 10
103.3814588500227
 20
-127.4609537441764
 10
103.2670816799124
 20
-127.4292588657121
 10
103.2670816799124
 20
-127.4292588657121
 10
103.2670816799124
 20
-127.2731960402303
 10
103.2670816799124
 20
-127.2731960402303
 10
103.2670816799124
 20
-127.2731960402303
 10
104.8115179859499
 20
-127.2731960402303
 10
104.8115179859499
 20
-127.2731960402303
 10
104.8115179859499
 20
-127.2731960402303
 10
104.8115179859499
 20
-127.5129746860037
 10
104.8115179859499
 20
-127.5129746860037
 97
        0
 97
        0
 75
     2
 76
     1
 98
        0
  0
SPLINE
  5
AD
330
A7
100
AcDbEntity
  8
_U+30EC_U+30A4_U+30E4_U+30FC 1
370
     0
100
AcDbSpline
210
0.0
220
0.0
230
1.0
 70
    11
 71
     3
 72
    44
 73
    40
 74
     0
 42
0.0000000001
 43
0.0000000001
 12
1.0
 22
0.0
 32
0.0
 13
1.0
 23
0.0
 33
0.0
 40
0.0
 40
0.0
 40
0.0
 40
0.0
 40
1.0
 40
1.0
 40
1.0
 40
2.0
 40
2.0
 40
2.0
 40
3.0
 40
3.0
 40
3.0
 40
4.0
 40
4.0
 40
4.0
 40
5.0
 40
5.0
 40
5.0
 40
6.0
 40
6.0
 40
6.0
 40
7.0
 40
7.0
 40
7.0
 40
8.0
 40
8.0
 40
8.0
 40
9.0
 40
9.0
 40
9.0
 40
10.0
 40
10.0
 40
10.0
 40
11.0
 40
11.0
 40
11.0
 40
12.0
 40
12.0
 40
12.0
 40
13.0
 40
13.0
 40
13.0
 40
13.0
 10
104.2296413584912
 20
-126.103586122988
 30
0.0
 10
104.3884602603612
 20
-126.3364745777909
 30
0.0
 10
104.4625298132941
 20
-126.4360378373146
 30
0.0
 10
104.606190295029
 20
-126.4880587791419
 30
0.0
 10
104.606190295029
 20
-126.4880587791419
 30
0.0
 10
104.606190295029
 20
-125.6557237099055
 30
0.0
 10
104.606190295029
 20
-125.6557237099055
 30
0.0
 10
104.606190295029
 20
-125.6557237099055
 30
0.0
 10
104.8115179859499
 20
-125.6557237099055
 30
0.0
 10
104.8115179859499
 20
-125.6557237099055
 30
0.0
 10
104.8115179859499
 20
-125.6557237099055
 30
0.0
 10
104.8115179859499
 20
-126.7547091697002
 30
0.0
 10
104.8115179859499
 20
-126.7547091697002
 30
0.0
 10
104.453917074581
 20
-126.7206027243962
 30
0.0
 10
104.3757134070658
 20
-126.6506672860457
 30
0.0
 10
104.0773681380432
 20
-126.2393228851068
 30
0.0
 10
103.8785861285442
 20
-125.965782303578
 30
0.0
 10
103.8107177474848
 20
-125.8955023556789
 30
0.0
 10
103.6732584376234
 20
-125.8955023556789
 30
0.0
 10
103.5547471529308
 20
-125.8955023556789
 30
0.0
 10
103.4238335244913
 20
-125.972327985
 30
0.0
 10
103.4238335244913
 20
-126.1828233191487
 30
0.0
 10
103.4238335244913
 20
-126.4608425248084
 30
0.0
 10
103.6543104124545
 20
-126.4697997730701
 30
0.0
 10
103.7707546398559
 20
-126.4742783972009
 30
0.0
 10
103.7707546398559
 20
-126.4742783972009
 30
0.0
 10
103.7707546398559
 20
-126.7140570429743
 30
0.0
 10
103.7707546398559
 20
-126.7140570429743
 30
0.0
 10
103.6436306164502
 20
-126.7050997947126
 30
0.0
 10
103.5316650131796
 20
-126.6937309796113
 30
0.0
 10
103.413153728487
 20
-126.60760359248
 30
0.0
 10
103.2522677693258
 20
-126.490125836433
 30
0.0
 10
103.2185058335704
 20
-126.2913438269341
 30
0.0
 10
103.2185058335704
 20
-126.1669758799166
 30
0.0
 10
103.2185058335704
 20
-125.8706976681851
 30
0.0
 10
103.4024739324827
 20
-125.6491780284835
 30
0.0
 10
103.6753254949145
 20
-125.6491780284835
 30
0.0
 10
103.9040798351351
 20
-125.6491780284835
 30
0.0
 10
104.0032985851103
 20
-125.7735459755011
 30
0.0
 10
104.2296413584912
 20
-126.103586122988
 30
0.0
  0
HATCH
  5
AE
330
A7
100
AcDbEntity
  8
_U+30EC_U+30A4_U+30E4_U+30FC 1
 62
   179
420
  2234388
100
AcDbHatch
 10
0.0
 20
0.0
 30
0.0
210
0.0
220
0.0
230
1.0
  2
SOLID
 70
     1
 71
     0
 91
        1
 92
        1
 93
        1
 72
     4
 94
        3
 73
     0
 74
     1
 95
       44
 96
       40
 40
0.0
 40
0.0
 40
0.0
 40
0.0
 40
1.0
 40
1.0
 40
1.0
 40
2.0
 40
2.0
 40
2.0
 40
3.0
 40
3.0
 40
3.0
 40
4.0
 40
4.0
 40
4.0
 40
5.0
 40
5.0
 40
5.0
 40
6.0
 40
6.0
 40
6.0
 40
7.0
 40
7.0
 40
7.0
 40
8.0
 40
8.0
 40
8.0
 40
9.0
 40
9.0
 40
9.0
 40
10.0
 40
10.0
 40
10.0
 40
11.0
 40
11.0
 40
11.0
 40
12.0
 40
12.0
 40
12.0
 40
13.0
 40
13.0
 40
13.0
 40
13.0
 10
104.2296413584912
 20
-126.103586122988
 10
104.3884602603612
 20
-126.3364745777909
 10
104.4625298132941
 20
-126.4360378373146
 10
104.606190295029
 20
-126.4880587791419
 10
104.606190295029
 20
-126.4880587791419
 10
104.606190295029
 20
-125.6557237099055
 10
104.606190295029
 20
-125.6557237099055
 10
104.606190295029
 20
-125.6557237099055
 10
104.8115179859499
 20
-125.6557237099055
 10
104.8115179859499
 20
-125.6557237099055
 10
104.8115179859499
 20
-125.6557237099055
 10
104.8115179859499
 20
-126.7547091697002
 10
104.8115179859499
 20
-126.7547091697002
 10
104.453917074581
 20
-126.7206027243962
 10
104.3757134070658
 20
-126.6506672860457
 10
104.0773681380432
 20
-126.2393228851068
 10
103.8785861285442
 20
-125.965782303578
 10
103.8107177474848
 20
-125.8955023556789
 10
103.6732584376234
 20
-125.8955023556789
 10
103.5547471529308
 20
-125.8955023556789
 10
103.4238335244913
 20
-125.972327985
 10
103.4238335244913
 20
-126.1828233191487
 10
103.4238335244913
 20
-126.4608425248084
 10
103.6543104124545
 20
-126.4697997730701
 10
103.7707546398559
 20
-126.4742783972009
 10
103.7707546398559
 20
-126.4742783972009
 10
103.7707546398559
 20
-126.7140570429743
 10
103.7707546398559
 20
-126.7140570429743
 10
103.6436306164502
 20
-126.7050997947126
 10
103.5316650131796
 20
-126.6937309796113
 10
103.413153728487
 20
-126.60760359248
 10
103.2522677693258
 20
-126.490125836433
 10
103.2185058335704
 20
-126.2913438269341
 10
103.2185058335704
 20
-126.1669758799166
 10
103.2185058335704
 20
-125.8706976681851
 10
103.4024739324827
 20
-125.6491780284835
 10
103.6753254949145
 20
-125.6491780284835
 10
103.9040798351351
 20
-125.6491780284835
 10
104.0032985851103
 20
-125.7735459755011
 10
104.2296413584912
 20
-126.103586122988
 97
        0
 97
        0
 75
     2
 76
     1
 98
        0
  0
ENDBLK
  5
AA
330
A7
100
AcDbEntity
  8
0
100
AcDbBlockEnd
  0
BLOCK
  5
B1
330
AF
100
AcDbEntity
  8
0
100
AcDbBlockBegin
  2
block 4
 70
     0
 10
0.0
 20
0.0
 30
0.0
  3
block 4
  1

  0
SPLINE
  5
B3
330
AF
100
AcDbEntity
  8
_U+30EC_U+30A4_U+30E4_U+30FC 1
370
     0
100
AcDbSpline
210
0.0
220
0.0
230
1.0
 70
    11
 71
     3
 72
    26
 73
    22
 74
     0
 42
0.0000000001
 43
0.0000000001
 12
1.0
 22
0.0
 32
0.0
 13
1.0
 23
0.0
 33
0.0
 40
0.0
 40
0.0
 40
0.0
 40
0.0
 40
1.0
 40
1.0
 40
1.0
 40
2.0
 40
2.0
 40
2.0
 40
3.0
 40
3.0
 40
3.0
 40
4.0
 40
4.0
 40
4.0
 40
5.0
 40
5.0
 40
5.0
 40
6.0
 40
6.0
 40
6.0
 40
7.0
 40
7.0
 40
7.0
 40
7.0
 10
87.01225990663235
 20
-116.185328475728
 30
0.0
 10
87.01225990663235
 20
-116.185328475728
 30
0.0
 10
87.01225990663235
 20
-115.0810031179311
 30
0.0
 10
87.01225990663235
 20
-115.0810031179311
 30
0.0
 10
87.01225990663235
 20
-115.0810031179311
 30
0.0
 10
86.6598266384913
 20
-115.0810031179311
 30
0.0
 10
86.6598266384913
 20
-115.0810031179311
 30
0.0
 10
86.6598266384913
 20
-115.0810031179311
 30
0.0
 10
86.6598266384913
 20
-114.9330362668397
 30
0.0
 10
86.6598266384913
 20
-114.9330362668397
 30
0.0
 10
87.01467147347203
 20
-114.9182223562531
 30
0.0
 10
87.06428084845963
 20
-114.7552693398008
 30
0.0
 10
87.09597572692392
 20
-114.6410644244647
 30
0.0
 10
87.09597572692392
 20
-114.6410644244647
 30
0.0
 10
87.25203855240575
 20
-114.6410644244647
 30
0.0
 10
87.25203855240575
 20
-114.6410644244647
 30
0.0
 10
87.25203855240575
 20
-114.6410644244647
 30
0.0
 10
87.25203855240575
 20
-116.185328475728
 30
0.0
 10
87.25203855240575
 20
-116.185328475728
 30
0.0
 10
87.25203855240575
 20
-116.185328475728
 30
0.0
 10
87.01225990663235
 20
-116.185328475728
 30
0.0
 10
87.01225990663235
 20
-116.185328475728
 30
0.0
  0
HATCH
  5
B4
330
AF
100
AcDbEntity
  8
_U+30EC_U+30A4_U+30E4_U+30FC 1
 62
   179
420
  2234388
100
AcDbHatch
 10
0.0
 20
0.0
 30
0.0
210
0.0
220
0.0
230
1.0
  2
SOLID
 70
     1
 71
     0
 91
        1
 92
        1
 93
        1
 72
     4
 94
        3
 73
     0
 74
     1
 95
       26
 96
       22
 40
0.0
 40
0.0
 40
0.0
 40
0.0
 40
1.0
 40
1.0
 40
1.0
 40
2.0
 40
2.0
 40
2.0
 40
3.0
 40
3.0
 40
3.0
 40
4.0
 40
4.0
 40
4.0
 40
5.0
 40
5.0
 40
5.0
 40
6.0
 40
6.0
 40
6.0
 40
7.0
 40
7.0
 40
7.0
 40
7.0
 10
87.01225990663235
 20
-116.185328475728
 10
87.01225990663235
 20
-116.185328475728
 10
87.01225990663235
 20
-115.0810031179311
 10
87.01225990663235
 20
-115.0810031179311
 10
87.01225990663235
 20
-115.0810031179311
 10
86.6598266384913
 20
-115.0810031179311
 10
86.6598266384913
 20
-115.0810031179311
 10
86.6598266384913
 20
-115.0810031179311
 10
86.6598266384913
 20
-114.9330362668397
 10
86.6598266384913
 20
-114.9330362668397
 10
87.01467147347203
 20
-114.9182223562531
 10
87.06428084845963
 20
-114.7552693398008
 10
87.09597572692392
 20
-114.6410644244647
 10
87.09597572692392
 20
-114.6410644244647
 10
87.25203855240575
 20
-114.6410644244647
 10
87.25203855240575
 20
-114.6410644244647
 10
87.25203855240575
 20
-114.6410644244647
 10
87.25203855240575
 20
-116.185328475728
 10
87.25203855240575
 20
-116.185328475728
 10
87.25203855240575
 20
-116.185328475728
 10
87.01225990663235
 20
-116.185328475728
 10
87.01225990663235
 20
-116.185328475728
 97
        0
 97
        0
 75
     2
 76
     1
 98
        0
  0
SPLINE
  5
B5
330
AF
100
AcDbEntity
  8
_U+30EC_U+30A4_U+30E4_U+30FC 1
370
     0
100
AcDbSpline
210
0.0
220
0.0
230
1.0
 70
    11
 71
     3
 72
    44
 73
    40
 74
     0
 42
0.0000000001
 43
0.0000000001
 12
1.0
 22
0.0
 32
0.0
 13
1.0
 23
0.0
 33
0.0
 40
0.0
 40
0.0
 40
0.0
 40
0.0
 40
1.0
 40
1.0
 40
1.0
 40
2.0
 40
2.0
 40
2.0
 40
3.0
 40
3.0
 40
3.0
 40
4.0
 40
4.0
 40
4.0
 40
5.0
 40
5.0
 40
5.0
 40
6.0
 40
6.0
 40
6.0
 40
7.0
 40
7.0
 40
7.0
 40
8.0
 40
8.0
 40
8.0
 40
9.0
 40
9.0
 40
9.0
 40
10.0
 40
10.0
 40
10.0
 40
11.0
 40
11.0
 40
11.0
 40
12.0
 40
12.0
 40
12.0
 40
13.0
 40
13.0
 40
13.0
 40
13.0
 10
88.42164846964806
 20
-115.6036241030435
 30
0.0
 10
88.18876001484517
 20
-115.7622707501393
 30
0.0
 10
88.08919675532145
 20
-115.8363403030722
 30
0.0
 10
88.03752032304271
 20
-115.9801730395813
 30
0.0
 10
88.03752032304271
 20
-115.9801730395813
 30
0.0
 10
88.86916637318201
 20
-115.9801730395813
 30
0.0
 10
88.86916637318201
 20
-115.9801730395813
 30
0.0
 10
88.86916637318201
 20
-115.9801730395813
 30
0.0
 10
88.86916637318201
 20
-116.185328475728
 30
0.0
 10
88.86916637318201
 20
-116.185328475728
 30
0.0
 10
88.86916637318201
 20
-116.185328475728
 30
0.0
 10
87.77052542293585
 20
-116.185328475728
 30
0.0
 10
87.77052542293585
 20
-116.185328475728
 30
0.0
 10
87.80463186823982
 20
-115.8277275643591
 30
0.0
 10
87.8745673065904
 20
-115.7495238968439
 30
0.0
 10
88.28591170752922
 20
-115.4511786278212
 30
0.0
 10
88.55945228905806
 20
-115.2523966183223
 30
0.0
 10
88.62973223695715
 20
-115.1847004920372
 30
0.0
 10
88.62973223695715
 20
-115.0472411821757
 30
0.0
 10
88.62973223695715
 20
-114.9287298974831
 30
0.0
 10
88.55290660763609
 20
-114.7976440142693
 30
0.0
 10
88.34241127348731
 20
-114.7976440142693
 30
0.0
 10
88.06439206782765
 20
-114.7976440142693
 30
0.0
 10
88.055434819566
 20
-115.0281209022326
 30
0.0
 10
88.05095619543518
 20
-115.144565129634
 30
0.0
 10
88.05095619543518
 20
-115.144565129634
 30
0.0
 10
87.81117754966179
 20
-115.144565129634
 30
0.0
 10
87.81117754966179
 20
-115.144565129634
 30
0.0
 10
87.82047930747197
 20
-115.0176133610025
 30
0.0
 10
87.83150361302476
 20
-114.9054755029577
 30
0.0
 10
87.917631000156
 20
-114.7869642182651
 30
0.0
 10
88.03510875620303
 20
-114.6262505138782
 30
0.0
 10
88.23389076570194
 20
-114.5923163233485
 30
0.0
 10
88.35825871271946
 20
-114.5923163233485
 30
0.0
 10
88.65453692445095
 20
-114.5923163233485
 30
0.0
 10
88.87605656415252
 20
-114.7764566770351
 30
0.0
 10
88.87605656415252
 20
-115.0493082394668
 30
0.0
 10
88.87605656415252
 20
-115.2777180701389
 30
0.0
 10
88.751688617135
 20
-115.3772813296626
 30
0.0
 10
88.42164846964806
 20
-115.6036241030435
 30
0.0
  0
HATCH
  5
B6
330
AF
100
AcDbEntity
  8
_U+30EC_U+30A4_U+30E4_U+30FC 1
 62
   179
420
  2234388
100
AcDbHatch
 10
0.0
 20
0.0
 30
0.0
210
0.0
220
0.0
230
1.0
  2
SOLID
 70
     1
 71
     0
 91
        1
 92
        1
 93
        1
 72
     4
 94
        3
 73
     0
 74
     1
 95
       44
 96
       40
 40
0.0
 40
0.0
 40
0.0
 40
0.0
 40
1.0
 40
1.0
 40
1.0
 40
2.0
 40
2.0
 40
2.0
 40
3.0
 40
3.0
 40
3.0
 40
4.0
 40
4.0
 40
4.0
 40
5.0
 40
5.0
 40
5.0
 40
6.0
 40
6.0
 40
6.0
 40
7.0
 40
7.0
 40
7.0
 40
8.0
 40
8.0
 40
8.0
 40
9.0
 40
9.0
 40
9.0
 40
10.0
 40
10.0
 40
10.0
 40
11.0
 40
11.0
 40
11.0
 40
12.0
 40
12.0
 40
12.0
 40
13.0
 40
13.0
 40
13.0
 40
13.0
 10
88.42164846964806
 20
-115.6036241030435
 10
88.18876001484517
 20
-115.7622707501393
 10
88.08919675532145
 20
-115.8363403030722
 10
88.03752032304271
 20
-115.9801730395813
 10
88.03752032304271
 20
-115.9801730395813
 10
88.86916637318201
 20
-115.9801730395813
 10
88.86916637318201
 20
-115.9801730395813
 10
88.86916637318201
 20
-115.9801730395813
 10
88.86916637318201
 20
-116.185328475728
 10
88.86916637318201
 20
-116.185328475728
 10
88.86916637318201
 20
-116.185328475728
 10
87.77052542293585
 20
-116.185328475728
 10
87.77052542293585
 20
-116.185328475728
 10
87.80463186823982
 20
-115.8277275643591
 10
87.8745673065904
 20
-115.7495238968439
 10
88.28591170752922
 20
-115.4511786278212
 10
88.55945228905806
 20
-115.2523966183223
 10
88.62973223695715
 20
-115.1847004920372
 10
88.62973223695715
 20
-115.0472411821757
 10
88.62973223695715
 20
-114.9287298974831
 10
88.55290660763609
 20
-114.7976440142693
 10
88.34241127348731
 20
-114.7976440142693
 10
88.06439206782765
 20
-114.7976440142693
 10
88.055434819566
 20
-115.0281209022326
 10
88.05095619543518
 20
-115.144565129634
 10
88.05095619543518
 20
-115.144565129634
 10
87.81117754966179
 20
-115.144565129634
 10
87.81117754966179
 20
-115.144565129634
 10
87.82047930747197
 20
-115.0176133610025
 10
87.83150361302476
 20
-114.9054755029577
 10
87.917631000156
 20
-114.7869642182651
 10
88.03510875620303
 20
-114.6262505138782
 10
88.23389076570194
 20
-114.5923163233485
 10
88.35825871271946
 20
-114.5923163233485
 10
88.65453692445095
 20
-114.5923163233485
 10
88.87605656415252
 20
-114.7764566770351
 10
88.87605656415252
 20
-115.0493082394668
 10
88.87605656415252
 20
-115.2777180701389
 10
88.751688617135
 20
-115.3772813296626
 10
88.42164846964806
 20
-115.6036241030435
 97
        0
 97
        0
 75
     2
 76
     1
 98
        0
  0
ENDBLK
  5
B2
330
AF
100
AcDbEntity
  8
0
100
AcDbBlockEnd
  0
BLOCK
  5
B9
330
B7
100
AcDbEntity
  8
0
100
AcDbBlockBegin
  2
block 5
 70
     0
 10
0.0
 20
0.0
 30
0.0
  3
block 5
  1

  0
SPLINE
  5
BB
330
B7
100
AcDbEntity
  8
_U+30EC_U+30A4_U+30E4_U+30FC 1
370
     0
100
AcDbSpline
210
0.0
220
0.0
230
1.0
 70
    11
 71
     3
 72
    26
 73
    22
 74
     0
 42
0.0000000001
 43
0.0000000001
 12
1.0
 22
0.0
 32
0.0
 13
1.0
 23
0.0
 33
0.0
 40
0.0
 40
0.0
 40
0.0
 40
0.0
 40
1.0
 40
1.0
 40
1.0
 40
2.0
 40
2.0
 40
2.0
 40
3.0
 40
3.0
 40
3.0
 40
4.0
 40
4.0
 40
4.0
 40
5.0
 40
5.0
 40
5.0
 40
6.0
 40
6.0
 40
6.0
 40
7.0
 40
7.0
 40
7.0
 40
7.0
 10
94.85140242854409
 20
-143.1854030675023
 30
0.0
 10
94.85140242854409
 20
-143.1854030675023
 30
0.0
 10
94.85140242854409
 20
-142.0812499644797
 30
0.0
 10
94.85140242854409
 20
-142.0812499644797
 30
0.0
 10
94.85140242854409
 20
-142.0812499644797
 30
0.0
 10
94.49896916040304
 20
-142.0812499644797
 30
0.0
 10
94.49896916040304
 20
-142.0812499644797
 30
0.0
 10
94.49896916040304
 20
-142.0812499644797
 30
0.0
 10
94.49896916040304
 20
-141.933110858614
 30
0.0
 10
94.49896916040304
 20
-141.933110858614
 30
0.0
 10
94.85381399538377
 20
-141.9182969480274
 30
0.0
 10
94.90342337037137
 20
-141.7553439315751
 30
0.0
 10
94.93511824883566
 20
-141.6409667614648
 30
0.0
 10
94.93511824883566
 20
-141.6409667614648
 30
0.0
 10
95.09118107431749
 20
-141.6409667614648
 30
0.0
 10
95.09118107431749
 20
-141.6409667614648
 30
0.0
 10
95.09118107431749
 20
-141.6409667614648
 30
0.0
 10
95.09118107431749
 20
-143.1854030675023
 30
0.0
 10
95.09118107431749
 20
-143.1854030675023
 30
0.0
 10
95.09118107431749
 20
-143.1854030675023
 30
0.0
 10
94.85140242854409
 20
-143.1854030675023
 30
0.0
 10
94.85140242854409
 20
-143.1854030675023
 30
0.0
  0
HATCH
  5
BC
330
B7
100
AcDbEntity
  8
_U+30EC_U+30A4_U+30E4_U+30FC 1
 62
   179
420
  2234388
100
AcDbHatch
 10
0.0
 20
0.0
 30
0.0
210
0.0
220
0.0
230
1.0
  2
SOLID
 70
     1
 71
     0
 91
        1
 92
        1
 93
        1
 72
     4
 94
        3
 73
     0
 74
     1
 95
       26
 96
       22
 40
0.0
 40
0.0
 40
0.0
 40
0.0
 40
1.0
 40
1.0
 40
1.0
 40
2.0
 40
2.0
 40
2.0
 40
3.0
 40
3.0
 40
3.0
 40
4.0
 40
4.0
 40
4.0
 40
5.0
 40
5.0
 40
5.0
 40
6.0
 40
6.0
 40
6.0
 40
7.0
 40
7.0
 40
7.0
 40
7.0
 10
94.85140242854409
 20
-143.1854030675023
 10
94.85140242854409
 20
-143.1854030675023
 10
94.85140242854409
 20
-142.0812499644797
 10
94.85140242854409
 20
-142.0812499644797
 10
94.85140242854409
 20
-142.0812499644797
 10
94.49896916040304
 20
-142.0812499644797
 10
94.49896916040304
 20
-142.0812499644797
 10
94.49896916040304
 20
-142.0812499644797
 10
94.49896916040304
 20
-141.933110858614
 10
94.49896916040304
 20
-141.933110858614
 10
94.85381399538377
 20
-141.9182969480274
 10
94.90342337037137
 20
-141.7553439315751
 10
94.93511824883566
 20
-141.6409667614648
 10
94.93511824883566
 20
-141.6409667614648
 10
95.09118107431749
 20
-141.6409667614648
 10
95.09118107431749
 20
-141.6409667614648
 10
95.09118107431749
 20
-141.6409667614648
 10
95.09118107431749
 20
-143.1854030675023
 10
95.09118107431749
 20
-143.1854030675023
 10
95.09118107431749
 20
-143.1854030675023
 10
94.85140242854409
 20
-143.1854030675023
 10
94.85140242854409
 20
-143.1854030675023
 97
        0
 97
        0
 75
     2
 76
     1
 98
        0
  0
SPLINE
  5
BD
330
B7
100
AcDbEntity
  8
_U+30EC_U+30A4_U+30E4_U+30FC 1
370
     0
100
AcDbSpline
210
0.0
220
0.0
230
1.0
 70
    11
 71
     3
 72
    53
 73
    49
 74
     0
 42
0.0000000001
 43
0.0000000001
 12
1.0
 22
0.0
 32
0.0
 13
1.0
 23
0.0
 33
0.0
 40
0.0
 40
0.0
 40
0.0
 40
0.0
 40
1.0
 40
1.0
 40
1.0
 40
2.0
 40
2.0
 40
2.0
 40
3.0
 40
3.0
 40
3.0
 40
4.0
 40
4.0
 40
4.0
 40
5.0
 40
5.0
 40
5.0
 40
6.0
 40
6.0
 40
6.0
 40
7.0
 40
7.0
 40
7.0
 40
8.0
 40
8.0
 40
8.0
 40
9.0
 40
9.0
 40
9.0
 40
10.0
 40
10.0
 40
10.0
 40
11.0
 40
11.0
 40
11.0
 40
12.0
 40
12.0
 40
12.0
 40
13.0
 40
13.0
 40
13.0
 40
14.0
 40
14.0
 40
14.0
 40
15.0
 40
15.0
 40
15.0
 40
16.0
 40
16.0
 40
16.0
 40
16.0
 10
96.14090166867311
 20
-143.2360459711354
 30
0.0
 10
96.05753035793006
 20
-143.2360459711354
 30
0.0
 10
95.94866534059616
 20
-143.2191650032577
 30
0.0
 10
95.84048934235933
 20
-143.1557752463291
 30
0.0
 10
95.65479869570436
 20
-143.0458767003497
 30
0.0
 10
95.63240557505024
 20
-142.9146185623616
 30
0.0
 10
95.61207951168726
 20
-142.8067870736733
 30
0.0
 10
95.61207951168726
 20
-142.8067870736733
 30
0.0
 10
95.84944659062097
 20
-142.8067870736733
 30
0.0
 10
95.84944659062097
 20
-142.8067870736733
 30
0.0
 10
95.90801321387022
 20
-143.0055690831722
 30
0.0
 10
96.04374997598907
 20
-143.0351969043454
 30
0.0
 10
96.14331323551279
 20
-143.0351969043454
 30
0.0
 10
96.29248587002411
 20
-143.0351969043454
 30
0.0
 10
96.4550943769279
 20
-142.9356336448216
 30
0.0
 10
96.4550943769279
 20
-142.7030896995673
 30
0.0
 10
96.4550943769279
 20
-142.4471191050132
 30
0.0
 10
96.26320255839948
 20
-142.3771836666627
 30
0.0
 10
96.13435598725114
 20
-142.3771836666627
 30
0.0
 10
96.10024954194716
 20
-142.3771836666627
 30
0.0
 10
95.94866534059616
 20
-142.3771836666627
 30
0.0
 10
95.8539252147518
 20
-142.5063747473595
 30
0.0
 10
95.8539252147518
 20
-142.5063747473595
 30
0.0
 10
95.66616751080568
 20
-142.4874267221907
 30
0.0
 10
95.66616751080568
 20
-142.4874267221907
 30
0.0
 10
95.66616751080568
 20
-142.4874267221907
 30
0.0
 10
95.79501408195402
 20
-141.6409667614648
 30
0.0
 10
95.79501408195402
 20
-141.6409667614648
 30
0.0
 10
95.79501408195402
 20
-141.6409667614648
 30
0.0
 10
96.62700464164186
 20
-141.6409667614648
 30
0.0
 10
96.62700464164186
 20
-141.6409667614648
 30
0.0
 10
96.62700464164186
 20
-141.6409667614648
 30
0.0
 10
96.62700464164186
 20
-141.8356146563814
 30
0.0
 10
96.62700464164186
 20
-141.8356146563814
 30
0.0
 10
96.62700464164186
 20
-141.8356146563814
 30
0.0
 10
95.96933591350766
 20
-141.8356146563814
 30
0.0
 10
95.96933591350766
 20
-141.8356146563814
 30
0.0
 10
95.96933591350766
 20
-141.8356146563814
 30
0.0
 10
95.89905596560857
 20
-142.2586723819701
 30
0.0
 10
95.89905596560857
 20
-142.2586723819701
 30
0.0
 10
95.96451277982833
 20
-142.2249104462146
 30
0.0
 10
96.05270722425071
 20
-142.1846028290372
 30
0.0
 10
96.17948673810791
 20
-142.1846028290372
 30
0.0
 10
96.45061575279708
 20
-142.1846028290372
 30
0.0
 10
96.70383027096294
 20
-142.3709824947892
 30
0.0
 10
96.70383027096294
 20
-142.6841416743984
 30
0.0
 10
96.70383027096294
 20
-143.0014349685899
 30
0.0
 10
96.46439613473807
 20
-143.2360459711354
 30
0.0
 10
96.14090166867311
 20
-143.2360459711354
 30
0.0
  0
HATCH
  5
BE
330
B7
100
AcDbEntity
  8
_U+30EC_U+30A4_U+30E4_U+30FC 1
 62
   179
420
  2234388
100
AcDbHatch
 10
0.0
 20
0.0
 30
0.0
210
0.0
220
0.0
230
1.0
  2
SOLID
 70
     1
 71
     0
 91
        1
 92
        1
 93
        1
 72
     4
 94
        3
 73
     0
 74
     1
 95
       53
 96
       49
 40
0.0
 40
0.0
 40
0.0
 40
0.0
 40
1.0
 40
1.0
 40
1.0
 40
2.0
 40
2.0
 40
2.0
 40
3.0
 40
3.0
 40
3.0
 40
4.0
 40
4.0
 40
4.0
 40
5.0
 40
5.0
 40
5.0
 40
6.0
 40
6.0
 40
6.0
 40
7.0
 40
7.0
 40
7.0
 40
8.0
 40
8.0
 40
8.0
 40
9.0
 40
9.0
 40
9.0
 40
10.0
 40
10.0
 40
10.0
 40
11.0
 40
11.0
 40
11.0
 40
12.0
 40
12.0
 40
12.0
 40
13.0
 40
13.0
 40
13.0
 40
14.0
 40
14.0
 40
14.0
 40
15.0
 40
15.0
 40
15.0
 40
16.0
 40
16.0
 40
16.0
 40
16.0
 10
96.14090166867311
 20
-143.2360459711354
 10
96.05753035793006
 20
-143.2360459711354
 10
95.94866534059616
 20
-143.2191650032577
 10
95.84048934235933
 20
-143.1557752463291
 10
95.65479869570436
 20
-143.0458767003497
 10
95.63240557505024
 20
-142.9146185623616
 10
95.61207951168726
 20
-142.8067870736733
 10
95.61207951168726
 20
-142.8067870736733
 10
95.84944659062097
 20
-142.8067870736733
 10
95.84944659062097
 20
-142.8067870736733
 10
95.90801321387022
 20
-143.0055690831722
 10
96.04374997598907
 20
-143.0351969043454
 10
96.14331323551279
 20
-143.0351969043454
 10
96.29248587002411
 20
-143.0351969043454
 10
96.4550943769279
 20
-142.9356336448216
 10
96.4550943769279
 20
-142.7030896995673
 10
96.4550943769279
 20
-142.4471191050132
 10
96.26320255839948
 20
-142.3771836666627
 10
96.13435598725114
 20
-142.3771836666627
 10
96.10024954194716
 20
-142.3771836666627
 10
95.94866534059616
 20
-142.3771836666627
 10
95.8539252147518
 20
-142.5063747473595
 10
95.8539252147518
 20
-142.5063747473595
 10
95.66616751080568
 20
-142.4874267221907
 10
95.66616751080568
 20
-142.4874267221907
 10
95.66616751080568
 20
-142.4874267221907
 10
95.79501408195402
 20
-141.6409667614648
 10
95.79501408195402
 20
-141.6409667614648
 10
95.79501408195402
 20
-141.6409667614648
 10
96.62700464164186
 20
-141.6409667614648
 10
96.62700464164186
 20
-141.6409667614648
 10
96.62700464164186
 20
-141.6409667614648
 10
96.62700464164186
 20
-141.8356146563814
 10
96.62700464164186
 20
-141.8356146563814
 10
96.62700464164186
 20
-141.8356146563814
 10
95.96933591350766
 20
-141.8356146563814
 10
95.96933591350766
 20
-141.8356146563814
 10
95.96933591350766
 20
-141.8356146563814
 10
95.89905596560857
 20
-142.2586723819701
 10
95.89905596560857
 20
-142.2586723819701
 10
95.96451277982833
 20
-142.2249104462146
 10
96.05270722425071
 20
-142.1846028290372
 10
96.17948673810791
 20
-142.1846028290372
 10
96.45061575279708
 20
-142.1846028290372
 10
96.70383027096294
 20
-142.3709824947892
 10
96.70383027096294
 20
-142.6841416743984
 10
96.70383027096294
 20
-143.0014349685899
 10
96.46439613473807
 20
-143.2360459711354
 10
96.14090166867311
 20
-143.2360459711354
 97
        0
 97
        0
 75
     2
 76
     1
 98
        0
  0
ENDBLK
  5
BA
330
B7
100
AcDbEntity
  8
0
100
AcDbBlockEnd
  0
ENDSEC
  0
SECTION
  2
ENTITIES
  0
POLYLINE
  5
41
330
1F
100
AcDbEntity
  8
_U+30EC_U+30A4_U+30E4_U+30FC 1
 62
   179
420
  2234388
370
    25
100
AcDb2dPolyline
 66
     1
 10
0.0
 20
0.0
 30
0.0
  0
VERTEX
  5
42
330
41
100
AcDbEntity
  8
_U+30EC_U+30A4_U+30E4_U+30FC 1
 62
   179
420
  2234388
370
    25
100
AcDbVertex
100
AcDb2dVertex
 10
81.69373569359695
 20
-121.3304024696675
 30
0.0
  0
VERTEX
  5
43
330
41
100
AcDbEntity
  8
_U+30EC_U+30A4_U+30E4_U+30FC 1
 62
   179
420
  2234388
370
    25
100
AcDbVertex
100
AcDb2dVertex
 10
81.69373569359695
 20
-130.8302494117372
 30
0.0
  0
SEQEND
  5
44
330
41
100
AcDbEntity
  8
_U+30EC_U+30A4_U+30E4_U+30FC 1
 62
   179
420
  2234388
370
    25
  0
POLYLINE
  5
45
330
1F
100
AcDbEntity
  8
_U+30EC_U+30A4_U+30E4_U+30FC 1
 62
   179
420
  2234388
370
    25
100
AcDb2dPolyline
 66
     1
 10
0.0
 20
0.0
 30
0.0
  0
VERTEX
  5
46
330
45
100
AcDbEntity
  8
_U+30EC_U+30A4_U+30E4_U+30FC 1
 62
   179
420
  2234388
370
    25
100
AcDbVertex
100
AcDb2dVertex
 10
83.69359758702066
 20
-132.8301466334594
 30
0.0
  0
VERTEX
  5
47
330
45
100
AcDbEntity
  8
_U+30EC_U+30A4_U+30E4_U+30FC 1
 62
   179
420
  2234388
370
    25
100
AcDbVertex
100
AcDb2dVertex
 10
93.19326790021944
 20
-132.8301466334594
 30
0.0
  0
SEQEND
  5
48
330
45
100
AcDbEntity
  8
_U+30EC_U+30A4_U+30E4_U+30FC 1
 62
   179
420
  2234388
370
    25
  0
POLYLINE
  5
49
330
1F
100
AcDbEntity
  8
_U+30EC_U+30A4_U+30E4_U+30FC 1
 62
   179
420
  2234388
370
    25
100
AcDb2dPolyline
 66
     1
 10
0.0
 20
0.0
 30
0.0
  0
VERTEX
  5
4A
330
49
100
AcDbEntity
  8
_U+30EC_U+30A4_U+30E4_U+30FC 1
 62
   179
420
  2234388
370
    25
100
AcDbVertex
100
AcDb2dVertex
 10
88.69348162612965
 20
-133.8302363554315
 30
0.0
  0
VERTEX
  5
4B
330
49
100
AcDbEntity
  8
_U+30EC_U+30A4_U+30E4_U+30FC 1
 62
   179
420
  2234388
370
    25
100
AcDbVertex
100
AcDb2dVertex
 10
93.19326790021944
 20
-133.8302363554315
 30
0.0
  0
SEQEND
  5
4C
330
49
100
AcDbEntity
  8
_U+30EC_U+30A4_U+30E4_U+30FC 1
 62
   179
420
  2234388
370
    25
  0
POLYLINE
  5
4D
330
1F
100
AcDbEntity
  8
_U+30EC_U+30A4_U+30E4_U+30FC 1
 62
   179
420
  2234388
370
    25
100
AcDb2dPolyline
 66
     1
 10
0.0
 20
0.0
 30
0.0
  0
VERTEX
  5
4E
330
4D
100
AcDbEntity
  8
_U+30EC_U+30A4_U+30E4_U+30FC 1
 62
   179
420
  2234388
370
    25
100
AcDbVertex
100
AcDb2dVertex
 10
80.69361071911226
 20
-121.3304024696675
 30
0.0
  0
VERTEX
  5
4F
330
4D
100
AcDbEntity
  8
_U+30EC_U+30A4_U+30E4_U+30FC 1
 62
   179
420
  2234388
370
    25
100
AcDbVertex
100
AcDb2dVertex
 10
80.69361071911226
 20
-125.8304005240978
 30
0.0
  0
SEQEND
  5
50
330
4D
100
AcDbEntity
  8
_U+30EC_U+30A4_U+30E4_U+30FC 1
 62
   179
420
  2234388
370
    25
  0
POLYLINE
  5
51
330
1F
100
AcDbEntity
  8
_U+30EC_U+30A4_U+30E4_U+30FC 1
 62
   179
420
  2234388
370
    25
100
AcDb2dPolyline
 66
     1
 10
0.0
 20
0.0
 30
0.0
  0
VERTEX
  5
52
330
51
100
AcDbEntity
  8
_U+30EC_U+30A4_U+30E4_U+30FC 1
 62
   179
420
  2234388
370
    25
100
AcDbVertex
100
AcDb2dVertex
 10
88.13295302931883
 20
-134.3301224664175
 30
0.0
  0
VERTEX
  5
53
330
51
100
AcDbEntity
  8
_U+30EC_U+30A4_U+30E4_U+30FC 1
 62
   179
420
  2234388
370
    25
100
AcDbVertex
100
AcDb2dVertex
 10
88.13295302931883
 20
-139.3303241318342
 30
0.0
  0
SEQEND
  5
54
330
51
100
AcDbEntity
  8
_U+30EC_U+30A4_U+30E4_U+30FC 1
 62
   179
420
  2234388
370
    25
  0
POLYLINE
  5
55
330
1F
100
AcDbEntity
  8
_U+30EC_U+30A4_U+30E4_U+30FC 1
 62
   179
420
  2234388
370
    25
100
AcDb2dPolyline
 66
     1
 10
0.0
 20
0.0
 30
0.0
  0
VERTEX
  5
56
330
55
100
AcDbEntity
  8
_U+30EC_U+30A4_U+30E4_U+30FC 1
 62
   179
420
  2234388
370
    25
100
AcDbVertex
100
AcDb2dVertex
 10
88.632486349908
 20
-139.8302102428202
 30
0.0
  0
VERTEX
  5
57
330
55
100
AcDbEntity
  8
_U+30EC_U+30A4_U+30E4_U+30FC 1
 62
   179
420
  2234388
370
    25
100
AcDbVertex
100
AcDb2dVertex
 10
103.1330637577452
 20
-139.8302102428202
 30
0.0
  0
SEQEND
  5
58
330
55
100
AcDbEntity
  8
_U+30EC_U+30A4_U+30E4_U+30FC 1
 62
   179
420
  2234388
370
    25
  0
POLYLINE
  5
59
330
1F
100
AcDbEntity
  8
_U+30EC_U+30A4_U+30E4_U+30FC 1
 62
   179
420
  2234388
370
    25
100
AcDb2dPolyline
 66
     1
 10
0.0
 20
0.0
 30
0.0
  0
VERTEX
  5
5A
330
59
100
AcDbEntity
  8
_U+30EC_U+30A4_U+30E4_U+30FC 1
 62
   179
420
  2234388
370
    25
100
AcDbVertex
100
AcDb2dVertex
 10
75.1935249812016
 20
-126.2441383017723
 30
0.0
  0
VERTEX
  5
5B
330
59
100
AcDbEntity
  8
_U+30EC_U+30A4_U+30E4_U+30FC 1
 62
   179
420
  2234388
370
    25
100
AcDbVertex
100
AcDb2dVertex
 10
80.19372462075431
 20
-126.2441383017723
 30
0.0
  0
SEQEND
  5
5C
330
59
100
AcDbEntity
  8
_U+30EC_U+30A4_U+30E4_U+30FC 1
 62
   179
420
  2234388
370
    25
  0
POLYLINE
  5
5D
330
1F
100
AcDbEntity
  8
_U+30EC_U+30A4_U+30E4_U+30FC 1
 62
   179
420
  2234388
370
    25
100
AcDb2dPolyline
 66
     1
 10
0.0
 20
0.0
 30
0.0
  0
VERTEX
  5
5E
330
5D
100
AcDbEntity
  8
_U+30EC_U+30A4_U+30E4_U+30FC 1
 62
   179
420
  2234388
370
    25
100
AcDbVertex
100
AcDb2dVertex
 10
74.69363887021532
 20
-111.2442035833002
 30
0.0
  0
VERTEX
  5
5F
330
5D
100
AcDbEntity
  8
_U+30EC_U+30A4_U+30E4_U+30FC 1
 62
   179
420
  2234388
370
    25
100
AcDbVertex
100
AcDb2dVertex
 10
74.69363887021532
 20
-125.7442521907863
 30
0.0
  0
SEQEND
  5
60
330
5D
100
AcDbEntity
  8
_U+30EC_U+30A4_U+30E4_U+30FC 1
 62
   179
420
  2234388
370
    25
  0
SPLINE
  5
61
330
1F
100
AcDbEntity
  8
_U+30EC_U+30A4_U+30E4_U+30FC 1
 62
   179
420
  2234388
370
    25
100
AcDbSpline
210
0.0
220
0.0
230
1.0
 70
     8
 71
     3
 72
     8
 73
     4
 74
     0
 42
0.0000000001
 43
0.0000000001
 12
1.0
 22
0.0
 32
0.0
 13
1.0
 23
0.0
 33
0.0
 40
0.0
 40
0.0
 40
0.0
 40
0.0
 40
1.0
 40
1.0
 40
1.0
 40
1.0
 10
88.13295302931883
 20
-139.3303241318342
 30
0.0
 10
88.13295302931883
 20
-139.6063021873204
 30
0.0
 10
88.35686107916202
 20
-139.8302102428202
 30
0.0
 10
88.632486349908
 20
-139.8302102428202
 30
0.0
  0
SPLINE
  5
62
330
1F
100
AcDbEntity
  8
_U+30EC_U+30A4_U+30E4_U+30FC 1
 62
   179
420
  2234388
370
    25
100
AcDbSpline
210
0.0
220
0.0
230
1.0
 70
     8
 71
     3
 72
     8
 73
     4
 74
     0
 42
0.0000000001
 43
0.0000000001
 12
1.0
 22
0.0
 32
0.0
 13
1.0
 23
0.0
 33
0.0
 40
0.0
 40
0.0
 40
0.0
 40
0.0
 40
1.0
 40
1.0
 40
1.0
 40
1.0
 10
88.632486349908
 20
-133.8302363554315
 30
0.0
 10
88.35686107916202
 20
-133.8302363554315
 30
0.0
 10
88.13295302931883
 20
-134.0541796887088
 30
0.0
 10
88.13295302931883
 20
-134.3301224664175
 30
0.0
  0
SPLINE
  5
63
330
1F
100
AcDbEntity
  8
_U+30EC_U+30A4_U+30E4_U+30FC 1
 62
   179
420
  2234388
370
    25
100
AcDbSpline
210
0.0
220
0.0
230
1.0
 70
     8
 71
     3
 72
     8
 73
     4
 74
     0
 42
0.0000000001
 43
0.0000000001
 12
1.0
 22
0.0
 32
0.0
 13
1.0
 23
0.0
 33
0.0
 40
0.0
 40
0.0
 40
0.0
 40
0.0
 40
1.0
 40
1.0
 40
1.0
 40
1.0
 10
74.69363887021532
 20
-125.7442521907863
 30
0.0
 10
74.69363887021532
 20
-126.0202302462728
 30
0.0
 10
74.91754503313864
 20
-126.2441383017723
 30
0.0
 10
75.1935249812016
 20
-126.2441383017723
 30
0.0
  0
SPLINE
  5
64
330
1F
100
AcDbEntity
  8
_U+30EC_U+30A4_U+30E4_U+30FC 1
 62
   179
420
  2234388
370
    25
100
AcDbSpline
210
0.0
220
0.0
230
1.0
 70
     8
 71
     3
 72
     8
 73
     4
 74
     0
 42
0.0000000001
 43
0.0000000001
 12
1.0
 22
0.0
 32
0.0
 13
1.0
 23
0.0
 33
0.0
 40
0.0
 40
0.0
 40
0.0
 40
0.0
 40
1.0
 40
1.0
 40
1.0
 40
1.0
 10
80.19372462075431
 20
-126.2441383017723
 30
0.0
 10
80.46966942432705
 20
-126.2441383017723
 30
0.0
 10
80.69361071911226
 20
-126.0202302462728
 30
0.0
 10
80.69361071911226
 20
-125.7442521907863
 30
0.0
  0
SPLINE
  5
65
330
1F
100
AcDbEntity
  8
_U+30EC_U+30A4_U+30E4_U+30FC 1
 62
   179
420
  2234388
370
    25
100
AcDbSpline
210
0.0
220
0.0
230
1.0
 70
     8
 71
     3
 72
     8
 73
     4
 74
     0
 42
0.0000000001
 43
0.0000000001
 12
1.0
 22
0.0
 32
0.0
 13
1.0
 23
0.0
 33
0.0
 40
0.0
 40
0.0
 40
0.0
 40
0.0
 40
1.0
 40
1.0
 40
1.0
 40
1.0
 10
81.69373569359695
 20
-130.8302494117372
 30
0.0
 10
81.69373569359695
 20
-131.9347613559055
 30
0.0
 10
82.58908567075467
 20
-132.8301466334594
 30
0.0
 10
83.69359758702066
 20
-132.8301466334594
 30
0.0
  0
SPLINE
  5
66
330
1F
100
AcDbEntity
  8
_U+30EC_U+30A4_U+30E4_U+30FC 1
 62
   179
420
  2234388
370
    25
100
AcDbSpline
210
0.0
220
0.0
230
1.0
 70
     8
 71
     3
 72
    11
 73
     7
 74
     0
 42
0.0000000001
 43
0.0000000001
 12
1.0
 22
0.0
 32
0.0
 13
1.0
 23
0.0
 33
0.0
 40
0.0
 40
0.0
 40
0.0
 40
0.0
 40
1.0
 40
1.0
 40
1.0
 40
2.0
 40
2.0
 40
2.0
 40
2.0
 10
81.69373569359695
 20
-121.3304024696675
 30
0.0
 10
81.69373569359695
 20
-121.0541069141808
 30
0.0
 10
81.46979442407704
 20
-120.8301635809035
 30
0.0
 10
81.19349681747022
 20
-120.8301635809035
 30
0.0
 10
80.91720126896354
 20
-120.8301635809035
 30
0.0
 10
80.69361071911226
 20
-121.0541069141808
 30
0.0
 10
80.69361071911226
 20
-121.3304024696675
 30
0.0
  0
SPLINE
  5
67
330
1F
100
AcDbEntity
  8
_U+30EC_U+30A4_U+30E4_U+30FC 1
 62
   179
420
  2234388
370
    25
100
AcDbSpline
210
0.0
220
0.0
230
1.0
 70
     8
 71
     3
 72
    11
 73
     7
 74
     0
 42
0.0000000001
 43
0.0000000001
 12
1.0
 22
0.0
 32
0.0
 13
1.0
 23
0.0
 33
0.0
 40
0.0
 40
0.0
 40
0.0
 40
0.0
 40
1.0
 40
1.0
 40
1.0
 40
2.0
 40
2.0
 40
2.0
 40
2.0
 10
93.19326790021944
 20
-133.8302363554315
 30
0.0
 10
93.4695634487261
 20
-133.8302363554315
 30
0.0
 10
93.69350677634617
 20
-133.6063282999317
 30
0.0
 10
93.69350677634617
 20
-133.3303502444449
 30
0.0
 10
93.69350677634617
 20
-133.0540546889585
 30
0.0
 10
93.4695634487261
 20
-132.8301466334594
 30
0.0
 10
93.19326790021944
 20
-132.8301466334594
 30
0.0
  0
SPLINE
  5
68
330
1F
100
AcDbEntity
  8
_U+30EC_U+30A4_U+30E4_U+30FC 1
 62
   179
420
  2234388
370
     9
100
AcDbSpline
210
0.0
220
0.0
230
1.0
 70
    11
 71
     3
 72
    17
 73
    13
 74
     0
 42
0.0000000001
 43
0.0000000001
 12
1.0
 22
0.0
 32
0.0
 13
1.0
 23
0.0
 33
0.0
 40
0.0
 40
0.0
 40
0.0
 40
0.0
 40
1.0
 40
1.0
 40
1.0
 40
2.0
 40
2.0
 40
2.0
 40
3.0
 40
3.0
 40
3.0
 40
4.0
 40
4.0
 40
4.0
 40
4.0
 10
88.13295302931883
 20
-143.8303221862649
 30
0.0
 10
88.13295302931883
 20
-143.7748655196121
 30
0.0
 10
88.08815025268406
 20
-143.7304155196232
 30
0.0
 10
88.03304636520099
 20
-143.7304155196232
 30
0.0
 10
87.97790719994104
 20
-143.7304155196232
 30
0.0
 10
87.93313970108315
 20
-143.7748655196121
 30
0.0
 10
87.93313970108315
 20
-143.8303221862649
 30
0.0
 10
87.93313970108315
 20
-143.8854613529173
 30
0.0
 10
87.97790719994104
 20
-143.9302288529065
 30
0.0
 10
88.03304636520099
 20
-143.9302288529065
 30
0.0
 10
88.08815025268406
 20
-143.9302288529065
 30
0.0
 10
88.13295302931883
 20
-143.8854613529173
 30
0.0
 10
88.13295302931883
 20
-143.8303221862649
 30
0.0
  0
SPLINE
  5
69
330
1F
100
AcDbEntity
  8
_U+30EC_U+30A4_U+30E4_U+30FC 1
 62
   179
420
  2234388
370
     9
100
AcDbSpline
210
0.0
220
0.0
230
1.0
 70
    11
 71
     3
 72
    17
 73
    13
 74
     0
 42
0.0000000001
 43
0.0000000001
 12
1.0
 22
0.0
 32
0.0
 13
1.0
 23
0.0
 33
0.0
 40
0.0
 40
0.0
 40
0.0
 40
0.0
 40
1.0
 40
1.0
 40
1.0
 40
2.0
 40
2.0
 40
2.0
 40
3.0
 40
3.0
 40
3.0
 40
4.0
 40
4.0
 40
4.0
 40
4.0
 10
103.1330637577452
 20
-143.8303221862649
 30
0.0
 10
103.1330637577452
 20
-143.7748655196121
 30
0.0
 10
103.0882962588873
 20
-143.7304155196232
 30
0.0
 10
103.0331570936274
 20
-143.7304155196232
 30
0.0
 10
102.9780532061443
 20
-143.7304155196232
 30
0.0
 10
102.9332504295096
 20
-143.7748655196121
 30
0.0
 10
102.9332504295096
 20
-143.8303221862649
 30
0.0
 10
102.9332504295096
 20
-143.8854613529173
 30
0.0
 10
102.9780532061443
 20
-143.9302288529065
 30
0.0
 10
103.0331570936274
 20
-143.9302288529065
 30
0.0
 10
103.0882962588873
 20
-143.9302288529065
 30
0.0
 10
103.1330637577452
 20
-143.8854613529173
 30
0.0
 10
103.1330637577452
 20
-143.8303221862649
 30
0.0
  0
SPLINE
  5
6A
330
1F
100
AcDbEntity
  8
_U+30EC_U+30A4_U+30E4_U+30FC 1
 62
   179
420
  2234388
370
     9
100
AcDbSpline
210
0.0
220
0.0
230
1.0
 70
    11
 71
     3
 72
    17
 73
    13
 74
     0
 42
0.0000000001
 43
0.0000000001
 12
1.0
 22
0.0
 32
0.0
 13
1.0
 23
0.0
 33
0.0
 40
0.0
 40
0.0
 40
0.0
 40
0.0
 40
1.0
 40
1.0
 40
1.0
 40
2.0
 40
2.0
 40
2.0
 40
3.0
 40
3.0
 40
3.0
 40
4.0
 40
4.0
 40
4.0
 40
4.0
 10
105.5570350847935
 20
-139.8302102428202
 30
0.0
 10
105.5570350847935
 20
-139.7751063539453
 30
0.0
 10
105.5122323081587
 20
-139.7303035761786
 30
0.0
 10
105.4571284206756
 20
-139.7303035761786
 30
0.0
 10
105.4019892554157
 20
-139.7303035761786
 30
0.0
 10
105.3572217565578
 20
-139.7751063539453
 30
0.0
 10
105.3572217565578
 20
-139.8302102428202
 30
0.0
 10
105.3572217565578
 20
-139.8853494094733
 30
0.0
 10
105.4019892554157
 20
-139.9301169094618
 30
0.0
 10
105.4571284206756
 20
-139.9301169094618
 30
0.0
 10
105.5122323081587
 20
-139.9301169094618
 30
0.0
 10
105.5570350847935
 20
-139.8853494094733
 30
0.0
 10
105.5570350847935
 20
-139.8302102428202
 30
0.0
  0
SPLINE
  5
6B
330
1F
100
AcDbEntity
  8
_U+30EC_U+30A4_U+30E4_U+30FC 1
 62
   179
420
  2234388
370
     9
100
AcDbSpline
210
0.0
220
0.0
230
1.0
 70
    11
 71
     3
 72
    17
 73
    13
 74
     0
 42
0.0000000001
 43
0.0000000001
 12
1.0
 22
0.0
 32
0.0
 13
1.0
 23
0.0
 33
0.0
 40
0.0
 40
0.0
 40
0.0
 40
0.0
 40
1.0
 40
1.0
 40
1.0
 40
2.0
 40
2.0
 40
2.0
 40
3.0
 40
3.0
 40
3.0
 40
4.0
 40
4.0
 40
4.0
 40
4.0
 10
105.5570350847935
 20
-133.8302363554315
 30
0.0
 10
105.5570350847935
 20
-133.7747796887788
 30
0.0
 10
105.5122323081587
 20
-133.7303296887899
 30
0.0
 10
105.4571284206756
 20
-133.7303296887899
 30
0.0
 10
105.4019892554157
 20
-133.7303296887899
 30
0.0
 10
105.3572217565578
 20
-133.7747796887788
 30
0.0
 10
105.3572217565578
 20
-133.8302363554315
 30
0.0
 10
105.3572217565578
 20
-133.8857282998617
 30
0.0
 10
105.4019892554157
 20
-133.9304957998509
 30
0.0
 10
105.4571284206756
 20
-133.9304957998509
 30
0.0
 10
105.5122323081587
 20
-133.9304957998509
 30
0.0
 10
105.5570350847935
 20
-133.8857282998617
 30
0.0
 10
105.5570350847935
 20
-133.8302363554315
 30
0.0
  0
SPLINE
  5
6C
330
1F
100
AcDbEntity
  8
_U+30EC_U+30A4_U+30E4_U+30FC 1
 62
   179
420
  2234388
370
     9
100
AcDbSpline
210
0.0
220
0.0
230
1.0
 70
    11
 71
     3
 72
    17
 73
    13
 74
     0
 42
0.0000000001
 43
0.0000000001
 12
1.0
 22
0.0
 32
0.0
 13
1.0
 23
0.0
 33
0.0
 40
0.0
 40
0.0
 40
0.0
 40
0.0
 40
1.0
 40
1.0
 40
1.0
 40
2.0
 40
2.0
 40
2.0
 40
3.0
 40
3.0
 40
3.0
 40
4.0
 40
4.0
 40
4.0
 40
4.0
 10
105.5570350847935
 20
-132.8301466334594
 30
0.0
 10
105.5570350847935
 20
-132.7750074668063
 30
0.0
 10
105.5122323081587
 20
-132.7302399668177
 30
0.0
 10
105.4571284206756
 20
-132.7302399668177
 30
0.0
 10
105.4019892554157
 20
-132.7302399668177
 30
0.0
 10
105.3572217565578
 20
-132.7750074668063
 30
0.0
 10
105.3572217565578
 20
-132.8301466334594
 30
0.0
 10
105.3572217565578
 20
-132.8852505223343
 30
0.0
 10
105.4019892554157
 20
-132.930053300101
 30
0.0
 10
105.4571284206756
 20
-132.930053300101
 30
0.0
 10
105.5122323081587
 20
-132.930053300101
 30
0.0
 10
105.5570350847935
 20
-132.8852505223343
 30
0.0
 10
105.5570350847935
 20
-132.8301466334594
 30
0.0
  0
SPLINE
  5
6D
330
1F
100
AcDbEntity
  8
_U+30EC_U+30A4_U+30E4_U+30FC 1
 62
   179
420
  2234388
370
     9
100
AcDbSpline
210
0.0
220
0.0
230
1.0
 70
    11
 71
     3
 72
    17
 73
    13
 74
     0
 42
0.0000000001
 43
0.0000000001
 12
1.0
 22
0.0
 32
0.0
 13
1.0
 23
0.0
 33
0.0
 40
0.0
 40
0.0
 40
0.0
 40
0.0
 40
1.0
 40
1.0
 40
1.0
 40
2.0
 40
2.0
 40
2.0
 40
3.0
 40
3.0
 40
3.0
 40
4.0
 40
4.0
 40
4.0
 40
4.0
 10
105.5570350847935
 20
-120.8301635809035
 30
0.0
 10
105.5570350847935
 20
-120.7750596920286
 30
0.0
 10
105.5122323081587
 20
-120.7302569142619
 30
0.0
 10
105.4571284206756
 20
-120.7302569142619
 30
0.0
 10
105.4019892554157
 20
-120.7302569142619
 30
0.0
 10
105.3572217565578
 20
-120.7750596920286
 30
0.0
 10
105.3572217565578
 20
-120.8301635809035
 30
0.0
 10
105.3572217565578
 20
-120.8853027475566
 30
0.0
 10
105.4019892554157
 20
-120.9300702475451
 30
0.0
 10
105.4571284206756
 20
-120.9300702475451
 30
0.0
 10
105.5122323081587
 20
-120.9300702475451
 30
0.0
 10
105.5570350847935
 20
-120.8853027475566
 30
0.0
 10
105.5570350847935
 20
-120.8301635809035
 30
0.0
  0
SPLINE
  5
6E
330
1F
100
AcDbEntity
  8
_U+30EC_U+30A4_U+30E4_U+30FC 1
 62
   179
420
  2234388
370
     9
100
AcDbSpline
210
0.0
220
0.0
230
1.0
 70
    11
 71
     3
 72
    17
 73
    13
 74
     0
 42
0.0000000001
 43
0.0000000001
 12
1.0
 22
0.0
 32
0.0
 13
1.0
 23
0.0
 33
0.0
 40
0.0
 40
0.0
 40
0.0
 40
0.0
 40
1.0
 40
1.0
 40
1.0
 40
2.0
 40
2.0
 40
2.0
 40
3.0
 40
3.0
 40
3.0
 40
4.0
 40
4.0
 40
4.0
 40
4.0
 10
81.79364442399596
 20
-116.830086915237
 30
0.0
 10
81.79364442399596
 20
-116.774947748584
 30
0.0
 10
81.74884164622955
 20
-116.7301802485954
 30
0.0
 10
81.69373569359695
 20
-116.7301802485954
 30
0.0
 10
81.63824375056822
 20
-116.7301802485954
 30
0.0
 10
81.59347625171033
 20
-116.774947748584
 30
0.0
 10
81.59347625171033
 20
-116.830086915237
 30
0.0
 10
81.59347625171033
 20
-116.8855435818897
 30
0.0
 10
81.63824375056822
 20
-116.9303463596564
 30
0.0
 10
81.69373569359695
 20
-116.9303463596564
 30
0.0
 10
81.74884164622955
 20
-116.9303463596564
 30
0.0
 10
81.79364442399596
 20
-116.8855435818897
 30
0.0
 10
81.79364442399596
 20
-116.830086915237
 30
0.0
  0
SPLINE
  5
6F
330
1F
100
AcDbEntity
  8
_U+30EC_U+30A4_U+30E4_U+30FC 1
 62
   179
420
  2234388
370
     9
100
AcDbSpline
210
0.0
220
0.0
230
1.0
 70
    11
 71
     3
 72
    17
 73
    13
 74
     0
 42
0.0000000001
 43
0.0000000001
 12
1.0
 22
0.0
 32
0.0
 13
1.0
 23
0.0
 33
0.0
 40
0.0
 40
0.0
 40
0.0
 40
0.0
 40
1.0
 40
1.0
 40
1.0
 40
2.0
 40
2.0
 40
2.0
 40
3.0
 40
3.0
 40
3.0
 40
4.0
 40
4.0
 40
4.0
 40
4.0
 10
93.79341344046401
 20
-116.830086915237
 30
0.0
 10
93.79341344046401
 20
-116.774947748584
 30
0.0
 10
93.74861066382924
 20
-116.7301802485954
 30
0.0
 10
93.69350677634617
 20
-116.7301802485954
 30
0.0
 10
93.63836761108622
 20
-116.7301802485954
 30
0.0
 10
93.59360011222833
 20
-116.774947748584
 30
0.0
 10
93.59360011222833
 20
-116.830086915237
 30
0.0
 10
93.59360011222833
 20
-116.8855435818897
 30
0.0
 10
93.63836761108622
 20
-116.9303463596564
 30
0.0
 10
93.69350677634617
 20
-116.9303463596564
 30
0.0
 10
93.74861066382924
 20
-116.9303463596564
 30
0.0
 10
93.79341344046401
 20
-116.8855435818897
 30
0.0
 10
93.79341344046401
 20
-116.830086915237
 30
0.0
  0
POLYLINE
  5
70
330
1F
100
AcDbEntity
  8
_U+30EC_U+30A4_U+30E4_U+30FC 1
 62
   179
420
  2234388
370
     9
100
AcDb2dPolyline
 66
     1
 10
0.0
 20
0.0
 30
0.0
  0
VERTEX
  5
71
330
70
100
AcDbEntity
  8
_U+30EC_U+30A4_U+30E4_U+30FC 1
 62
   179
420
  2234388
370
     9
100
AcDbVertex
100
AcDb2dVertex
 10
105.4571284206756
 20
-139.8302102428202
 30
0.0
  0
VERTEX
  5
72
330
70
100
AcDbEntity
  8
_U+30EC_U+30A4_U+30E4_U+30FC 1
 62
   179
420
  2234388
370
     9
100
AcDbVertex
100
AcDb2dVertex
 10
105.4571284206756
 20
-133.8302363554315
 30
0.0
  0
SEQEND
  5
73
330
70
100
AcDbEntity
  8
_U+30EC_U+30A4_U+30E4_U+30FC 1
 62
   179
420
  2234388
370
     9
  0
POLYLINE
  5
74
330
1F
100
AcDbEntity
  8
_U+30EC_U+30A4_U+30E4_U+30FC 1
 62
   179
420
  2234388
370
     9
100
AcDb2dPolyline
 66
     1
 10
0.0
 20
0.0
 30
0.0
  0
VERTEX
  5
75
330
74
100
AcDbEntity
  8
_U+30EC_U+30A4_U+30E4_U+30FC 1
 62
   179
420
  2234388
370
     9
100
AcDbVertex
100
AcDb2dVertex
 10
103.9970870690355
 20
-139.8302102428202
 30
0.0
  0
VERTEX
  5
76
330
74
100
AcDbEntity
  8
_U+30EC_U+30A4_U+30E4_U+30FC 1
 62
   179
420
  2234388
370
     9
100
AcDbVertex
100
AcDb2dVertex
 10
106.4569006173915
 20
-139.8302102428202
 30
0.0
  0
SEQEND
  5
77
330
74
100
AcDbEntity
  8
_U+30EC_U+30A4_U+30E4_U+30FC 1
 62
   179
420
  2234388
370
     9
  0
POLYLINE
  5
78
330
1F
100
AcDbEntity
  8
_U+30EC_U+30A4_U+30E4_U+30FC 1
 62
   179
420
  2234388
370
     9
100
AcDb2dPolyline
 66
     1
 10
0.0
 20
0.0
 30
0.0
  0
VERTEX
  5
79
330
78
100
AcDbEntity
  8
_U+30EC_U+30A4_U+30E4_U+30FC 1
 62
   179
420
  2234388
370
     9
100
AcDbVertex
100
AcDb2dVertex
 10
98.49735220934542
 20
-133.8302363554315
 30
0.0
  0
VERTEX
  5
7A
330
78
100
AcDbEntity
  8
_U+30EC_U+30A4_U+30E4_U+30FC 1
 62
   179
420
  2234388
370
     9
100
AcDbVertex
100
AcDb2dVertex
 10
106.4569006173915
 20
-133.8302363554315
 30
0.0
  0
SEQEND
  5
7B
330
78
100
AcDbEntity
  8
_U+30EC_U+30A4_U+30E4_U+30FC 1
 62
   179
420
  2234388
370
     9
  0
POLYLINE
  5
7C
330
1F
100
AcDbEntity
  8
_U+30EC_U+30A4_U+30E4_U+30FC 1
 62
   179
420
  2234388
370
     9
100
AcDb2dPolyline
 66
     1
 10
0.0
 20
0.0
 30
0.0
  0
VERTEX
  5
7D
330
7C
100
AcDbEntity
  8
_U+30EC_U+30A4_U+30E4_U+30FC 1
 62
   179
420
  2234388
370
     9
100
AcDbVertex
100
AcDb2dVertex
 10
105.4571284206756
 20
-132.8301466334594
 30
0.0
  0
VERTEX
  5
7E
330
7C
100
AcDbEntity
  8
_U+30EC_U+30A4_U+30E4_U+30FC 1
 62
   179
420
  2234388
370
     9
100
AcDbVertex
100
AcDb2dVertex
 10
105.4571284206756
 20
-120.8301635809035
 30
0.0
  0
SEQEND
  5
7F
330
7C
100
AcDbEntity
  8
_U+30EC_U+30A4_U+30E4_U+30FC 1
 62
   179
420
  2234388
370
     9
  0
POLYLINE
  5
80
330
1F
100
AcDbEntity
  8
_U+30EC_U+30A4_U+30E4_U+30FC 1
 62
   179
420
  2234388
370
     9
100
AcDb2dPolyline
 66
     1
 10
0.0
 20
0.0
 30
0.0
  0
VERTEX
  5
81
330
80
100
AcDbEntity
  8
_U+30EC_U+30A4_U+30E4_U+30FC 1
 62
   179
420
  2234388
370
     9
100
AcDbVertex
100
AcDb2dVertex
 10
98.49735220934542
 20
-132.8301466334594
 30
0.0
  0
VERTEX
  5
82
330
80
100
AcDbEntity
  8
_U+30EC_U+30A4_U+30E4_U+30FC 1
 62
   179
420
  2234388
370
     9
100
AcDbVertex
100
AcDb2dVertex
 10
106.4569006173915
 20
-132.8301466334594
 30
0.0
  0
SEQEND
  5
83
330
80
100
AcDbEntity
  8
_U+30EC_U+30A4_U+30E4_U+30FC 1
 62
   179
420
  2234388
370
     9
  0
POLYLINE
  5
84
330
1F
100
AcDbEntity
  8
_U+30EC_U+30A4_U+30E4_U+30FC 1
 62
   179
420
  2234388
370
     9
100
AcDb2dPolyline
 66
     1
 10
0.0
 20
0.0
 30
0.0
  0
VERTEX
  5
85
330
84
100
AcDbEntity
  8
_U+30EC_U+30A4_U+30E4_U+30FC 1
 62
   179
420
  2234388
370
     9
100
AcDbVertex
100
AcDb2dVertex
 10
86.49723053393136
 20
-120.8301635809035
 30
0.0
  0
VERTEX
  5
86
330
84
100
AcDbEntity
  8
_U+30EC_U+30A4_U+30E4_U+30FC 1
 62
   179
420
  2234388
370
     9
100
AcDbVertex
100
AcDb2dVertex
 10
106.4569006173915
 20
-120.8301635809035
 30
0.0
  0
SEQEND
  5
87
330
84
100
AcDbEntity
  8
_U+30EC_U+30A4_U+30E4_U+30FC 1
 62
   179
420
  2234388
370
     9
  0
POLYLINE
  5
88
330
1F
100
AcDbEntity
  8
_U+30EC_U+30A4_U+30E4_U+30FC 1
 62
   179
420
  2234388
370
     9
100
AcDb2dPolyline
 66
     1
 10
0.0
 20
0.0
 30
0.0
  0
VERTEX
  5
89
330
88
100
AcDbEntity
  8
_U+30EC_U+30A4_U+30E4_U+30FC 1
 62
   179
420
  2234388
370
     9
100
AcDbVertex
100
AcDb2dVertex
 10
81.69373569359695
 20
-116.830086915237
 30
0.0
  0
VERTEX
  5
8A
330
88
100
AcDbEntity
  8
_U+30EC_U+30A4_U+30E4_U+30FC 1
 62
   179
420
  2234388
370
     9
100
AcDbVertex
100
AcDb2dVertex
 10
93.69350677634617
 20
-116.830086915237
 30
0.0
  0
SEQEND
  5
8B
330
88
100
AcDbEntity
  8
_U+30EC_U+30A4_U+30E4_U+30FC 1
 62
   179
420
  2234388
370
     9
  0
POLYLINE
  5
8C
330
1F
100
AcDbEntity
  8
_U+30EC_U+30A4_U+30E4_U+30FC 1
 62
   179
420
  2234388
370
     9
100
AcDb2dPolyline
 66
     1
 10
0.0
 20
0.0
 30
0.0
  0
VERTEX
  5
8D
330
8C
100
AcDbEntity
  8
_U+30EC_U+30A4_U+30E4_U+30FC 1
 62
   179
420
  2234388
370
     9
100
AcDbVertex
100
AcDb2dVertex
 10
81.69373569359695
 20
-118.7903319147469
 30
0.0
  0
VERTEX
  5
8E
330
8C
100
AcDbEntity
  8
_U+30EC_U+30A4_U+30E4_U+30FC 1
 62
   179
420
  2234388
370
     9
100
AcDbVertex
100
AcDb2dVertex
 10
81.69373569359695
 20
-115.8303146932648
 30
0.0
  0
SEQEND
  5
8F
330
8C
100
AcDbEntity
  8
_U+30EC_U+30A4_U+30E4_U+30FC 1
 62
   179
420
  2234388
370
     9
  0
POLYLINE
  5
90
330
1F
100
AcDbEntity
  8
_U+30EC_U+30A4_U+30E4_U+30FC 1
 62
   179
420
  2234388
370
     9
100
AcDb2dPolyline
 66
     1
 10
0.0
 20
0.0
 30
0.0
  0
VERTEX
  5
91
330
90
100
AcDbEntity
  8
_U+30EC_U+30A4_U+30E4_U+30FC 1
 62
   179
420
  2234388
370
     9
100
AcDbVertex
100
AcDb2dVertex
 10
93.69350677634617
 20
-130.7902796895246
 30
0.0
  0
VERTEX
  5
92
330
90
100
AcDbEntity
  8
_U+30EC_U+30A4_U+30E4_U+30FC 1
 62
   179
420
  2234388
370
     9
100
AcDbVertex
100
AcDb2dVertex
 10
93.69350677634617
 20
-115.8303146932648
 30
0.0
  0
SEQEND
  5
93
330
90
100
AcDbEntity
  8
_U+30EC_U+30A4_U+30E4_U+30FC 1
 62
   179
420
  2234388
370
     9
  0
POLYLINE
  5
94
330
1F
100
AcDbEntity
  8
_U+30EC_U+30A4_U+30E4_U+30FC 1
 62
   179
420
  2234388
370
     9
100
AcDb2dPolyline
 66
     1
 10
0.0
 20
0.0
 30
0.0
  0
VERTEX
  5
95
330
94
100
AcDbEntity
  8
_U+30EC_U+30A4_U+30E4_U+30FC 1
 62
   179
420
  2234388
370
     9
100
AcDbVertex
100
AcDb2dVertex
 10
88.03304636520099
 20
-143.8303221862649
 30
0.0
  0
VERTEX
  5
96
330
94
100
AcDbEntity
  8
_U+30EC_U+30A4_U+30E4_U+30FC 1
 62
   179
420
  2234388
370
     9
100
AcDbVertex
100
AcDb2dVertex
 10
103.0331570936274
 20
-143.8303221862649
 30
0.0
  0
SEQEND
  5
97
330
94
100
AcDbEntity
  8
_U+30EC_U+30A4_U+30E4_U+30FC 1
 62
   179
420
  2234388
370
     9
  0
POLYLINE
  5
98
330
1F
100
AcDbEntity
  8
_U+30EC_U+30A4_U+30E4_U+30FC 1
 62
   179
420
  2234388
370
     9
100
AcDb2dPolyline
 66
     1
 10
0.0
 20
0.0
 30
0.0
  0
VERTEX
  5
99
330
98
100
AcDbEntity
  8
_U+30EC_U+30A4_U+30E4_U+30FC 1
 62
   179
420
  2234388
370
     9
100
AcDbVertex
100
AcDb2dVertex
 10
88.03304636520099
 20
-141.8703946867545
 30
0.0
  0
VERTEX
  5
9A
330
98
100
AcDbEntity
  8
_U+30EC_U+30A4_U+30E4_U+30FC 1
 62
   179
420
  2234388
370
     9
100
AcDbVertex
100
AcDb2dVertex
 10
88.03304636520099
 20
-144.8300944082367
 30
0.0
  0
SEQEND
  5
9B
330
98
100
AcDbEntity
  8
_U+30EC_U+30A4_U+30E4_U+30FC 1
 62
   179
420
  2234388
370
     9
  0
POLYLINE
  5
9C
330
1F
100
AcDbEntity
  8
_U+30EC_U+30A4_U+30E4_U+30FC 1
 62
   179
420
  2234388
370
     9
100
AcDb2dPolyline
 66
     1
 10
0.0
 20
0.0
 30
0.0
  0
VERTEX
  5
9D
330
9C
100
AcDbEntity
  8
_U+30EC_U+30A4_U+30E4_U+30FC 1
 62
   179
420
  2234388
370
     9
100
AcDbVertex
100
AcDb2dVertex
 10
103.0331570936274
 20
-142.3702807977405
 30
0.0
  0
VERTEX
  5
9E
330
9C
100
AcDbEntity
  8
_U+30EC_U+30A4_U+30E4_U+30FC 1
 62
   179
420
  2234388
370
     9
100
AcDbVertex
100
AcDb2dVertex
 10
103.0331570936274
 20
-144.8300944082367
 30
0.0
  0
SEQEND
  5
9F
330
9C
100
AcDbEntity
  8
_U+30EC_U+30A4_U+30E4_U+30FC 1
 62
   179
420
  2234388
370
     9
  0
INSERT
  5
A1
330
1F
100
AcDbEntity
  8
_U+30EC_U+30A4_U+30E4_U+30FC 1
100
AcDbBlockReference
  2
block 2
 10
0.0
 20
0.0
 30
0.0
  0
INSERT
  5
A8
330
1F
100
AcDbEntity
  8
_U+30EC_U+30A4_U+30E4_U+30FC 1
100
AcDbBlockReference
  2
block 3
 10
0.0
 20
0.0
 30
0.0
  0
INSERT
  5
B0
330
1F
100
AcDbEntity
  8
_U+30EC_U+30A4_U+30E4_U+30FC 1
100
AcDbBlockReference
  2
block 4
 10
0.0
 20
0.0
 30
0.0
  0
INSERT
  5
B8
330
1F
100
AcDbEntity
  8
_U+30EC_U+30A4_U+30E4_U+30FC 1
100
AcDbBlockReference
  2
block 5
 10
0.0
 20
0.0
 30
0.0
  0
ENDSEC
  0
SECTION
  2
OBJECTS
  0
DICTIONARY
  5
C
330
0
100
AcDbDictionary
281
     1
  3
ACAD_GROUP
350
D
  3
ACAD_LAYOUT
350
1A
  3
ACAD_MATERIAL
350
3B
  3
ACAD_MLEADERSTYLE
350
C0
  3
ACAD_MLINESTYLE
350
17
  3
ACAD_PLOTSETTINGS
350
19
  3
ACAD_PLOTSTYLENAME
350
E
  3
ACAD_TABLESTYLE
350
BF
  3
ACAD_VISUALSTYLE
350
2A
  0
SUN
  5
3F
330
29
100
AcDbSun
 90
        1
290
     0
 63
     7
421
 16777215
 40
1.0
291
     1
 91
  2455826
 92
 54000000
292
     0
 70
     2
 71
   256
280
     1
  0
DICTIONARY
  5
D
102
{ACAD_REACTORS
330
C
102
}
330
C
100
AcDbDictionary
281
     1
  0
DICTIONARY
  5
1A
102
{ACAD_REACTORS
330
C
102
}
330
C
100
AcDbDictionary
281
     1
  3
Layout1
350
1E
  3
Layout2
350
26
  3
Model
350
22
  0
DICTIONARY
  5
3B
102
{ACAD_REACTORS
330
C
102
}
330
C
100
AcDbDictionary
281
     1
  3
ByBlock
350
3D
  3
ByLayer
350
3C
  3
Global
350
3E
  0
DICTIONARY
  5
C0
102
{ACAD_REACTORS
330
C
102
}
330
C
100
AcDbDictionary
281
     1
  0
DICTIONARY
  5
17
102
{ACAD_REACTORS
330
C
102
}
330
C
100
AcDbDictionary
281
     1
  3
Standard
350
18
  0
DICTIONARY
  5
19
102
{ACAD_REACTORS
330
C
102
}
330
C
100
AcDbDictionary
281
     1
  0
ACDBDICTIONARYWDFLT
  5
E
102
{ACAD_REACTORS
330
C
102
}
330
C
100
AcDbDictionary
281
     1
  3
Normal
350
F
100
AcDbDictionaryWithDefault
340
F
  0
DICTIONARY
  5
BF
102
{ACAD_REACTORS
330
C
102
}
330
C
100
AcDbDictionary
281
     1
  0
DICTIONARY
  5
2A
102
{ACAD_REACTORS
330
C
102
}
330
C
100
AcDbDictionary
281
     1
  3
2dWireframe
350
2F
  3
3D Hidden
350
31
  3
3dWireframe
350
30
  3
Basic
350
32
  3
Brighten
350
36
  3
ColorChange
350
3A
  3
Conceptual
350
34
  3
Dim
350
35
  3
Facepattern
350
39
  3
Flat
350
2B
  3
FlatWithEdges
350
2C
  3
Gouraud
350
2D
  3
GouraudWithEdges
350
2E
  3
Linepattern
350
38
  3
Realistic
350
33
  3
Thicken
350
37
  0
LAYOUT
  5
1E
102
{ACAD_REACTORS
330
1A
102
}
330
1A
100
AcDbPlotSettings
  1

  2
none_device
  4

  6

 40
0.0
 41
0.0
 42
0.0
 43
0.0
 44
0.0
 45
0.0
 46
0.0
 47
0.0
 48
0.0
 49
0.0
140
0.0
141
0.0
142
1.0
143
1.0
 70
   688
 72
     0
 73
     0
 74
     5
  7

 75
    16
 76
     0
 77
     2
 78
   300
147
1.0
148
0.0
149
0.0
100
AcDbLayout
  1
Layout1
 70
     1
 71
     1
 10
0.0
 20
0.0
 11
12.0
 21
9.0
 12
0.0
 22
0.0
 32
0.0
 14
1.000000000000000E+20
 24
1.000000000000000E+20
 34
1.000000000000000E+20
 15
-1.000000000000000E+20
 25
-1.000000000000000E+20
 35
-1.000000000000000E+20
146
0.0
 13
0.0
 23
0.0
 33
0.0
 16
1.0
 26
0.0
 36
0.0
 17
0.0
 27
1.0
 37
0.0
 76
     0
330
1B
  0
LAYOUT
  5
26
102
{ACAD_REACTORS
330
1A
102
}
330
1A
100
AcDbPlotSettings
  1

  2
none_device
  4

  6

 40
0.0
 41
0.0
 42
0.0
 43
0.0
 44
0.0
 45
0.0
 46
0.0
 47
0.0
 48
0.0
 49
0.0
140
0.0
141
0.0
142
1.0
143
1.0
 70
   688
 72
     0
 73
     0
 74
     5
  7

 75
    16
 76
     0
 77
     2
 78
   300
147
1.0
148
0.0
149
0.0
100
AcDbLayout
  1
Layout2
 70
     1
 71
     2
 10
0.0
 20
0.0
 11
0.0
 21
0.0
 12
0.0
 22
0.0
 32
0.0
 14
0.0
 24
0.0
 34
0.0
 15
0.0
 25
0.0
 35
0.0
146
0.0
 13
0.0
 23
0.0
 33
0.0
 16
1.0
 26
0.0
 36
0.0
 17
0.0
 27
1.0
 37
0.0
 76
     0
330
23
  0
LAYOUT
  5
22
102
{ACAD_REACTORS
330
1A
102
}
330
1A
100
AcDbPlotSettings
  1

  2
none_device
  4

  6

 40
0.0
 41
0.0
 42
0.0
 43
0.0
 44
0.0
 45
0.0
 46
0.0
 47
0.0
 48
0.0
 49
0.0
140
0.0
141
0.0
142
1.0
143
1.0
 70
  1712
 72
     0
 73
     0
 74
     0
  7

 75
     0
 76
     0
 77
     2
 78
   300
147
1.0
148
0.0
149
0.0
100
AcDbLayout
  1
Model
 70
     1
 71
     0
 10
0.0
 20
0.0
 11
12.0
 21
9.0
 12
0.0
 22
0.0
 32
0.0
 14
1.000000000000000E+20
 24
1.000000000000000E+20
 34
1.000000000000000E+20
 15
-1.000000000000000E+20
 25
-1.000000000000000E+20
 35
-1.000000000000000E+20
146
0.0
 13
0.0
 23
0.0
 33
0.0
 16
1.0
 26
0.0
 36
0.0
 17
0.0
 27
1.0
 37
0.0
 76
     0
330
1F
331
29
  0
MATERIAL
  5
3D
102
{ACAD_REACTORS
330
3B
102
}
330
3B
100
AcDbMaterial
  1
ByBlock
 72
     1
 94
      127
  0
MATERIAL
  5
3C
102
{ACAD_REACTORS
330
3B
102
}
330
3B
100
AcDbMaterial
  1
ByLayer
 72
     1
 94
      127
  0
MATERIAL
  5
3E
102
{ACAD_REACTORS
330
3B
102
}
330
3B
100
AcDbMaterial
  1
Global
 72
     1
 94
      127
  0
MLINESTYLE
  5
18
102
{ACAD_REACTORS
330
17
102
}
330
17
100
AcDbMlineStyle
  2
Standard
 70
     0
  3

 62
   256
 51
90.0
 52
90.0
 71
     2
 49
0.5
 62
   256
  6
BYLAYER
 49
-0.5
 62
   256
  6
BYLAYER
  0
ACDBPLACEHOLDER
  5
F
102
{ACAD_REACTORS
330
E
102
}
330
E
  0
VISUALSTYLE
  5
2F
102
{ACAD_REACTORS
330
2A
102
}
330
2A
100
AcDbVisualStyle
  2
2dWireframe
 70
     4
177
     2
291
     0
 71
     0
176
     1
 72
     2
176
     1
 73
     0
176
     1
 90
        0
176
     1
 40
-0.6
176
     1
 41
-30.0
176
     1
 62
     5
 63
     7
421
 16777215
176
     1
 74
     1
176
     1
 91
        4
176
     1
 64
     7
176
     1
 65
   257
176
     1
 75
     1
176
     1
175
     1
176
     1
 42
1.0
176
     1
 92
        0
176
     1
 66
   257
176
     1
 43
1.0
176
     1
 76
     1
176
     1
 77
     6
176
     1
 78
     2
176
     1
 67
     7
176
     1
 79
     5
176
     1
170
     0
176
     1
171
     0
176
     1
290
     0
176
     1
 93
        1
176
     1
 44
0.0
176
     1
173
     0
176
     1
  0
VISUALSTYLE
  5
31
102
{ACAD_REACTORS
330
2A
102
}
330
2A
100
AcDbVisualStyle
  2
3D Hidden
 70
     6
177
     2
291
     0
 71
     1
176
     1
 72
     2
176
     1
 73
     2
176
     1
 90
        0
176
     1
 40
-0.6
176
     1
 41
-30.0
176
     1
 62
     5
 63
     7
421
 16777215
176
     1
 74
     2
176
     1
 91
        2
176
     1
 64
     7
176
     1
 65
   257
176
     1
 75
     2
176
     1
175
     1
176
     1
 42
40.0
176
     1
 92
        0
176
     1
 66
   257
176
     1
 43
1.0
176
     1
 76
     1
176
     1
 77
     6
176
     1
 78
     2
176
     1
 67
     7
176
     1
 79
     3
176
     1
170
     0
176
     1
171
     0
176
     1
290
     0
176
     1
 93
        1
176
     1
 44
0.0
176
     1
173
     0
176
     1
  0
VISUALSTYLE
  5
30
102
{ACAD_REACTORS
330
2A
102
}
330
2A
100
AcDbVisualStyle
  2
3dWireframe
 70
     5
177
     2
291
     0
 71
     0
176
     1
 72
     2
176
     1
 73
     0
176
     1
 90
        0
176
     1
 40
-0.6
176
     1
 41
-30.0
176
     1
 62
     5
 63
     7
421
 16777215
176
     1
 74
     1
176
     1
 91
        4
176
     1
 64
     7
176
     1
 65
   257
176
     1
 75
     1
176
     1
175
     1
176
     1
 42
1.0
176
     1
 92
        0
176
     1
 66
   257
176
     1
 43
1.0
176
     1
 76
     1
176
     1
 77
     6
176
     1
 78
     2
176
     1
 67
     7
176
     1
 79
     5
176
     1
170
     0
176
     1
171
     0
176
     1
290
     0
176
     1
 93
        1
176
     1
 44
0.0
176
     1
173
     0
176
     1
  0
VISUALSTYLE
  5
32
102
{ACAD_REACTORS
330
2A
102
}
330
2A
100
AcDbVisualStyle
  2
Basic
 70
     7
177
     2
291
     1
 71
     1
176
     1
 72
     0
176
     1
 73
     1
176
     1
 90
        0
176
     1
 40
-0.6
176
     1
 41
-30.0
176
     1
 62
     5
 63
     7
421
 16777215
176
     1
 74
     0
176
     1
 91
        4
176
     1
 64
     7
176
     1
 65
   257
176
     1
 75
     1
176
     1
175
     1
176
     1
 42
1.0
176
     1
 92
        8
176
     1
 66
     7
176
     1
 43
1.0
176
     1
 76
     1
176
     1
 77
     6
176
     1
 78
     2
176
     1
 67
     7
176
     1
 79
     5
176
     1
170
     0
176
     1
171
     0
176
     1
290
     0
176
     1
 93
        1
176
     1
 44
0.0
176
     1
173
     0
176
     1
  0
VISUALSTYLE
  5
36
102
{ACAD_REACTORS
330
2A
102
}
330
2A
100
AcDbVisualStyle
  2
Brighten
 70
    12
177
     2
291
     1
 71
     2
176
     1
 72
     2
176
     1
 73
     0
176
     1
 90
        0
176
     1
 40
-0.6
176
     1
 41
-30.0
176
     1
 62
     5
 63
     7
421
 16777215
176
     1
 74
     1
176
     1
 91
        4
176
     1
 64
     7
176
     1
 65
   257
176
     1
 75
     1
176
     1
175
     1
176
     1
 42
1.0
176
     1
 92
        8
176
     1
 66
     7
176
     1
 43
1.0
176
     1
 76
     1
176
     1
 77
     6
176
     1
 78
     2
176
     1
 67
     7
176
     1
 79
     5
176
     1
170
     0
176
     1
171
     0
176
     1
290
     0
176
     1
 93
        1
176
     1
 44
50.0
176
     1
173
     0
176
     1
  0
VISUALSTYLE
  5
3A
102
{ACAD_REACTORS
330
2A
102
}
330
2A
100
AcDbVisualStyle
  2
ColorChange
 70
    16
177
     2
291
     1
 71
     2
176
     1
 72
     2
176
     1
 73
     3
176
     1
 90
        0
176
     1
 40
-0.6
176
     1
 41
-30.0
176
     1
 62
     5
 63
     8
421
  8421504
176
     1
 74
     1
176
     1
 91
        4
176
     1
 64
     7
176
     1
 65
   257
176
     1
 75
     1
176
     1
175
     1
176
     1
 42
1.0
176
     1
 92
        8
176
     1
 66
     8
424
  8421504
176
     1
 43
1.0
176
     1
 76
     1
176
     1
 77
     6
176
     1
 78
     2
176
     1
 67
     7
176
     1
 79
     5
176
     1
170
     0
176
     1
171
     0
176
     1
290
     0
176
     1
 93
        1
176
     1
 44
0.0
176
     1
173
     0
176
     1
  0
VISUALSTYLE
  5
34
102
{ACAD_REACTORS
330
2A
102
}
330
2A
100
AcDbVisualStyle
  2
Conceptual
 70
     9
177
     2
291
     0
 71
     3
176
     1
 72
     2
176
     1
 73
     0
176
     1
 90
        0
176
     1
 40
-0.6
176
     1
 41
-30.0
176
     1
 62
     5
 63
     7
421
 16777215
176
     1
 74
     2
176
     1
 91
        2
176
     1
 64
     7
176
     1
 65
   257
176
     1
 75
     1
176
     1
175
     1
176
     1
 42
40.0
176
     1
 92
        8
176
     1
 66
     7
176
     1
 43
1.0
176
     1
 76
     1
176
     1
 77
     6
176
     1
 78
     2
176
     1
 67
     7
176
     1
 79
     3
176
     1
170
     0
176
     1
171
     0
176
     1
290
     0
176
     1
 93
        1
176
     1
 44
0.0
176
     1
173
     0
176
     1
  0
VISUALSTYLE
  5
35
102
{ACAD_REACTORS
330
2A
102
}
330
2A
100
AcDbVisualStyle
  2
Dim
 70
    11
177
     2
291
     1
 71
     2
176
     1
 72
     2
176
     1
 73
     0
176
     1
 90
        0
176
     1
 40
-0.6
176
     1
 41
-30.0
176
     1
 62
     5
 63
     7
421
 16777215
176
     1
 74
     1
176
     1
 91
        4
176
     1
 64
     7
176
     1
 65
   257
176
     1
 75
     1
176
     1
175
     1
176
     1
 42
1.0
176
     1
 92
        8
176
     1
 66
     7
176
     1
 43
1.0
176
     1
 76
     1
176
     1
 77
     6
176
     1
 78
     2
176
     1
 67
     7
176
     1
 79
     5
176
     1
170
     0
176
     1
171
     0
176
     1
290
     0
176
     1
 93
        1
176
     1
 44
-50.0
176
     1
173
     0
176
     1
  0
VISUALSTYLE
  5
39
102
{ACAD_REACTORS
330
2A
102
}
330
2A
100
AcDbVisualStyle
  2
Facepattern
 70
    15
177
     2
291
     1
 71
     2
176
     1
 72
     2
176
     1
 73
     0
176
     1
 90
        0
176
     1
 40
-0.6
176
     1
 41
-30.0
176
     1
 62
     5
 63
     7
421
 16777215
176
     1
 74
     1
176
     1
 91
        4
176
     1
 64
     7
176
     1
 65
   257
176
     1
 75
     1
176
     1
175
     1
176
     1
 42
1.0
176
     1
 92
        8
176
     1
 66
     7
176
     1
 43
1.0
176
     1
 76
     1
176
     1
 77
     6
176
     1
 78
     2
176
     1
 67
     7
176
     1
 79
     5
176
     1
170
     0
176
     1
171
     0
176
     1
290
     0
176
     1
 93
        1
176
     1
 44
0.0
176
     1
173
     0
176
     1
  0
VISUALSTYLE
  5
2B
102
{ACAD_REACTORS
330
2A
102
}
330
2A
100
AcDbVisualStyle
  2
Flat
 70
     0
177
     2
291
     1
 71
     2
176
     1
 72
     1
176
     1
 73
     1
176
     1
 90
        2
176
     1
 40
-0.6
176
     1
 41
30.0
176
     1
 62
     5
 63
     7
421
 16777215
176
     1
 74
     0
176
     1
 91
        4
176
     1
 64
     7
176
     1
 65
   257
176
     1
 75
     1
176
     1
175
     1
176
     1
 42
1.0
176
     1
 92
        8
176
     1
 66
     7
176
     1
 43
1.0
176
     1
 76
     1
176
     1
 77
     6
176
     1
 78
     2
176
     1
 67
     7
176
     1
 79
     5
176
     1
170
     0
176
     1
171
     0
176
     1
290
     0
176
     1
 93
       13
176
     1
 44
0.0
176
     1
173
     0
176
     1
  0
VISUALSTYLE
  5
2C
102
{ACAD_REACTORS
330
2A
102
}
330
2A
100
AcDbVisualStyle
  2
FlatWithEdges
 70
     1
177
     2
291
     1
 71
     2
176
     1
 72
     1
176
     1
 73
     1
176
     1
 90
        2
176
     1
 40
-0.6
176
     1
 41
30.0
176
     1
 62
     5
 63
     7
421
 16777215
176
     1
 74
     1
176
     1
 91
        4
176
     1
 64
     7
176
     1
 65
   257
176
     1
 75
     1
176
     1
175
     1
176
     1
 42
1.0
176
     1
 92
        0
176
     1
 66
   257
176
     1
 43
1.0
176
     1
 76
     1
176
     1
 77
     6
176
     1
 78
     2
176
     1
 67
     7
176
     1
 79
     5
176
     1
170
     0
176
     1
171
     0
176
     1
290
     0
176
     1
 93
       13
176
     1
 44
0.0
176
     1
173
     0
176
     1
  0
VISUALSTYLE
  5
2D
102
{ACAD_REACTORS
330
2A
102
}
330
2A
100
AcDbVisualStyle
  2
Gouraud
 70
     2
177
     2
291
     1
 71
     2
176
     1
 72
     2
176
     1
 73
     1
176
     1
 90
        2
176
     1
 40
-0.6
176
     1
 41
30.0
176
     1
 62
     5
 63
     7
421
 16777215
176
     1
 74
     0
176
     1
 91
        4
176
     1
 64
     7
176
     1
 65
   257
176
     1
 75
     1
176
     1
175
     1
176
     1
 42
1.0
176
     1
 92
        0
176
     1
 66
     7
176
     1
 43
1.0
176
     1
 76
     1
176
     1
 77
     6
176
     1
 78
     2
176
     1
 67
     7
176
     1
 79
     5
176
     1
170
     0
176
     1
171
     0
176
     1
290
     0
176
     1
 93
       13
176
     1
 44
0.0
176
     1
173
     0
176
     1
  0
VISUALSTYLE
  5
2E
102
{ACAD_REACTORS
330
2A
102
}
330
2A
100
AcDbVisualStyle
  2
GouraudWithEdges
 70
     3
177
     2
291
     1
 71
     2
176
     1
 72
     2
176
     1
 73
     1
176
     1
 90
        2
176
     1
 40
-0.6
176
     1
 41
30.0
176
     1
 62
     5
 63
     7
421
 16777215
176
     1
 74
     1
176
     1
 91
        4
176
     1
 64
     7
176
     1
 65
   257
176
     1
 75
     1
176
     1
175
     1
176
     1
 42
1.0
176
     1
 92
        0
176
     1
 66
   257
176
     1
 43
1.0
176
     1
 76
     1
176
     1
 77
     6
176
     1
 78
     2
176
     1
 67
     7
176
     1
 79
     5
176
     1
170
     0
176
     1
171
     0
176
     1
290
     0
176
     1
 93
       13
176
     1
 44
0.0
176
     1
173
     0
176
     1
  0
VISUALSTYLE
  5
38
102
{ACAD_REACTORS
330
2A
102
}
330
2A
100
AcDbVisualStyle
  2
Linepattern
 70
    14
177
     2
291
     1
 71
     2
176
     1
 72
     2
176
     1
 73
     0
176
     1
 90
        0
176
     1
 40
-0.6
176
     1
 41
-30.0
176
     1
 62
     5
 63
     7
421
 16777215
176
     1
 74
     1
176
     1
 91
        4
176
     1
 64
     7
176
     1
 65
   257
176
     1
 75
     7
176
     1
175
     7
176
     1
 42
1.0
176
     1
 92
        8
176
     1
 66
     7
176
     1
 43
1.0
176
     1
 76
     1
176
     1
 77
     6
176
     1
 78
     2
176
     1
 67
     7
176
     1
 79
     5
176
     1
170
     0
176
     1
171
     0
176
     1
290
     0
176
     1
 93
        1
176
     1
 44
0.0
176
     1
173
     0
176
     1
  0
VISUALSTYLE
  5
33
102
{ACAD_REACTORS
330
2A
102
}
330
2A
100
AcDbVisualStyle
  2
Realistic
 70
     8
177
     2
291
     0
 71
     2
176
     1
 72
     2
176
     1
 73
     0
176
     1
 90
        0
176
     1
 40
-0.6
176
     1
 41
-30.0
176
     1
 62
     5
 63
     7
421
 16777215
176
     1
 74
     1
176
     1
 91
        0
176
     1
 64
     7
176
     1
 65
   257
176
     1
 75
     1
176
     1
175
     1
176
     1
 42
1.0
176
     1
 92
        8
176
     1
 66
     8
424
  7895160
176
     1
 43
1.0
176
     1
 76
     1
176
     1
 77
     6
176
     1
 78
     2
176
     1
 67
     7
176
     1
 79
     5
176
     1
170
     0
176
     1
171
     0
176
     1
290
     0
176
     1
 93
       13
176
     1
 44
0.0
176
     1
173
     0
176
     1
  0
VISUALSTYLE
  5
37
102
{ACAD_REACTORS
330
2A
102
}
330
2A
100
AcDbVisualStyle
  2
Thicken
 70
    13
177
     2
291
     1
 71
     2
176
     1
 72
     2
176
     1
 73
     0
176
     1
 90
        0
176
     1
 40
-0.6
176
     1
 41
-30.0
176
     1
 62
     5
 63
     7
421
 16777215
176
     1
 74
     1
176
     1
 91
        4
176
     1
 64
     7
176
     1
 65
   257
176
     1
 75
     1
176
     1
175
     1
176
     1
 42
1.0
176
     1
 92
       12
176
     1
 66
     7
176
     1
 43
1.0
176
     1
 76
     1
176
     1
 77
     6
176
     1
 78
     2
176
     1
 67
     7
176
     1
 79
     5
176
     1
170
     0
176
     1
171
     0
176
     1
290
     0
176
     1
 93
        1
176
     1
 44
0.0
176
     1
173
     0
176
     1
  0
ENDSEC
  0
EOF
