  0
SECTION
  2
HEADER
  9
$ACADVER
  1
AC1024
  9
$ACADMAINTVER
 70
     6
  9
$DWGCODEPAGE
  3
UNDEFINED
  9
$INSBASE
 10
0.0
 20
0.0
 30
0.0
  9
$EXTMIN
 10
1.000000000000000E+20
 20
1.000000000000000E+20
 30
1.000000000000000E+20
  9
$EXTMAX
 10
-1.000000000000000E+20
 20
-1.000000000000000E+20
 30
-1.000000000000000E+20
  9
$LIMMIN
 10
0.0
 20
0.0
  9
$LIMMAX
 10
12.0
 20
9.0
  9
$ORTHOMODE
 70
     0
  9
$REGENMODE
 70
     1
  9
$FILLMODE
 70
     1
  9
$QTEXTMODE
 70
     0
  9
$MIRRTEXT
 70
     1
  9
$LTSCALE
 40
1.0
  9
$ATTMODE
 70
     1
  9
$TEXTSIZE
 40
0.2
  9
$TRACEWID
 40
0.05
  9
$TEXTSTYLE
  7
Standard
  9
$CLAYER
  8
0
  9
$CELTYPE
  6
ByLayer
  9
$CECOLOR
 62
   256
  9
$CELTSCALE
 40
1.0
  9
$DISPSILH
 70
     0
  9
$DIMSCALE
 40
1.0
  9
$DIMASZ
 40
0.18
  9
$DIMEXO
 40
0.0625
  9
$DIMDLI
 40
0.38
  9
$DIMRND
 40
0.0
  9
$DIMDLE
 40
0.0
  9
$DIMEXE
 40
0.18
  9
$DIMTP
 40
0.0
  9
$DIMTM
 40
0.0
  9
$DIMTXT
 40
0.18
  9
$DIMCEN
 40
0.09
  9
$DIMTSZ
 40
0.0
  9
$DIMTOL
 70
     0
  9
$DIMLIM
 70
     0
  9
$DIMTIH
 70
     1
  9
$DIMTOH
 70
     1
  9
$DIMSE1
 70
     0
  9
$DIMSE2
 70
     0
  9
$DIMTAD
 70
     0
  9
$DIMZIN
 70
     0
  9
$DIMBLK
  1

  9
$DIMASO
 70
     1
  9
$DIMSHO
 70
     1
  9
$DIMPOST
  1

  9
$DIMAPOST
  1

  9
$DIMALT
 70
     0
  9
$DIMALTD
 70
     2
  9
$DIMALTF
 40
25.4
  9
$DIMLFAC
 40
1.0
  9
$DIMTOFL
 70
     0
  9
$DIMTVP
 40
0.0
  9
$DIMTIX
 70
     0
  9
$DIMSOXD
 70
     0
  9
$DIMSAH
 70
     0
  9
$DIMBLK1
  1

  9
$DIMBLK2
  1

  9
$DIMSTYLE
  2
Standard
  9
$DIMCLRD
 70
     0
  9
$DIMCLRE
 70
     0
  9
$DIMCLRT
 70
     0
  9
$DIMTFAC
 40
1.0
  9
$DIMGAP
 40
0.09
  9
$DIMJUST
 70
     0
  9
$DIMSD1
 70
     0
  9
$DIMSD2
 70
     0
  9
$DIMTOLJ
 70
     1
  9
$DIMTZIN
 70
     0
  9
$DIMALTZ
 70
     0
  9
$DIMALTTZ
 70
     0
  9
$DIMUPT
 70
     0
  9
$DIMDEC
 70
     4
  9
$DIMTDEC
 70
     4
  9
$DIMALTU
 70
     2
  9
$DIMALTTD
 70
     2
  9
$DIMTXSTY
  7
Standard
  9
$DIMAUNIT
 70
     0
  9
$DIMADEC
 70
     0
  9
$DIMALTRND
 40
0.0
  9
$DIMAZIN
 70
     0
  9
$DIMDSEP
 70
    46
  9
$DIMATFIT
 70
     3
  9
$DIMFRAC
 70
     0
  9
$DIMLDRBLK
  1

  9
$DIMLUNIT
 70
     2
  9
$DIMLWD
 70
    -2
  9
$DIMLWE
 70
    -2
  9
$DIMTMOVE
 70
     0
  9
$DIMFXL
 40
1.0
  9
$DIMFXLON
 70
     0
  9
$DIMJOGANG
 40
0.7853981633974483
  9
$DIMTFILL
 70
     0
  9
$DIMTFILLCLR
 70
     0
  9
$DIMARCSYM
 70
     0
  9
$DIMLTYPE
  6

  9
$DIMLTEX1
  6

  9
$DIMLTEX2
  6

  9
$DIMTXTDIRECTION
 70
     0
  9
$LUNITS
 70
     2
  9
$LUPREC
 70
     4
  9
$SKETCHINC
 40
0.1
  9
$FILLETRAD
 40
0.5
  9
$AUNITS
 70
     0
  9
$AUPREC
 70
     0
  9
$MENU
  1
.
  9
$ELEVATION
 40
0.0
  9
$PELEVATION
 40
0.0
  9
$THICKNESS
 40
0.0
  9
$LIMCHECK
 70
     0
  9
$CHAMFERA
 40
0.5
  9
$CHAMFERB
 40
0.5
  9
$CHAMFERC
 40
1.0
  9
$CHAMFERD
 40
0.0
  9
$SKPOLY
 70
     0
  9
$TDCREATE
 40
2457917.625335648
  9
$TDUCREATE
 40
2457917.250335648
  9
$TDUPDATE
 40
2457917.625335648
  9
$TDUUPDATE
 40
2457917.250335648
  9
$TDINDWG
 40
0.0000000116
  9
$TDUSRTIMER
 40
0.0000000116
  9
$USRTIMER
 70
     1
  9
$ANGBASE
 50
0.0
  9
$ANGDIR
 70
     0
  9
$PDMODE
 70
     0
  9
$PDSIZE
 40
0.0
  9
$PLINEWID
 40
0.0
  9
$SPLFRAME
 70
     0
  9
$SPLINETYPE
 70
     6
  9
$SPLINESEGS
 70
     8
  9
$HANDSEED
  5
A8
  9
$SURFTAB1
 70
     6
  9
$SURFTAB2
 70
     6
  9
$SURFTYPE
 70
     6
  9
$SURFU
 70
     6
  9
$SURFV
 70
     6
  9
$UCSBASE
  2

  9
$UCSNAME
  2

  9
$UCSORG
 10
0.0
 20
0.0
 30
0.0
  9
$UCSXDIR
 10
1.0
 20
0.0
 30
0.0
  9
$UCSYDIR
 10
0.0
 20
1.0
 30
0.0
  9
$UCSORTHOREF
  2

  9
$UCSORTHOVIEW
 70
     0
  9
$UCSORGTOP
 10
0.0
 20
0.0
 30
0.0
  9
$UCSORGBOTTOM
 10
0.0
 20
0.0
 30
0.0
  9
$UCSORGLEFT
 10
0.0
 20
0.0
 30
0.0
  9
$UCSORGRIGHT
 10
0.0
 20
0.0
 30
0.0
  9
$UCSORGFRONT
 10
0.0
 20
0.0
 30
0.0
  9
$UCSORGBACK
 10
0.0
 20
0.0
 30
0.0
  9
$PUCSBASE
  2

  9
$PUCSNAME
  2

  9
$PUCSORG
 10
0.0
 20
0.0
 30
0.0
  9
$PUCSXDIR
 10
1.0
 20
0.0
 30
0.0
  9
$PUCSYDIR
 10
0.0
 20
1.0
 30
0.0
  9
$PUCSORTHOREF
  2

  9
$PUCSORTHOVIEW
 70
     0
  9
$PUCSORGTOP
 10
0.0
 20
0.0
 30
0.0
  9
$PUCSORGBOTTOM
 10
0.0
 20
0.0
 30
0.0
  9
$PUCSORGLEFT
 10
0.0
 20
0.0
 30
0.0
  9
$PUCSORGRIGHT
 10
0.0
 20
0.0
 30
0.0
  9
$PUCSORGFRONT
 10
0.0
 20
0.0
 30
0.0
  9
$PUCSORGBACK
 10
0.0
 20
0.0
 30
0.0
  9
$USERI1
 70
     0
  9
$USERI2
 70
     0
  9
$USERI3
 70
     0
  9
$USERI4
 70
     0
  9
$USERI5
 70
     0
  9
$USERR1
 40
0.0
  9
$USERR2
 40
0.0
  9
$USERR3
 40
0.0
  9
$USERR4
 40
0.0
  9
$USERR5
 40
0.0
  9
$WORLDVIEW
 70
     1
  9
$SHADEDGE
 70
     3
  9
$SHADEDIF
 70
    70
  9
$TILEMODE
 70
     1
  9
$MAXACTVP
 70
    64
  9
$PINSBASE
 10
0.0
 20
0.0
 30
0.0
  9
$PLIMCHECK
 70
     0
  9
$PEXTMIN
 10
1.000000000000000E+20
 20
1.000000000000000E+20
 30
1.000000000000000E+20
  9
$PEXTMAX
 10
-1.000000000000000E+20
 20
-1.000000000000000E+20
 30
-1.000000000000000E+20
  9
$PLIMMIN
 10
0.0
 20
0.0
  9
$PLIMMAX
 10
12.0
 20
9.0
  9
$UNITMODE
 70
     0
  9
$VISRETAIN
 70
     1
  9
$PLINEGEN
 70
     0
  9
$PSLTSCALE
 70
     1
  9
$TREEDEPTH
 70
  3020
  9
$CMLSTYLE
  2
Standard
  9
$CMLJUST
 70
     0
  9
$CMLSCALE
 40
1.0
  9
$PROXYGRAPHICS
 70
     1
  9
$MEASUREMENT
 70
     0
  9
$CELWEIGHT
370
    -1
  9
$ENDCAPS
280
     0
  9
$JOINSTYLE
280
     0
  9
$LWDISPLAY
290
     1
  9
$INSUNITS
 70
     1
  9
$HYPERLINKBASE
  1

  9
$STYLESHEET
  1

  9
$XEDIT
290
     1
  9
$CEPSNTYPE
380
     0
  9
$PSTYLEMODE
290
     1
  9
$FINGERPRINTGUID
  2
{6D72AD4F-02E3-5BE4-A133-FAE37C885551}
  9
$VERSIONGUID
  2
{FAEB1C32-E019-11D5-929B-00C0DF256EC4}
  9
$EXTNAMES
290
     1
  9
$PSVPSCALE
 40
0.0
  9
$OLESTARTUP
290
     0
  9
$SORTENTS
280
   127
  9
$INDEXCTL
280
     0
  9
$HIDETEXT
280
     1
  9
$XCLIPFRAME
280
     2
  9
$HALOGAP
280
     0
  9
$OBSCOLOR
 70
   257
  9
$OBSLTYPE
280
     0
  9
$INTERSECTIONDISPLAY
280
     0
  9
$INTERSECTIONCOLOR
 70
   257
  9
$DIMASSOC
280
     2
  9
$PROJECTNAME
  1

  9
$CAMERADISPLAY
290
     0
  9
$LENSLENGTH
 40
50.0
  9
$CAMERAHEIGHT
 40
0.0
  9
$STEPSPERSEC
 40
2.0
  9
$STEPSIZE
 40
6.0
  9
$3DDWFPREC
 40
2.0
  9
$PSOLWIDTH
 40
0.25
  9
$PSOLHEIGHT
 40
4.0
  9
$LOFTANG1
 40
1.570796326794897
  9
$LOFTANG2
 40
1.570796326794897
  9
$LOFTMAG1
 40
0.0
  9
$LOFTMAG2
 40
0.0
  9
$LOFTPARAM
 70
     7
  9
$LOFTNORMALS
280
     1
  9
$LATITUDE
 40
37.795
  9
$LONGITUDE
 40
-122.394
  9
$NORTHDIRECTION
 40
0.0
  9
$TIMEZONE
 70
 -8000
  9
$LIGHTGLYPHDISPLAY
280
     1
  9
$TILEMODELIGHTSYNCH
280
     1
  9
$CMATERIAL
347
3C
  9
$SOLIDHIST
280
     1
  9
$SHOWHIST
280
     1
  9
$DWFFRAME
280
     2
  9
$DGNFRAME
280
     2
  9
$REALWORLDSCALE
290
     1
  9
$INTERFERECOLOR
 62
   256
  9
$CSHADOW
280
     0
  9
$SHADOWPLANELOCATION
 40
0.0
  0
ENDSEC
  0
SECTION
  2
CLASSES
  0
CLASS
  1
ACDBDICTIONARYWDFLT
  2
AcDbDictionaryWithDefault
  3
ObjectDBX Classes
 90
        0
 91
        4
280
     0
281
     0
  0
CLASS
  1
VISUALSTYLE
  2
AcDbVisualStyle
  3
ObjectDBX Classes
 90
     4095
 91
        4
280
     0
281
     0
  0
CLASS
  1
MATERIAL
  2
AcDbMaterial
  3
ObjectDBX Classes
 90
     1153
 91
        4
280
     0
281
     0
  0
CLASS
  1
SUN
  2
AcDbSun
  3
SCENEOE
 90
     1024
 91
        4
280
     0
281
     0
  0
ENDSEC
  0
SECTION
  2
TABLES
  0
TABLE
  2
VPORT
  5
8
330
0
100
AcDbSymbolTable
 70
     1
  0
VPORT
  5
29
330
8
100
AcDbSymbolTableRecord
100
AcDbViewportTableRecord
  2
*Active
 70
     0
 10
0.0
 20
0.0
 11
1.0
 21
1.0
 12
0.0
 22
0.0
 13
0.0
 23
0.0
 14
0.5
 24
0.5
 15
0.5
 25
0.5
 16
0.0
 26
0.0
 36
1.0
 17
91.00082462281999
 27
-128.4993055234307
 37
0.0
 40
256.9986110468615
 41
0.7081814508812795
 42
50.0
 43
0.0
 44
0.0
 50
0.0
 51
0.0
 71
     0
 72
   100
 73
     1
 74
     3
 75
     0
 76
     0
 77
     0
 78
     0
281
     0
 65
     1
110
0.0
120
0.0
130
0.0
111
1.0
121
0.0
131
0.0
112
0.0
122
1.0
132
0.0
 79
     0
146
0.0
 60
     3
 61
     5
292
     1
282
     1
141
0.0
142
0.0
 63
   250
361
3F
  0
ENDTAB
  0
TABLE
  2
LTYPE
  5
5
330
0
100
AcDbSymbolTable
 70
     1
  0
LTYPE
  5
14
330
5
100
AcDbSymbolTableRecord
100
AcDbLinetypeTableRecord
  2
ByBlock
 70
     0
  3

 72
    65
 73
     0
 40
0.0
  0
LTYPE
  5
15
330
5
100
AcDbSymbolTableRecord
100
AcDbLinetypeTableRecord
  2
ByLayer
 70
     0
  3

 72
    65
 73
     0
 40
0.0
  0
LTYPE
  5
16
330
5
100
AcDbSymbolTableRecord
100
AcDbLinetypeTableRecord
  2
Continuous
 70
     0
  3
Solid line
 72
    65
 73
     0
 40
0.0
  0
ENDTAB
  0
TABLE
  2
LAYER
  5
2
330
0
100
AcDbSymbolTable
 70
     2
  0
LAYER
  5
10
330
2
100
AcDbSymbolTableRecord
100
AcDbLayerTableRecord
  2
0
 70
     0
 62
     7
  6
Continuous
370
    -3
390
F
347
3E
  0
LAYER
  5
40
330
2
100
AcDbSymbolTableRecord
100
AcDbLayerTableRecord
  2
_U+30EC_U+30A4_U+30E4_U+30FC 1
 70
     0
 62
     7
  6
Continuous
370
    -3
390
F
347
3E
  0
ENDTAB
  0
TABLE
  2
STYLE
  5
3
330
0
100
AcDbSymbolTable
 70
     1
  0
STYLE
  5
11
330
3
100
AcDbSymbolTableRecord
100
AcDbTextStyleTableRecord
  2
Standard
 70
     0
 40
0.0
 41
1.0
 50
0.0
 71
     0
 42
0.2
  3
txt
  4

  0
ENDTAB
  0
TABLE
  2
VIEW
  5
6
330
0
100
AcDbSymbolTable
 70
     0
  0
ENDTAB
  0
TABLE
  2
UCS
  5
7
330
0
100
AcDbSymbolTable
 70
     0
  0
ENDTAB
  0
TABLE
  2
APPID
  5
9
330
0
100
AcDbSymbolTable
 70
     1
  0
APPID
  5
12
330
9
100
AcDbSymbolTableRecord
100
AcDbRegAppTableRecord
  2
ACAD
 70
     0
  0
ENDTAB
  0
TABLE
  2
DIMSTYLE
  5
A
330
0
100
AcDbSymbolTable
 70
     1
100
AcDbDimStyleTable
  0
DIMSTYLE
105
27
330
A
100
AcDbSymbolTableRecord
100
AcDbDimStyleTableRecord
  2
Standard
 70
     0
178
     0
340
11
  0
ENDTAB
  0
TABLE
  2
BLOCK_RECORD
  5
1
330
0
100
AcDbSymbolTable
 70
     4
  0
BLOCK_RECORD
  5
1F
330
1
100
AcDbSymbolTableRecord
100
AcDbBlockTableRecord
  2
*Model_Space
340
22
 70
     0
280
     1
281
     0
  0
BLOCK_RECORD
  5
1B
330
1
100
AcDbSymbolTableRecord
100
AcDbBlockTableRecord
  2
*Paper_Space
340
1E
 70
     0
280
     1
281
     0
  0
BLOCK_RECORD
  5
23
330
1
100
AcDbSymbolTableRecord
100
AcDbBlockTableRecord
  2
*Paper_Space0
340
26
 70
     0
280
     1
281
     0
  0
BLOCK_RECORD
  5
8A
330
1
100
AcDbSymbolTableRecord
100
AcDbBlockTableRecord
  2
block 2
340
0
102
{BLKREFS
331
8B
102
}
 70
     0
280
     1
281
     0
  0
BLOCK_RECORD
  5
93
330
1
100
AcDbSymbolTableRecord
100
AcDbBlockTableRecord
  2
block 3
340
0
102
{BLKREFS
331
94
102
}
 70
     0
280
     1
281
     0
  0
BLOCK_RECORD
  5
9C
330
1
100
AcDbSymbolTableRecord
100
AcDbBlockTableRecord
  2
block 4
340
0
102
{BLKREFS
331
9D
102
}
 70
     0
280
     1
281
     0
  0
ENDTAB
  0
ENDSEC
  0
SECTION
  2
BLOCKS
  0
BLOCK
  5
20
330
1F
100
AcDbEntity
  8
0
100
AcDbBlockBegin
  2
*Model_Space
 70
     0
 10
0.0
 20
0.0
 30
0.0
  3
*Model_Space
  1

  0
ENDBLK
  5
21
330
1F
100
AcDbEntity
  8
0
100
AcDbBlockEnd
  0
BLOCK
  5
1C
330
1B
100
AcDbEntity
 67
     1
  8
0
100
AcDbBlockBegin
  2
*Paper_Space
 70
     0
 10
0.0
 20
0.0
 30
0.0
  3
*Paper_Space
  1

  0
ENDBLK
  5
1D
330
1B
100
AcDbEntity
 67
     1
  8
0
100
AcDbBlockEnd
  0
BLOCK
  5
24
330
23
100
AcDbEntity
  8
0
100
AcDbBlockBegin
  2
*Paper_Space0
 70
     0
 10
0.0
 20
0.0
 30
0.0
  3
*Paper_Space0
  1

  0
ENDBLK
  5
25
330
23
100
AcDbEntity
  8
0
100
AcDbBlockEnd
  0
BLOCK
  5
8C
330
8A
100
AcDbEntity
  8
0
100
AcDbBlockBegin
  2
block 2
 70
     0
 10
0.0
 20
0.0
 30
0.0
  3
block 2
  1

  0
SPLINE
  5
8E
330
8A
100
AcDbEntity
  8
_U+30EC_U+30A4_U+30E4_U+30FC 1
370
     0
100
AcDbSpline
210
0.0
220
0.0
230
1.0
 70
    11
 71
     3
 72
    26
 73
    22
 74
     0
 42
0.0000000001
 43
0.0000000001
 12
1.0
 22
0.0
 32
0.0
 13
1.0
 23
0.0
 33
0.0
 40
0.0
 40
0.0
 40
0.0
 40
0.0
 40
1.0
 40
1.0
 40
1.0
 40
2.0
 40
2.0
 40
2.0
 40
3.0
 40
3.0
 40
3.0
 40
4.0
 40
4.0
 40
4.0
 40
5.0
 40
5.0
 40
5.0
 40
6.0
 40
6.0
 40
6.0
 40
7.0
 40
7.0
 40
7.0
 40
7.0
 10
99.82956540473012
 20
-134.6219292198167
 30
0.0
 10
99.82956540473012
 20
-134.6219292198167
 30
0.0
 10
98.72541230170754
 20
-134.6219292198167
 30
0.0
 10
98.72541230170754
 20
-134.6219292198167
 30
0.0
 10
98.72541230170754
 20
-134.6219292198167
 30
0.0
 10
98.72541230170754
 20
-134.9743624879578
 30
0.0
 10
98.72541230170754
 20
-134.9743624879578
 30
0.0
 10
98.72541230170754
 20
-134.9743624879578
 30
0.0
 10
98.5772731958418
 20
-134.9743624879578
 30
0.0
 10
98.5772731958418
 20
-134.9743624879578
 30
0.0
 10
98.56245928525523
 20
-134.6195176529771
 30
0.0
 10
98.39950626880291
 20
-134.5699082779895
 30
0.0
 10
98.28512909869261
 20
-134.5382133995252
 30
0.0
 10
98.28512909869261
 20
-134.5382133995252
 30
0.0
 10
98.28512909869261
 20
-134.3821505740434
 30
0.0
 10
98.28512909869261
 20
-134.3821505740434
 30
0.0
 10
98.28512909869261
 20
-134.3821505740434
 30
0.0
 10
99.82956540473012
 20
-134.3821505740434
 30
0.0
 10
99.82956540473012
 20
-134.3821505740434
 30
0.0
 10
99.82956540473012
 20
-134.3821505740434
 30
0.0
 10
99.82956540473012
 20
-134.6219292198167
 30
0.0
 10
99.82956540473012
 20
-134.6219292198167
 30
0.0
  0
HATCH
  5
8F
330
8A
100
AcDbEntity
  8
_U+30EC_U+30A4_U+30E4_U+30FC 1
 62
   179
420
  2234388
100
AcDbHatch
 10
0.0
 20
0.0
 30
0.0
210
0.0
220
0.0
230
1.0
  2
SOLID
 70
     1
 71
     0
 91
        1
 92
        1
 93
        1
 72
     4
 94
        3
 73
     0
 74
     1
 95
       26
 96
       22
 40
0.0
 40
0.0
 40
0.0
 40
0.0
 40
1.0
 40
1.0
 40
1.0
 40
2.0
 40
2.0
 40
2.0
 40
3.0
 40
3.0
 40
3.0
 40
4.0
 40
4.0
 40
4.0
 40
5.0
 40
5.0
 40
5.0
 40
6.0
 40
6.0
 40
6.0
 40
7.0
 40
7.0
 40
7.0
 40
7.0
 10
99.82956540473012
 20
-134.6219292198167
 10
99.82956540473012
 20
-134.6219292198167
 10
98.72541230170754
 20
-134.6219292198167
 10
98.72541230170754
 20
-134.6219292198167
 10
98.72541230170754
 20
-134.6219292198167
 10
98.72541230170754
 20
-134.9743624879578
 10
98.72541230170754
 20
-134.9743624879578
 10
98.72541230170754
 20
-134.9743624879578
 10
98.5772731958418
 20
-134.9743624879578
 10
98.5772731958418
 20
-134.9743624879578
 10
98.56245928525523
 20
-134.6195176529771
 10
98.39950626880291
 20
-134.5699082779895
 10
98.28512909869261
 20
-134.5382133995252
 10
98.28512909869261
 20
-134.5382133995252
 10
98.28512909869261
 20
-134.3821505740434
 10
98.28512909869261
 20
-134.3821505740434
 10
98.28512909869261
 20
-134.3821505740434
 10
99.82956540473012
 20
-134.3821505740434
 10
99.82956540473012
 20
-134.3821505740434
 10
99.82956540473012
 20
-134.3821505740434
 10
99.82956540473012
 20
-134.6219292198167
 10
99.82956540473012
 20
-134.6219292198167
 97
        0
 97
        0
 75
     2
 76
     1
 98
        0
  0
SPLINE
  5
90
330
8A
100
AcDbEntity
  8
_U+30EC_U+30A4_U+30E4_U+30FC 1
370
     0
100
AcDbSpline
210
0.0
220
0.0
230
1.0
 70
    11
 71
     3
 72
    29
 73
    25
 74
     0
 42
0.0000000001
 43
0.0000000001
 12
1.0
 22
0.0
 32
0.0
 13
1.0
 23
0.0
 33
0.0
 40
0.0
 40
0.0
 40
0.0
 40
0.0
 40
1.0
 40
1.0
 40
1.0
 40
2.0
 40
2.0
 40
2.0
 40
3.0
 40
3.0
 40
3.0
 40
4.0
 40
4.0
 40
4.0
 40
5.0
 40
5.0
 40
5.0
 40
6.0
 40
6.0
 40
6.0
 40
7.0
 40
7.0
 40
7.0
 40
8.0
 40
8.0
 40
8.0
 40
8.0
 10
99.65179847769122
 20
-132.8869791334449
 30
0.0
 10
99.86126028319441
 20
-133.0023898322008
 30
0.0
 10
99.88020830836328
 20
-133.1877359693072
 30
0.0
 10
99.88020830836328
 20
-133.3121039163248
 30
0.0
 10
99.88020830836328
 20
-133.4836696714902
 30
0.0
 10
99.83369951931242
 20
-133.6352538728412
 30
0.0
 10
99.65179847769122
 20
-133.7368841896561
 30
0.0
 10
99.4571505827746
 20
-133.8478162642811
 30
0.0
 10
99.22012801338941
 20
-133.8681423276441
 30
0.0
 10
99.05751950648562
 20
-133.8681423276441
 30
0.0
 10
98.91351451520218
 20
-133.8681423276441
 30
0.0
 10
98.66167803523042
 20
-133.8502278311208
 30
0.0
 10
98.4628960257315
 20
-133.7368841896561
 30
0.0
 10
98.25997990165028
 20
-133.6218180004487
 30
0.0
 10
98.23655325235059
 20
-133.4499077357347
 30
0.0
 10
98.23655325235059
 20
-133.3121039163248
 30
0.0
 10
98.23655325235059
 20
-133.1422607089019
 30
0.0
 10
98.28099498411031
 20
-132.9886094502598
 30
0.0
 10
98.4628960257315
 20
-132.8869791334449
 30
0.0
 10
98.65547686335697
 20
-132.7805256829507
 30
0.0
 10
98.88388669402903
 20
-132.7557209954569
 30
0.0
 10
99.05751950648562
 20
-132.7557209954569
 30
0.0
 10
99.22874075210254
 20
-132.7557209954569
 30
0.0
 10
99.45921764006576
 20
-132.7784586256596
 30
0.0
 10
99.65179847769122
 20
-132.8869791334449
 30
0.0
  0
SPLINE
  5
91
330
8A
100
AcDbEntity
  8
_U+30EC_U+30A4_U+30E4_U+30FC 1
370
     0
100
AcDbSpline
210
0.0
220
0.0
230
1.0
 70
    11
 71
     3
 72
    17
 73
    13
 74
     0
 42
0.0000000001
 43
0.0000000001
 12
1.0
 22
0.0
 32
0.0
 13
1.0
 23
0.0
 33
0.0
 40
0.0
 40
0.0
 40
0.0
 40
0.0
 40
1.0
 40
1.0
 40
1.0
 40
2.0
 40
2.0
 40
2.0
 40
3.0
 40
3.0
 40
3.0
 40
4.0
 40
4.0
 40
4.0
 40
4.0
 10
98.42913408997606
 20
-133.3121039163248
 30
0.0
 10
98.42913408997606
 20
-133.5787543068831
 30
0.0
 10
98.71266544841211
 20
-133.6283636818707
 30
0.0
 10
99.05751950648562
 20
-133.6283636818707
 30
0.0
 10
99.37687985796829
 20
-133.6283636818707
 30
0.0
 10
99.68556041344667
 20
-133.5901231219844
 30
0.0
 10
99.68556041344667
 20
-133.3121039163248
 30
0.0
 10
99.68556041344667
 20
-133.0475205830576
 30
0.0
 10
99.40444062185028
 20
-132.9954996412303
 30
0.0
 10
99.05751950648562
 20
-132.9954996412303
 30
0.0
 10
98.73781464545443
 20
-132.9954996412303
 30
0.0
 10
98.42913408997606
 20
-133.0361517679563
 30
0.0
 10
98.42913408997606
 20
-133.3121039163248
 30
0.0
  0
HATCH
  5
92
330
8A
100
AcDbEntity
  8
_U+30EC_U+30A4_U+30E4_U+30FC 1
 62
   179
420
  2234388
100
AcDbHatch
 10
0.0
 20
0.0
 30
0.0
210
0.0
220
0.0
230
1.0
  2
SOLID
 70
     1
 71
     0
 91
        2
 92
        1
 93
        1
 72
     4
 94
        3
 73
     0
 74
     1
 95
       29
 96
       25
 40
0.0
 40
0.0
 40
0.0
 40
0.0
 40
1.0
 40
1.0
 40
1.0
 40
2.0
 40
2.0
 40
2.0
 40
3.0
 40
3.0
 40
3.0
 40
4.0
 40
4.0
 40
4.0
 40
5.0
 40
5.0
 40
5.0
 40
6.0
 40
6.0
 40
6.0
 40
7.0
 40
7.0
 40
7.0
 40
8.0
 40
8.0
 40
8.0
 40
8.0
 10
99.65179847769122
 20
-132.8869791334449
 10
99.86126028319441
 20
-133.0023898322008
 10
99.88020830836328
 20
-133.1877359693072
 10
99.88020830836328
 20
-133.3121039163248
 10
99.88020830836328
 20
-133.4836696714902
 10
99.83369951931242
 20
-133.6352538728412
 10
99.65179847769122
 20
-133.7368841896561
 10
99.4571505827746
 20
-133.8478162642811
 10
99.22012801338941
 20
-133.8681423276441
 10
99.05751950648562
 20
-133.8681423276441
 10
98.91351451520218
 20
-133.8681423276441
 10
98.66167803523042
 20
-133.8502278311208
 10
98.4628960257315
 20
-133.7368841896561
 10
98.25997990165028
 20
-133.6218180004487
 10
98.23655325235059
 20
-133.4499077357347
 10
98.23655325235059
 20
-133.3121039163248
 10
98.23655325235059
 20
-133.1422607089019
 10
98.28099498411031
 20
-132.9886094502598
 10
98.4628960257315
 20
-132.8869791334449
 10
98.65547686335697
 20
-132.7805256829507
 10
98.88388669402903
 20
-132.7557209954569
 10
99.05751950648562
 20
-132.7557209954569
 10
99.22874075210254
 20
-132.7557209954569
 10
99.45921764006576
 20
-132.7784586256596
 10
99.65179847769122
 20
-132.8869791334449
 97
        0
 97
        0
 92
        1
 93
        1
 72
     4
 94
        3
 73
     0
 74
     1
 95
       17
 96
       13
 40
0.0
 40
0.0
 40
0.0
 40
0.0
 40
1.0
 40
1.0
 40
1.0
 40
2.0
 40
2.0
 40
2.0
 40
3.0
 40
3.0
 40
3.0
 40
4.0
 40
4.0
 40
4.0
 40
4.0
 10
98.42913408997606
 20
-133.3121039163248
 10
98.42913408997606
 20
-133.5787543068831
 10
98.71266544841211
 20
-133.6283636818707
 10
99.05751950648562
 20
-133.6283636818707
 10
99.37687985796829
 20
-133.6283636818707
 10
99.68556041344667
 20
-133.5901231219844
 10
99.68556041344667
 20
-133.3121039163248
 10
99.68556041344667
 20
-133.0475205830576
 10
99.40444062185028
 20
-132.9954996412303
 10
99.05751950648562
 20
-132.9954996412303
 10
98.73781464545443
 20
-132.9954996412303
 10
98.42913408997606
 20
-133.0361517679563
 10
98.42913408997606
 20
-133.3121039163248
 97
        0
 97
        0
 75
     2
 76
     1
 98
        0
  0
ENDBLK
  5
8D
330
8A
100
AcDbEntity
  8
0
100
AcDbBlockEnd
  0
BLOCK
  5
95
330
93
100
AcDbEntity
  8
0
100
AcDbBlockBegin
  2
block 3
 70
     0
 10
0.0
 20
0.0
 30
0.0
  3
block 3
  1

  0
SPLINE
  5
97
330
93
100
AcDbEntity
  8
_U+30EC_U+30A4_U+30E4_U+30FC 1
370
     0
100
AcDbSpline
210
0.0
220
0.0
230
1.0
 70
    11
 71
     3
 72
    44
 73
    40
 74
     0
 42
0.0000000001
 43
0.0000000001
 12
1.0
 22
0.0
 32
0.0
 13
1.0
 23
0.0
 33
0.0
 40
0.0
 40
0.0
 40
0.0
 40
0.0
 40
1.0
 40
1.0
 40
1.0
 40
2.0
 40
2.0
 40
2.0
 40
3.0
 40
3.0
 40
3.0
 40
4.0
 40
4.0
 40
4.0
 40
5.0
 40
5.0
 40
5.0
 40
6.0
 40
6.0
 40
6.0
 40
7.0
 40
7.0
 40
7.0
 40
8.0
 40
8.0
 40
8.0
 40
9.0
 40
9.0
 40
9.0
 40
10.0
 40
10.0
 40
10.0
 40
11.0
 40
11.0
 40
11.0
 40
12.0
 40
12.0
 40
12.0
 40
13.0
 40
13.0
 40
13.0
 40
13.0
 10
85.94531383485048
 20
-142.712046947829
 30
0.0
 10
85.71242538004759
 20
-142.870865849699
 30
0.0
 10
85.61303437529813
 20
-142.9449354026318
 30
0.0
 10
85.56101343347086
 20
-143.0885958843668
 30
0.0
 10
85.56101343347086
 20
-143.0885958843668
 30
0.0
 10
86.3930039931587
 20
-143.0885958843668
 30
0.0
 10
86.3930039931587
 20
-143.0885958843668
 30
0.0
 10
86.3930039931587
 20
-143.0885958843668
 30
0.0
 10
86.3930039931587
 20
-143.2939235752876
 30
0.0
 10
86.3930039931587
 20
-143.2939235752876
 30
0.0
 10
86.3930039931587
 20
-143.2939235752876
 30
0.0
 10
85.29419078813827
 20
-143.2939235752876
 30
0.0
 10
85.29419078813827
 20
-143.2939235752876
 30
0.0
 10
85.32812497866797
 20
-142.9363226639187
 30
0.0
 10
85.39823267179281
 20
-142.8581189964035
 30
0.0
 10
85.8097493275059
 20
-142.5597737273809
 30
0.0
 10
86.08328990903473
 20
-142.360991717882
 30
0.0
 10
86.15339760215957
 20
-142.2931233368226
 30
0.0
 10
86.15339760215957
 20
-142.1556640269611
 30
0.0
 10
86.15339760215957
 20
-142.0371527422685
 30
0.0
 10
86.0765719728385
 20
-141.906239113829
 30
0.0
 10
85.866248893464
 20
-141.906239113829
 30
0.0
 10
85.58805743303007
 20
-141.906239113829
 30
0.0
 10
85.57910018476842
 20
-142.1367160017922
 30
0.0
 10
85.5746215606376
 20
-142.2531602291937
 30
0.0
 10
85.5746215606376
 20
-142.2531602291937
 30
0.0
 10
85.33484291486421
 20
-142.2531602291937
 30
0.0
 10
85.33484291486421
 20
-142.2531602291937
 30
0.0
 10
85.34397241790012
 20
-142.126036205788
 30
0.0
 10
85.35534123300144
 20
-142.0140706025173
 30
0.0
 10
85.44112411058417
 20
-141.8955593178247
 30
0.0
 10
85.55877412140545
 20
-141.7346733586636
 30
0.0
 10
85.75772838567863
 20
-141.7009114229081
 30
0.0
 10
85.88209633269615
 20
-141.7009114229081
 30
0.0
 10
86.17820228965337
 20
-141.7009114229081
 30
0.0
 10
86.39972192935494
 20
-141.8848795218205
 30
0.0
 10
86.39972192935494
 20
-142.1577310842522
 30
0.0
 10
86.39972192935494
 20
-142.3864854244728
 30
0.0
 10
86.27535398233742
 20
-142.485704174448
 30
0.0
 10
85.94531383485048
 20
-142.712046947829
 30
0.0
  0
HATCH
  5
98
330
93
100
AcDbEntity
  8
_U+30EC_U+30A4_U+30E4_U+30FC 1
 62
   179
420
  2234388
100
AcDbHatch
 10
0.0
 20
0.0
 30
0.0
210
0.0
220
0.0
230
1.0
  2
SOLID
 70
     1
 71
     0
 91
        1
 92
        1
 93
        1
 72
     4
 94
        3
 73
     0
 74
     1
 95
       44
 96
       40
 40
0.0
 40
0.0
 40
0.0
 40
0.0
 40
1.0
 40
1.0
 40
1.0
 40
2.0
 40
2.0
 40
2.0
 40
3.0
 40
3.0
 40
3.0
 40
4.0
 40
4.0
 40
4.0
 40
5.0
 40
5.0
 40
5.0
 40
6.0
 40
6.0
 40
6.0
 40
7.0
 40
7.0
 40
7.0
 40
8.0
 40
8.0
 40
8.0
 40
9.0
 40
9.0
 40
9.0
 40
10.0
 40
10.0
 40
10.0
 40
11.0
 40
11.0
 40
11.0
 40
12.0
 40
12.0
 40
12.0
 40
13.0
 40
13.0
 40
13.0
 40
13.0
 10
85.94531383485048
 20
-142.712046947829
 10
85.71242538004759
 20
-142.870865849699
 10
85.61303437529813
 20
-142.9449354026318
 10
85.56101343347086
 20
-143.0885958843668
 10
85.56101343347086
 20
-143.0885958843668
 10
86.3930039931587
 20
-143.0885958843668
 10
86.3930039931587
 20
-143.0885958843668
 10
86.3930039931587
 20
-143.0885958843668
 10
86.3930039931587
 20
-143.2939235752876
 10
86.3930039931587
 20
-143.2939235752876
 10
86.3930039931587
 20
-143.2939235752876
 10
85.29419078813827
 20
-143.2939235752876
 10
85.29419078813827
 20
-143.2939235752876
 10
85.32812497866797
 20
-142.9363226639187
 10
85.39823267179281
 20
-142.8581189964035
 10
85.8097493275059
 20
-142.5597737273809
 10
86.08328990903473
 20
-142.360991717882
 10
86.15339760215957
 20
-142.2931233368226
 10
86.15339760215957
 20
-142.1556640269611
 10
86.15339760215957
 20
-142.0371527422685
 10
86.0765719728385
 20
-141.906239113829
 10
85.866248893464
 20
-141.906239113829
 10
85.58805743303007
 20
-141.906239113829
 10
85.57910018476842
 20
-142.1367160017922
 10
85.5746215606376
 20
-142.2531602291937
 10
85.5746215606376
 20
-142.2531602291937
 10
85.33484291486421
 20
-142.2531602291937
 10
85.33484291486421
 20
-142.2531602291937
 10
85.34397241790012
 20
-142.126036205788
 10
85.35534123300144
 20
-142.0140706025173
 10
85.44112411058417
 20
-141.8955593178247
 10
85.55877412140545
 20
-141.7346733586636
 10
85.75772838567863
 20
-141.7009114229081
 10
85.88209633269615
 20
-141.7009114229081
 10
86.17820228965337
 20
-141.7009114229081
 10
86.39972192935494
 20
-141.8848795218205
 10
86.39972192935494
 20
-142.1577310842522
 10
86.39972192935494
 20
-142.3864854244728
 10
86.27535398233742
 20
-142.485704174448
 10
85.94531383485048
 20
-142.712046947829
 97
        0
 97
        0
 75
     2
 76
     1
 98
        0
  0
SPLINE
  5
99
330
93
100
AcDbEntity
  8
_U+30EC_U+30A4_U+30E4_U+30FC 1
370
     0
100
AcDbSpline
210
0.0
220
0.0
230
1.0
 70
    11
 71
     3
 72
    29
 73
    25
 74
     0
 42
0.0000000001
 43
0.0000000001
 12
1.0
 22
0.0
 32
0.0
 13
1.0
 23
0.0
 33
0.0
 40
0.0
 40
0.0
 40
0.0
 40
0.0
 40
1.0
 40
1.0
 40
1.0
 40
2.0
 40
2.0
 40
2.0
 40
3.0
 40
3.0
 40
3.0
 40
4.0
 40
4.0
 40
4.0
 40
5.0
 40
5.0
 40
5.0
 40
6.0
 40
6.0
 40
6.0
 40
7.0
 40
7.0
 40
7.0
 40
8.0
 40
8.0
 40
8.0
 40
8.0
 10
87.5286797198713
 20
-143.1161566482487
 30
0.0
 10
87.41326902111544
 20
-143.3256184537519
 30
0.0
 10
87.22792288400899
 20
-143.3445664789208
 30
0.0
 10
87.10355493699147
 20
-143.3445664789208
 30
0.0
 10
86.93181692705177
 20
-143.3445664789208
 30
0.0
 10
86.78040498047504
 20
-143.2980576898699
 30
0.0
 10
86.67860240888591
 20
-143.1161566482487
 30
0.0
 10
86.56784258903512
 20
-142.9215087533321
 30
0.0
 10
86.54751652567215
 20
-142.6844861839469
 30
0.0
 10
86.54751652567215
 20
-142.5218776770431
 30
0.0
 10
86.54751652567215
 20
-142.3778726857597
 30
0.0
 10
86.56560327696971
 20
-142.126036205788
 30
0.0
 10
86.67860240888591
 20
-141.927254196289
 30
0.0
 10
86.79401310764177
 20
-141.7243380722078
 30
0.0
 10
86.96575111758148
 20
-141.7009114229081
 30
0.0
 10
87.10355493699147
 20
-141.7009114229081
 30
0.0
 10
87.27339814441429
 20
-141.7009114229081
 30
0.0
 10
87.42704940305643
 20
-141.7453531546678
 30
0.0
 10
87.5286797198713
 20
-141.927254196289
 30
0.0
 10
87.63513317036552
 20
-142.1198350339145
 30
0.0
 10
87.65993785785932
 20
-142.3482448645865
 30
0.0
 10
87.65993785785932
 20
-142.5218776770431
 30
0.0
 10
87.65993785785932
 20
-142.6930989226601
 30
0.0
 10
87.63720022765668
 20
-142.9235758106233
 30
0.0
 10
87.5286797198713
 20
-143.1161566482487
 30
0.0
  0
SPLINE
  5
9A
330
93
100
AcDbEntity
  8
_U+30EC_U+30A4_U+30E4_U+30FC 1
370
     0
100
AcDbSpline
210
0.0
220
0.0
230
1.0
 70
    11
 71
     3
 72
    17
 73
    13
 74
     0
 42
0.0000000001
 43
0.0000000001
 12
1.0
 22
0.0
 32
0.0
 13
1.0
 23
0.0
 33
0.0
 40
0.0
 40
0.0
 40
0.0
 40
0.0
 40
1.0
 40
1.0
 40
1.0
 40
2.0
 40
2.0
 40
2.0
 40
3.0
 40
3.0
 40
3.0
 40
4.0
 40
4.0
 40
4.0
 40
4.0
 10
87.10355493699147
 20
-141.8934922605336
 30
0.0
 10
86.83690454643313
 20
-141.8934922605336
 30
0.0
 10
86.78712291667128
 20
-142.1770236189696
 30
0.0
 10
86.78712291667128
 20
-142.5218776770431
 30
0.0
 10
86.78712291667128
 20
-142.8412380285258
 30
0.0
 10
86.82553573133181
 20
-143.1499185840042
 30
0.0
 10
87.10355493699147
 20
-143.1499185840042
 30
0.0
 10
87.36813827025867
 20
-143.1499185840042
 30
0.0
 10
87.42015921208593
 20
-142.8687987924078
 30
0.0
 10
87.42015921208593
 20
-142.5218776770431
 30
0.0
 10
87.42015921208593
 20
-142.202172816012
 30
0.0
 10
87.37950708535999
 20
-141.8934922605336
 30
0.0
 10
87.10355493699147
 20
-141.8934922605336
 30
0.0
  0
HATCH
  5
9B
330
93
100
AcDbEntity
  8
_U+30EC_U+30A4_U+30E4_U+30FC 1
 62
   179
420
  2234388
100
AcDbHatch
 10
0.0
 20
0.0
 30
0.0
210
0.0
220
0.0
230
1.0
  2
SOLID
 70
     1
 71
     0
 91
        2
 92
        1
 93
        1
 72
     4
 94
        3
 73
     0
 74
     1
 95
       29
 96
       25
 40
0.0
 40
0.0
 40
0.0
 40
0.0
 40
1.0
 40
1.0
 40
1.0
 40
2.0
 40
2.0
 40
2.0
 40
3.0
 40
3.0
 40
3.0
 40
4.0
 40
4.0
 40
4.0
 40
5.0
 40
5.0
 40
5.0
 40
6.0
 40
6.0
 40
6.0
 40
7.0
 40
7.0
 40
7.0
 40
8.0
 40
8.0
 40
8.0
 40
8.0
 10
87.5286797198713
 20
-143.1161566482487
 10
87.41326902111544
 20
-143.3256184537519
 10
87.22792288400899
 20
-143.3445664789208
 10
87.10355493699147
 20
-143.3445664789208
 10
86.93181692705177
 20
-143.3445664789208
 10
86.78040498047504
 20
-143.2980576898699
 10
86.67860240888591
 20
-143.1161566482487
 10
86.56784258903512
 20
-142.9215087533321
 10
86.54751652567215
 20
-142.6844861839469
 10
86.54751652567215
 20
-142.5218776770431
 10
86.54751652567215
 20
-142.3778726857597
 10
86.56560327696971
 20
-142.126036205788
 10
86.67860240888591
 20
-141.927254196289
 10
86.79401310764177
 20
-141.7243380722078
 10
86.96575111758148
 20
-141.7009114229081
 10
87.10355493699147
 20
-141.7009114229081
 10
87.27339814441429
 20
-141.7009114229081
 10
87.42704940305643
 20
-141.7453531546678
 10
87.5286797198713
 20
-141.927254196289
 10
87.63513317036552
 20
-142.1198350339145
 10
87.65993785785932
 20
-142.3482448645865
 10
87.65993785785932
 20
-142.5218776770431
 10
87.65993785785932
 20
-142.6930989226601
 10
87.63720022765668
 20
-142.9235758106233
 10
87.5286797198713
 20
-143.1161566482487
 97
        0
 97
        0
 92
        1
 93
        1
 72
     4
 94
        3
 73
     0
 74
     1
 95
       17
 96
       13
 40
0.0
 40
0.0
 40
0.0
 40
0.0
 40
1.0
 40
1.0
 40
1.0
 40
2.0
 40
2.0
 40
2.0
 40
3.0
 40
3.0
 40
3.0
 40
4.0
 40
4.0
 40
4.0
 40
4.0
 10
87.10355493699147
 20
-141.8934922605336
 10
86.83690454643313
 20
-141.8934922605336
 10
86.78712291667128
 20
-142.1770236189696
 10
86.78712291667128
 20
-142.5218776770431
 10
86.78712291667128
 20
-142.8412380285258
 10
86.82553573133181
 20
-143.1499185840042
 10
87.10355493699147
 20
-143.1499185840042
 10
87.36813827025867
 20
-143.1499185840042
 10
87.42015921208593
 20
-142.8687987924078
 10
87.42015921208593
 20
-142.5218776770431
 10
87.42015921208593
 20
-142.202172816012
 10
87.37950708535999
 20
-141.8934922605336
 10
87.10355493699147
 20
-141.8934922605336
 97
        0
 97
        0
 75
     2
 76
     1
 98
        0
  0
ENDBLK
  5
96
330
93
100
AcDbEntity
  8
0
100
AcDbBlockEnd
  0
BLOCK
  5
9E
330
9C
100
AcDbEntity
  8
0
100
AcDbBlockBegin
  2
block 4
 70
     0
 10
0.0
 20
0.0
 30
0.0
  3
block 4
  1

  0
SPLINE
  5
A0
330
9C
100
AcDbEntity
  8
_U+30EC_U+30A4_U+30E4_U+30FC 1
370
     0
100
AcDbSpline
210
0.0
220
0.0
230
1.0
 70
    11
 71
     3
 72
    26
 73
    22
 74
     0
 42
0.0000000001
 43
0.0000000001
 12
1.0
 22
0.0
 32
0.0
 13
1.0
 23
0.0
 33
0.0
 40
0.0
 40
0.0
 40
0.0
 40
0.0
 40
1.0
 40
1.0
 40
1.0
 40
2.0
 40
2.0
 40
2.0
 40
3.0
 40
3.0
 40
3.0
 40
4.0
 40
4.0
 40
4.0
 40
5.0
 40
5.0
 40
5.0
 40
6.0
 40
6.0
 40
6.0
 40
7.0
 40
7.0
 40
7.0
 40
7.0
 10
95.79363604375993
 20
-124.2935329550377
 30
0.0
 10
95.79363604375993
 20
-124.2935329550377
 30
0.0
 10
95.79363604375993
 20
-123.1892075972409
 30
0.0
 10
95.79363604375993
 20
-123.1892075972409
 30
0.0
 10
95.79363604375993
 20
-123.1892075972409
 30
0.0
 10
95.44120277561888
 20
-123.1892075972409
 30
0.0
 10
95.44120277561888
 20
-123.1892075972409
 30
0.0
 10
95.44120277561888
 20
-123.1892075972409
 30
0.0
 10
95.44120277561888
 20
-123.0412407461494
 30
0.0
 10
95.44120277561888
 20
-123.0412407461494
 30
0.0
 10
95.7960476105996
 20
-123.0264268355628
 30
0.0
 10
95.8456569855872
 20
-122.8634738191105
 30
0.0
 10
95.8773518640515
 20
-122.7492689037745
 30
0.0
 10
95.8773518640515
 20
-122.7492689037745
 30
0.0
 10
96.03341468953332
 20
-122.7492689037745
 30
0.0
 10
96.03341468953332
 20
-122.7492689037745
 30
0.0
 10
96.03341468953332
 20
-122.7492689037745
 30
0.0
 10
96.03341468953332
 20
-124.2935329550377
 30
0.0
 10
96.03341468953332
 20
-124.2935329550377
 30
0.0
 10
96.03341468953332
 20
-124.2935329550377
 30
0.0
 10
95.79363604375993
 20
-124.2935329550377
 30
0.0
 10
95.79363604375993
 20
-124.2935329550377
 30
0.0
  0
HATCH
  5
A1
330
9C
100
AcDbEntity
  8
_U+30EC_U+30A4_U+30E4_U+30FC 1
 62
   179
420
  2234388
100
AcDbHatch
 10
0.0
 20
0.0
 30
0.0
210
0.0
220
0.0
230
1.0
  2
SOLID
 70
     1
 71
     0
 91
        1
 92
        1
 93
        1
 72
     4
 94
        3
 73
     0
 74
     1
 95
       26
 96
       22
 40
0.0
 40
0.0
 40
0.0
 40
0.0
 40
1.0
 40
1.0
 40
1.0
 40
2.0
 40
2.0
 40
2.0
 40
3.0
 40
3.0
 40
3.0
 40
4.0
 40
4.0
 40
4.0
 40
5.0
 40
5.0
 40
5.0
 40
6.0
 40
6.0
 40
6.0
 40
7.0
 40
7.0
 40
7.0
 40
7.0
 10
95.79363604375993
 20
-124.2935329550377
 10
95.79363604375993
 20
-124.2935329550377
 10
95.79363604375993
 20
-123.1892075972409
 10
95.79363604375993
 20
-123.1892075972409
 10
95.79363604375993
 20
-123.1892075972409
 10
95.44120277561888
 20
-123.1892075972409
 10
95.44120277561888
 20
-123.1892075972409
 10
95.44120277561888
 20
-123.1892075972409
 10
95.44120277561888
 20
-123.0412407461494
 10
95.44120277561888
 20
-123.0412407461494
 10
95.7960476105996
 20
-123.0264268355628
 10
95.8456569855872
 20
-122.8634738191105
 10
95.8773518640515
 20
-122.7492689037745
 10
95.8773518640515
 20
-122.7492689037745
 10
96.03341468953332
 20
-122.7492689037745
 10
96.03341468953332
 20
-122.7492689037745
 10
96.03341468953332
 20
-122.7492689037745
 10
96.03341468953332
 20
-124.2935329550377
 10
96.03341468953332
 20
-124.2935329550377
 10
96.03341468953332
 20
-124.2935329550377
 10
95.79363604375993
 20
-124.2935329550377
 10
95.79363604375993
 20
-124.2935329550377
 97
        0
 97
        0
 75
     2
 76
     1
 98
        0
  0
SPLINE
  5
A2
330
9C
100
AcDbEntity
  8
_U+30EC_U+30A4_U+30E4_U+30FC 1
370
     0
100
AcDbSpline
210
0.0
220
0.0
230
1.0
 70
    11
 71
     3
 72
    29
 73
    25
 74
     0
 42
0.0000000001
 43
0.0000000001
 12
1.0
 22
0.0
 32
0.0
 13
1.0
 23
0.0
 33
0.0
 40
0.0
 40
0.0
 40
0.0
 40
0.0
 40
1.0
 40
1.0
 40
1.0
 40
2.0
 40
2.0
 40
2.0
 40
3.0
 40
3.0
 40
3.0
 40
4.0
 40
4.0
 40
4.0
 40
5.0
 40
5.0
 40
5.0
 40
6.0
 40
6.0
 40
6.0
 40
7.0
 40
7.0
 40
7.0
 40
8.0
 40
8.0
 40
8.0
 40
8.0
 10
97.10346134725192
 20
-124.3443481134452
 30
0.0
 10
96.81889646017028
 20
-124.3443481134452
 30
0.0
 10
96.54742293593259
 20
-124.2067165488094
 30
0.0
 10
96.54742293593259
 20
-123.8577283761536
 30
0.0
 10
96.54742293593259
 20
-123.6017577815996
 30
0.0
 10
96.69900713728359
 20
-123.5065008914324
 30
0.0
 10
96.81200626919978
 20
-123.445178191795
 30
0.0
 10
96.67868107392061
 20
-123.3859225494487
 30
0.0
 10
96.59703231092018
 20
-123.2717176341126
 30
0.0
 10
96.59703231092018
 20
-123.1110039297257
 30
0.0
 10
96.59703231092018
 20
-122.8359130552285
 30
0.0
 10
96.8095947023601
 20
-122.7005208026582
 30
0.0
 10
97.10346134725192
 20
-122.7005208026582
 30
0.0
 10
97.40662974995391
 20
-122.7005208026582
 30
0.0
 10
97.60989038358365
 20
-122.8443535391674
 30
0.0
 10
97.60989038358365
 20
-123.1110039297257
 30
0.0
 10
97.60989038358365
 20
-123.2717176341126
 30
0.0
 10
97.5265190728406
 20
-123.3859225494487
 30
0.0
 10
97.3928493680129
 20
-123.445178191795
 30
0.0
 10
97.4879340034058
 20
-123.4959933502024
 30
0.0
 10
97.65743270128009
 20
-123.5912502403696
 30
0.0
 10
97.65743270128009
 20
-123.8535942615713
 30
0.0
 10
97.65743270128009
 20
-124.2279038860437
 30
0.0
 10
97.35908743225745
 20
-124.3443481134452
 30
0.0
 10
97.10346134725192
 20
-124.3443481134452
 30
0.0
  0
SPLINE
  5
A3
330
9C
100
AcDbEntity
  8
_U+30EC_U+30A4_U+30E4_U+30FC 1
370
     0
100
AcDbSpline
210
0.0
220
0.0
230
1.0
 70
    11
 71
     3
 72
    17
 73
    13
 74
     0
 42
0.0000000001
 43
0.0000000001
 12
1.0
 22
0.0
 32
0.0
 13
1.0
 23
0.0
 33
0.0
 40
0.0
 40
0.0
 40
0.0
 40
0.0
 40
1.0
 40
1.0
 40
1.0
 40
2.0
 40
2.0
 40
2.0
 40
3.0
 40
3.0
 40
3.0
 40
4.0
 40
4.0
 40
4.0
 40
4.0
 10
97.10346134725192
 20
-123.5531819352575
 30
0.0
 10
96.94981008860978
 20
-123.5531819352575
 30
0.0
 10
96.78720158170599
 20
-123.6398260867116
 30
0.0
 10
96.78720158170599
 20
-123.842914465567
 30
0.0
 10
96.78720158170599
 20
-124.0480699017137
 30
0.0
 10
96.9225938342763
 20
-124.1497002185286
 30
0.0
 10
97.10346134725192
 20
-124.1497002185286
 30
0.0
 10
97.30258786629936
 20
-124.1497002185286
 30
0.0
 10
97.42006562234637
 20
-124.0270548192537
 30
0.0
 10
97.42006562234637
 20
-123.8492878922148
 30
0.0
 10
97.42006562234637
 20
-123.6270792334162
 30
0.0
 10
97.24608830034126
 20
-123.5531819352575
 30
0.0
 10
97.10346134725192
 20
-123.5531819352575
 30
0.0
  0
SPLINE
  5
A4
330
9C
100
AcDbEntity
  8
_U+30EC_U+30A4_U+30E4_U+30FC 1
370
     0
100
AcDbSpline
210
0.0
220
0.0
230
1.0
 70
    11
 71
     3
 72
    17
 73
    13
 74
     0
 42
0.0000000001
 43
0.0000000001
 12
1.0
 22
0.0
 32
0.0
 13
1.0
 23
0.0
 33
0.0
 40
0.0
 40
0.0
 40
0.0
 40
0.0
 40
1.0
 40
1.0
 40
1.0
 40
2.0
 40
2.0
 40
2.0
 40
3.0
 40
3.0
 40
3.0
 40
4.0
 40
4.0
 40
4.0
 40
4.0
 10
97.10346134725192
 20
-122.8931016402837
 30
0.0
 10
96.92707245840712
 20
-122.8931016402837
 30
0.0
 10
96.83681095669358
 20
-122.9881862756766
 30
0.0
 10
96.83681095669358
 20
-123.1235785282469
 30
0.0
 10
96.83681095669358
 20
-123.246396182296
 30
0.0
 10
96.91363658601465
 20
-123.3649074669886
 30
0.0
 10
97.10346134725192
 20
-123.3649074669886
 30
0.0
 10
97.29363061803771
 20
-123.3649074669886
 30
0.0
 10
97.37045624735877
 20
-123.246396182296
 30
0.0
 10
97.37045624735877
 20
-123.1235785282469
 30
0.0
 10
97.37045624735877
 20
-122.9881862756766
 30
0.0
 10
97.27778317880556
 20
-122.8931016402837
 30
0.0
 10
97.10346134725192
 20
-122.8931016402837
 30
0.0
  0
HATCH
  5
A5
330
9C
100
AcDbEntity
  8
_U+30EC_U+30A4_U+30E4_U+30FC 1
 62
   179
420
  2234388
100
AcDbHatch
 10
0.0
 20
0.0
 30
0.0
210
0.0
220
0.0
230
1.0
  2
SOLID
 70
     1
 71
     0
 91
        3
 92
        1
 93
        1
 72
     4
 94
        3
 73
     0
 74
     1
 95
       29
 96
       25
 40
0.0
 40
0.0
 40
0.0
 40
0.0
 40
1.0
 40
1.0
 40
1.0
 40
2.0
 40
2.0
 40
2.0
 40
3.0
 40
3.0
 40
3.0
 40
4.0
 40
4.0
 40
4.0
 40
5.0
 40
5.0
 40
5.0
 40
6.0
 40
6.0
 40
6.0
 40
7.0
 40
7.0
 40
7.0
 40
8.0
 40
8.0
 40
8.0
 40
8.0
 10
97.10346134725192
 20
-124.3443481134452
 10
96.81889646017028
 20
-124.3443481134452
 10
96.54742293593259
 20
-124.2067165488094
 10
96.54742293593259
 20
-123.8577283761536
 10
96.54742293593259
 20
-123.6017577815996
 10
96.69900713728359
 20
-123.5065008914324
 10
96.81200626919978
 20
-123.445178191795
 10
96.67868107392061
 20
-123.3859225494487
 10
96.59703231092018
 20
-123.2717176341126
 10
96.59703231092018
 20
-123.1110039297257
 10
96.59703231092018
 20
-122.8359130552285
 10
96.8095947023601
 20
-122.7005208026582
 10
97.10346134725192
 20
-122.7005208026582
 10
97.40662974995391
 20
-122.7005208026582
 10
97.60989038358365
 20
-122.8443535391674
 10
97.60989038358365
 20
-123.1110039297257
 10
97.60989038358365
 20
-123.2717176341126
 10
97.5265190728406
 20
-123.3859225494487
 10
97.3928493680129
 20
-123.445178191795
 10
97.4879340034058
 20
-123.4959933502024
 10
97.65743270128009
 20
-123.5912502403696
 10
97.65743270128009
 20
-123.8535942615713
 10
97.65743270128009
 20
-124.2279038860437
 10
97.35908743225745
 20
-124.3443481134452
 10
97.10346134725192
 20
-124.3443481134452
 97
        0
 97
        0
 92
        1
 93
        1
 72
     4
 94
        3
 73
     0
 74
     1
 95
       17
 96
       13
 40
0.0
 40
0.0
 40
0.0
 40
0.0
 40
1.0
 40
1.0
 40
1.0
 40
2.0
 40
2.0
 40
2.0
 40
3.0
 40
3.0
 40
3.0
 40
4.0
 40
4.0
 40
4.0
 40
4.0
 10
97.10346134725192
 20
-123.5531819352575
 10
96.94981008860978
 20
-123.5531819352575
 10
96.78720158170599
 20
-123.6398260867116
 10
96.78720158170599
 20
-123.842914465567
 10
96.78720158170599
 20
-124.0480699017137
 10
96.9225938342763
 20
-124.1497002185286
 10
97.10346134725192
 20
-124.1497002185286
 10
97.30258786629936
 20
-124.1497002185286
 10
97.42006562234637
 20
-124.0270548192537
 10
97.42006562234637
 20
-123.8492878922148
 10
97.42006562234637
 20
-123.6270792334162
 10
97.24608830034126
 20
-123.5531819352575
 10
97.10346134725192
 20
-123.5531819352575
 97
        0
 97
        0
 92
        1
 93
        1
 72
     4
 94
        3
 73
     0
 74
     1
 95
       17
 96
       13
 40
0.0
 40
0.0
 40
0.0
 40
0.0
 40
1.0
 40
1.0
 40
1.0
 40
2.0
 40
2.0
 40
2.0
 40
3.0
 40
3.0
 40
3.0
 40
4.0
 40
4.0
 40
4.0
 40
4.0
 10
97.10346134725192
 20
-122.8931016402837
 10
96.92707245840712
 20
-122.8931016402837
 10
96.83681095669358
 20
-122.9881862756766
 10
96.83681095669358
 20
-123.1235785282469
 10
96.83681095669358
 20
-123.246396182296
 10
96.91363658601465
 20
-123.3649074669886
 10
97.10346134725192
 20
-123.3649074669886
 10
97.29363061803771
 20
-123.3649074669886
 10
97.37045624735877
 20
-123.246396182296
 10
97.37045624735877
 20
-123.1235785282469
 10
97.37045624735877
 20
-122.9881862756766
 10
97.27778317880556
 20
-122.8931016402837
 10
97.10346134725192
 20
-122.8931016402837
 97
        0
 97
        0
 75
     2
 76
     1
 98
        0
  0
ENDBLK
  5
9F
330
9C
100
AcDbEntity
  8
0
100
AcDbBlockEnd
  0
ENDSEC
  0
SECTION
  2
ENTITIES
  0
POLYLINE
  5
41
330
1F
100
AcDbEntity
  8
_U+30EC_U+30A4_U+30E4_U+30FC 1
 62
   179
420
  2234388
370
    25
100
AcDb2dPolyline
 66
     1
 10
0.0
 20
0.0
 30
0.0
  0
VERTEX
  5
42
330
41
100
AcDbEntity
  8
_U+30EC_U+30A4_U+30E4_U+30FC 1
 62
   179
420
  2234388
370
    25
100
AcDbVertex
100
AcDb2dVertex
 10
77.97492884402716
 20
-128.9381963566543
 30
0.0
  0
VERTEX
  5
43
330
41
100
AcDbEntity
  8
_U+30EC_U+30A4_U+30E4_U+30FC 1
 62
   179
420
  2234388
370
    25
100
AcDbVertex
100
AcDb2dVertex
 10
86.97489164492283
 20
-128.9381963566543
 30
0.0
  0
SEQEND
  5
44
330
41
100
AcDbEntity
  8
_U+30EC_U+30A4_U+30E4_U+30FC 1
 62
   179
420
  2234388
370
    25
  0
POLYLINE
  5
45
330
1F
100
AcDbEntity
  8
_U+30EC_U+30A4_U+30E4_U+30FC 1
 62
   179
420
  2234388
370
    25
100
AcDb2dPolyline
 66
     1
 10
0.0
 20
0.0
 30
0.0
  0
VERTEX
  5
46
330
45
100
AcDbEntity
  8
_U+30EC_U+30A4_U+30E4_U+30FC 1
 62
   179
420
  2234388
370
    25
100
AcDbVertex
100
AcDb2dVertex
 10
87.47509304610223
 20
-110.9384510833765
 30
0.0
  0
VERTEX
  5
47
330
45
100
AcDbEntity
  8
_U+30EC_U+30A4_U+30E4_U+30FC 1
 62
   179
420
  2234388
370
    25
100
AcDbVertex
100
AcDb2dVertex
 10
87.47509304610223
 20
-128.4384866345569
 30
0.0
  0
SEQEND
  5
48
330
45
100
AcDbEntity
  8
_U+30EC_U+30A4_U+30E4_U+30FC 1
 62
   179
420
  2234388
370
    25
  0
POLYLINE
  5
49
330
1F
100
AcDbEntity
  8
_U+30EC_U+30A4_U+30E4_U+30FC 1
 62
   179
420
  2234388
370
    25
100
AcDb2dPolyline
 66
     1
 10
0.0
 20
0.0
 30
0.0
  0
VERTEX
  5
4A
330
49
100
AcDbEntity
  8
_U+30EC_U+30A4_U+30E4_U+30FC 1
 62
   179
420
  2234388
370
    25
100
AcDbVertex
100
AcDb2dVertex
 10
87.97497914446019
 20
-138.9386349652654
 30
0.0
  0
VERTEX
  5
4B
330
49
100
AcDbEntity
  8
_U+30EC_U+30A4_U+30E4_U+30FC 1
 62
   179
420
  2234388
370
    25
100
AcDbVertex
100
AcDb2dVertex
 10
95.97485005147759
 20
-138.9386349652654
 30
0.0
  0
SEQEND
  5
4C
330
49
100
AcDbEntity
  8
_U+30EC_U+30A4_U+30E4_U+30FC 1
 62
   179
420
  2234388
370
    25
  0
POLYLINE
  5
4D
330
1F
100
AcDbEntity
  8
_U+30EC_U+30A4_U+30E4_U+30FC 1
 62
   179
420
  2234388
370
    25
100
AcDb2dPolyline
 66
     1
 10
0.0
 20
0.0
 30
0.0
  0
VERTEX
  5
4E
330
4D
100
AcDbEntity
  8
_U+30EC_U+30A4_U+30E4_U+30FC 1
 62
   179
420
  2234388
370
    25
100
AcDbVertex
100
AcDb2dVertex
 10
78.47495605349263
 20
-139.9384071872379
 30
0.0
  0
VERTEX
  5
4F
330
4D
100
AcDbEntity
  8
_U+30EC_U+30A4_U+30E4_U+30FC 1
 62
   179
420
  2234388
370
    25
100
AcDbVertex
100
AcDb2dVertex
 10
95.97485005147759
 20
-139.9384071872379
 30
0.0
  0
SEQEND
  5
50
330
4D
100
AcDbEntity
  8
_U+30EC_U+30A4_U+30E4_U+30FC 1
 62
   179
420
  2234388
370
    25
  0
POLYLINE
  5
51
330
1F
100
AcDbEntity
  8
_U+30EC_U+30A4_U+30E4_U+30FC 1
 62
   179
420
  2234388
370
    25
100
AcDb2dPolyline
 66
     1
 10
0.0
 20
0.0
 30
0.0
  0
VERTEX
  5
52
330
51
100
AcDbEntity
  8
_U+30EC_U+30A4_U+30E4_U+30FC 1
 62
   179
420
  2234388
370
    25
100
AcDbVertex
100
AcDb2dVertex
 10
76.47491777118452
 20
-121.4384230251961
 30
0.0
  0
VERTEX
  5
53
330
51
100
AcDbEntity
  8
_U+30EC_U+30A4_U+30E4_U+30FC 1
 62
   179
420
  2234388
370
    25
100
AcDbVertex
100
AcDb2dVertex
 10
76.47491777118452
 20
-137.9381924655155
 30
0.0
  0
SEQEND
  5
54
330
51
100
AcDbEntity
  8
_U+30EC_U+30A4_U+30E4_U+30FC 1
 62
   179
420
  2234388
370
    25
  0
POLYLINE
  5
55
330
1F
100
AcDbEntity
  8
_U+30EC_U+30A4_U+30E4_U+30FC 1
 62
   179
420
  2234388
370
    25
100
AcDb2dPolyline
 66
     1
 10
0.0
 20
0.0
 30
0.0
  0
VERTEX
  5
56
330
55
100
AcDbEntity
  8
_U+30EC_U+30A4_U+30E4_U+30FC 1
 62
   179
420
  2234388
370
    25
100
AcDbVertex
100
AcDb2dVertex
 10
87.47509304610223
 20
-129.438435245418
 30
0.0
  0
VERTEX
  5
57
330
55
100
AcDbEntity
  8
_U+30EC_U+30A4_U+30E4_U+30FC 1
 62
   179
420
  2234388
370
    25
100
AcDbVertex
100
AcDb2dVertex
 10
87.47509304610223
 20
-138.4383960765017
 30
0.0
  0
SEQEND
  5
58
330
55
100
AcDbEntity
  8
_U+30EC_U+30A4_U+30E4_U+30FC 1
 62
   179
420
  2234388
370
    25
  0
POLYLINE
  5
59
330
1F
100
AcDbEntity
  8
_U+30EC_U+30A4_U+30E4_U+30FC 1
 62
   179
420
  2234388
370
    25
100
AcDb2dPolyline
 66
     1
 10
0.0
 20
0.0
 30
0.0
  0
VERTEX
  5
5A
330
59
100
AcDbEntity
  8
_U+30EC_U+30A4_U+30E4_U+30FC 1
 62
   179
420
  2234388
370
    25
100
AcDbVertex
100
AcDb2dVertex
 10
87.97497914446019
 20
-128.9381963566543
 30
0.0
  0
VERTEX
  5
5B
330
59
100
AcDbEntity
  8
_U+30EC_U+30A4_U+30E4_U+30FC 1
 62
   179
420
  2234388
370
    25
100
AcDbVertex
100
AcDb2dVertex
 10
105.4750495313295
 20
-128.9381963566543
 30
0.0
  0
SEQEND
  5
5C
330
59
100
AcDbEntity
  8
_U+30EC_U+30A4_U+30E4_U+30FC 1
 62
   179
420
  2234388
370
    25
  0
POLYLINE
  5
5D
330
1F
100
AcDbEntity
  8
_U+30EC_U+30A4_U+30E4_U+30FC 1
 62
   179
420
  2234388
370
    25
100
AcDb2dPolyline
 66
     1
 10
0.0
 20
0.0
 30
0.0
  0
VERTEX
  5
5E
330
5D
100
AcDbEntity
  8
_U+30EC_U+30A4_U+30E4_U+30FC 1
 62
   179
420
  2234388
370
    25
100
AcDbVertex
100
AcDb2dVertex
 10
77.47504274566921
 20
-121.4384230251961
 30
0.0
  0
VERTEX
  5
5F
330
5D
100
AcDbEntity
  8
_U+30EC_U+30A4_U+30E4_U+30FC 1
 62
   179
420
  2234388
370
    25
100
AcDbVertex
100
AcDb2dVertex
 10
77.47504274566921
 20
-128.4384866345569
 30
0.0
  0
SEQEND
  5
60
330
5D
100
AcDbEntity
  8
_U+30EC_U+30A4_U+30E4_U+30FC 1
 62
   179
420
  2234388
370
    25
  0
SPLINE
  5
61
330
1F
100
AcDbEntity
  8
_U+30EC_U+30A4_U+30E4_U+30FC 1
 62
   179
420
  2234388
370
    25
100
AcDbSpline
210
0.0
220
0.0
230
1.0
 70
     8
 71
     3
 72
    11
 73
     7
 74
     0
 42
0.0000000001
 43
0.0000000001
 12
1.0
 22
0.0
 32
0.0
 13
1.0
 23
0.0
 33
0.0
 40
0.0
 40
0.0
 40
0.0
 40
0.0
 40
1.0
 40
1.0
 40
1.0
 40
2.0
 40
2.0
 40
2.0
 40
2.0
 10
95.97485005147759
 20
-139.9384071872379
 30
0.0
 10
96.25114559998426
 20
-139.9384071872379
 30
0.0
 10
96.47508892760432
 20
-139.71446385396
 30
0.0
 10
96.47508892760432
 20
-139.4381682984736
 30
0.0
 10
96.47508892760432
 20
-139.1625782985427
 30
0.0
 10
96.25114559998426
 20
-138.9386349652654
 30
0.0
 10
95.97485005147759
 20
-138.9386349652654
 30
0.0
  0
SPLINE
  5
62
330
1F
100
AcDbEntity
  8
_U+30EC_U+30A4_U+30E4_U+30FC 1
 62
   179
420
  2234388
370
    25
100
AcDbSpline
210
0.0
220
0.0
230
1.0
 70
     8
 71
     3
 72
     8
 73
     4
 74
     0
 42
0.0000000001
 43
0.0000000001
 12
1.0
 22
0.0
 32
0.0
 13
1.0
 23
0.0
 33
0.0
 40
0.0
 40
0.0
 40
0.0
 40
0.0
 40
1.0
 40
1.0
 40
1.0
 40
1.0
 10
87.47509304610223
 20
-138.4383960765017
 30
0.0
 10
87.47509304610223
 20
-138.7146916319881
 30
0.0
 10
87.69868359595351
 20
-138.9386349652654
 30
0.0
 10
87.97497914446019
 20
-138.9386349652654
 30
0.0
  0
SPLINE
  5
63
330
1F
100
AcDbEntity
  8
_U+30EC_U+30A4_U+30E4_U+30FC 1
 62
   179
420
  2234388
370
    25
100
AcDbSpline
210
0.0
220
0.0
230
1.0
 70
     8
 71
     3
 72
     8
 73
     4
 74
     0
 42
0.0000000001
 43
0.0000000001
 12
1.0
 22
0.0
 32
0.0
 13
1.0
 23
0.0
 33
0.0
 40
0.0
 40
0.0
 40
0.0
 40
0.0
 40
1.0
 40
1.0
 40
1.0
 40
1.0
 10
86.97489164492283
 20
-128.9381963566543
 30
0.0
 10
87.25118499625904
 20
-128.9381963566543
 30
0.0
 10
87.47509304610223
 20
-128.7144646900437
 30
0.0
 10
87.47509304610223
 20
-128.4384866345569
 30
0.0
  0
SPLINE
  5
64
330
1F
100
AcDbEntity
  8
_U+30EC_U+30A4_U+30E4_U+30FC 1
 62
   179
420
  2234388
370
    25
100
AcDbSpline
210
0.0
220
0.0
230
1.0
 70
     8
 71
     3
 72
     8
 73
     4
 74
     0
 42
0.0000000001
 43
0.0000000001
 12
1.0
 22
0.0
 32
0.0
 13
1.0
 23
0.0
 33
0.0
 40
0.0
 40
0.0
 40
0.0
 40
0.0
 40
1.0
 40
1.0
 40
1.0
 40
1.0
 10
87.97497914446019
 20
-128.9381963566543
 30
0.0
 10
87.69868359595351
 20
-128.9381963566543
 30
0.0
 10
87.47509304610223
 20
-129.1621396899316
 30
0.0
 10
87.47509304610223
 20
-129.438435245418
 30
0.0
  0
SPLINE
  5
65
330
1F
100
AcDbEntity
  8
_U+30EC_U+30A4_U+30E4_U+30FC 1
 62
   179
420
  2234388
370
    25
100
AcDbSpline
210
0.0
220
0.0
230
1.0
 70
     8
 71
     3
 72
    11
 73
     7
 74
     0
 42
0.0000000001
 43
0.0000000001
 12
1.0
 22
0.0
 32
0.0
 13
1.0
 23
0.0
 33
0.0
 40
0.0
 40
0.0
 40
0.0
 40
0.0
 40
1.0
 40
1.0
 40
1.0
 40
2.0
 40
2.0
 40
2.0
 40
2.0
 10
77.47504274566921
 20
-121.4384230251961
 30
0.0
 10
77.47504274566921
 20
-121.1621274697093
 30
0.0
 10
77.25109941804915
 20
-120.9385369142098
 30
0.0
 10
76.97498025842687
 20
-120.9385369142098
 30
0.0
 10
76.69886109880458
 20
-120.9385369142098
 30
0.0
 10
76.47491777118452
 20
-121.1621274697093
 30
0.0
 10
76.47491777118452
 20
-121.4384230251961
 30
0.0
  0
SPLINE
  5
66
330
1F
100
AcDbEntity
  8
_U+30EC_U+30A4_U+30E4_U+30FC 1
 62
   179
420
  2234388
370
    25
100
AcDbSpline
210
0.0
220
0.0
230
1.0
 70
     8
 71
     3
 72
     8
 73
     4
 74
     0
 42
0.0000000001
 43
0.0000000001
 12
1.0
 22
0.0
 32
0.0
 13
1.0
 23
0.0
 33
0.0
 40
0.0
 40
0.0
 40
0.0
 40
0.0
 40
1.0
 40
1.0
 40
1.0
 40
1.0
 10
77.47504274566921
 20
-128.4384866345569
 30
0.0
 10
77.47504274566921
 20
-128.7144646900437
 30
0.0
 10
77.698774406628
 20
-128.9381963566543
 30
0.0
 10
77.97492884402716
 20
-128.9381963566543
 30
0.0
  0
SPLINE
  5
67
330
1F
100
AcDbEntity
  8
_U+30EC_U+30A4_U+30E4_U+30FC 1
 62
   179
420
  2234388
370
    25
100
AcDbSpline
210
0.0
220
0.0
230
1.0
 70
     8
 71
     3
 72
     8
 73
     4
 74
     0
 42
0.0000000001
 43
0.0000000001
 12
1.0
 22
0.0
 32
0.0
 13
1.0
 23
0.0
 33
0.0
 40
0.0
 40
0.0
 40
0.0
 40
0.0
 40
1.0
 40
1.0
 40
1.0
 40
1.0
 10
76.47491777118452
 20
-137.9381924655155
 30
0.0
 10
76.47491777118452
 20
-139.0433746874612
 30
0.0
 10
77.37047941500352
 20
-139.9384071872379
 30
0.0
 10
78.47495605349263
 20
-139.9384071872379
 30
0.0
  0
SPLINE
  5
68
330
1F
100
AcDbEntity
  8
_U+30EC_U+30A4_U+30E4_U+30FC 1
 62
   179
420
  2234388
370
     9
100
AcDbSpline
210
0.0
220
0.0
230
1.0
 70
    11
 71
     3
 72
    17
 73
    13
 74
     0
 42
0.0000000001
 43
0.0000000001
 12
1.0
 22
0.0
 32
0.0
 13
1.0
 23
0.0
 33
0.0
 40
0.0
 40
0.0
 40
0.0
 40
0.0
 40
1.0
 40
1.0
 40
1.0
 40
2.0
 40
2.0
 40
2.0
 40
3.0
 40
3.0
 40
3.0
 40
4.0
 40
4.0
 40
4.0
 40
4.0
 10
76.57500275863407
 20
-143.9388366306822
 30
0.0
 10
76.57500275863407
 20
-143.8830271862518
 30
0.0
 10
76.53019998086735
 20
-143.8382596862625
 30
0.0
 10
76.47491777118452
 20
-143.8382596862625
 30
0.0
 10
76.41978053645047
 20
-143.8382596862625
 30
0.0
 10
76.3750111070667
 20
-143.8830271862518
 30
0.0
 10
76.3750111070667
 20
-143.9388366306822
 30
0.0
 10
76.3750111070667
 20
-143.9939757973346
 30
0.0
 10
76.41978053645047
 20
-144.0387432973238
 30
0.0
 10
76.47491777118452
 20
-144.0387432973238
 30
0.0
 10
76.53019998086735
 20
-144.0387432973238
 30
0.0
 10
76.57500275863407
 20
-143.9939757973346
 30
0.0
 10
76.57500275863407
 20
-143.9388366306822
 30
0.0
  0
SPLINE
  5
69
330
1F
100
AcDbEntity
  8
_U+30EC_U+30A4_U+30E4_U+30FC 1
 62
   179
420
  2234388
370
     9
100
AcDbSpline
210
0.0
220
0.0
230
1.0
 70
    11
 71
     3
 72
    17
 73
    13
 74
     0
 42
0.0000000001
 43
0.0000000001
 12
1.0
 22
0.0
 32
0.0
 13
1.0
 23
0.0
 33
0.0
 40
0.0
 40
0.0
 40
0.0
 40
0.0
 40
1.0
 40
1.0
 40
1.0
 40
2.0
 40
2.0
 40
2.0
 40
3.0
 40
3.0
 40
3.0
 40
4.0
 40
4.0
 40
4.0
 40
4.0
 10
96.57499559172216
 20
-143.9388366306822
 30
0.0
 10
96.57499559172216
 20
-143.8830271862518
 30
0.0
 10
96.53019281508739
 20
-143.8382596862625
 30
0.0
 10
96.47508892760432
 20
-143.8382596862625
 30
0.0
 10
96.41959698457559
 20
-143.8382596862625
 30
0.0
 10
96.37482948571771
 20
-143.8830271862518
 30
0.0
 10
96.37482948571771
 20
-143.9388366306822
 30
0.0
 10
96.37482948571771
 20
-143.9939757973346
 30
0.0
 10
96.41959698457559
 20
-144.0387432973238
 30
0.0
 10
96.47508892760432
 20
-144.0387432973238
 30
0.0
 10
96.53019281508739
 20
-144.0387432973238
 30
0.0
 10
96.57499559172216
 20
-143.9939757973346
 30
0.0
 10
96.57499559172216
 20
-143.9388366306822
 30
0.0
  0
SPLINE
  5
6A
330
1F
100
AcDbEntity
  8
_U+30EC_U+30A4_U+30E4_U+30FC 1
 62
   179
420
  2234388
370
     9
100
AcDbSpline
210
0.0
220
0.0
230
1.0
 70
    11
 71
     3
 72
    17
 73
    13
 74
     0
 42
0.0000000001
 43
0.0000000001
 12
1.0
 22
0.0
 32
0.0
 13
1.0
 23
0.0
 33
0.0
 40
0.0
 40
0.0
 40
0.0
 40
0.0
 40
1.0
 40
1.0
 40
1.0
 40
2.0
 40
2.0
 40
2.0
 40
3.0
 40
3.0
 40
3.0
 40
4.0
 40
4.0
 40
4.0
 40
4.0
 10
100.5750721563384
 20
-138.9386349652654
 30
0.0
 10
100.5750721563384
 20
-138.8834957986123
 30
0.0
 10
100.5303046574805
 20
-138.8387282986237
 30
0.0
 10
100.4748127144518
 20
-138.8387282986237
 30
0.0
 10
100.4197088269687
 20
-138.8387282986237
 30
0.0
 10
100.3749060503339
 20
-138.8834957986123
 30
0.0
 10
100.3749060503339
 20
-138.9386349652654
 30
0.0
 10
100.3749060503339
 20
-138.9937388541403
 30
0.0
 10
100.4197088269687
 20
-139.038541631907
 30
0.0
 10
100.4748127144518
 20
-139.038541631907
 30
0.0
 10
100.5303046574805
 20
-139.038541631907
 30
0.0
 10
100.5750721563384
 20
-138.9937388541403
 30
0.0
 10
100.5750721563384
 20
-138.9386349652654
 30
0.0
  0
SPLINE
  5
6B
330
1F
100
AcDbEntity
  8
_U+30EC_U+30A4_U+30E4_U+30FC 1
 62
   179
420
  2234388
370
     9
100
AcDbSpline
210
0.0
220
0.0
230
1.0
 70
    11
 71
     3
 72
    17
 73
    13
 74
     0
 42
0.0000000001
 43
0.0000000001
 12
1.0
 22
0.0
 32
0.0
 13
1.0
 23
0.0
 33
0.0
 40
0.0
 40
0.0
 40
0.0
 40
0.0
 40
1.0
 40
1.0
 40
1.0
 40
2.0
 40
2.0
 40
2.0
 40
3.0
 40
3.0
 40
3.0
 40
4.0
 40
4.0
 40
4.0
 40
4.0
 10
100.5750721563384
 20
-128.9381963566543
 30
0.0
 10
100.5750721563384
 20
-128.8830924677794
 30
0.0
 10
100.5303046574805
 20
-128.8382896900127
 30
0.0
 10
100.4748127144518
 20
-128.8382896900127
 30
0.0
 10
100.4197088269687
 20
-128.8382896900127
 30
0.0
 10
100.3749060503339
 20
-128.8830924677794
 30
0.0
 10
100.3749060503339
 20
-128.9381963566543
 30
0.0
 10
100.3749060503339
 20
-128.9933355233074
 30
0.0
 10
100.4197088269687
 20
-129.0381030232959
 30
0.0
 10
100.4748127144518
 20
-129.0381030232959
 30
0.0
 10
100.5303046574805
 20
-129.0381030232959
 30
0.0
 10
100.5750721563384
 20
-128.9933355233074
 30
0.0
 10
100.5750721563384
 20
-128.9381963566543
 30
0.0
  0
SPLINE
  5
6C
330
1F
100
AcDbEntity
  8
_U+30EC_U+30A4_U+30E4_U+30FC 1
 62
   179
420
  2234388
370
     9
100
AcDbSpline
210
0.0
220
0.0
230
1.0
 70
    11
 71
     3
 72
    17
 73
    13
 74
     0
 42
0.0000000001
 43
0.0000000001
 12
1.0
 22
0.0
 32
0.0
 13
1.0
 23
0.0
 33
0.0
 40
0.0
 40
0.0
 40
0.0
 40
0.0
 40
1.0
 40
1.0
 40
1.0
 40
2.0
 40
2.0
 40
2.0
 40
3.0
 40
3.0
 40
3.0
 40
4.0
 40
4.0
 40
4.0
 40
4.0
 10
105.5749561954474
 20
-124.9386135798763
 30
0.0
 10
105.5749561954474
 20
-124.8835096910014
 30
0.0
 10
105.5301534188126
 20
-124.8387069132347
 30
0.0
 10
105.4750495313295
 20
-124.8387069132347
 30
0.0
 10
105.4199103660696
 20
-124.8387069132347
 30
0.0
 10
105.3751428672117
 20
-124.8835096910014
 30
0.0
 10
105.3751428672117
 20
-124.9386135798763
 30
0.0
 10
105.3751428672117
 20
-124.9937527465294
 30
0.0
 10
105.4199103660696
 20
-125.0385202465183
 30
0.0
 10
105.4750495313295
 20
-125.0385202465183
 30
0.0
 10
105.5301534188126
 20
-125.0385202465183
 30
0.0
 10
105.5749561954474
 20
-124.9937527465294
 30
0.0
 10
105.5749561954474
 20
-124.9386135798763
 30
0.0
  0
SPLINE
  5
6D
330
1F
100
AcDbEntity
  8
_U+30EC_U+30A4_U+30E4_U+30FC 1
 62
   179
420
  2234388
370
     9
100
AcDbSpline
210
0.0
220
0.0
230
1.0
 70
    11
 71
     3
 72
    17
 73
    13
 74
     0
 42
0.0000000001
 43
0.0000000001
 12
1.0
 22
0.0
 32
0.0
 13
1.0
 23
0.0
 33
0.0
 40
0.0
 40
0.0
 40
0.0
 40
0.0
 40
1.0
 40
1.0
 40
1.0
 40
2.0
 40
2.0
 40
2.0
 40
3.0
 40
3.0
 40
3.0
 40
4.0
 40
4.0
 40
4.0
 40
4.0
 10
87.57499971022007
 20
-124.9386135798763
 30
0.0
 10
87.57499971022007
 20
-124.8835096910014
 30
0.0
 10
87.53023221136218
 20
-124.8387069132347
 30
0.0
 10
87.47509304610223
 20
-124.8387069132347
 30
0.0
 10
87.41963638085038
 20
-124.8387069132347
 30
0.0
 10
87.3748688819925
 20
-124.8835096910014
 30
0.0
 10
87.3748688819925
 20
-124.9386135798763
 30
0.0
 10
87.3748688819925
 20
-124.9937527465294
 30
0.0
 10
87.41963638085038
 20
-125.0385202465183
 30
0.0
 10
87.47509304610223
 20
-125.0385202465183
 30
0.0
 10
87.53023221136218
 20
-125.0385202465183
 30
0.0
 10
87.57499971022007
 20
-124.9937527465294
 30
0.0
 10
87.57499971022007
 20
-124.9386135798763
 30
0.0
  0
POLYLINE
  5
6E
330
1F
100
AcDbEntity
  8
_U+30EC_U+30A4_U+30E4_U+30FC 1
 62
   179
420
  2234388
370
     9
100
AcDb2dPolyline
 66
     1
 10
0.0
 20
0.0
 30
0.0
  0
VERTEX
  5
6F
330
6E
100
AcDbEntity
  8
_U+30EC_U+30A4_U+30E4_U+30FC 1
 62
   179
420
  2234388
370
     9
100
AcDbVertex
100
AcDb2dVertex
 10
100.4748127144518
 20
-138.9386349652654
 30
0.0
  0
VERTEX
  5
70
330
6E
100
AcDbEntity
  8
_U+30EC_U+30A4_U+30E4_U+30FC 1
 62
   179
420
  2234388
370
     9
100
AcDbVertex
100
AcDb2dVertex
 10
100.4748127144518
 20
-128.9381963566543
 30
0.0
  0
SEQEND
  5
71
330
6E
100
AcDbEntity
  8
_U+30EC_U+30A4_U+30E4_U+30FC 1
 62
   179
420
  2234388
370
     9
  0
POLYLINE
  5
72
330
1F
100
AcDbEntity
  8
_U+30EC_U+30A4_U+30E4_U+30FC 1
 62
   179
420
  2234388
370
     9
100
AcDb2dPolyline
 66
     1
 10
0.0
 20
0.0
 30
0.0
  0
VERTEX
  5
73
330
72
100
AcDbEntity
  8
_U+30EC_U+30A4_U+30E4_U+30FC 1
 62
   179
420
  2234388
370
     9
100
AcDbVertex
100
AcDb2dVertex
 10
98.51492054223054
 20
-138.9386349652654
 30
0.0
  0
VERTEX
  5
74
330
72
100
AcDbEntity
  8
_U+30EC_U+30A4_U+30E4_U+30FC 1
 62
   179
420
  2234388
370
     9
100
AcDbVertex
100
AcDb2dVertex
 10
101.4749376889364
 20
-138.9386349652654
 30
0.0
  0
SEQEND
  5
75
330
72
100
AcDbEntity
  8
_U+30EC_U+30A4_U+30E4_U+30FC 1
 62
   179
420
  2234388
370
     9
  0
POLYLINE
  5
76
330
1F
100
AcDbEntity
  8
_U+30EC_U+30A4_U+30E4_U+30FC 1
 62
   179
420
  2234388
370
     9
100
AcDb2dPolyline
 66
     1
 10
0.0
 20
0.0
 30
0.0
  0
VERTEX
  5
77
330
76
100
AcDbEntity
  8
_U+30EC_U+30A4_U+30E4_U+30FC 1
 62
   179
420
  2234388
370
     9
100
AcDbVertex
100
AcDb2dVertex
 10
76.47491777118452
 20
-143.9388366306822
 30
0.0
  0
VERTEX
  5
78
330
76
100
AcDbEntity
  8
_U+30EC_U+30A4_U+30E4_U+30FC 1
 62
   179
420
  2234388
370
     9
100
AcDbVertex
100
AcDb2dVertex
 10
96.47508892760432
 20
-143.9388366306822
 30
0.0
  0
SEQEND
  5
79
330
76
100
AcDbEntity
  8
_U+30EC_U+30A4_U+30E4_U+30FC 1
 62
   179
420
  2234388
370
     9
  0
POLYLINE
  5
7A
330
1F
100
AcDbEntity
  8
_U+30EC_U+30A4_U+30E4_U+30FC 1
 62
   179
420
  2234388
370
     9
100
AcDb2dPolyline
 66
     1
 10
0.0
 20
0.0
 30
0.0
  0
VERTEX
  5
7B
330
7A
100
AcDbEntity
  8
_U+30EC_U+30A4_U+30E4_U+30FC 1
 62
   179
420
  2234388
370
     9
100
AcDbVertex
100
AcDb2dVertex
 10
76.47491777118452
 20
-140.478580520436
 30
0.0
  0
VERTEX
  5
7C
330
7A
100
AcDbEntity
  8
_U+30EC_U+30A4_U+30E4_U+30FC 1
 62
   179
420
  2234388
370
     9
100
AcDbVertex
100
AcDb2dVertex
 10
76.47491777118452
 20
-144.9386088526541
 30
0.0
  0
SEQEND
  5
7D
330
7A
100
AcDbEntity
  8
_U+30EC_U+30A4_U+30E4_U+30FC 1
 62
   179
420
  2234388
370
     9
  0
POLYLINE
  5
7E
330
1F
100
AcDbEntity
  8
_U+30EC_U+30A4_U+30E4_U+30FC 1
 62
   179
420
  2234388
370
     9
100
AcDb2dPolyline
 66
     1
 10
0.0
 20
0.0
 30
0.0
  0
VERTEX
  5
7F
330
7E
100
AcDbEntity
  8
_U+30EC_U+30A4_U+30E4_U+30FC 1
 62
   179
420
  2234388
370
     9
100
AcDbVertex
100
AcDb2dVertex
 10
96.47508892760432
 20
-141.9785916311723
 30
0.0
  0
VERTEX
  5
80
330
7E
100
AcDbEntity
  8
_U+30EC_U+30A4_U+30E4_U+30FC 1
 62
   179
420
  2234388
370
     9
100
AcDbVertex
100
AcDb2dVertex
 10
96.47508892760432
 20
-144.9386088526541
 30
0.0
  0
SEQEND
  5
81
330
7E
100
AcDbEntity
  8
_U+30EC_U+30A4_U+30E4_U+30FC 1
 62
   179
420
  2234388
370
     9
  0
POLYLINE
  5
82
330
1F
100
AcDbEntity
  8
_U+30EC_U+30A4_U+30E4_U+30FC 1
 62
   179
420
  2234388
370
     9
100
AcDb2dPolyline
 66
     1
 10
0.0
 20
0.0
 30
0.0
  0
VERTEX
  5
83
330
82
100
AcDbEntity
  8
_U+30EC_U+30A4_U+30E4_U+30FC 1
 62
   179
420
  2234388
370
     9
100
AcDbVertex
100
AcDb2dVertex
 10
87.47509304610223
 20
-124.9386135798763
 30
0.0
  0
VERTEX
  5
84
330
82
100
AcDbEntity
  8
_U+30EC_U+30A4_U+30E4_U+30FC 1
 62
   179
420
  2234388
370
     9
100
AcDbVertex
100
AcDb2dVertex
 10
105.4750495313295
 20
-124.9386135798763
 30
0.0
  0
SEQEND
  5
85
330
82
100
AcDbEntity
  8
_U+30EC_U+30A4_U+30E4_U+30FC 1
 62
   179
420
  2234388
370
     9
  0
POLYLINE
  5
86
330
1F
100
AcDbEntity
  8
_U+30EC_U+30A4_U+30E4_U+30FC 1
 62
   179
420
  2234388
370
     9
100
AcDb2dPolyline
 66
     1
 10
0.0
 20
0.0
 30
0.0
  0
VERTEX
  5
87
330
86
100
AcDbEntity
  8
_U+30EC_U+30A4_U+30E4_U+30FC 1
 62
   179
420
  2234388
370
     9
100
AcDbVertex
100
AcDb2dVertex
 10
105.4750495313295
 20
-126.3986549684003
 30
0.0
  0
VERTEX
  5
88
330
86
100
AcDbEntity
  8
_U+30EC_U+30A4_U+30E4_U+30FC 1
 62
   179
420
  2234388
370
     9
100
AcDbVertex
100
AcDb2dVertex
 10
105.4750495313295
 20
-123.9385238579042
 30
0.0
  0
SEQEND
  5
89
330
86
100
AcDbEntity
  8
_U+30EC_U+30A4_U+30E4_U+30FC 1
 62
   179
420
  2234388
370
     9
  0
INSERT
  5
8B
330
1F
100
AcDbEntity
  8
_U+30EC_U+30A4_U+30E4_U+30FC 1
100
AcDbBlockReference
  2
block 2
 10
0.0
 20
0.0
 30
0.0
  0
INSERT
  5
94
330
1F
100
AcDbEntity
  8
_U+30EC_U+30A4_U+30E4_U+30FC 1
100
AcDbBlockReference
  2
block 3
 10
0.0
 20
0.0
 30
0.0
  0
INSERT
  5
9D
330
1F
100
AcDbEntity
  8
_U+30EC_U+30A4_U+30E4_U+30FC 1
100
AcDbBlockReference
  2
block 4
 10
0.0
 20
0.0
 30
0.0
  0
ENDSEC
  0
SECTION
  2
OBJECTS
  0
DICTIONARY
  5
C
330
0
100
AcDbDictionary
281
     1
  3
ACAD_GROUP
350
D
  3
ACAD_LAYOUT
350
1A
  3
ACAD_MATERIAL
350
3B
  3
ACAD_MLEADERSTYLE
350
A7
  3
ACAD_MLINESTYLE
350
17
  3
ACAD_PLOTSETTINGS
350
19
  3
ACAD_PLOTSTYLENAME
350
E
  3
ACAD_TABLESTYLE
350
A6
  3
ACAD_VISUALSTYLE
350
2A
  0
SUN
  5
3F
330
29
100
AcDbSun
 90
        1
290
     0
 63
     7
421
 16777215
 40
1.0
291
     1
 91
  2455826
 92
 54000000
292
     0
 70
     2
 71
   256
280
     1
  0
DICTIONARY
  5
D
102
{ACAD_REACTORS
330
C
102
}
330
C
100
AcDbDictionary
281
     1
  0
DICTIONARY
  5
1A
102
{ACAD_REACTORS
330
C
102
}
330
C
100
AcDbDictionary
281
     1
  3
Layout1
350
1E
  3
Layout2
350
26
  3
Model
350
22
  0
DICTIONARY
  5
3B
102
{ACAD_REACTORS
330
C
102
}
330
C
100
AcDbDictionary
281
     1
  3
ByBlock
350
3D
  3
ByLayer
350
3C
  3
Global
350
3E
  0
DICTIONARY
  5
A7
102
{ACAD_REACTORS
330
C
102
}
330
C
100
AcDbDictionary
281
     1
  0
DICTIONARY
  5
17
102
{ACAD_REACTORS
330
C
102
}
330
C
100
AcDbDictionary
281
     1
  3
Standard
350
18
  0
DICTIONARY
  5
19
102
{ACAD_REACTORS
330
C
102
}
330
C
100
AcDbDictionary
281
     1
  0
ACDBDICTIONARYWDFLT
  5
E
102
{ACAD_REACTORS
330
C
102
}
330
C
100
AcDbDictionary
281
     1
  3
Normal
350
F
100
AcDbDictionaryWithDefault
340
F
  0
DICTIONARY
  5
A6
102
{ACAD_REACTORS
330
C
102
}
330
C
100
AcDbDictionary
281
     1
  0
DICTIONARY
  5
2A
102
{ACAD_REACTORS
330
C
102
}
330
C
100
AcDbDictionary
281
     1
  3
2dWireframe
350
2F
  3
3D Hidden
350
31
  3
3dWireframe
350
30
  3
Basic
350
32
  3
Brighten
350
36
  3
ColorChange
350
3A
  3
Conceptual
350
34
  3
Dim
350
35
  3
Facepattern
350
39
  3
Flat
350
2B
  3
FlatWithEdges
350
2C
  3
Gouraud
350
2D
  3
GouraudWithEdges
350
2E
  3
Linepattern
350
38
  3
Realistic
350
33
  3
Thicken
350
37
  0
LAYOUT
  5
1E
102
{ACAD_REACTORS
330
1A
102
}
330
1A
100
AcDbPlotSettings
  1

  2
none_device
  4

  6

 40
0.0
 41
0.0
 42
0.0
 43
0.0
 44
0.0
 45
0.0
 46
0.0
 47
0.0
 48
0.0
 49
0.0
140
0.0
141
0.0
142
1.0
143
1.0
 70
   688
 72
     0
 73
     0
 74
     5
  7

 75
    16
 76
     0
 77
     2
 78
   300
147
1.0
148
0.0
149
0.0
100
AcDbLayout
  1
Layout1
 70
     1
 71
     1
 10
0.0
 20
0.0
 11
12.0
 21
9.0
 12
0.0
 22
0.0
 32
0.0
 14
1.000000000000000E+20
 24
1.000000000000000E+20
 34
1.000000000000000E+20
 15
-1.000000000000000E+20
 25
-1.000000000000000E+20
 35
-1.000000000000000E+20
146
0.0
 13
0.0
 23
0.0
 33
0.0
 16
1.0
 26
0.0
 36
0.0
 17
0.0
 27
1.0
 37
0.0
 76
     0
330
1B
  0
LAYOUT
  5
26
102
{ACAD_REACTORS
330
1A
102
}
330
1A
100
AcDbPlotSettings
  1

  2
none_device
  4

  6

 40
0.0
 41
0.0
 42
0.0
 43
0.0
 44
0.0
 45
0.0
 46
0.0
 47
0.0
 48
0.0
 49
0.0
140
0.0
141
0.0
142
1.0
143
1.0
 70
   688
 72
     0
 73
     0
 74
     5
  7

 75
    16
 76
     0
 77
     2
 78
   300
147
1.0
148
0.0
149
0.0
100
AcDbLayout
  1
Layout2
 70
     1
 71
     2
 10
0.0
 20
0.0
 11
0.0
 21
0.0
 12
0.0
 22
0.0
 32
0.0
 14
0.0
 24
0.0
 34
0.0
 15
0.0
 25
0.0
 35
0.0
146
0.0
 13
0.0
 23
0.0
 33
0.0
 16
1.0
 26
0.0
 36
0.0
 17
0.0
 27
1.0
 37
0.0
 76
     0
330
23
  0
LAYOUT
  5
22
102
{ACAD_REACTORS
330
1A
102
}
330
1A
100
AcDbPlotSettings
  1

  2
none_device
  4

  6

 40
0.0
 41
0.0
 42
0.0
 43
0.0
 44
0.0
 45
0.0
 46
0.0
 47
0.0
 48
0.0
 49
0.0
140
0.0
141
0.0
142
1.0
143
1.0
 70
  1712
 72
     0
 73
     0
 74
     0
  7

 75
     0
 76
     0
 77
     2
 78
   300
147
1.0
148
0.0
149
0.0
100
AcDbLayout
  1
Model
 70
     1
 71
     0
 10
0.0
 20
0.0
 11
12.0
 21
9.0
 12
0.0
 22
0.0
 32
0.0
 14
1.000000000000000E+20
 24
1.000000000000000E+20
 34
1.000000000000000E+20
 15
-1.000000000000000E+20
 25
-1.000000000000000E+20
 35
-1.000000000000000E+20
146
0.0
 13
0.0
 23
0.0
 33
0.0
 16
1.0
 26
0.0
 36
0.0
 17
0.0
 27
1.0
 37
0.0
 76
     0
330
1F
331
29
  0
MATERIAL
  5
3D
102
{ACAD_REACTORS
330
3B
102
}
330
3B
100
AcDbMaterial
  1
ByBlock
 72
     1
 94
      127
  0
MATERIAL
  5
3C
102
{ACAD_REACTORS
330
3B
102
}
330
3B
100
AcDbMaterial
  1
ByLayer
 72
     1
 94
      127
  0
MATERIAL
  5
3E
102
{ACAD_REACTORS
330
3B
102
}
330
3B
100
AcDbMaterial
  1
Global
 72
     1
 94
      127
  0
MLINESTYLE
  5
18
102
{ACAD_REACTORS
330
17
102
}
330
17
100
AcDbMlineStyle
  2
Standard
 70
     0
  3

 62
   256
 51
90.0
 52
90.0
 71
     2
 49
0.5
 62
   256
  6
BYLAYER
 49
-0.5
 62
   256
  6
BYLAYER
  0
ACDBPLACEHOLDER
  5
F
102
{ACAD_REACTORS
330
E
102
}
330
E
  0
VISUALSTYLE
  5
2F
102
{ACAD_REACTORS
330
2A
102
}
330
2A
100
AcDbVisualStyle
  2
2dWireframe
 70
     4
177
     2
291
     0
 71
     0
176
     1
 72
     2
176
     1
 73
     0
176
     1
 90
        0
176
     1
 40
-0.6
176
     1
 41
-30.0
176
     1
 62
     5
 63
     7
421
 16777215
176
     1
 74
     1
176
     1
 91
        4
176
     1
 64
     7
176
     1
 65
   257
176
     1
 75
     1
176
     1
175
     1
176
     1
 42
1.0
176
     1
 92
        0
176
     1
 66
   257
176
     1
 43
1.0
176
     1
 76
     1
176
     1
 77
     6
176
     1
 78
     2
176
     1
 67
     7
176
     1
 79
     5
176
     1
170
     0
176
     1
171
     0
176
     1
290
     0
176
     1
 93
        1
176
     1
 44
0.0
176
     1
173
     0
176
     1
  0
VISUALSTYLE
  5
31
102
{ACAD_REACTORS
330
2A
102
}
330
2A
100
AcDbVisualStyle
  2
3D Hidden
 70
     6
177
     2
291
     0
 71
     1
176
     1
 72
     2
176
     1
 73
     2
176
     1
 90
        0
176
     1
 40
-0.6
176
     1
 41
-30.0
176
     1
 62
     5
 63
     7
421
 16777215
176
     1
 74
     2
176
     1
 91
        2
176
     1
 64
     7
176
     1
 65
   257
176
     1
 75
     2
176
     1
175
     1
176
     1
 42
40.0
176
     1
 92
        0
176
     1
 66
   257
176
     1
 43
1.0
176
     1
 76
     1
176
     1
 77
     6
176
     1
 78
     2
176
     1
 67
     7
176
     1
 79
     3
176
     1
170
     0
176
     1
171
     0
176
     1
290
     0
176
     1
 93
        1
176
     1
 44
0.0
176
     1
173
     0
176
     1
  0
VISUALSTYLE
  5
30
102
{ACAD_REACTORS
330
2A
102
}
330
2A
100
AcDbVisualStyle
  2
3dWireframe
 70
     5
177
     2
291
     0
 71
     0
176
     1
 72
     2
176
     1
 73
     0
176
     1
 90
        0
176
     1
 40
-0.6
176
     1
 41
-30.0
176
     1
 62
     5
 63
     7
421
 16777215
176
     1
 74
     1
176
     1
 91
        4
176
     1
 64
     7
176
     1
 65
   257
176
     1
 75
     1
176
     1
175
     1
176
     1
 42
1.0
176
     1
 92
        0
176
     1
 66
   257
176
     1
 43
1.0
176
     1
 76
     1
176
     1
 77
     6
176
     1
 78
     2
176
     1
 67
     7
176
     1
 79
     5
176
     1
170
     0
176
     1
171
     0
176
     1
290
     0
176
     1
 93
        1
176
     1
 44
0.0
176
     1
173
     0
176
     1
  0
VISUALSTYLE
  5
32
102
{ACAD_REACTORS
330
2A
102
}
330
2A
100
AcDbVisualStyle
  2
Basic
 70
     7
177
     2
291
     1
 71
     1
176
     1
 72
     0
176
     1
 73
     1
176
     1
 90
        0
176
     1
 40
-0.6
176
     1
 41
-30.0
176
     1
 62
     5
 63
     7
421
 16777215
176
     1
 74
     0
176
     1
 91
        4
176
     1
 64
     7
176
     1
 65
   257
176
     1
 75
     1
176
     1
175
     1
176
     1
 42
1.0
176
     1
 92
        8
176
     1
 66
     7
176
     1
 43
1.0
176
     1
 76
     1
176
     1
 77
     6
176
     1
 78
     2
176
     1
 67
     7
176
     1
 79
     5
176
     1
170
     0
176
     1
171
     0
176
     1
290
     0
176
     1
 93
        1
176
     1
 44
0.0
176
     1
173
     0
176
     1
  0
VISUALSTYLE
  5
36
102
{ACAD_REACTORS
330
2A
102
}
330
2A
100
AcDbVisualStyle
  2
Brighten
 70
    12
177
     2
291
     1
 71
     2
176
     1
 72
     2
176
     1
 73
     0
176
     1
 90
        0
176
     1
 40
-0.6
176
     1
 41
-30.0
176
     1
 62
     5
 63
     7
421
 16777215
176
     1
 74
     1
176
     1
 91
        4
176
     1
 64
     7
176
     1
 65
   257
176
     1
 75
     1
176
     1
175
     1
176
     1
 42
1.0
176
     1
 92
        8
176
     1
 66
     7
176
     1
 43
1.0
176
     1
 76
     1
176
     1
 77
     6
176
     1
 78
     2
176
     1
 67
     7
176
     1
 79
     5
176
     1
170
     0
176
     1
171
     0
176
     1
290
     0
176
     1
 93
        1
176
     1
 44
50.0
176
     1
173
     0
176
     1
  0
VISUALSTYLE
  5
3A
102
{ACAD_REACTORS
330
2A
102
}
330
2A
100
AcDbVisualStyle
  2
ColorChange
 70
    16
177
     2
291
     1
 71
     2
176
     1
 72
     2
176
     1
 73
     3
176
     1
 90
        0
176
     1
 40
-0.6
176
     1
 41
-30.0
176
     1
 62
     5
 63
     8
421
  8421504
176
     1
 74
     1
176
     1
 91
        4
176
     1
 64
     7
176
     1
 65
   257
176
     1
 75
     1
176
     1
175
     1
176
     1
 42
1.0
176
     1
 92
        8
176
     1
 66
     8
424
  8421504
176
     1
 43
1.0
176
     1
 76
     1
176
     1
 77
     6
176
     1
 78
     2
176
     1
 67
     7
176
     1
 79
     5
176
     1
170
     0
176
     1
171
     0
176
     1
290
     0
176
     1
 93
        1
176
     1
 44
0.0
176
     1
173
     0
176
     1
  0
VISUALSTYLE
  5
34
102
{ACAD_REACTORS
330
2A
102
}
330
2A
100
AcDbVisualStyle
  2
Conceptual
 70
     9
177
     2
291
     0
 71
     3
176
     1
 72
     2
176
     1
 73
     0
176
     1
 90
        0
176
     1
 40
-0.6
176
     1
 41
-30.0
176
     1
 62
     5
 63
     7
421
 16777215
176
     1
 74
     2
176
     1
 91
        2
176
     1
 64
     7
176
     1
 65
   257
176
     1
 75
     1
176
     1
175
     1
176
     1
 42
40.0
176
     1
 92
        8
176
     1
 66
     7
176
     1
 43
1.0
176
     1
 76
     1
176
     1
 77
     6
176
     1
 78
     2
176
     1
 67
     7
176
     1
 79
     3
176
     1
170
     0
176
     1
171
     0
176
     1
290
     0
176
     1
 93
        1
176
     1
 44
0.0
176
     1
173
     0
176
     1
  0
VISUALSTYLE
  5
35
102
{ACAD_REACTORS
330
2A
102
}
330
2A
100
AcDbVisualStyle
  2
Dim
 70
    11
177
     2
291
     1
 71
     2
176
     1
 72
     2
176
     1
 73
     0
176
     1
 90
        0
176
     1
 40
-0.6
176
     1
 41
-30.0
176
     1
 62
     5
 63
     7
421
 16777215
176
     1
 74
     1
176
     1
 91
        4
176
     1
 64
     7
176
     1
 65
   257
176
     1
 75
     1
176
     1
175
     1
176
     1
 42
1.0
176
     1
 92
        8
176
     1
 66
     7
176
     1
 43
1.0
176
     1
 76
     1
176
     1
 77
     6
176
     1
 78
     2
176
     1
 67
     7
176
     1
 79
     5
176
     1
170
     0
176
     1
171
     0
176
     1
290
     0
176
     1
 93
        1
176
     1
 44
-50.0
176
     1
173
     0
176
     1
  0
VISUALSTYLE
  5
39
102
{ACAD_REACTORS
330
2A
102
}
330
2A
100
AcDbVisualStyle
  2
Facepattern
 70
    15
177
     2
291
     1
 71
     2
176
     1
 72
     2
176
     1
 73
     0
176
     1
 90
        0
176
     1
 40
-0.6
176
     1
 41
-30.0
176
     1
 62
     5
 63
     7
421
 16777215
176
     1
 74
     1
176
     1
 91
        4
176
     1
 64
     7
176
     1
 65
   257
176
     1
 75
     1
176
     1
175
     1
176
     1
 42
1.0
176
     1
 92
        8
176
     1
 66
     7
176
     1
 43
1.0
176
     1
 76
     1
176
     1
 77
     6
176
     1
 78
     2
176
     1
 67
     7
176
     1
 79
     5
176
     1
170
     0
176
     1
171
     0
176
     1
290
     0
176
     1
 93
        1
176
     1
 44
0.0
176
     1
173
     0
176
     1
  0
VISUALSTYLE
  5
2B
102
{ACAD_REACTORS
330
2A
102
}
330
2A
100
AcDbVisualStyle
  2
Flat
 70
     0
177
     2
291
     1
 71
     2
176
     1
 72
     1
176
     1
 73
     1
176
     1
 90
        2
176
     1
 40
-0.6
176
     1
 41
30.0
176
     1
 62
     5
 63
     7
421
 16777215
176
     1
 74
     0
176
     1
 91
        4
176
     1
 64
     7
176
     1
 65
   257
176
     1
 75
     1
176
     1
175
     1
176
     1
 42
1.0
176
     1
 92
        8
176
     1
 66
     7
176
     1
 43
1.0
176
     1
 76
     1
176
     1
 77
     6
176
     1
 78
     2
176
     1
 67
     7
176
     1
 79
     5
176
     1
170
     0
176
     1
171
     0
176
     1
290
     0
176
     1
 93
       13
176
     1
 44
0.0
176
     1
173
     0
176
     1
  0
VISUALSTYLE
  5
2C
102
{ACAD_REACTORS
330
2A
102
}
330
2A
100
AcDbVisualStyle
  2
FlatWithEdges
 70
     1
177
     2
291
     1
 71
     2
176
     1
 72
     1
176
     1
 73
     1
176
     1
 90
        2
176
     1
 40
-0.6
176
     1
 41
30.0
176
     1
 62
     5
 63
     7
421
 16777215
176
     1
 74
     1
176
     1
 91
        4
176
     1
 64
     7
176
     1
 65
   257
176
     1
 75
     1
176
     1
175
     1
176
     1
 42
1.0
176
     1
 92
        0
176
     1
 66
   257
176
     1
 43
1.0
176
     1
 76
     1
176
     1
 77
     6
176
     1
 78
     2
176
     1
 67
     7
176
     1
 79
     5
176
     1
170
     0
176
     1
171
     0
176
     1
290
     0
176
     1
 93
       13
176
     1
 44
0.0
176
     1
173
     0
176
     1
  0
VISUALSTYLE
  5
2D
102
{ACAD_REACTORS
330
2A
102
}
330
2A
100
AcDbVisualStyle
  2
Gouraud
 70
     2
177
     2
291
     1
 71
     2
176
     1
 72
     2
176
     1
 73
     1
176
     1
 90
        2
176
     1
 40
-0.6
176
     1
 41
30.0
176
     1
 62
     5
 63
     7
421
 16777215
176
     1
 74
     0
176
     1
 91
        4
176
     1
 64
     7
176
     1
 65
   257
176
     1
 75
     1
176
     1
175
     1
176
     1
 42
1.0
176
     1
 92
        0
176
     1
 66
     7
176
     1
 43
1.0
176
     1
 76
     1
176
     1
 77
     6
176
     1
 78
     2
176
     1
 67
     7
176
     1
 79
     5
176
     1
170
     0
176
     1
171
     0
176
     1
290
     0
176
     1
 93
       13
176
     1
 44
0.0
176
     1
173
     0
176
     1
  0
VISUALSTYLE
  5
2E
102
{ACAD_REACTORS
330
2A
102
}
330
2A
100
AcDbVisualStyle
  2
GouraudWithEdges
 70
     3
177
     2
291
     1
 71
     2
176
     1
 72
     2
176
     1
 73
     1
176
     1
 90
        2
176
     1
 40
-0.6
176
     1
 41
30.0
176
     1
 62
     5
 63
     7
421
 16777215
176
     1
 74
     1
176
     1
 91
        4
176
     1
 64
     7
176
     1
 65
   257
176
     1
 75
     1
176
     1
175
     1
176
     1
 42
1.0
176
     1
 92
        0
176
     1
 66
   257
176
     1
 43
1.0
176
     1
 76
     1
176
     1
 77
     6
176
     1
 78
     2
176
     1
 67
     7
176
     1
 79
     5
176
     1
170
     0
176
     1
171
     0
176
     1
290
     0
176
     1
 93
       13
176
     1
 44
0.0
176
     1
173
     0
176
     1
  0
VISUALSTYLE
  5
38
102
{ACAD_REACTORS
330
2A
102
}
330
2A
100
AcDbVisualStyle
  2
Linepattern
 70
    14
177
     2
291
     1
 71
     2
176
     1
 72
     2
176
     1
 73
     0
176
     1
 90
        0
176
     1
 40
-0.6
176
     1
 41
-30.0
176
     1
 62
     5
 63
     7
421
 16777215
176
     1
 74
     1
176
     1
 91
        4
176
     1
 64
     7
176
     1
 65
   257
176
     1
 75
     7
176
     1
175
     7
176
     1
 42
1.0
176
     1
 92
        8
176
     1
 66
     7
176
     1
 43
1.0
176
     1
 76
     1
176
     1
 77
     6
176
     1
 78
     2
176
     1
 67
     7
176
     1
 79
     5
176
     1
170
     0
176
     1
171
     0
176
     1
290
     0
176
     1
 93
        1
176
     1
 44
0.0
176
     1
173
     0
176
     1
  0
VISUALSTYLE
  5
33
102
{ACAD_REACTORS
330
2A
102
}
330
2A
100
AcDbVisualStyle
  2
Realistic
 70
     8
177
     2
291
     0
 71
     2
176
     1
 72
     2
176
     1
 73
     0
176
     1
 90
        0
176
     1
 40
-0.6
176
     1
 41
-30.0
176
     1
 62
     5
 63
     7
421
 16777215
176
     1
 74
     1
176
     1
 91
        0
176
     1
 64
     7
176
     1
 65
   257
176
     1
 75
     1
176
     1
175
     1
176
     1
 42
1.0
176
     1
 92
        8
176
     1
 66
     8
424
  7895160
176
     1
 43
1.0
176
     1
 76
     1
176
     1
 77
     6
176
     1
 78
     2
176
     1
 67
     7
176
     1
 79
     5
176
     1
170
     0
176
     1
171
     0
176
     1
290
     0
176
     1
 93
       13
176
     1
 44
0.0
176
     1
173
     0
176
     1
  0
VISUALSTYLE
  5
37
102
{ACAD_REACTORS
330
2A
102
}
330
2A
100
AcDbVisualStyle
  2
Thicken
 70
    13
177
     2
291
     1
 71
     2
176
     1
 72
     2
176
     1
 73
     0
176
     1
 90
        0
176
     1
 40
-0.6
176
     1
 41
-30.0
176
     1
 62
     5
 63
     7
421
 16777215
176
     1
 74
     1
176
     1
 91
        4
176
     1
 64
     7
176
     1
 65
   257
176
     1
 75
     1
176
     1
175
     1
176
     1
 42
1.0
176
     1
 92
       12
176
     1
 66
     7
176
     1
 43
1.0
176
     1
 76
     1
176
     1
 77
     6
176
     1
 78
     2
176
     1
 67
     7
176
     1
 79
     5
176
     1
170
     0
176
     1
171
     0
176
     1
290
     0
176
     1
 93
        1
176
     1
 44
0.0
176
     1
173
     0
176
     1
  0
ENDSEC
  0
EOF
