  0
SECTION
  2
HEADER
  9
$ACADVER
  1
AC1024
  9
$ACADMAINTVER
 70
     6
  9
$DWGCODEPAGE
  3
UNDEFINED
  9
$INSBASE
 10
0.0
 20
0.0
 30
0.0
  9
$EXTMIN
 10
1.000000000000000E+20
 20
1.000000000000000E+20
 30
1.000000000000000E+20
  9
$EXTMAX
 10
-1.000000000000000E+20
 20
-1.000000000000000E+20
 30
-1.000000000000000E+20
  9
$LIMMIN
 10
0.0
 20
0.0
  9
$LIMMAX
 10
12.0
 20
9.0
  9
$ORTHOMODE
 70
     0
  9
$REGENMODE
 70
     1
  9
$FILLMODE
 70
     1
  9
$QTEXTMODE
 70
     0
  9
$MIRRTEXT
 70
     1
  9
$LTSCALE
 40
1.0
  9
$ATTMODE
 70
     1
  9
$TEXTSIZE
 40
0.2
  9
$TRACEWID
 40
0.05
  9
$TEXTSTYLE
  7
Standard
  9
$CLAYER
  8
0
  9
$CELTYPE
  6
ByLayer
  9
$CECOLOR
 62
   256
  9
$CELTSCALE
 40
1.0
  9
$DISPSILH
 70
     0
  9
$DIMSCALE
 40
1.0
  9
$DIMASZ
 40
0.18
  9
$DIMEXO
 40
0.0625
  9
$DIMDLI
 40
0.38
  9
$DIMRND
 40
0.0
  9
$DIMDLE
 40
0.0
  9
$DIMEXE
 40
0.18
  9
$DIMTP
 40
0.0
  9
$DIMTM
 40
0.0
  9
$DIMTXT
 40
0.18
  9
$DIMCEN
 40
0.09
  9
$DIMTSZ
 40
0.0
  9
$DIMTOL
 70
     0
  9
$DIMLIM
 70
     0
  9
$DIMTIH
 70
     1
  9
$DIMTOH
 70
     1
  9
$DIMSE1
 70
     0
  9
$DIMSE2
 70
     0
  9
$DIMTAD
 70
     0
  9
$DIMZIN
 70
     0
  9
$DIMBLK
  1

  9
$DIMASO
 70
     1
  9
$DIMSHO
 70
     1
  9
$DIMPOST
  1

  9
$DIMAPOST
  1

  9
$DIMALT
 70
     0
  9
$DIMALTD
 70
     2
  9
$DIMALTF
 40
25.4
  9
$DIMLFAC
 40
1.0
  9
$DIMTOFL
 70
     0
  9
$DIMTVP
 40
0.0
  9
$DIMTIX
 70
     0
  9
$DIMSOXD
 70
     0
  9
$DIMSAH
 70
     0
  9
$DIMBLK1
  1

  9
$DIMBLK2
  1

  9
$DIMSTYLE
  2
Standard
  9
$DIMCLRD
 70
     0
  9
$DIMCLRE
 70
     0
  9
$DIMCLRT
 70
     0
  9
$DIMTFAC
 40
1.0
  9
$DIMGAP
 40
0.09
  9
$DIMJUST
 70
     0
  9
$DIMSD1
 70
     0
  9
$DIMSD2
 70
     0
  9
$DIMTOLJ
 70
     1
  9
$DIMTZIN
 70
     0
  9
$DIMALTZ
 70
     0
  9
$DIMALTTZ
 70
     0
  9
$DIMUPT
 70
     0
  9
$DIMDEC
 70
     4
  9
$DIMTDEC
 70
     4
  9
$DIMALTU
 70
     2
  9
$DIMALTTD
 70
     2
  9
$DIMTXSTY
  7
Standard
  9
$DIMAUNIT
 70
     0
  9
$DIMADEC
 70
     0
  9
$DIMALTRND
 40
0.0
  9
$DIMAZIN
 70
     0
  9
$DIMDSEP
 70
    46
  9
$DIMATFIT
 70
     3
  9
$DIMFRAC
 70
     0
  9
$DIMLDRBLK
  1

  9
$DIMLUNIT
 70
     2
  9
$DIMLWD
 70
    -2
  9
$DIMLWE
 70
    -2
  9
$DIMTMOVE
 70
     0
  9
$DIMFXL
 40
1.0
  9
$DIMFXLON
 70
     0
  9
$DIMJOGANG
 40
0.7853981633974483
  9
$DIMTFILL
 70
     0
  9
$DIMTFILLCLR
 70
     0
  9
$DIMARCSYM
 70
     0
  9
$DIMLTYPE
  6

  9
$DIMLTEX1
  6

  9
$DIMLTEX2
  6

  9
$DIMTXTDIRECTION
 70
     0
  9
$LUNITS
 70
     2
  9
$LUPREC
 70
     4
  9
$SKETCHINC
 40
0.1
  9
$FILLETRAD
 40
0.5
  9
$AUNITS
 70
     0
  9
$AUPREC
 70
     0
  9
$MENU
  1
.
  9
$ELEVATION
 40
0.0
  9
$PELEVATION
 40
0.0
  9
$THICKNESS
 40
0.0
  9
$LIMCHECK
 70
     0
  9
$CHAMFERA
 40
0.5
  9
$CHAMFERB
 40
0.5
  9
$CHAMFERC
 40
1.0
  9
$CHAMFERD
 40
0.0
  9
$SKPOLY
 70
     0
  9
$TDCREATE
 40
2457917.625034711
  9
$TDUCREATE
 40
2457917.250034722
  9
$TDUPDATE
 40
2457917.625034711
  9
$TDUUPDATE
 40
2457917.250034722
  9
$TDINDWG
 40
0.0000000116
  9
$TDUSRTIMER
 40
0.0000000116
  9
$USRTIMER
 70
     1
  9
$ANGBASE
 50
0.0
  9
$ANGDIR
 70
     0
  9
$PDMODE
 70
     0
  9
$PDSIZE
 40
0.0
  9
$PLINEWID
 40
0.0
  9
$SPLFRAME
 70
     0
  9
$SPLINETYPE
 70
     6
  9
$SPLINESEGS
 70
     8
  9
$HANDSEED
  5
A5
  9
$SURFTAB1
 70
     6
  9
$SURFTAB2
 70
     6
  9
$SURFTYPE
 70
     6
  9
$SURFU
 70
     6
  9
$SURFV
 70
     6
  9
$UCSBASE
  2

  9
$UCSNAME
  2

  9
$UCSORG
 10
0.0
 20
0.0
 30
0.0
  9
$UCSXDIR
 10
1.0
 20
0.0
 30
0.0
  9
$UCSYDIR
 10
0.0
 20
1.0
 30
0.0
  9
$UCSORTHOREF
  2

  9
$UCSORTHOVIEW
 70
     0
  9
$UCSORGTOP
 10
0.0
 20
0.0
 30
0.0
  9
$UCSORGBOTTOM
 10
0.0
 20
0.0
 30
0.0
  9
$UCSORGLEFT
 10
0.0
 20
0.0
 30
0.0
  9
$UCSORGRIGHT
 10
0.0
 20
0.0
 30
0.0
  9
$UCSORGFRONT
 10
0.0
 20
0.0
 30
0.0
  9
$UCSORGBACK
 10
0.0
 20
0.0
 30
0.0
  9
$PUCSBASE
  2

  9
$PUCSNAME
  2

  9
$PUCSORG
 10
0.0
 20
0.0
 30
0.0
  9
$PUCSXDIR
 10
1.0
 20
0.0
 30
0.0
  9
$PUCSYDIR
 10
0.0
 20
1.0
 30
0.0
  9
$PUCSORTHOREF
  2

  9
$PUCSORTHOVIEW
 70
     0
  9
$PUCSORGTOP
 10
0.0
 20
0.0
 30
0.0
  9
$PUCSORGBOTTOM
 10
0.0
 20
0.0
 30
0.0
  9
$PUCSORGLEFT
 10
0.0
 20
0.0
 30
0.0
  9
$PUCSORGRIGHT
 10
0.0
 20
0.0
 30
0.0
  9
$PUCSORGFRONT
 10
0.0
 20
0.0
 30
0.0
  9
$PUCSORGBACK
 10
0.0
 20
0.0
 30
0.0
  9
$USERI1
 70
     0
  9
$USERI2
 70
     0
  9
$USERI3
 70
     0
  9
$USERI4
 70
     0
  9
$USERI5
 70
     0
  9
$USERR1
 40
0.0
  9
$USERR2
 40
0.0
  9
$USERR3
 40
0.0
  9
$USERR4
 40
0.0
  9
$USERR5
 40
0.0
  9
$WORLDVIEW
 70
     1
  9
$SHADEDGE
 70
     3
  9
$SHADEDIF
 70
    70
  9
$TILEMODE
 70
     1
  9
$MAXACTVP
 70
    64
  9
$PINSBASE
 10
0.0
 20
0.0
 30
0.0
  9
$PLIMCHECK
 70
     0
  9
$PEXTMIN
 10
1.000000000000000E+20
 20
1.000000000000000E+20
 30
1.000000000000000E+20
  9
$PEXTMAX
 10
-1.000000000000000E+20
 20
-1.000000000000000E+20
 30
-1.000000000000000E+20
  9
$PLIMMIN
 10
0.0
 20
0.0
  9
$PLIMMAX
 10
12.0
 20
9.0
  9
$UNITMODE
 70
     0
  9
$VISRETAIN
 70
     1
  9
$PLINEGEN
 70
     0
  9
$PSLTSCALE
 70
     1
  9
$TREEDEPTH
 70
  3020
  9
$CMLSTYLE
  2
Standard
  9
$CMLJUST
 70
     0
  9
$CMLSCALE
 40
1.0
  9
$PROXYGRAPHICS
 70
     1
  9
$MEASUREMENT
 70
     0
  9
$CELWEIGHT
370
    -1
  9
$ENDCAPS
280
     0
  9
$JOINSTYLE
280
     0
  9
$LWDISPLAY
290
     1
  9
$INSUNITS
 70
     1
  9
$HYPERLINKBASE
  1

  9
$STYLESHEET
  1

  9
$XEDIT
290
     1
  9
$CEPSNTYPE
380
     0
  9
$PSTYLEMODE
290
     1
  9
$FINGERPRINTGUID
  2
{A9B987FF-CFB4-D98C-F8AA-DF4FD971552C}
  9
$VERSIONGUID
  2
{FAEB1C32-E019-11D5-929B-00C0DF256EC4}
  9
$EXTNAMES
290
     1
  9
$PSVPSCALE
 40
0.0
  9
$OLESTARTUP
290
     0
  9
$SORTENTS
280
   127
  9
$INDEXCTL
280
     0
  9
$HIDETEXT
280
     1
  9
$XCLIPFRAME
280
     2
  9
$HALOGAP
280
     0
  9
$OBSCOLOR
 70
   257
  9
$OBSLTYPE
280
     0
  9
$INTERSECTIONDISPLAY
280
     0
  9
$INTERSECTIONCOLOR
 70
   257
  9
$DIMASSOC
280
     2
  9
$PROJECTNAME
  1

  9
$CAMERADISPLAY
290
     0
  9
$LENSLENGTH
 40
50.0
  9
$CAMERAHEIGHT
 40
0.0
  9
$STEPSPERSEC
 40
2.0
  9
$STEPSIZE
 40
6.0
  9
$3DDWFPREC
 40
2.0
  9
$PSOLWIDTH
 40
0.25
  9
$PSOLHEIGHT
 40
4.0
  9
$LOFTANG1
 40
1.570796326794897
  9
$LOFTANG2
 40
1.570796326794897
  9
$LOFTMAG1
 40
0.0
  9
$LOFTMAG2
 40
0.0
  9
$LOFTPARAM
 70
     7
  9
$LOFTNORMALS
280
     1
  9
$LATITUDE
 40
37.795
  9
$LONGITUDE
 40
-122.394
  9
$NORTHDIRECTION
 40
0.0
  9
$TIMEZONE
 70
 -8000
  9
$LIGHTGLYPHDISPLAY
280
     1
  9
$TILEMODELIGHTSYNCH
280
     1
  9
$CMATERIAL
347
3C
  9
$SOLIDHIST
280
     1
  9
$SHOWHIST
280
     1
  9
$DWFFRAME
280
     2
  9
$DGNFRAME
280
     2
  9
$REALWORLDSCALE
290
     1
  9
$INTERFERECOLOR
 62
   256
  9
$CSHADOW
280
     0
  9
$SHADOWPLANELOCATION
 40
0.0
  0
ENDSEC
  0
SECTION
  2
CLASSES
  0
CLASS
  1
ACDBDICTIONARYWDFLT
  2
AcDbDictionaryWithDefault
  3
ObjectDBX Classes
 90
        0
 91
        4
280
     0
281
     0
  0
CLASS
  1
VISUALSTYLE
  2
AcDbVisualStyle
  3
ObjectDBX Classes
 90
     4095
 91
        4
280
     0
281
     0
  0
CLASS
  1
MATERIAL
  2
AcDbMaterial
  3
ObjectDBX Classes
 90
     1153
 91
        4
280
     0
281
     0
  0
CLASS
  1
SUN
  2
AcDbSun
  3
SCENEOE
 90
     1024
 91
        4
280
     0
281
     0
  0
ENDSEC
  0
SECTION
  2
TABLES
  0
TABLE
  2
VPORT
  5
8
330
0
100
AcDbSymbolTable
 70
     1
  0
VPORT
  5
29
330
8
100
AcDbSymbolTableRecord
100
AcDbViewportTableRecord
  2
*Active
 70
     0
 10
0.0
 20
0.0
 11
1.0
 21
1.0
 12
0.0
 22
0.0
 13
0.0
 23
0.0
 14
0.5
 24
0.5
 15
0.5
 25
0.5
 16
0.0
 26
0.0
 36
1.0
 17
91.00082462281999
 27
-128.4993055234307
 37
0.0
 40
256.9986110468615
 41
0.7081814508812795
 42
50.0
 43
0.0
 44
0.0
 50
0.0
 51
0.0
 71
     0
 72
   100
 73
     1
 74
     3
 75
     0
 76
     0
 77
     0
 78
     0
281
     0
 65
     1
110
0.0
120
0.0
130
0.0
111
1.0
121
0.0
131
0.0
112
0.0
122
1.0
132
0.0
 79
     0
146
0.0
 60
     3
 61
     5
292
     1
282
     1
141
0.0
142
0.0
 63
   250
361
3F
  0
ENDTAB
  0
TABLE
  2
LTYPE
  5
5
330
0
100
AcDbSymbolTable
 70
     1
  0
LTYPE
  5
14
330
5
100
AcDbSymbolTableRecord
100
AcDbLinetypeTableRecord
  2
ByBlock
 70
     0
  3

 72
    65
 73
     0
 40
0.0
  0
LTYPE
  5
15
330
5
100
AcDbSymbolTableRecord
100
AcDbLinetypeTableRecord
  2
ByLayer
 70
     0
  3

 72
    65
 73
     0
 40
0.0
  0
LTYPE
  5
16
330
5
100
AcDbSymbolTableRecord
100
AcDbLinetypeTableRecord
  2
Continuous
 70
     0
  3
Solid line
 72
    65
 73
     0
 40
0.0
  0
ENDTAB
  0
TABLE
  2
LAYER
  5
2
330
0
100
AcDbSymbolTable
 70
     2
  0
LAYER
  5
10
330
2
100
AcDbSymbolTableRecord
100
AcDbLayerTableRecord
  2
0
 70
     0
 62
     7
  6
Continuous
370
    -3
390
F
347
3E
  0
LAYER
  5
40
330
2
100
AcDbSymbolTableRecord
100
AcDbLayerTableRecord
  2
_U+30EC_U+30A4_U+30E4_U+30FC 1
 70
     0
 62
     7
  6
Continuous
370
    -3
390
F
347
3E
  0
ENDTAB
  0
TABLE
  2
STYLE
  5
3
330
0
100
AcDbSymbolTable
 70
     1
  0
STYLE
  5
11
330
3
100
AcDbSymbolTableRecord
100
AcDbTextStyleTableRecord
  2
Standard
 70
     0
 40
0.0
 41
1.0
 50
0.0
 71
     0
 42
0.2
  3
txt
  4

  0
ENDTAB
  0
TABLE
  2
VIEW
  5
6
330
0
100
AcDbSymbolTable
 70
     0
  0
ENDTAB
  0
TABLE
  2
UCS
  5
7
330
0
100
AcDbSymbolTable
 70
     0
  0
ENDTAB
  0
TABLE
  2
APPID
  5
9
330
0
100
AcDbSymbolTable
 70
     1
  0
APPID
  5
12
330
9
100
AcDbSymbolTableRecord
100
AcDbRegAppTableRecord
  2
ACAD
 70
     0
  0
ENDTAB
  0
TABLE
  2
DIMSTYLE
  5
A
330
0
100
AcDbSymbolTable
 70
     1
100
AcDbDimStyleTable
  0
DIMSTYLE
105
27
330
A
100
AcDbSymbolTableRecord
100
AcDbDimStyleTableRecord
  2
Standard
 70
     0
178
     0
340
11
  0
ENDTAB
  0
TABLE
  2
BLOCK_RECORD
  5
1
330
0
100
AcDbSymbolTable
 70
     5
  0
BLOCK_RECORD
  5
1F
330
1
100
AcDbSymbolTableRecord
100
AcDbBlockTableRecord
  2
*Model_Space
340
22
 70
     0
280
     1
281
     0
  0
BLOCK_RECORD
  5
1B
330
1
100
AcDbSymbolTableRecord
100
AcDbBlockTableRecord
  2
*Paper_Space
340
1E
 70
     0
280
     1
281
     0
  0
BLOCK_RECORD
  5
23
330
1
100
AcDbSymbolTableRecord
100
AcDbBlockTableRecord
  2
*Paper_Space0
340
26
 70
     0
280
     1
281
     0
  0
BLOCK_RECORD
  5
59
330
1
100
AcDbSymbolTableRecord
100
AcDbBlockTableRecord
  2
block 2
340
0
102
{BLKREFS
331
5A
102
}
 70
     0
280
     1
281
     0
  0
BLOCK_RECORD
  5
63
330
1
100
AcDbSymbolTableRecord
100
AcDbBlockTableRecord
  2
block 3
340
0
102
{BLKREFS
331
64
102
}
 70
     0
280
     1
281
     0
  0
BLOCK_RECORD
  5
6B
330
1
100
AcDbSymbolTableRecord
100
AcDbBlockTableRecord
  2
block 4
340
0
102
{BLKREFS
331
6C
102
}
 70
     0
280
     1
281
     0
  0
BLOCK_RECORD
  5
73
330
1
100
AcDbSymbolTableRecord
100
AcDbBlockTableRecord
  2
block 5
340
0
102
{BLKREFS
331
74
102
}
 70
     0
280
     1
281
     0
  0
ENDTAB
  0
ENDSEC
  0
SECTION
  2
BLOCKS
  0
BLOCK
  5
20
330
1F
100
AcDbEntity
  8
0
100
AcDbBlockBegin
  2
*Model_Space
 70
     0
 10
0.0
 20
0.0
 30
0.0
  3
*Model_Space
  1

  0
ENDBLK
  5
21
330
1F
100
AcDbEntity
  8
0
100
AcDbBlockEnd
  0
BLOCK
  5
1C
330
1B
100
AcDbEntity
 67
     1
  8
0
100
AcDbBlockBegin
  2
*Paper_Space
 70
     0
 10
0.0
 20
0.0
 30
0.0
  3
*Paper_Space
  1

  0
ENDBLK
  5
1D
330
1B
100
AcDbEntity
 67
     1
  8
0
100
AcDbBlockEnd
  0
BLOCK
  5
24
330
23
100
AcDbEntity
  8
0
100
AcDbBlockBegin
  2
*Paper_Space0
 70
     0
 10
0.0
 20
0.0
 30
0.0
  3
*Paper_Space0
  1

  0
ENDBLK
  5
25
330
23
100
AcDbEntity
  8
0
100
AcDbBlockEnd
  0
BLOCK
  5
5B
330
59
100
AcDbEntity
  8
0
100
AcDbBlockBegin
  2
block 2
 70
     0
 10
0.0
 20
0.0
 30
0.0
  3
block 2
  1

  0
SPLINE
  5
5D
330
59
100
AcDbEntity
  8
_U+30EC_U+30A4_U+30E4_U+30FC 1
370
     0
100
AcDbSpline
210
0.0
220
0.0
230
1.0
 70
    11
 71
     3
 72
    26
 73
    22
 74
     0
 42
0.0000000001
 43
0.0000000001
 12
1.0
 22
0.0
 32
0.0
 13
1.0
 23
0.0
 33
0.0
 40
0.0
 40
0.0
 40
0.0
 40
0.0
 40
1.0
 40
1.0
 40
1.0
 40
2.0
 40
2.0
 40
2.0
 40
3.0
 40
3.0
 40
3.0
 40
4.0
 40
4.0
 40
4.0
 40
5.0
 40
5.0
 40
5.0
 40
6.0
 40
6.0
 40
6.0
 40
7.0
 40
7.0
 40
7.0
 40
7.0
 10
98.24275442422403
 20
-126.2152072167101
 30
0.0
 10
98.24275442422403
 20
-126.2152072167101
 30
0.0
 10
97.13860132120146
 20
-126.2152072167101
 30
0.0
 10
97.13860132120146
 20
-126.2152072167101
 30
0.0
 10
97.13860132120146
 20
-126.2152072167101
 30
0.0
 10
97.13860132120146
 20
-126.545247364197
 30
0.0
 10
97.13860132120146
 20
-126.545247364197
 30
0.0
 10
97.13860132120146
 20
-126.545247364197
 30
0.0
 10
96.99046221533573
 20
-126.545247364197
 30
0.0
 10
96.99046221533573
 20
-126.545247364197
 30
0.0
 10
96.97564830474914
 20
-126.2131401594189
 30
0.0
 10
96.81269528829684
 20
-126.1666313703681
 30
0.0
 10
96.69831811818653
 20
-126.1370035491949
 30
0.0
 10
96.69831811818653
 20
-126.1370035491949
 30
0.0
 10
96.69831811818653
 20
-125.9909315006203
 30
0.0
 10
96.69831811818653
 20
-125.9909315006203
 30
0.0
 10
96.69831811818653
 20
-125.9909315006203
 30
0.0
 10
98.24275442422403
 20
-125.9909315006203
 30
0.0
 10
98.24275442422403
 20
-125.9909315006203
 30
0.0
 10
98.24275442422403
 20
-125.9909315006203
 30
0.0
 10
98.24275442422403
 20
-126.2152072167101
 30
0.0
 10
98.24275442422403
 20
-126.2152072167101
 30
0.0
  0
HATCH
  5
5E
330
59
100
AcDbEntity
  8
_U+30EC_U+30A4_U+30E4_U+30FC 1
 62
   179
420
  2234388
100
AcDbHatch
 10
0.0
 20
0.0
 30
0.0
210
0.0
220
0.0
230
1.0
  2
SOLID
 70
     1
 71
     0
 91
        1
 92
        1
 93
        1
 72
     4
 94
        3
 73
     0
 74
     1
 95
       26
 96
       22
 40
0.0
 40
0.0
 40
0.0
 40
0.0
 40
1.0
 40
1.0
 40
1.0
 40
2.0
 40
2.0
 40
2.0
 40
3.0
 40
3.0
 40
3.0
 40
4.0
 40
4.0
 40
4.0
 40
5.0
 40
5.0
 40
5.0
 40
6.0
 40
6.0
 40
6.0
 40
7.0
 40
7.0
 40
7.0
 40
7.0
 10
98.24275442422403
 20
-126.2152072167101
 10
98.24275442422403
 20
-126.2152072167101
 10
97.13860132120146
 20
-126.2152072167101
 10
97.13860132120146
 20
-126.2152072167101
 10
97.13860132120146
 20
-126.2152072167101
 10
97.13860132120146
 20
-126.545247364197
 10
97.13860132120146
 20
-126.545247364197
 10
97.13860132120146
 20
-126.545247364197
 10
96.99046221533573
 20
-126.545247364197
 10
96.99046221533573
 20
-126.545247364197
 10
96.97564830474914
 20
-126.2131401594189
 10
96.81269528829684
 20
-126.1666313703681
 10
96.69831811818653
 20
-126.1370035491949
 10
96.69831811818653
 20
-126.1370035491949
 10
96.69831811818653
 20
-125.9909315006203
 10
96.69831811818653
 20
-125.9909315006203
 10
96.69831811818653
 20
-125.9909315006203
 10
98.24275442422403
 20
-125.9909315006203
 10
98.24275442422403
 20
-125.9909315006203
 10
98.24275442422403
 20
-125.9909315006203
 10
98.24275442422403
 20
-126.2152072167101
 10
98.24275442422403
 20
-126.2152072167101
 97
        0
 97
        0
 75
     2
 76
     1
 98
        0
  0
SPLINE
  5
5F
330
59
100
AcDbEntity
  8
_U+30EC_U+30A4_U+30E4_U+30FC 1
370
     0
100
AcDbSpline
210
0.0
220
0.0
230
1.0
 70
    11
 71
     3
 72
    53
 73
    49
 74
     0
 42
0.0000000001
 43
0.0000000001
 12
1.0
 22
0.0
 32
0.0
 13
1.0
 23
0.0
 33
0.0
 40
0.0
 40
0.0
 40
0.0
 40
0.0
 40
1.0
 40
1.0
 40
1.0
 40
2.0
 40
2.0
 40
2.0
 40
3.0
 40
3.0
 40
3.0
 40
4.0
 40
4.0
 40
4.0
 40
5.0
 40
5.0
 40
5.0
 40
6.0
 40
6.0
 40
6.0
 40
7.0
 40
7.0
 40
7.0
 40
8.0
 40
8.0
 40
8.0
 40
9.0
 40
9.0
 40
9.0
 40
10.0
 40
10.0
 40
10.0
 40
11.0
 40
11.0
 40
11.0
 40
12.0
 40
12.0
 40
12.0
 40
13.0
 40
13.0
 40
13.0
 40
14.0
 40
14.0
 40
14.0
 40
15.0
 40
15.0
 40
15.0
 40
16.0
 40
16.0
 40
16.0
 40
16.0
 10
98.2933973278572
 20
-125.0087347777756
 30
0.0
 10
98.2933973278572
 20
-125.0869384452908
 30
0.0
 10
98.27651635997948
 20
-125.1885687621056
 30
0.0
 10
98.2131266030509
 20
-125.2901990789205
 30
0.0
 10
98.10322805707142
 20
-125.4634873818286
 30
0.0
 10
97.9719699190834
 20
-125.4848469738371
 30
0.0
 10
97.86413843039509
 20
-125.503794999006
 30
0.0
 10
97.86413843039509
 20
-125.503794999006
 30
0.0
 10
97.86413843039509
 20
-125.2815863402074
 30
0.0
 10
97.86413843039509
 20
-125.2815863402074
 30
0.0
 10
98.062920439894
 20
-125.2268093219919
 30
0.0
 10
98.09254826106715
 20
-125.0996852985862
 30
0.0
 10
98.09254826106715
 20
-125.0066677204844
 30
0.0
 10
98.09254826106715
 20
-124.8671413533318
 30
0.0
 10
97.99298500154343
 20
-124.7148681328838
 30
0.0
 10
97.76044105628907
 20
-124.7148681328838
 30
0.0
 10
97.504470461735
 20
-124.7148681328838
 30
0.0
 10
97.43453502338443
 20
-124.8947021172138
 30
0.0
 10
97.43453502338443
 20
-125.0152804591976
 30
0.0
 10
97.43453502338443
 20
-125.0469753376619
 30
0.0
 10
97.43453502338443
 20
-125.1885687621056
 30
0.0
 10
97.5637261040813
 20
-125.2774522256251
 30
0.0
 10
97.5637261040813
 20
-125.2774522256251
 30
0.0
 10
97.54477807891242
 20
-125.4531520953728
 30
0.0
 10
97.54477807891242
 20
-125.4531520953728
 30
0.0
 10
97.54477807891242
 20
-125.4531520953728
 30
0.0
 10
96.69831811818653
 20
-125.3325737533891
 30
0.0
 10
96.69831811818653
 20
-125.3325737533891
 30
0.0
 10
96.69831811818653
 20
-125.3325737533891
 30
0.0
 10
96.69831811818653
 20
-124.5539821737226
 30
0.0
 10
96.69831811818653
 20
-124.5539821737226
 30
0.0
 10
96.69831811818653
 20
-124.5539821737226
 30
0.0
 10
96.89296601310315
 20
-124.5539821737226
 30
0.0
 10
96.89296601310315
 20
-124.5539821737226
 30
0.0
 10
96.89296601310315
 20
-124.5539821737226
 30
0.0
 10
96.89296601310315
 20
-125.1696207369368
 30
0.0
 10
96.89296601310315
 20
-125.1696207369368
 30
0.0
 10
96.89296601310315
 20
-125.1696207369368
 30
0.0
 10
97.31602373869183
 20
-125.2350775511565
 30
0.0
 10
97.31602373869183
 20
-125.2350775511565
 30
0.0
 10
97.28226180293639
 20
-125.1737548515191
 30
0.0
 10
97.24195418575896
 20
-125.0914170694216
 30
0.0
 10
97.24195418575896
 20
-124.972905784729
 30
0.0
 10
97.24195418575896
 20
-124.7190022474661
 30
0.0
 10
97.42833385151097
 20
-124.4819796780809
 30
0.0
 10
97.74149303112019
 20
-124.4819796780809
 30
0.0
 10
98.0587863253117
 20
-124.4819796780809
 30
0.0
 10
98.2933973278572
 20
-124.7062553941707
 30
0.0
 10
98.2933973278572
 20
-125.0087347777756
 30
0.0
  0
HATCH
  5
60
330
59
100
AcDbEntity
  8
_U+30EC_U+30A4_U+30E4_U+30FC 1
 62
   179
420
  2234388
100
AcDbHatch
 10
0.0
 20
0.0
 30
0.0
210
0.0
220
0.0
230
1.0
  2
SOLID
 70
     1
 71
     0
 91
        1
 92
        1
 93
        1
 72
     4
 94
        3
 73
     0
 74
     1
 95
       53
 96
       49
 40
0.0
 40
0.0
 40
0.0
 40
0.0
 40
1.0
 40
1.0
 40
1.0
 40
2.0
 40
2.0
 40
2.0
 40
3.0
 40
3.0
 40
3.0
 40
4.0
 40
4.0
 40
4.0
 40
5.0
 40
5.0
 40
5.0
 40
6.0
 40
6.0
 40
6.0
 40
7.0
 40
7.0
 40
7.0
 40
8.0
 40
8.0
 40
8.0
 40
9.0
 40
9.0
 40
9.0
 40
10.0
 40
10.0
 40
10.0
 40
11.0
 40
11.0
 40
11.0
 40
12.0
 40
12.0
 40
12.0
 40
13.0
 40
13.0
 40
13.0
 40
14.0
 40
14.0
 40
14.0
 40
15.0
 40
15.0
 40
15.0
 40
16.0
 40
16.0
 40
16.0
 40
16.0
 10
98.2933973278572
 20
-125.0087347777756
 10
98.2933973278572
 20
-125.0869384452908
 10
98.27651635997948
 20
-125.1885687621056
 10
98.2131266030509
 20
-125.2901990789205
 10
98.10322805707142
 20
-125.4634873818286
 10
97.9719699190834
 20
-125.4848469738371
 10
97.86413843039509
 20
-125.503794999006
 10
97.86413843039509
 20
-125.503794999006
 10
97.86413843039509
 20
-125.2815863402074
 10
97.86413843039509
 20
-125.2815863402074
 10
98.062920439894
 20
-125.2268093219919
 10
98.09254826106715
 20
-125.0996852985862
 10
98.09254826106715
 20
-125.0066677204844
 10
98.09254826106715
 20
-124.8671413533318
 10
97.99298500154343
 20
-124.7148681328838
 10
97.76044105628907
 20
-124.7148681328838
 10
97.504470461735
 20
-124.7148681328838
 10
97.43453502338443
 20
-124.8947021172138
 10
97.43453502338443
 20
-125.0152804591976
 10
97.43453502338443
 20
-125.0469753376619
 10
97.43453502338443
 20
-125.1885687621056
 10
97.5637261040813
 20
-125.2774522256251
 10
97.5637261040813
 20
-125.2774522256251
 10
97.54477807891242
 20
-125.4531520953728
 10
97.54477807891242
 20
-125.4531520953728
 10
97.54477807891242
 20
-125.4531520953728
 10
96.69831811818653
 20
-125.3325737533891
 10
96.69831811818653
 20
-125.3325737533891
 10
96.69831811818653
 20
-125.3325737533891
 10
96.69831811818653
 20
-124.5539821737226
 10
96.69831811818653
 20
-124.5539821737226
 10
96.69831811818653
 20
-124.5539821737226
 10
96.89296601310315
 20
-124.5539821737226
 10
96.89296601310315
 20
-124.5539821737226
 10
96.89296601310315
 20
-124.5539821737226
 10
96.89296601310315
 20
-125.1696207369368
 10
96.89296601310315
 20
-125.1696207369368
 10
96.89296601310315
 20
-125.1696207369368
 10
97.31602373869183
 20
-125.2350775511565
 10
97.31602373869183
 20
-125.2350775511565
 10
97.28226180293639
 20
-125.1737548515191
 10
97.24195418575896
 20
-125.0914170694216
 10
97.24195418575896
 20
-124.972905784729
 10
97.24195418575896
 20
-124.7190022474661
 10
97.42833385151097
 20
-124.4819796780809
 10
97.74149303112019
 20
-124.4819796780809
 10
98.0587863253117
 20
-124.4819796780809
 10
98.2933973278572
 20
-124.7062553941707
 10
98.2933973278572
 20
-125.0087347777756
 97
        0
 97
        0
 75
     2
 76
     1
 98
        0
  0
ENDBLK
  5
5C
330
59
100
AcDbEntity
  8
0
100
AcDbBlockEnd
  0
BLOCK
  5
65
330
63
100
AcDbEntity
  8
0
100
AcDbBlockBegin
  2
block 3
 70
     0
 10
0.0
 20
0.0
 30
0.0
  3
block 3
  1

  0
SPLINE
  5
67
330
63
100
AcDbEntity
  8
_U+30EC_U+30A4_U+30E4_U+30FC 1
370
     0
100
AcDbSpline
210
0.0
220
0.0
230
1.0
 70
    11
 71
     3
 72
    29
 73
    25
 74
     0
 42
0.0000000001
 43
0.0000000001
 12
1.0
 22
0.0
 32
0.0
 13
1.0
 23
0.0
 33
0.0
 40
0.0
 40
0.0
 40
0.0
 40
0.0
 40
1.0
 40
1.0
 40
1.0
 40
2.0
 40
2.0
 40
2.0
 40
3.0
 40
3.0
 40
3.0
 40
4.0
 40
4.0
 40
4.0
 40
5.0
 40
5.0
 40
5.0
 40
6.0
 40
6.0
 40
6.0
 40
7.0
 40
7.0
 40
7.0
 40
8.0
 40
8.0
 40
8.0
 40
8.0
 10
90.88833683708695
 20
-136.4857258773369
 30
0.0
 10
90.62185870130287
 20
-136.4857258773369
 30
0.0
 10
90.36795516403996
 20
-136.3479220579269
 30
0.0
 10
90.36795516403996
 20
-135.9992783948196
 30
0.0
 10
90.36795516403996
 20
-135.7429632907171
 30
0.0
 10
90.509720843258
 20
-135.6478786553241
 30
0.0
 10
90.61548527465516
 20
-135.5865559556867
 30
0.0
 10
90.49060056331486
 20
-135.5273003133404
 30
0.0
 10
90.41446395309083
 20
-135.4129231432301
 30
0.0
 10
90.41446395309083
 20
-135.2523816936175
 30
0.0
 10
90.41446395309083
 20
-134.9774630738945
 30
0.0
 10
90.61341821736401
 20
-134.8417263117757
 30
0.0
 10
90.88833683708695
 20
-134.8417263117757
 30
0.0
 10
91.171868195523
 20
-134.8417263117757
 30
0.0
 10
91.36238197585733
 20
-134.9857313030591
 30
0.0
 10
91.36238197585733
 20
-135.2523816936175
 30
0.0
 10
91.36238197585733
 20
-135.4129231432301
 30
0.0
 10
91.28383379879362
 20
-135.5273003133404
 30
0.0
 10
91.15912134222758
 20
-135.5865559556867
 30
0.0
 10
91.24800480574703
 20
-135.6375433688684
 30
0.0
 10
91.40665145284278
 20
-135.7326280042613
 30
0.0
 10
91.40665145284278
 20
-135.9951442802373
 30
0.0
 10
91.40665145284278
 20
-136.3692816499355
 30
0.0
 10
91.12742646376329
 20
-136.4857258773369
 30
0.0
 10
90.88833683708695
 20
-136.4857258773369
 30
0.0
  0
SPLINE
  5
68
330
63
100
AcDbEntity
  8
_U+30EC_U+30A4_U+30E4_U+30FC 1
370
     0
100
AcDbSpline
210
0.0
220
0.0
230
1.0
 70
    11
 71
     3
 72
    17
 73
    13
 74
     0
 42
0.0000000001
 43
0.0000000001
 12
1.0
 22
0.0
 32
0.0
 13
1.0
 23
0.0
 33
0.0
 40
0.0
 40
0.0
 40
0.0
 40
0.0
 40
1.0
 40
1.0
 40
1.0
 40
2.0
 40
2.0
 40
2.0
 40
3.0
 40
3.0
 40
3.0
 40
4.0
 40
4.0
 40
4.0
 40
4.0
 10
90.88833683708695
 20
-135.6947319539235
 30
0.0
 10
90.74450410057777
 20
-135.6947319539235
 30
0.0
 10
90.59223088012972
 20
-135.7812038506033
 30
0.0
 10
90.59223088012972
 20
-135.9841199746845
 30
0.0
 10
90.59223088012972
 20
-136.1894476656054
 30
0.0
 10
90.71918264876118
 20
-136.2910779824203
 30
0.0
 10
90.88833683708695
 20
-136.2910779824203
 30
0.0
 10
91.07437199329044
 20
-136.2910779824203
 30
0.0
 10
91.18461504881843
 20
-136.1684325831454
 30
0.0
 10
91.18461504881843
 20
-135.9906656561065
 30
0.0
 10
91.18461504881843
 20
-135.7684569973079
 30
0.0
 10
91.02166203236612
 20
-135.6947319539235
 30
0.0
 10
90.88833683708695
 20
-135.6947319539235
 30
0.0
  0
SPLINE
  5
69
330
63
100
AcDbEntity
  8
_U+30EC_U+30A4_U+30E4_U+30FC 1
370
     0
100
AcDbSpline
210
0.0
220
0.0
230
1.0
 70
    11
 71
     3
 72
    17
 73
    13
 74
     0
 42
0.0000000001
 43
0.0000000001
 12
1.0
 22
0.0
 32
0.0
 13
1.0
 23
0.0
 33
0.0
 40
0.0
 40
0.0
 40
0.0
 40
0.0
 40
1.0
 40
1.0
 40
1.0
 40
2.0
 40
2.0
 40
2.0
 40
3.0
 40
3.0
 40
3.0
 40
4.0
 40
4.0
 40
4.0
 40
4.0
 10
90.88833683708695
 20
-135.0346516589497
 30
0.0
 10
90.72331676334348
 20
-135.0346516589497
 30
0.0
 10
90.6387396691806
 20
-135.1297362943426
 30
0.0
 10
90.6387396691806
 20
-135.2647840373644
 30
0.0
 10
90.6387396691806
 20
-135.3877739461878
 30
0.0
 10
90.71074216482232
 20
-135.5062852308804
 30
0.0
 10
90.88833683708695
 20
-135.5062852308804
 30
0.0
 10
91.06610376412584
 20
-135.5062852308804
 30
0.0
 10
91.13810625976757
 20
-135.3877739461878
 30
0.0
 10
91.13810625976757
 20
-135.2647840373644
 30
0.0
 10
91.13810625976757
 20
-135.1297362943426
 30
0.0
 10
91.05128985353926
 20
-135.0346516589497
 30
0.0
 10
90.88833683708695
 20
-135.0346516589497
 30
0.0
  0
HATCH
  5
6A
330
63
100
AcDbEntity
  8
_U+30EC_U+30A4_U+30E4_U+30FC 1
 62
   179
420
  2234388
100
AcDbHatch
 10
0.0
 20
0.0
 30
0.0
210
0.0
220
0.0
230
1.0
  2
SOLID
 70
     1
 71
     0
 91
        3
 92
        1
 93
        1
 72
     4
 94
        3
 73
     0
 74
     1
 95
       29
 96
       25
 40
0.0
 40
0.0
 40
0.0
 40
0.0
 40
1.0
 40
1.0
 40
1.0
 40
2.0
 40
2.0
 40
2.0
 40
3.0
 40
3.0
 40
3.0
 40
4.0
 40
4.0
 40
4.0
 40
5.0
 40
5.0
 40
5.0
 40
6.0
 40
6.0
 40
6.0
 40
7.0
 40
7.0
 40
7.0
 40
8.0
 40
8.0
 40
8.0
 40
8.0
 10
90.88833683708695
 20
-136.4857258773369
 10
90.62185870130287
 20
-136.4857258773369
 10
90.36795516403996
 20
-136.3479220579269
 10
90.36795516403996
 20
-135.9992783948196
 10
90.36795516403996
 20
-135.7429632907171
 10
90.509720843258
 20
-135.6478786553241
 10
90.61548527465516
 20
-135.5865559556867
 10
90.49060056331486
 20
-135.5273003133404
 10
90.41446395309083
 20
-135.4129231432301
 10
90.41446395309083
 20
-135.2523816936175
 10
90.41446395309083
 20
-134.9774630738945
 10
90.61341821736401
 20
-134.8417263117757
 10
90.88833683708695
 20
-134.8417263117757
 10
91.171868195523
 20
-134.8417263117757
 10
91.36238197585733
 20
-134.9857313030591
 10
91.36238197585733
 20
-135.2523816936175
 10
91.36238197585733
 20
-135.4129231432301
 10
91.28383379879362
 20
-135.5273003133404
 10
91.15912134222758
 20
-135.5865559556867
 10
91.24800480574703
 20
-135.6375433688684
 10
91.40665145284278
 20
-135.7326280042613
 10
91.40665145284278
 20
-135.9951442802373
 10
91.40665145284278
 20
-136.3692816499355
 10
91.12742646376329
 20
-136.4857258773369
 10
90.88833683708695
 20
-136.4857258773369
 97
        0
 97
        0
 92
        1
 93
        1
 72
     4
 94
        3
 73
     0
 74
     1
 95
       17
 96
       13
 40
0.0
 40
0.0
 40
0.0
 40
0.0
 40
1.0
 40
1.0
 40
1.0
 40
2.0
 40
2.0
 40
2.0
 40
3.0
 40
3.0
 40
3.0
 40
4.0
 40
4.0
 40
4.0
 40
4.0
 10
90.88833683708695
 20
-135.6947319539235
 10
90.74450410057777
 20
-135.6947319539235
 10
90.59223088012972
 20
-135.7812038506033
 10
90.59223088012972
 20
-135.9841199746845
 10
90.59223088012972
 20
-136.1894476656054
 10
90.71918264876118
 20
-136.2910779824203
 10
90.88833683708695
 20
-136.2910779824203
 10
91.07437199329044
 20
-136.2910779824203
 10
91.18461504881843
 20
-136.1684325831454
 10
91.18461504881843
 20
-135.9906656561065
 10
91.18461504881843
 20
-135.7684569973079
 10
91.02166203236612
 20
-135.6947319539235
 10
90.88833683708695
 20
-135.6947319539235
 97
        0
 97
        0
 92
        1
 93
        1
 72
     4
 94
        3
 73
     0
 74
     1
 95
       17
 96
       13
 40
0.0
 40
0.0
 40
0.0
 40
0.0
 40
1.0
 40
1.0
 40
1.0
 40
2.0
 40
2.0
 40
2.0
 40
3.0
 40
3.0
 40
3.0
 40
4.0
 40
4.0
 40
4.0
 40
4.0
 10
90.88833683708695
 20
-135.0346516589497
 10
90.72331676334348
 20
-135.0346516589497
 10
90.6387396691806
 20
-135.1297362943426
 10
90.6387396691806
 20
-135.2647840373644
 10
90.6387396691806
 20
-135.3877739461878
 10
90.71074216482232
 20
-135.5062852308804
 10
90.88833683708695
 20
-135.5062852308804
 10
91.06610376412584
 20
-135.5062852308804
 10
91.13810625976757
 20
-135.3877739461878
 10
91.13810625976757
 20
-135.2647840373644
 10
91.13810625976757
 20
-135.1297362943426
 10
91.05128985353926
 20
-135.0346516589497
 10
90.88833683708695
 20
-135.0346516589497
 97
        0
 97
        0
 75
     2
 76
     1
 98
        0
  0
ENDBLK
  5
66
330
63
100
AcDbEntity
  8
0
100
AcDbBlockEnd
  0
BLOCK
  5
6D
330
6B
100
AcDbEntity
  8
0
100
AcDbBlockBegin
  2
block 4
 70
     0
 10
0.0
 20
0.0
 30
0.0
  3
block 4
  1

  0
SPLINE
  5
6F
330
6B
100
AcDbEntity
  8
_U+30EC_U+30A4_U+30E4_U+30FC 1
370
     0
100
AcDbSpline
210
0.0
220
0.0
230
1.0
 70
    11
 71
     3
 72
    26
 73
    22
 74
     0
 42
0.0000000001
 43
0.0000000001
 12
1.0
 22
0.0
 32
0.0
 13
1.0
 23
0.0
 33
0.0
 40
0.0
 40
0.0
 40
0.0
 40
0.0
 40
1.0
 40
1.0
 40
1.0
 40
2.0
 40
2.0
 40
2.0
 40
3.0
 40
3.0
 40
3.0
 40
4.0
 40
4.0
 40
4.0
 40
5.0
 40
5.0
 40
5.0
 40
6.0
 40
6.0
 40
6.0
 40
7.0
 40
7.0
 40
7.0
 40
7.0
 10
78.75126544255177
 20
-136.4347384641552
 30
0.0
 10
78.75126544255177
 20
-136.4347384641552
 30
0.0
 10
78.75126544255177
 20
-135.3305853611326
 30
0.0
 10
78.75126544255177
 20
-135.3305853611326
 30
0.0
 10
78.75126544255177
 20
-135.3305853611326
 30
0.0
 10
78.42122529506483
 20
-135.3305853611326
 30
0.0
 10
78.42122529506483
 20
-135.3305853611326
 30
0.0
 10
78.42122529506483
 20
-135.3305853611326
 30
0.0
 10
78.42122529506483
 20
-135.1827907648154
 30
0.0
 10
78.42122529506483
 20
-135.1827907648154
 30
0.0
 10
78.75333249984293
 20
-135.1676323446803
 30
0.0
 10
78.79984128889379
 20
-135.0050238377765
 30
0.0
 10
78.82946911006694
 20
-134.8906466676662
 30
0.0
 10
78.82946911006694
 20
-134.8906466676662
 30
0.0
 10
78.97554115864153
 20
-134.8906466676662
 30
0.0
 10
78.97554115864153
 20
-134.8906466676662
 30
0.0
 10
78.97554115864153
 20
-134.8906466676662
 30
0.0
 10
78.97554115864153
 20
-136.4347384641552
 30
0.0
 10
78.97554115864153
 20
-136.4347384641552
 30
0.0
 10
78.97554115864153
 20
-136.4347384641552
 30
0.0
 10
78.75126544255177
 20
-136.4347384641552
 30
0.0
 10
78.75126544255177
 20
-136.4347384641552
 30
0.0
  0
HATCH
  5
70
330
6B
100
AcDbEntity
  8
_U+30EC_U+30A4_U+30E4_U+30FC 1
 62
   179
420
  2234388
100
AcDbHatch
 10
0.0
 20
0.0
 30
0.0
210
0.0
220
0.0
230
1.0
  2
SOLID
 70
     1
 71
     0
 91
        1
 92
        1
 93
        1
 72
     4
 94
        3
 73
     0
 74
     1
 95
       26
 96
       22
 40
0.0
 40
0.0
 40
0.0
 40
0.0
 40
1.0
 40
1.0
 40
1.0
 40
2.0
 40
2.0
 40
2.0
 40
3.0
 40
3.0
 40
3.0
 40
4.0
 40
4.0
 40
4.0
 40
5.0
 40
5.0
 40
5.0
 40
6.0
 40
6.0
 40
6.0
 40
7.0
 40
7.0
 40
7.0
 40
7.0
 10
78.75126544255177
 20
-136.4347384641552
 10
78.75126544255177
 20
-136.4347384641552
 10
78.75126544255177
 20
-135.3305853611326
 10
78.75126544255177
 20
-135.3305853611326
 10
78.75126544255177
 20
-135.3305853611326
 10
78.42122529506483
 20
-135.3305853611326
 10
78.42122529506483
 20
-135.3305853611326
 10
78.42122529506483
 20
-135.3305853611326
 10
78.42122529506483
 20
-135.1827907648154
 10
78.42122529506483
 20
-135.1827907648154
 10
78.75333249984293
 20
-135.1676323446803
 10
78.79984128889379
 20
-135.0050238377765
 10
78.82946911006694
 20
-134.8906466676662
 10
78.82946911006694
 20
-134.8906466676662
 10
78.97554115864153
 20
-134.8906466676662
 10
78.97554115864153
 20
-134.8906466676662
 10
78.97554115864153
 20
-134.8906466676662
 10
78.97554115864153
 20
-136.4347384641552
 10
78.97554115864153
 20
-136.4347384641552
 10
78.97554115864153
 20
-136.4347384641552
 10
78.75126544255177
 20
-136.4347384641552
 10
78.75126544255177
 20
-136.4347384641552
 97
        0
 97
        0
 75
     2
 76
     1
 98
        0
  0
SPLINE
  5
71
330
6B
100
AcDbEntity
  8
_U+30EC_U+30A4_U+30E4_U+30FC 1
370
     0
100
AcDbSpline
210
0.0
220
0.0
230
1.0
 70
    11
 71
     3
 72
    53
 73
    49
 74
     0
 42
0.0000000001
 43
0.0000000001
 12
1.0
 22
0.0
 32
0.0
 13
1.0
 23
0.0
 33
0.0
 40
0.0
 40
0.0
 40
0.0
 40
0.0
 40
1.0
 40
1.0
 40
1.0
 40
2.0
 40
2.0
 40
2.0
 40
3.0
 40
3.0
 40
3.0
 40
4.0
 40
4.0
 40
4.0
 40
5.0
 40
5.0
 40
5.0
 40
6.0
 40
6.0
 40
6.0
 40
7.0
 40
7.0
 40
7.0
 40
8.0
 40
8.0
 40
8.0
 40
9.0
 40
9.0
 40
9.0
 40
10.0
 40
10.0
 40
10.0
 40
11.0
 40
11.0
 40
11.0
 40
12.0
 40
12.0
 40
12.0
 40
13.0
 40
13.0
 40
13.0
 40
14.0
 40
14.0
 40
14.0
 40
15.0
 40
15.0
 40
15.0
 40
16.0
 40
16.0
 40
16.0
 40
16.0
 10
79.95773788148627
 20
-136.4857258773369
 30
0.0
 10
79.87936195919683
 20
-136.4857258773369
 30
0.0
 10
79.77790389715622
 20
-136.4685003999107
 30
0.0
 10
79.67627358034134
 20
-136.4051106429821
 30
0.0
 10
79.50281302265903
 20
-136.2952120970026
 30
0.0
 10
79.48162568542473
 20
-136.1639539590146
 30
0.0
 10
79.46267766025586
 20
-136.0564669798748
 30
0.0
 10
79.46267766025586
 20
-136.0564669798748
 30
0.0
 10
79.68471406428021
 20
-136.0564669798748
 30
0.0
 10
79.68471406428021
 20
-136.0564669798748
 30
0.0
 10
79.73983559204422
 20
-136.2549044798252
 30
0.0
 10
79.86678736067567
 20
-136.2845323009983
 30
0.0
 10
79.95980493877741
 20
-136.2845323009983
 30
0.0
 10
80.09933130593004
 20
-136.2845323009983
 30
0.0
 10
80.25177678115234
 20
-136.1853135510231
 30
0.0
 10
80.25177678115234
 20
-135.9524250962202
 30
0.0
 10
80.25177678115234
 20
-135.6967990112147
 30
0.0
 10
80.0719427968223
 20
-135.6268635728641
 30
0.0
 10
79.95136445483855
 20
-135.6268635728641
 30
0.0
 10
79.91966957637425
 20
-135.6268635728641
 30
0.0
 10
79.77790389715622
 20
-135.6268635728641
 30
0.0
 10
79.68902043363677
 20
-135.756054653561
 30
0.0
 10
79.68902043363677
 20
-135.756054653561
 30
0.0
 10
79.5134928186633
 20
-135.7367621188436
 30
0.0
 10
79.5134928186633
 20
-135.7367621188436
 30
0.0
 10
79.5134928186633
 20
-135.7367621188436
 30
0.0
 10
79.63407116064704
 20
-134.8906466676662
 30
0.0
 10
79.63407116064704
 20
-134.8906466676662
 30
0.0
 10
79.63407116064704
 20
-134.8906466676662
 30
0.0
 10
80.41249048553924
 20
-134.8906466676662
 30
0.0
 10
80.41249048553924
 20
-134.8906466676662
 30
0.0
 10
80.41249048553924
 20
-134.8906466676662
 30
0.0
 10
80.41249048553924
 20
-135.0852945625828
 30
0.0
 10
80.41249048553924
 20
-135.0852945625828
 30
0.0
 10
80.41249048553924
 20
-135.0852945625828
 30
0.0
 10
79.79685192232509
 20
-135.0852945625828
 30
0.0
 10
79.79685192232509
 20
-135.0852945625828
 30
0.0
 10
79.79685192232509
 20
-135.0852945625828
 30
0.0
 10
79.73139510810535
 20
-135.5083522881715
 30
0.0
 10
79.73139510810535
 20
-135.5083522881715
 30
0.0
 10
79.79271780774279
 20
-135.4742458428676
 30
0.0
 10
79.87522784461453
 20
-135.4342827352387
 30
0.0
 10
79.99356687453286
 20
-135.4342827352387
 30
0.0
 10
80.24747041179577
 20
-135.4342827352387
 30
0.0
 10
80.48449298118096
 20
-135.6203178914421
 30
0.0
 10
80.48449298118096
 20
-135.9334770710514
 30
0.0
 10
80.48449298118096
 20
-136.2507703652429
 30
0.0
 10
80.2602172650912
 20
-136.4857258773369
 30
0.0
 10
79.95773788148627
 20
-136.4857258773369
 30
0.0
  0
HATCH
  5
72
330
6B
100
AcDbEntity
  8
_U+30EC_U+30A4_U+30E4_U+30FC 1
 62
   179
420
  2234388
100
AcDbHatch
 10
0.0
 20
0.0
 30
0.0
210
0.0
220
0.0
230
1.0
  2
SOLID
 70
     1
 71
     0
 91
        1
 92
        1
 93
        1
 72
     4
 94
        3
 73
     0
 74
     1
 95
       53
 96
       49
 40
0.0
 40
0.0
 40
0.0
 40
0.0
 40
1.0
 40
1.0
 40
1.0
 40
2.0
 40
2.0
 40
2.0
 40
3.0
 40
3.0
 40
3.0
 40
4.0
 40
4.0
 40
4.0
 40
5.0
 40
5.0
 40
5.0
 40
6.0
 40
6.0
 40
6.0
 40
7.0
 40
7.0
 40
7.0
 40
8.0
 40
8.0
 40
8.0
 40
9.0
 40
9.0
 40
9.0
 40
10.0
 40
10.0
 40
10.0
 40
11.0
 40
11.0
 40
11.0
 40
12.0
 40
12.0
 40
12.0
 40
13.0
 40
13.0
 40
13.0
 40
14.0
 40
14.0
 40
14.0
 40
15.0
 40
15.0
 40
15.0
 40
16.0
 40
16.0
 40
16.0
 40
16.0
 10
79.95773788148627
 20
-136.4857258773369
 10
79.87936195919683
 20
-136.4857258773369
 10
79.77790389715622
 20
-136.4685003999107
 10
79.67627358034134
 20
-136.4051106429821
 10
79.50281302265903
 20
-136.2952120970026
 10
79.48162568542473
 20
-136.1639539590146
 10
79.46267766025586
 20
-136.0564669798748
 10
79.46267766025586
 20
-136.0564669798748
 10
79.68471406428021
 20
-136.0564669798748
 10
79.68471406428021
 20
-136.0564669798748
 10
79.73983559204422
 20
-136.2549044798252
 10
79.86678736067567
 20
-136.2845323009983
 10
79.95980493877741
 20
-136.2845323009983
 10
80.09933130593004
 20
-136.2845323009983
 10
80.25177678115234
 20
-136.1853135510231
 10
80.25177678115234
 20
-135.9524250962202
 10
80.25177678115234
 20
-135.6967990112147
 10
80.0719427968223
 20
-135.6268635728641
 10
79.95136445483855
 20
-135.6268635728641
 10
79.91966957637425
 20
-135.6268635728641
 10
79.77790389715622
 20
-135.6268635728641
 10
79.68902043363677
 20
-135.756054653561
 10
79.68902043363677
 20
-135.756054653561
 10
79.5134928186633
 20
-135.7367621188436
 10
79.5134928186633
 20
-135.7367621188436
 10
79.5134928186633
 20
-135.7367621188436
 10
79.63407116064704
 20
-134.8906466676662
 10
79.63407116064704
 20
-134.8906466676662
 10
79.63407116064704
 20
-134.8906466676662
 10
80.41249048553924
 20
-134.8906466676662
 10
80.41249048553924
 20
-134.8906466676662
 10
80.41249048553924
 20
-134.8906466676662
 10
80.41249048553924
 20
-135.0852945625828
 10
80.41249048553924
 20
-135.0852945625828
 10
80.41249048553924
 20
-135.0852945625828
 10
79.79685192232509
 20
-135.0852945625828
 10
79.79685192232509
 20
-135.0852945625828
 10
79.79685192232509
 20
-135.0852945625828
 10
79.73139510810535
 20
-135.5083522881715
 10
79.73139510810535
 20
-135.5083522881715
 10
79.79271780774279
 20
-135.4742458428676
 10
79.87522784461453
 20
-135.4342827352387
 10
79.99356687453286
 20
-135.4342827352387
 10
80.24747041179577
 20
-135.4342827352387
 10
80.48449298118096
 20
-135.6203178914421
 10
80.48449298118096
 20
-135.9334770710514
 10
80.48449298118096
 20
-136.2507703652429
 10
80.2602172650912
 20
-136.4857258773369
 10
79.95773788148627
 20
-136.4857258773369
 97
        0
 97
        0
 75
     2
 76
     1
 98
        0
  0
ENDBLK
  5
6E
330
6B
100
AcDbEntity
  8
0
100
AcDbBlockEnd
  0
BLOCK
  5
75
330
73
100
AcDbEntity
  8
0
100
AcDbBlockBegin
  2
block 5
 70
     0
 10
0.0
 20
0.0
 30
0.0
  3
block 5
  1

  0
SPLINE
  5
77
330
73
100
AcDbEntity
  8
_U+30EC_U+30A4_U+30E4_U+30FC 1
370
     0
100
AcDbSpline
210
0.0
220
0.0
230
1.0
 70
    11
 71
     3
 72
    26
 73
    22
 74
     0
 42
0.0000000001
 43
0.0000000001
 12
1.0
 22
0.0
 32
0.0
 13
1.0
 23
0.0
 33
0.0
 40
0.0
 40
0.0
 40
0.0
 40
0.0
 40
1.0
 40
1.0
 40
1.0
 40
2.0
 40
2.0
 40
2.0
 40
3.0
 40
3.0
 40
3.0
 40
4.0
 40
4.0
 40
4.0
 40
5.0
 40
5.0
 40
5.0
 40
6.0
 40
6.0
 40
6.0
 40
7.0
 40
7.0
 40
7.0
 40
7.0
 10
101.7512396664025
 20
-136.4347384641552
 30
0.0
 10
101.7512396664025
 20
-136.4347384641552
 30
0.0
 10
101.7512396664025
 20
-135.3305853611326
 30
0.0
 10
101.7512396664025
 20
-135.3305853611326
 30
0.0
 10
101.7512396664025
 20
-135.3305853611326
 30
0.0
 10
101.4211995189155
 20
-135.3305853611326
 30
0.0
 10
101.4211995189155
 20
-135.3305853611326
 30
0.0
 10
101.4211995189155
 20
-135.3305853611326
 30
0.0
 10
101.4211995189155
 20
-135.1827907648154
 30
0.0
 10
101.4211995189155
 20
-135.1827907648154
 30
0.0
 10
101.7533067236936
 20
-135.1676323446803
 30
0.0
 10
101.7998155127445
 20
-135.0050238377765
 30
0.0
 10
101.8294433339176
 20
-134.8906466676662
 30
0.0
 10
101.8294433339176
 20
-134.8906466676662
 30
0.0
 10
101.9755153824922
 20
-134.8906466676662
 30
0.0
 10
101.9755153824922
 20
-134.8906466676662
 30
0.0
 10
101.9755153824922
 20
-134.8906466676662
 30
0.0
 10
101.9755153824922
 20
-136.4347384641552
 30
0.0
 10
101.9755153824922
 20
-136.4347384641552
 30
0.0
 10
101.9755153824922
 20
-136.4347384641552
 30
0.0
 10
101.7512396664025
 20
-136.4347384641552
 30
0.0
 10
101.7512396664025
 20
-136.4347384641552
 30
0.0
  0
HATCH
  5
78
330
73
100
AcDbEntity
  8
_U+30EC_U+30A4_U+30E4_U+30FC 1
 62
   179
420
  2234388
100
AcDbHatch
 10
0.0
 20
0.0
 30
0.0
210
0.0
220
0.0
230
1.0
  2
SOLID
 70
     1
 71
     0
 91
        1
 92
        1
 93
        1
 72
     4
 94
        3
 73
     0
 74
     1
 95
       26
 96
       22
 40
0.0
 40
0.0
 40
0.0
 40
0.0
 40
1.0
 40
1.0
 40
1.0
 40
2.0
 40
2.0
 40
2.0
 40
3.0
 40
3.0
 40
3.0
 40
4.0
 40
4.0
 40
4.0
 40
5.0
 40
5.0
 40
5.0
 40
6.0
 40
6.0
 40
6.0
 40
7.0
 40
7.0
 40
7.0
 40
7.0
 10
101.7512396664025
 20
-136.4347384641552
 10
101.7512396664025
 20
-136.4347384641552
 10
101.7512396664025
 20
-135.3305853611326
 10
101.7512396664025
 20
-135.3305853611326
 10
101.7512396664025
 20
-135.3305853611326
 10
101.4211995189155
 20
-135.3305853611326
 10
101.4211995189155
 20
-135.3305853611326
 10
101.4211995189155
 20
-135.3305853611326
 10
101.4211995189155
 20
-135.1827907648154
 10
101.4211995189155
 20
-135.1827907648154
 10
101.7533067236936
 20
-135.1676323446803
 10
101.7998155127445
 20
-135.0050238377765
 10
101.8294433339176
 20
-134.8906466676662
 10
101.8294433339176
 20
-134.8906466676662
 10
101.9755153824922
 20
-134.8906466676662
 10
101.9755153824922
 20
-134.8906466676662
 10
101.9755153824922
 20
-134.8906466676662
 10
101.9755153824922
 20
-136.4347384641552
 10
101.9755153824922
 20
-136.4347384641552
 10
101.9755153824922
 20
-136.4347384641552
 10
101.7512396664025
 20
-136.4347384641552
 10
101.7512396664025
 20
-136.4347384641552
 97
        0
 97
        0
 75
     2
 76
     1
 98
        0
  0
SPLINE
  5
79
330
73
100
AcDbEntity
  8
_U+30EC_U+30A4_U+30E4_U+30FC 1
370
     0
100
AcDbSpline
210
0.0
220
0.0
230
1.0
 70
    11
 71
     3
 72
    53
 73
    49
 74
     0
 42
0.0000000001
 43
0.0000000001
 12
1.0
 22
0.0
 32
0.0
 13
1.0
 23
0.0
 33
0.0
 40
0.0
 40
0.0
 40
0.0
 40
0.0
 40
1.0
 40
1.0
 40
1.0
 40
2.0
 40
2.0
 40
2.0
 40
3.0
 40
3.0
 40
3.0
 40
4.0
 40
4.0
 40
4.0
 40
5.0
 40
5.0
 40
5.0
 40
6.0
 40
6.0
 40
6.0
 40
7.0
 40
7.0
 40
7.0
 40
8.0
 40
8.0
 40
8.0
 40
9.0
 40
9.0
 40
9.0
 40
10.0
 40
10.0
 40
10.0
 40
11.0
 40
11.0
 40
11.0
 40
12.0
 40
12.0
 40
12.0
 40
13.0
 40
13.0
 40
13.0
 40
14.0
 40
14.0
 40
14.0
 40
15.0
 40
15.0
 40
15.0
 40
16.0
 40
16.0
 40
16.0
 40
16.0
 10
102.957712105337
 20
-136.4857258773369
 30
0.0
 10
102.8795084378218
 20
-136.4857258773369
 30
0.0
 10
102.7778781210069
 20
-136.4685003999107
 30
0.0
 10
102.6762478041921
 20
-136.4051106429821
 30
0.0
 10
102.502959501284
 20
-136.2952120970026
 30
0.0
 10
102.4815999092754
 20
-136.1639539590146
 30
0.0
 10
102.4626518841066
 20
-136.0564669798748
 30
0.0
 10
102.4626518841066
 20
-136.0564669798748
 30
0.0
 10
102.6848605429052
 20
-136.0564669798748
 30
0.0
 10
102.6848605429052
 20
-136.0564669798748
 30
0.0
 10
102.7396375611206
 20
-136.2549044798252
 30
0.0
 10
102.8667615845264
 20
-136.2845323009983
 30
0.0
 10
102.9597791626281
 20
-136.2845323009983
 30
0.0
 10
103.0993055297807
 20
-136.2845323009983
 30
0.0
 10
103.2515787502288
 20
-136.1853135510231
 30
0.0
 10
103.2515787502288
 20
-135.9524250962202
 30
0.0
 10
103.2515787502288
 20
-135.6967990112147
 30
0.0
 10
103.0717447658987
 20
-135.6268635728641
 30
0.0
 10
102.951166423915
 20
-135.6268635728641
 30
0.0
 10
102.9194715454507
 20
-135.6268635728641
 30
0.0
 10
102.7778781210069
 20
-135.6268635728641
 30
0.0
 10
102.6889946574875
 20
-135.756054653561
 30
0.0
 10
102.6889946574875
 20
-135.756054653561
 30
0.0
 10
102.5132947877397
 20
-135.7367621188436
 30
0.0
 10
102.5132947877397
 20
-135.7367621188436
 30
0.0
 10
102.5132947877397
 20
-135.7367621188436
 30
0.0
 10
102.6338731297235
 20
-134.8906466676662
 30
0.0
 10
102.6338731297235
 20
-134.8906466676662
 30
0.0
 10
102.6338731297235
 20
-134.8906466676662
 30
0.0
 10
103.41246470939
 20
-134.8906466676662
 30
0.0
 10
103.41246470939
 20
-134.8906466676662
 30
0.0
 10
103.41246470939
 20
-134.8906466676662
 30
0.0
 10
103.41246470939
 20
-135.0852945625828
 30
0.0
 10
103.41246470939
 20
-135.0852945625828
 30
0.0
 10
103.41246470939
 20
-135.0852945625828
 30
0.0
 10
102.7968261461758
 20
-135.0852945625828
 30
0.0
 10
102.7968261461758
 20
-135.0852945625828
 30
0.0
 10
102.7968261461758
 20
-135.0852945625828
 30
0.0
 10
102.731369331956
 20
-135.5083522881715
 30
0.0
 10
102.731369331956
 20
-135.5083522881715
 30
0.0
 10
102.7926920315935
 20
-135.4742458428676
 30
0.0
 10
102.875029813691
 20
-135.4342827352387
 30
0.0
 10
102.9935410983836
 20
-135.4342827352387
 30
0.0
 10
103.2474446356465
 20
-135.4342827352387
 30
0.0
 10
103.4844672050317
 20
-135.6203178914421
 30
0.0
 10
103.4844672050317
 20
-135.9334770710514
 30
0.0
 10
103.4844672050317
 20
-136.2507703652429
 30
0.0
 10
103.2601914889419
 20
-136.4857258773369
 30
0.0
 10
102.957712105337
 20
-136.4857258773369
 30
0.0
  0
HATCH
  5
7A
330
73
100
AcDbEntity
  8
_U+30EC_U+30A4_U+30E4_U+30FC 1
 62
   179
420
  2234388
100
AcDbHatch
 10
0.0
 20
0.0
 30
0.0
210
0.0
220
0.0
230
1.0
  2
SOLID
 70
     1
 71
     0
 91
        1
 92
        1
 93
        1
 72
     4
 94
        3
 73
     0
 74
     1
 95
       53
 96
       49
 40
0.0
 40
0.0
 40
0.0
 40
0.0
 40
1.0
 40
1.0
 40
1.0
 40
2.0
 40
2.0
 40
2.0
 40
3.0
 40
3.0
 40
3.0
 40
4.0
 40
4.0
 40
4.0
 40
5.0
 40
5.0
 40
5.0
 40
6.0
 40
6.0
 40
6.0
 40
7.0
 40
7.0
 40
7.0
 40
8.0
 40
8.0
 40
8.0
 40
9.0
 40
9.0
 40
9.0
 40
10.0
 40
10.0
 40
10.0
 40
11.0
 40
11.0
 40
11.0
 40
12.0
 40
12.0
 40
12.0
 40
13.0
 40
13.0
 40
13.0
 40
14.0
 40
14.0
 40
14.0
 40
15.0
 40
15.0
 40
15.0
 40
16.0
 40
16.0
 40
16.0
 40
16.0
 10
102.957712105337
 20
-136.4857258773369
 10
102.8795084378218
 20
-136.4857258773369
 10
102.7778781210069
 20
-136.4685003999107
 10
102.6762478041921
 20
-136.4051106429821
 10
102.502959501284
 20
-136.2952120970026
 10
102.4815999092754
 20
-136.1639539590146
 10
102.4626518841066
 20
-136.0564669798748
 10
102.4626518841066
 20
-136.0564669798748
 10
102.6848605429052
 20
-136.0564669798748
 10
102.6848605429052
 20
-136.0564669798748
 10
102.7396375611206
 20
-136.2549044798252
 10
102.8667615845264
 20
-136.2845323009983
 10
102.9597791626281
 20
-136.2845323009983
 10
103.0993055297807
 20
-136.2845323009983
 10
103.2515787502288
 20
-136.1853135510231
 10
103.2515787502288
 20
-135.9524250962202
 10
103.2515787502288
 20
-135.6967990112147
 10
103.0717447658987
 20
-135.6268635728641
 10
102.951166423915
 20
-135.6268635728641
 10
102.9194715454507
 20
-135.6268635728641
 10
102.7778781210069
 20
-135.6268635728641
 10
102.6889946574875
 20
-135.756054653561
 10
102.6889946574875
 20
-135.756054653561
 10
102.5132947877397
 20
-135.7367621188436
 10
102.5132947877397
 20
-135.7367621188436
 10
102.5132947877397
 20
-135.7367621188436
 10
102.6338731297235
 20
-134.8906466676662
 10
102.6338731297235
 20
-134.8906466676662
 10
102.6338731297235
 20
-134.8906466676662
 10
103.41246470939
 20
-134.8906466676662
 10
103.41246470939
 20
-134.8906466676662
 10
103.41246470939
 20
-134.8906466676662
 10
103.41246470939
 20
-135.0852945625828
 10
103.41246470939
 20
-135.0852945625828
 10
103.41246470939
 20
-135.0852945625828
 10
102.7968261461758
 20
-135.0852945625828
 10
102.7968261461758
 20
-135.0852945625828
 10
102.7968261461758
 20
-135.0852945625828
 10
102.731369331956
 20
-135.5083522881715
 10
102.731369331956
 20
-135.5083522881715
 10
102.7926920315935
 20
-135.4742458428676
 10
102.875029813691
 20
-135.4342827352387
 10
102.9935410983836
 20
-135.4342827352387
 10
103.2474446356465
 20
-135.4342827352387
 10
103.4844672050317
 20
-135.6203178914421
 10
103.4844672050317
 20
-135.9334770710514
 10
103.4844672050317
 20
-136.2507703652429
 10
103.2601914889419
 20
-136.4857258773369
 10
102.957712105337
 20
-136.4857258773369
 97
        0
 97
        0
 75
     2
 76
     1
 98
        0
  0
ENDBLK
  5
76
330
73
100
AcDbEntity
  8
0
100
AcDbBlockEnd
  0
ENDSEC
  0
SECTION
  2
ENTITIES
  0
POLYLINE
  5
41
330
1F
100
AcDbEntity
  8
_U+30EC_U+30A4_U+30E4_U+30FC 1
 62
   179
420
  2234388
370
    25
100
AcDb2dPolyline
 66
     1
 10
0.0
 20
0.0
 30
0.0
  0
VERTEX
  5
42
330
41
100
AcDbEntity
  8
_U+30EC_U+30A4_U+30E4_U+30FC 1
 62
   179
420
  2234388
370
    25
100
AcDbVertex
100
AcDb2dVertex
 10
71.88880677707486
 20
-118.0775444149249
 30
0.0
  0
VERTEX
  5
43
330
41
100
AcDbEntity
  8
_U+30EC_U+30A4_U+30E4_U+30FC 1
 62
   179
420
  2234388
370
    25
100
AcDbVertex
100
AcDb2dVertex
 10
85.88865141990907
 20
-118.0775444149249
 30
0.0
  0
SEQEND
  5
44
330
41
100
AcDbEntity
  8
_U+30EC_U+30A4_U+30E4_U+30FC 1
 62
   179
420
  2234388
370
    25
  0
POLYLINE
  5
45
330
1F
100
AcDbEntity
  8
_U+30EC_U+30A4_U+30E4_U+30FC 1
 62
   179
420
  2234388
370
    25
100
AcDb2dPolyline
 66
     1
 10
0.0
 20
0.0
 30
0.0
  0
VERTEX
  5
46
330
45
100
AcDbEntity
  8
_U+30EC_U+30A4_U+30E4_U+30FC 1
 62
   179
420
  2234388
370
    25
100
AcDbVertex
100
AcDb2dVertex
 10
87.88851331333278
 20
-133.0774791333976
 30
0.0
  0
VERTEX
  5
47
330
45
100
AcDbEntity
  8
_U+30EC_U+30A4_U+30E4_U+30FC 1
 62
   179
420
  2234388
370
    25
100
AcDbVertex
100
AcDb2dVertex
 10
93.88848704914959
 20
-133.0774791333976
 30
0.0
  0
SEQEND
  5
48
330
45
100
AcDbEntity
  8
_U+30EC_U+30A4_U+30E4_U+30FC 1
 62
   179
420
  2234388
370
    25
  0
POLYLINE
  5
49
330
1F
100
AcDbEntity
  8
_U+30EC_U+30A4_U+30E4_U+30FC 1
 62
   179
420
  2234388
370
    25
100
AcDb2dPolyline
 66
     1
 10
0.0
 20
0.0
 30
0.0
  0
VERTEX
  5
4A
330
49
100
AcDbEntity
  8
_U+30EC_U+30A4_U+30E4_U+30FC 1
 62
   179
420
  2234388
370
    25
100
AcDbVertex
100
AcDb2dVertex
 10
94.88896480140305
 20
-119.0779869146748
 30
0.0
  0
VERTEX
  5
4B
330
49
100
AcDbEntity
  8
_U+30EC_U+30A4_U+30E4_U+30FC 1
 62
   179
420
  2234388
370
    25
100
AcDbVertex
100
AcDb2dVertex
 10
94.88896480140305
 20
-132.0777421892026
 30
0.0
  0
SEQEND
  5
4C
330
49
100
AcDbEntity
  8
_U+30EC_U+30A4_U+30E4_U+30FC 1
 62
   179
420
  2234388
370
    25
  0
POLYLINE
  5
4D
330
1F
100
AcDbEntity
  8
_U+30EC_U+30A4_U+30E4_U+30FC 1
 62
   179
420
  2234388
370
    25
100
AcDb2dPolyline
 66
     1
 10
0.0
 20
0.0
 30
0.0
  0
VERTEX
  5
4E
330
4D
100
AcDbEntity
  8
_U+30EC_U+30A4_U+30E4_U+30FC 1
 62
   179
420
  2234388
370
    25
100
AcDbVertex
100
AcDb2dVertex
 10
86.88874111661687
 20
-119.0779869146748
 30
0.0
  0
VERTEX
  5
4F
330
4D
100
AcDbEntity
  8
_U+30EC_U+30A4_U+30E4_U+30FC 1
 62
   179
420
  2234388
370
    25
100
AcDbVertex
100
AcDb2dVertex
 10
86.88874111661687
 20
-132.0777421892026
 30
0.0
  0
SEQEND
  5
50
330
4D
100
AcDbEntity
  8
_U+30EC_U+30A4_U+30E4_U+30FC 1
 62
   179
420
  2234388
370
    25
  0
POLYLINE
  5
51
330
1F
100
AcDbEntity
  8
_U+30EC_U+30A4_U+30E4_U+30FC 1
 62
   179
420
  2234388
370
    25
100
AcDb2dPolyline
 66
     1
 10
0.0
 20
0.0
 30
0.0
  0
VERTEX
  5
52
330
51
100
AcDbEntity
  8
_U+30EC_U+30A4_U+30E4_U+30FC 1
 62
   179
420
  2234388
370
    25
100
AcDbVertex
100
AcDb2dVertex
 10
95.88870172034208
 20
-118.0775444149249
 30
0.0
  0
VERTEX
  5
53
330
51
100
AcDbEntity
  8
_U+30EC_U+30A4_U+30E4_U+30FC 1
 62
   179
420
  2234388
370
    25
100
AcDbVertex
100
AcDb2dVertex
 10
109.8888991409451
 20
-118.0775444149249
 30
0.0
  0
SEQEND
  5
54
330
51
100
AcDbEntity
  8
_U+30EC_U+30A4_U+30E4_U+30FC 1
 62
   179
420
  2234388
370
    25
  0
SPLINE
  5
55
330
1F
100
AcDbEntity
  8
_U+30EC_U+30A4_U+30E4_U+30FC 1
 62
   179
420
  2234388
370
    25
100
AcDbSpline
210
0.0
220
0.0
230
1.0
 70
     8
 71
     3
 72
     8
 73
     4
 74
     0
 42
0.0000000001
 43
0.0000000001
 12
1.0
 22
0.0
 32
0.0
 13
1.0
 23
0.0
 33
0.0
 40
0.0
 40
0.0
 40
0.0
 40
0.0
 40
1.0
 40
1.0
 40
1.0
 40
1.0
 10
95.88870172034208
 20
-118.0775444149249
 30
0.0
 10
95.33611062332874
 20
-118.0775444149249
 30
0.0
 10
94.88896480140305
 20
-118.525395803702
 30
0.0
 10
94.88896480140305
 20
-119.0779869146748
 30
0.0
  0
SPLINE
  5
56
330
1F
100
AcDbEntity
  8
_U+30EC_U+30A4_U+30E4_U+30FC 1
 62
   179
420
  2234388
370
    25
100
AcDbSpline
210
0.0
220
0.0
230
1.0
 70
     8
 71
     3
 72
     8
 73
     4
 74
     0
 42
0.0000000001
 43
0.0000000001
 12
1.0
 22
0.0
 32
0.0
 13
1.0
 23
0.0
 33
0.0
 40
0.0
 40
0.0
 40
0.0
 40
0.0
 40
1.0
 40
1.0
 40
1.0
 40
1.0
 10
93.88848704914959
 20
-133.0774791333976
 30
0.0
 10
94.4410805319454
 20
-133.0774791333976
 30
0.0
 10
94.88896480140305
 20
-132.6303333001754
 30
0.0
 10
94.88896480140305
 20
-132.0777421892026
 30
0.0
  0
SPLINE
  5
57
330
1F
100
AcDbEntity
  8
_U+30EC_U+30A4_U+30E4_U+30FC 1
 62
   179
420
  2234388
370
    25
100
AcDbSpline
210
0.0
220
0.0
230
1.0
 70
     8
 71
     3
 72
     8
 73
     4
 74
     0
 42
0.0000000001
 43
0.0000000001
 12
1.0
 22
0.0
 32
0.0
 13
1.0
 23
0.0
 33
0.0
 40
0.0
 40
0.0
 40
0.0
 40
0.0
 40
1.0
 40
1.0
 40
1.0
 40
1.0
 10
86.88874111661687
 20
-132.0777421892026
 30
0.0
 10
86.88874111661687
 20
-132.6303333001754
 30
0.0
 10
87.336627771857
 20
-133.0774791333976
 30
0.0
 10
87.88851331333278
 20
-133.0774791333976
 30
0.0
  0
SPLINE
  5
58
330
1F
100
AcDbEntity
  8
_U+30EC_U+30A4_U+30E4_U+30FC 1
 62
   179
420
  2234388
370
    25
100
AcDbSpline
210
0.0
220
0.0
230
1.0
 70
     8
 71
     3
 72
     8
 73
     4
 74
     0
 42
0.0000000001
 43
0.0000000001
 12
1.0
 22
0.0
 32
0.0
 13
1.0
 23
0.0
 33
0.0
 40
0.0
 40
0.0
 40
0.0
 40
0.0
 40
1.0
 40
1.0
 40
1.0
 40
1.0
 10
86.88874111661687
 20
-119.0779869146748
 30
0.0
 10
86.88874111661687
 20
-118.525395803702
 30
0.0
 10
86.44088973915362
 20
-118.0775444149249
 30
0.0
 10
85.88865141990907
 20
-118.0775444149249
 30
0.0
  0
INSERT
  5
5A
330
1F
100
AcDbEntity
  8
_U+30EC_U+30A4_U+30E4_U+30FC 1
100
AcDbBlockReference
  2
block 2
 10
0.0
 20
0.0
 30
0.0
  0
SPLINE
  5
61
330
1F
100
AcDbEntity
  8
_U+30EC_U+30A4_U+30E4_U+30FC 1
 62
   179
420
  2234388
370
     9
100
AcDbSpline
210
0.0
220
0.0
230
1.0
 70
    11
 71
     3
 72
    17
 73
    13
 74
     0
 42
0.0000000001
 43
0.0000000001
 12
1.0
 22
0.0
 32
0.0
 13
1.0
 23
0.0
 33
0.0
 40
0.0
 40
0.0
 40
0.0
 40
0.0
 40
1.0
 40
1.0
 40
1.0
 40
2.0
 40
2.0
 40
2.0
 40
3.0
 40
3.0
 40
3.0
 40
4.0
 40
4.0
 40
4.0
 40
4.0
 10
98.9886305301452
 20
-133.0774791333976
 30
0.0
 10
98.9886305301452
 20
-133.022375244522
 30
0.0
 10
98.94382775351043
 20
-132.9775724667553
 30
0.0
 10
98.88872386602736
 20
-132.9775724667553
 30
0.0
 10
98.83358470076742
 20
-132.9775724667553
 30
0.0
 10
98.78881720190952
 20
-133.022375244522
 30
0.0
 10
98.78881720190952
 20
-133.0774791333976
 30
0.0
 10
98.78881720190952
 20
-133.133288577828
 30
0.0
 10
98.83358470076742
 20
-133.1780913555941
 30
0.0
 10
98.88872386602736
 20
-133.1780913555941
 30
0.0
 10
98.94382775351043
 20
-133.1780913555941
 30
0.0
 10
98.9886305301452
 20
-133.133288577828
 30
0.0
 10
98.9886305301452
 20
-133.0774791333976
 30
0.0
  0
SPLINE
  5
62
330
1F
100
AcDbEntity
  8
_U+30EC_U+30A4_U+30E4_U+30FC 1
 62
   179
420
  2234388
370
     9
100
AcDbSpline
210
0.0
220
0.0
230
1.0
 70
    11
 71
     3
 72
    17
 73
    13
 74
     0
 42
0.0000000001
 43
0.0000000001
 12
1.0
 22
0.0
 32
0.0
 13
1.0
 23
0.0
 33
0.0
 40
0.0
 40
0.0
 40
0.0
 40
0.0
 40
1.0
 40
1.0
 40
1.0
 40
2.0
 40
2.0
 40
2.0
 40
3.0
 40
3.0
 40
3.0
 40
4.0
 40
4.0
 40
4.0
 40
4.0
 10
98.9886305301452
 20
-118.0775444149249
 30
0.0
 10
98.9886305301452
 20
-118.02244052605
 30
0.0
 10
98.94382775351043
 20
-117.9776377482833
 30
0.0
 10
98.88872386602736
 20
-117.9776377482833
 30
0.0
 10
98.83358470076742
 20
-117.9776377482833
 30
0.0
 10
98.78881720190952
 20
-118.02244052605
 30
0.0
 10
98.78881720190952
 20
-118.0775444149249
 30
0.0
 10
98.78881720190952
 20
-118.1333538593557
 30
0.0
 10
98.83358470076742
 20
-118.1781566371221
 30
0.0
 10
98.88872386602736
 20
-118.1781566371221
 30
0.0
 10
98.94382775351043
 20
-118.1781566371221
 30
0.0
 10
98.9886305301452
 20
-118.1333538593557
 30
0.0
 10
98.9886305301452
 20
-118.0775444149249
 30
0.0
  0
INSERT
  5
64
330
1F
100
AcDbEntity
  8
_U+30EC_U+30A4_U+30E4_U+30FC 1
100
AcDbBlockReference
  2
block 3
 10
0.0
 20
0.0
 30
0.0
  0
INSERT
  5
6C
330
1F
100
AcDbEntity
  8
_U+30EC_U+30A4_U+30E4_U+30FC 1
100
AcDbBlockReference
  2
block 4
 10
0.0
 20
0.0
 30
0.0
  0
INSERT
  5
74
330
1F
100
AcDbEntity
  8
_U+30EC_U+30A4_U+30E4_U+30FC 1
100
AcDbBlockReference
  2
block 5
 10
0.0
 20
0.0
 30
0.0
  0
SPLINE
  5
7B
330
1F
100
AcDbEntity
  8
_U+30EC_U+30A4_U+30E4_U+30FC 1
 62
   179
420
  2234388
370
     9
100
AcDbSpline
210
0.0
220
0.0
230
1.0
 70
    11
 71
     3
 72
    17
 73
    13
 74
     0
 42
0.0000000001
 43
0.0000000001
 12
1.0
 22
0.0
 32
0.0
 13
1.0
 23
0.0
 33
0.0
 40
0.0
 40
0.0
 40
0.0
 40
0.0
 40
1.0
 40
1.0
 40
1.0
 40
2.0
 40
2.0
 40
2.0
 40
3.0
 40
3.0
 40
3.0
 40
4.0
 40
4.0
 40
4.0
 40
4.0
 10
71.98871344119269
 20
-137.0806955212852
 30
0.0
 10
71.98871344119269
 20
-137.0255563546327
 30
0.0
 10
71.94391066455793
 20
-136.9807888546435
 30
0.0
 10
71.88880677707486
 20
-136.9807888546435
 30
0.0
 10
71.83366942648588
 20
-136.9807888546435
 30
0.0
 10
71.78890011295702
 20
-137.0255563546327
 30
0.0
 10
71.78890011295702
 20
-137.0806955212852
 30
0.0
 10
71.78890011295702
 20
-137.1357994101607
 30
0.0
 10
71.83366942648588
 20
-137.1806021879268
 30
0.0
 10
71.88880677707486
 20
-137.1806021879268
 30
0.0
 10
71.94391066455793
 20
-137.1806021879268
 30
0.0
 10
71.98871344119269
 20
-137.1357994101607
 30
0.0
 10
71.98871344119269
 20
-137.0806955212852
 30
0.0
  0
SPLINE
  5
7C
330
1F
100
AcDbEntity
  8
_U+30EC_U+30A4_U+30E4_U+30FC 1
 62
   179
420
  2234388
370
     9
100
AcDbSpline
210
0.0
220
0.0
230
1.0
 70
    11
 71
     3
 72
    17
 73
    13
 74
     0
 42
0.0000000001
 43
0.0000000001
 12
1.0
 22
0.0
 32
0.0
 13
1.0
 23
0.0
 33
0.0
 40
0.0
 40
0.0
 40
0.0
 40
0.0
 40
1.0
 40
1.0
 40
1.0
 40
2.0
 40
2.0
 40
2.0
 40
3.0
 40
3.0
 40
3.0
 40
4.0
 40
4.0
 40
4.0
 40
4.0
 10
109.9888058050629
 20
-137.0806955212852
 30
0.0
 10
109.9888058050629
 20
-137.0255563546327
 30
0.0
 10
109.9440030284281
 20
-136.9807888546435
 30
0.0
 10
109.8888991409451
 20
-136.9807888546435
 30
0.0
 10
109.8337599756851
 20
-136.9807888546435
 30
0.0
 10
109.7889924768272
 20
-137.0255563546327
 30
0.0
 10
109.7889924768272
 20
-137.0806955212852
 30
0.0
 10
109.7889924768272
 20
-137.1357994101607
 30
0.0
 10
109.8337599756851
 20
-137.1806021879268
 30
0.0
 10
109.8888991409451
 20
-137.1806021879268
 30
0.0
 10
109.9440030284281
 20
-137.1806021879268
 30
0.0
 10
109.9888058050629
 20
-137.1357994101607
 30
0.0
 10
109.9888058050629
 20
-137.0806955212852
 30
0.0
  0
SPLINE
  5
7D
330
1F
100
AcDbEntity
  8
_U+30EC_U+30A4_U+30E4_U+30FC 1
 62
   179
420
  2234388
370
     9
100
AcDbSpline
210
0.0
220
0.0
230
1.0
 70
    11
 71
     3
 72
    17
 73
    13
 74
     0
 42
0.0000000001
 43
0.0000000001
 12
1.0
 22
0.0
 32
0.0
 13
1.0
 23
0.0
 33
0.0
 40
0.0
 40
0.0
 40
0.0
 40
0.0
 40
1.0
 40
1.0
 40
1.0
 40
2.0
 40
2.0
 40
2.0
 40
3.0
 40
3.0
 40
3.0
 40
4.0
 40
4.0
 40
4.0
 40
4.0
 10
86.98864997825297
 20
-137.0806955212852
 30
0.0
 10
86.98864997825297
 20
-137.0255563546327
 30
0.0
 10
86.94388028187682
 20
-136.9807888546435
 30
0.0
 10
86.88874111661687
 20
-136.9807888546435
 30
0.0
 10
86.8336372291338
 20
-136.9807888546435
 30
0.0
 10
86.78883445249903
 20
-137.0255563546327
 30
0.0
 10
86.78883445249903
 20
-137.0806955212852
 30
0.0
 10
86.78883445249903
 20
-137.1357994101607
 30
0.0
 10
86.8336372291338
 20
-137.1806021879268
 30
0.0
 10
86.88874111661687
 20
-137.1806021879268
 30
0.0
 10
86.94388028187682
 20
-137.1806021879268
 30
0.0
 10
86.98864997825297
 20
-137.1357994101607
 30
0.0
 10
86.98864997825297
 20
-137.0806955212852
 30
0.0
  0
SPLINE
  5
7E
330
1F
100
AcDbEntity
  8
_U+30EC_U+30A4_U+30E4_U+30FC 1
 62
   179
420
  2234388
370
     9
100
AcDbSpline
210
0.0
220
0.0
230
1.0
 70
    11
 71
     3
 72
    17
 73
    13
 74
     0
 42
0.0000000001
 43
0.0000000001
 12
1.0
 22
0.0
 32
0.0
 13
1.0
 23
0.0
 33
0.0
 40
0.0
 40
0.0
 40
0.0
 40
0.0
 40
1.0
 40
1.0
 40
1.0
 40
2.0
 40
2.0
 40
2.0
 40
3.0
 40
3.0
 40
3.0
 40
4.0
 40
4.0
 40
4.0
 40
4.0
 10
94.98887146552089
 20
-137.0806955212852
 30
0.0
 10
94.98887146552089
 20
-137.0255563546327
 30
0.0
 10
94.94406868888612
 20
-136.9807888546435
 30
0.0
 10
94.88896480140305
 20
-136.9807888546435
 30
0.0
 10
94.8338256361431
 20
-136.9807888546435
 30
0.0
 10
94.78905813728521
 20
-137.0255563546327
 30
0.0
 10
94.78905813728521
 20
-137.0806955212852
 30
0.0
 10
94.78905813728521
 20
-137.1357994101607
 30
0.0
 10
94.8338256361431
 20
-137.1806021879268
 30
0.0
 10
94.88896480140305
 20
-137.1806021879268
 30
0.0
 10
94.94406868888612
 20
-137.1806021879268
 30
0.0
 10
94.98887146552089
 20
-137.1357994101607
 30
0.0
 10
94.98887146552089
 20
-137.0806955212852
 30
0.0
  0
POLYLINE
  5
7F
330
1F
100
AcDbEntity
  8
_U+30EC_U+30A4_U+30E4_U+30FC 1
 62
   179
420
  2234388
370
     9
100
AcDb2dPolyline
 66
     1
 10
0.0
 20
0.0
 30
0.0
  0
VERTEX
  5
80
330
7F
100
AcDbEntity
  8
_U+30EC_U+30A4_U+30E4_U+30FC 1
 62
   179
420
  2234388
370
     9
100
AcDbVertex
100
AcDb2dVertex
 10
86.88874111661687
 20
-137.0806955212852
 30
0.0
  0
VERTEX
  5
81
330
7F
100
AcDbEntity
  8
_U+30EC_U+30A4_U+30E4_U+30FC 1
 62
   179
420
  2234388
370
     9
100
AcDbVertex
100
AcDb2dVertex
 10
94.88896480140305
 20
-137.0806955212852
 30
0.0
  0
SEQEND
  5
82
330
7F
100
AcDbEntity
  8
_U+30EC_U+30A4_U+30E4_U+30FC 1
 62
   179
420
  2234388
370
     9
  0
POLYLINE
  5
83
330
1F
100
AcDbEntity
  8
_U+30EC_U+30A4_U+30E4_U+30FC 1
 62
   179
420
  2234388
370
     9
100
AcDb2dPolyline
 66
     1
 10
0.0
 20
0.0
 30
0.0
  0
VERTEX
  5
84
330
83
100
AcDbEntity
  8
_U+30EC_U+30A4_U+30E4_U+30FC 1
 62
   179
420
  2234388
370
     9
100
AcDbVertex
100
AcDb2dVertex
 10
86.88874111661687
 20
-135.6199838549841
 30
0.0
  0
VERTEX
  5
85
330
83
100
AcDbEntity
  8
_U+30EC_U+30A4_U+30E4_U+30FC 1
 62
   179
420
  2234388
370
     9
100
AcDbVertex
100
AcDb2dVertex
 10
86.88874111661687
 20
-138.0804677432577
 30
0.0
  0
SEQEND
  5
86
330
83
100
AcDbEntity
  8
_U+30EC_U+30A4_U+30E4_U+30FC 1
 62
   179
420
  2234388
370
     9
  0
POLYLINE
  5
87
330
1F
100
AcDbEntity
  8
_U+30EC_U+30A4_U+30E4_U+30FC 1
 62
   179
420
  2234388
370
     9
100
AcDb2dPolyline
 66
     1
 10
0.0
 20
0.0
 30
0.0
  0
VERTEX
  5
88
330
87
100
AcDbEntity
  8
_U+30EC_U+30A4_U+30E4_U+30FC 1
 62
   179
420
  2234388
370
     9
100
AcDbVertex
100
AcDb2dVertex
 10
94.88896480140305
 20
-135.6199838549841
 30
0.0
  0
VERTEX
  5
89
330
87
100
AcDbEntity
  8
_U+30EC_U+30A4_U+30E4_U+30FC 1
 62
   179
420
  2234388
370
     9
100
AcDbVertex
100
AcDb2dVertex
 10
94.88896480140305
 20
-138.0804677432577
 30
0.0
  0
SEQEND
  5
8A
330
87
100
AcDbEntity
  8
_U+30EC_U+30A4_U+30E4_U+30FC 1
 62
   179
420
  2234388
370
     9
  0
POLYLINE
  5
8B
330
1F
100
AcDbEntity
  8
_U+30EC_U+30A4_U+30E4_U+30FC 1
 62
   179
420
  2234388
370
     9
100
AcDb2dPolyline
 66
     1
 10
0.0
 20
0.0
 30
0.0
  0
VERTEX
  5
8C
330
8B
100
AcDbEntity
  8
_U+30EC_U+30A4_U+30E4_U+30FC 1
 62
   179
420
  2234388
370
     9
100
AcDbVertex
100
AcDb2dVertex
 10
71.88880677707486
 20
-137.0806955212852
 30
0.0
  0
VERTEX
  5
8D
330
8B
100
AcDbEntity
  8
_U+30EC_U+30A4_U+30E4_U+30FC 1
 62
   179
420
  2234388
370
     9
100
AcDbVertex
100
AcDb2dVertex
 10
86.88874111661687
 20
-137.0806955212852
 30
0.0
  0
SEQEND
  5
8E
330
8B
100
AcDbEntity
  8
_U+30EC_U+30A4_U+30E4_U+30FC 1
 62
   179
420
  2234388
370
     9
  0
POLYLINE
  5
8F
330
1F
100
AcDbEntity
  8
_U+30EC_U+30A4_U+30E4_U+30FC 1
 62
   179
420
  2234388
370
     9
100
AcDb2dPolyline
 66
     1
 10
0.0
 20
0.0
 30
0.0
  0
VERTEX
  5
90
330
8F
100
AcDbEntity
  8
_U+30EC_U+30A4_U+30E4_U+30FC 1
 62
   179
420
  2234388
370
     9
100
AcDbVertex
100
AcDb2dVertex
 10
71.88880677707486
 20
-134.6202116330115
 30
0.0
  0
VERTEX
  5
91
330
8F
100
AcDbEntity
  8
_U+30EC_U+30A4_U+30E4_U+30FC 1
 62
   179
420
  2234388
370
     9
100
AcDbVertex
100
AcDb2dVertex
 10
71.88880677707486
 20
-138.0804677432577
 30
0.0
  0
SEQEND
  5
92
330
8F
100
AcDbEntity
  8
_U+30EC_U+30A4_U+30E4_U+30FC 1
 62
   179
420
  2234388
370
     9
  0
POLYLINE
  5
93
330
1F
100
AcDbEntity
  8
_U+30EC_U+30A4_U+30E4_U+30FC 1
 62
   179
420
  2234388
370
     9
100
AcDb2dPolyline
 66
     1
 10
0.0
 20
0.0
 30
0.0
  0
VERTEX
  5
94
330
93
100
AcDbEntity
  8
_U+30EC_U+30A4_U+30E4_U+30FC 1
 62
   179
420
  2234388
370
     9
100
AcDbVertex
100
AcDb2dVertex
 10
94.88896480140305
 20
-137.0806955212852
 30
0.0
  0
VERTEX
  5
95
330
93
100
AcDbEntity
  8
_U+30EC_U+30A4_U+30E4_U+30FC 1
 62
   179
420
  2234388
370
     9
100
AcDbVertex
100
AcDb2dVertex
 10
109.8888991409451
 20
-137.0806955212852
 30
0.0
  0
SEQEND
  5
96
330
93
100
AcDbEntity
  8
_U+30EC_U+30A4_U+30E4_U+30FC 1
 62
   179
420
  2234388
370
     9
  0
POLYLINE
  5
97
330
1F
100
AcDbEntity
  8
_U+30EC_U+30A4_U+30E4_U+30FC 1
 62
   179
420
  2234388
370
     9
100
AcDb2dPolyline
 66
     1
 10
0.0
 20
0.0
 30
0.0
  0
VERTEX
  5
98
330
97
100
AcDbEntity
  8
_U+30EC_U+30A4_U+30E4_U+30FC 1
 62
   179
420
  2234388
370
     9
100
AcDbVertex
100
AcDb2dVertex
 10
109.8888991409451
 20
-134.6202116330115
 30
0.0
  0
VERTEX
  5
99
330
97
100
AcDbEntity
  8
_U+30EC_U+30A4_U+30E4_U+30FC 1
 62
   179
420
  2234388
370
     9
100
AcDbVertex
100
AcDb2dVertex
 10
109.8888991409451
 20
-138.0804677432577
 30
0.0
  0
SEQEND
  5
9A
330
97
100
AcDbEntity
  8
_U+30EC_U+30A4_U+30E4_U+30FC 1
 62
   179
420
  2234388
370
     9
  0
POLYLINE
  5
9B
330
1F
100
AcDbEntity
  8
_U+30EC_U+30A4_U+30E4_U+30FC 1
 62
   179
420
  2234388
370
     9
100
AcDb2dPolyline
 66
     1
 10
0.0
 20
0.0
 30
0.0
  0
VERTEX
  5
9C
330
9B
100
AcDbEntity
  8
_U+30EC_U+30A4_U+30E4_U+30FC 1
 62
   179
420
  2234388
370
     9
100
AcDbVertex
100
AcDb2dVertex
 10
98.88872386602736
 20
-133.0774791333976
 30
0.0
  0
VERTEX
  5
9D
330
9B
100
AcDbEntity
  8
_U+30EC_U+30A4_U+30E4_U+30FC 1
 62
   179
420
  2234388
370
     9
100
AcDbVertex
100
AcDb2dVertex
 10
98.88872386602736
 20
-118.0775444149249
 30
0.0
  0
SEQEND
  5
9E
330
9B
100
AcDbEntity
  8
_U+30EC_U+30A4_U+30E4_U+30FC 1
 62
   179
420
  2234388
370
     9
  0
POLYLINE
  5
9F
330
1F
100
AcDbEntity
  8
_U+30EC_U+30A4_U+30E4_U+30FC 1
 62
   179
420
  2234388
370
     9
100
AcDb2dPolyline
 66
     1
 10
0.0
 20
0.0
 30
0.0
  0
VERTEX
  5
A0
330
9F
100
AcDbEntity
  8
_U+30EC_U+30A4_U+30E4_U+30FC 1
 62
   179
420
  2234388
370
     9
100
AcDbVertex
100
AcDb2dVertex
 10
96.42891031767132
 20
-133.0774791333976
 30
0.0
  0
VERTEX
  5
A1
330
9F
100
AcDbEntity
  8
_U+30EC_U+30A4_U+30E4_U+30FC 1
 62
   179
420
  2234388
370
     9
100
AcDbVertex
100
AcDb2dVertex
 10
99.8884607849664
 20
-133.0774791333976
 30
0.0
  0
SEQEND
  5
A2
330
9F
100
AcDbEntity
  8
_U+30EC_U+30A4_U+30E4_U+30FC 1
 62
   179
420
  2234388
370
     9
  0
ENDSEC
  0
SECTION
  2
OBJECTS
  0
DICTIONARY
  5
C
330
0
100
AcDbDictionary
281
     1
  3
ACAD_GROUP
350
D
  3
ACAD_LAYOUT
350
1A
  3
ACAD_MATERIAL
350
3B
  3
ACAD_MLEADERSTYLE
350
A4
  3
ACAD_MLINESTYLE
350
17
  3
ACAD_PLOTSETTINGS
350
19
  3
ACAD_PLOTSTYLENAME
350
E
  3
ACAD_TABLESTYLE
350
A3
  3
ACAD_VISUALSTYLE
350
2A
  0
SUN
  5
3F
330
29
100
AcDbSun
 90
        1
290
     0
 63
     7
421
 16777215
 40
1.0
291
     1
 91
  2455826
 92
 54000000
292
     0
 70
     2
 71
   256
280
     1
  0
DICTIONARY
  5
D
102
{ACAD_REACTORS
330
C
102
}
330
C
100
AcDbDictionary
281
     1
  0
DICTIONARY
  5
1A
102
{ACAD_REACTORS
330
C
102
}
330
C
100
AcDbDictionary
281
     1
  3
Layout1
350
1E
  3
Layout2
350
26
  3
Model
350
22
  0
DICTIONARY
  5
3B
102
{ACAD_REACTORS
330
C
102
}
330
C
100
AcDbDictionary
281
     1
  3
ByBlock
350
3D
  3
ByLayer
350
3C
  3
Global
350
3E
  0
DICTIONARY
  5
A4
102
{ACAD_REACTORS
330
C
102
}
330
C
100
AcDbDictionary
281
     1
  0
DICTIONARY
  5
17
102
{ACAD_REACTORS
330
C
102
}
330
C
100
AcDbDictionary
281
     1
  3
Standard
350
18
  0
DICTIONARY
  5
19
102
{ACAD_REACTORS
330
C
102
}
330
C
100
AcDbDictionary
281
     1
  0
ACDBDICTIONARYWDFLT
  5
E
102
{ACAD_REACTORS
330
C
102
}
330
C
100
AcDbDictionary
281
     1
  3
Normal
350
F
100
AcDbDictionaryWithDefault
340
F
  0
DICTIONARY
  5
A3
102
{ACAD_REACTORS
330
C
102
}
330
C
100
AcDbDictionary
281
     1
  0
DICTIONARY
  5
2A
102
{ACAD_REACTORS
330
C
102
}
330
C
100
AcDbDictionary
281
     1
  3
2dWireframe
350
2F
  3
3D Hidden
350
31
  3
3dWireframe
350
30
  3
Basic
350
32
  3
Brighten
350
36
  3
ColorChange
350
3A
  3
Conceptual
350
34
  3
Dim
350
35
  3
Facepattern
350
39
  3
Flat
350
2B
  3
FlatWithEdges
350
2C
  3
Gouraud
350
2D
  3
GouraudWithEdges
350
2E
  3
Linepattern
350
38
  3
Realistic
350
33
  3
Thicken
350
37
  0
LAYOUT
  5
1E
102
{ACAD_REACTORS
330
1A
102
}
330
1A
100
AcDbPlotSettings
  1

  2
none_device
  4

  6

 40
0.0
 41
0.0
 42
0.0
 43
0.0
 44
0.0
 45
0.0
 46
0.0
 47
0.0
 48
0.0
 49
0.0
140
0.0
141
0.0
142
1.0
143
1.0
 70
   688
 72
     0
 73
     0
 74
     5
  7

 75
    16
 76
     0
 77
     2
 78
   300
147
1.0
148
0.0
149
0.0
100
AcDbLayout
  1
Layout1
 70
     1
 71
     1
 10
0.0
 20
0.0
 11
12.0
 21
9.0
 12
0.0
 22
0.0
 32
0.0
 14
1.000000000000000E+20
 24
1.000000000000000E+20
 34
1.000000000000000E+20
 15
-1.000000000000000E+20
 25
-1.000000000000000E+20
 35
-1.000000000000000E+20
146
0.0
 13
0.0
 23
0.0
 33
0.0
 16
1.0
 26
0.0
 36
0.0
 17
0.0
 27
1.0
 37
0.0
 76
     0
330
1B
  0
LAYOUT
  5
26
102
{ACAD_REACTORS
330
1A
102
}
330
1A
100
AcDbPlotSettings
  1

  2
none_device
  4

  6

 40
0.0
 41
0.0
 42
0.0
 43
0.0
 44
0.0
 45
0.0
 46
0.0
 47
0.0
 48
0.0
 49
0.0
140
0.0
141
0.0
142
1.0
143
1.0
 70
   688
 72
     0
 73
     0
 74
     5
  7

 75
    16
 76
     0
 77
     2
 78
   300
147
1.0
148
0.0
149
0.0
100
AcDbLayout
  1
Layout2
 70
     1
 71
     2
 10
0.0
 20
0.0
 11
0.0
 21
0.0
 12
0.0
 22
0.0
 32
0.0
 14
0.0
 24
0.0
 34
0.0
 15
0.0
 25
0.0
 35
0.0
146
0.0
 13
0.0
 23
0.0
 33
0.0
 16
1.0
 26
0.0
 36
0.0
 17
0.0
 27
1.0
 37
0.0
 76
     0
330
23
  0
LAYOUT
  5
22
102
{ACAD_REACTORS
330
1A
102
}
330
1A
100
AcDbPlotSettings
  1

  2
none_device
  4

  6

 40
0.0
 41
0.0
 42
0.0
 43
0.0
 44
0.0
 45
0.0
 46
0.0
 47
0.0
 48
0.0
 49
0.0
140
0.0
141
0.0
142
1.0
143
1.0
 70
  1712
 72
     0
 73
     0
 74
     0
  7

 75
     0
 76
     0
 77
     2
 78
   300
147
1.0
148
0.0
149
0.0
100
AcDbLayout
  1
Model
 70
     1
 71
     0
 10
0.0
 20
0.0
 11
12.0
 21
9.0
 12
0.0
 22
0.0
 32
0.0
 14
1.000000000000000E+20
 24
1.000000000000000E+20
 34
1.000000000000000E+20
 15
-1.000000000000000E+20
 25
-1.000000000000000E+20
 35
-1.000000000000000E+20
146
0.0
 13
0.0
 23
0.0
 33
0.0
 16
1.0
 26
0.0
 36
0.0
 17
0.0
 27
1.0
 37
0.0
 76
     0
330
1F
331
29
  0
MATERIAL
  5
3D
102
{ACAD_REACTORS
330
3B
102
}
330
3B
100
AcDbMaterial
  1
ByBlock
 72
     1
 94
      127
  0
MATERIAL
  5
3C
102
{ACAD_REACTORS
330
3B
102
}
330
3B
100
AcDbMaterial
  1
ByLayer
 72
     1
 94
      127
  0
MATERIAL
  5
3E
102
{ACAD_REACTORS
330
3B
102
}
330
3B
100
AcDbMaterial
  1
Global
 72
     1
 94
      127
  0
MLINESTYLE
  5
18
102
{ACAD_REACTORS
330
17
102
}
330
17
100
AcDbMlineStyle
  2
Standard
 70
     0
  3

 62
   256
 51
90.0
 52
90.0
 71
     2
 49
0.5
 62
   256
  6
BYLAYER
 49
-0.5
 62
   256
  6
BYLAYER
  0
ACDBPLACEHOLDER
  5
F
102
{ACAD_REACTORS
330
E
102
}
330
E
  0
VISUALSTYLE
  5
2F
102
{ACAD_REACTORS
330
2A
102
}
330
2A
100
AcDbVisualStyle
  2
2dWireframe
 70
     4
177
     2
291
     0
 71
     0
176
     1
 72
     2
176
     1
 73
     0
176
     1
 90
        0
176
     1
 40
-0.6
176
     1
 41
-30.0
176
     1
 62
     5
 63
     7
421
 16777215
176
     1
 74
     1
176
     1
 91
        4
176
     1
 64
     7
176
     1
 65
   257
176
     1
 75
     1
176
     1
175
     1
176
     1
 42
1.0
176
     1
 92
        0
176
     1
 66
   257
176
     1
 43
1.0
176
     1
 76
     1
176
     1
 77
     6
176
     1
 78
     2
176
     1
 67
     7
176
     1
 79
     5
176
     1
170
     0
176
     1
171
     0
176
     1
290
     0
176
     1
 93
        1
176
     1
 44
0.0
176
     1
173
     0
176
     1
  0
VISUALSTYLE
  5
31
102
{ACAD_REACTORS
330
2A
102
}
330
2A
100
AcDbVisualStyle
  2
3D Hidden
 70
     6
177
     2
291
     0
 71
     1
176
     1
 72
     2
176
     1
 73
     2
176
     1
 90
        0
176
     1
 40
-0.6
176
     1
 41
-30.0
176
     1
 62
     5
 63
     7
421
 16777215
176
     1
 74
     2
176
     1
 91
        2
176
     1
 64
     7
176
     1
 65
   257
176
     1
 75
     2
176
     1
175
     1
176
     1
 42
40.0
176
     1
 92
        0
176
     1
 66
   257
176
     1
 43
1.0
176
     1
 76
     1
176
     1
 77
     6
176
     1
 78
     2
176
     1
 67
     7
176
     1
 79
     3
176
     1
170
     0
176
     1
171
     0
176
     1
290
     0
176
     1
 93
        1
176
     1
 44
0.0
176
     1
173
     0
176
     1
  0
VISUALSTYLE
  5
30
102
{ACAD_REACTORS
330
2A
102
}
330
2A
100
AcDbVisualStyle
  2
3dWireframe
 70
     5
177
     2
291
     0
 71
     0
176
     1
 72
     2
176
     1
 73
     0
176
     1
 90
        0
176
     1
 40
-0.6
176
     1
 41
-30.0
176
     1
 62
     5
 63
     7
421
 16777215
176
     1
 74
     1
176
     1
 91
        4
176
     1
 64
     7
176
     1
 65
   257
176
     1
 75
     1
176
     1
175
     1
176
     1
 42
1.0
176
     1
 92
        0
176
     1
 66
   257
176
     1
 43
1.0
176
     1
 76
     1
176
     1
 77
     6
176
     1
 78
     2
176
     1
 67
     7
176
     1
 79
     5
176
     1
170
     0
176
     1
171
     0
176
     1
290
     0
176
     1
 93
        1
176
     1
 44
0.0
176
     1
173
     0
176
     1
  0
VISUALSTYLE
  5
32
102
{ACAD_REACTORS
330
2A
102
}
330
2A
100
AcDbVisualStyle
  2
Basic
 70
     7
177
     2
291
     1
 71
     1
176
     1
 72
     0
176
     1
 73
     1
176
     1
 90
        0
176
     1
 40
-0.6
176
     1
 41
-30.0
176
     1
 62
     5
 63
     7
421
 16777215
176
     1
 74
     0
176
     1
 91
        4
176
     1
 64
     7
176
     1
 65
   257
176
     1
 75
     1
176
     1
175
     1
176
     1
 42
1.0
176
     1
 92
        8
176
     1
 66
     7
176
     1
 43
1.0
176
     1
 76
     1
176
     1
 77
     6
176
     1
 78
     2
176
     1
 67
     7
176
     1
 79
     5
176
     1
170
     0
176
     1
171
     0
176
     1
290
     0
176
     1
 93
        1
176
     1
 44
0.0
176
     1
173
     0
176
     1
  0
VISUALSTYLE
  5
36
102
{ACAD_REACTORS
330
2A
102
}
330
2A
100
AcDbVisualStyle
  2
Brighten
 70
    12
177
     2
291
     1
 71
     2
176
     1
 72
     2
176
     1
 73
     0
176
     1
 90
        0
176
     1
 40
-0.6
176
     1
 41
-30.0
176
     1
 62
     5
 63
     7
421
 16777215
176
     1
 74
     1
176
     1
 91
        4
176
     1
 64
     7
176
     1
 65
   257
176
     1
 75
     1
176
     1
175
     1
176
     1
 42
1.0
176
     1
 92
        8
176
     1
 66
     7
176
     1
 43
1.0
176
     1
 76
     1
176
     1
 77
     6
176
     1
 78
     2
176
     1
 67
     7
176
     1
 79
     5
176
     1
170
     0
176
     1
171
     0
176
     1
290
     0
176
     1
 93
        1
176
     1
 44
50.0
176
     1
173
     0
176
     1
  0
VISUALSTYLE
  5
3A
102
{ACAD_REACTORS
330
2A
102
}
330
2A
100
AcDbVisualStyle
  2
ColorChange
 70
    16
177
     2
291
     1
 71
     2
176
     1
 72
     2
176
     1
 73
     3
176
     1
 90
        0
176
     1
 40
-0.6
176
     1
 41
-30.0
176
     1
 62
     5
 63
     8
421
  8421504
176
     1
 74
     1
176
     1
 91
        4
176
     1
 64
     7
176
     1
 65
   257
176
     1
 75
     1
176
     1
175
     1
176
     1
 42
1.0
176
     1
 92
        8
176
     1
 66
     8
424
  8421504
176
     1
 43
1.0
176
     1
 76
     1
176
     1
 77
     6
176
     1
 78
     2
176
     1
 67
     7
176
     1
 79
     5
176
     1
170
     0
176
     1
171
     0
176
     1
290
     0
176
     1
 93
        1
176
     1
 44
0.0
176
     1
173
     0
176
     1
  0
VISUALSTYLE
  5
34
102
{ACAD_REACTORS
330
2A
102
}
330
2A
100
AcDbVisualStyle
  2
Conceptual
 70
     9
177
     2
291
     0
 71
     3
176
     1
 72
     2
176
     1
 73
     0
176
     1
 90
        0
176
     1
 40
-0.6
176
     1
 41
-30.0
176
     1
 62
     5
 63
     7
421
 16777215
176
     1
 74
     2
176
     1
 91
        2
176
     1
 64
     7
176
     1
 65
   257
176
     1
 75
     1
176
     1
175
     1
176
     1
 42
40.0
176
     1
 92
        8
176
     1
 66
     7
176
     1
 43
1.0
176
     1
 76
     1
176
     1
 77
     6
176
     1
 78
     2
176
     1
 67
     7
176
     1
 79
     3
176
     1
170
     0
176
     1
171
     0
176
     1
290
     0
176
     1
 93
        1
176
     1
 44
0.0
176
     1
173
     0
176
     1
  0
VISUALSTYLE
  5
35
102
{ACAD_REACTORS
330
2A
102
}
330
2A
100
AcDbVisualStyle
  2
Dim
 70
    11
177
     2
291
     1
 71
     2
176
     1
 72
     2
176
     1
 73
     0
176
     1
 90
        0
176
     1
 40
-0.6
176
     1
 41
-30.0
176
     1
 62
     5
 63
     7
421
 16777215
176
     1
 74
     1
176
     1
 91
        4
176
     1
 64
     7
176
     1
 65
   257
176
     1
 75
     1
176
     1
175
     1
176
     1
 42
1.0
176
     1
 92
        8
176
     1
 66
     7
176
     1
 43
1.0
176
     1
 76
     1
176
     1
 77
     6
176
     1
 78
     2
176
     1
 67
     7
176
     1
 79
     5
176
     1
170
     0
176
     1
171
     0
176
     1
290
     0
176
     1
 93
        1
176
     1
 44
-50.0
176
     1
173
     0
176
     1
  0
VISUALSTYLE
  5
39
102
{ACAD_REACTORS
330
2A
102
}
330
2A
100
AcDbVisualStyle
  2
Facepattern
 70
    15
177
     2
291
     1
 71
     2
176
     1
 72
     2
176
     1
 73
     0
176
     1
 90
        0
176
     1
 40
-0.6
176
     1
 41
-30.0
176
     1
 62
     5
 63
     7
421
 16777215
176
     1
 74
     1
176
     1
 91
        4
176
     1
 64
     7
176
     1
 65
   257
176
     1
 75
     1
176
     1
175
     1
176
     1
 42
1.0
176
     1
 92
        8
176
     1
 66
     7
176
     1
 43
1.0
176
     1
 76
     1
176
     1
 77
     6
176
     1
 78
     2
176
     1
 67
     7
176
     1
 79
     5
176
     1
170
     0
176
     1
171
     0
176
     1
290
     0
176
     1
 93
        1
176
     1
 44
0.0
176
     1
173
     0
176
     1
  0
VISUALSTYLE
  5
2B
102
{ACAD_REACTORS
330
2A
102
}
330
2A
100
AcDbVisualStyle
  2
Flat
 70
     0
177
     2
291
     1
 71
     2
176
     1
 72
     1
176
     1
 73
     1
176
     1
 90
        2
176
     1
 40
-0.6
176
     1
 41
30.0
176
     1
 62
     5
 63
     7
421
 16777215
176
     1
 74
     0
176
     1
 91
        4
176
     1
 64
     7
176
     1
 65
   257
176
     1
 75
     1
176
     1
175
     1
176
     1
 42
1.0
176
     1
 92
        8
176
     1
 66
     7
176
     1
 43
1.0
176
     1
 76
     1
176
     1
 77
     6
176
     1
 78
     2
176
     1
 67
     7
176
     1
 79
     5
176
     1
170
     0
176
     1
171
     0
176
     1
290
     0
176
     1
 93
       13
176
     1
 44
0.0
176
     1
173
     0
176
     1
  0
VISUALSTYLE
  5
2C
102
{ACAD_REACTORS
330
2A
102
}
330
2A
100
AcDbVisualStyle
  2
FlatWithEdges
 70
     1
177
     2
291
     1
 71
     2
176
     1
 72
     1
176
     1
 73
     1
176
     1
 90
        2
176
     1
 40
-0.6
176
     1
 41
30.0
176
     1
 62
     5
 63
     7
421
 16777215
176
     1
 74
     1
176
     1
 91
        4
176
     1
 64
     7
176
     1
 65
   257
176
     1
 75
     1
176
     1
175
     1
176
     1
 42
1.0
176
     1
 92
        0
176
     1
 66
   257
176
     1
 43
1.0
176
     1
 76
     1
176
     1
 77
     6
176
     1
 78
     2
176
     1
 67
     7
176
     1
 79
     5
176
     1
170
     0
176
     1
171
     0
176
     1
290
     0
176
     1
 93
       13
176
     1
 44
0.0
176
     1
173
     0
176
     1
  0
VISUALSTYLE
  5
2D
102
{ACAD_REACTORS
330
2A
102
}
330
2A
100
AcDbVisualStyle
  2
Gouraud
 70
     2
177
     2
291
     1
 71
     2
176
     1
 72
     2
176
     1
 73
     1
176
     1
 90
        2
176
     1
 40
-0.6
176
     1
 41
30.0
176
     1
 62
     5
 63
     7
421
 16777215
176
     1
 74
     0
176
     1
 91
        4
176
     1
 64
     7
176
     1
 65
   257
176
     1
 75
     1
176
     1
175
     1
176
     1
 42
1.0
176
     1
 92
        0
176
     1
 66
     7
176
     1
 43
1.0
176
     1
 76
     1
176
     1
 77
     6
176
     1
 78
     2
176
     1
 67
     7
176
     1
 79
     5
176
     1
170
     0
176
     1
171
     0
176
     1
290
     0
176
     1
 93
       13
176
     1
 44
0.0
176
     1
173
     0
176
     1
  0
VISUALSTYLE
  5
2E
102
{ACAD_REACTORS
330
2A
102
}
330
2A
100
AcDbVisualStyle
  2
GouraudWithEdges
 70
     3
177
     2
291
     1
 71
     2
176
     1
 72
     2
176
     1
 73
     1
176
     1
 90
        2
176
     1
 40
-0.6
176
     1
 41
30.0
176
     1
 62
     5
 63
     7
421
 16777215
176
     1
 74
     1
176
     1
 91
        4
176
     1
 64
     7
176
     1
 65
   257
176
     1
 75
     1
176
     1
175
     1
176
     1
 42
1.0
176
     1
 92
        0
176
     1
 66
   257
176
     1
 43
1.0
176
     1
 76
     1
176
     1
 77
     6
176
     1
 78
     2
176
     1
 67
     7
176
     1
 79
     5
176
     1
170
     0
176
     1
171
     0
176
     1
290
     0
176
     1
 93
       13
176
     1
 44
0.0
176
     1
173
     0
176
     1
  0
VISUALSTYLE
  5
38
102
{ACAD_REACTORS
330
2A
102
}
330
2A
100
AcDbVisualStyle
  2
Linepattern
 70
    14
177
     2
291
     1
 71
     2
176
     1
 72
     2
176
     1
 73
     0
176
     1
 90
        0
176
     1
 40
-0.6
176
     1
 41
-30.0
176
     1
 62
     5
 63
     7
421
 16777215
176
     1
 74
     1
176
     1
 91
        4
176
     1
 64
     7
176
     1
 65
   257
176
     1
 75
     7
176
     1
175
     7
176
     1
 42
1.0
176
     1
 92
        8
176
     1
 66
     7
176
     1
 43
1.0
176
     1
 76
     1
176
     1
 77
     6
176
     1
 78
     2
176
     1
 67
     7
176
     1
 79
     5
176
     1
170
     0
176
     1
171
     0
176
     1
290
     0
176
     1
 93
        1
176
     1
 44
0.0
176
     1
173
     0
176
     1
  0
VISUALSTYLE
  5
33
102
{ACAD_REACTORS
330
2A
102
}
330
2A
100
AcDbVisualStyle
  2
Realistic
 70
     8
177
     2
291
     0
 71
     2
176
     1
 72
     2
176
     1
 73
     0
176
     1
 90
        0
176
     1
 40
-0.6
176
     1
 41
-30.0
176
     1
 62
     5
 63
     7
421
 16777215
176
     1
 74
     1
176
     1
 91
        0
176
     1
 64
     7
176
     1
 65
   257
176
     1
 75
     1
176
     1
175
     1
176
     1
 42
1.0
176
     1
 92
        8
176
     1
 66
     8
424
  7895160
176
     1
 43
1.0
176
     1
 76
     1
176
     1
 77
     6
176
     1
 78
     2
176
     1
 67
     7
176
     1
 79
     5
176
     1
170
     0
176
     1
171
     0
176
     1
290
     0
176
     1
 93
       13
176
     1
 44
0.0
176
     1
173
     0
176
     1
  0
VISUALSTYLE
  5
37
102
{ACAD_REACTORS
330
2A
102
}
330
2A
100
AcDbVisualStyle
  2
Thicken
 70
    13
177
     2
291
     1
 71
     2
176
     1
 72
     2
176
     1
 73
     0
176
     1
 90
        0
176
     1
 40
-0.6
176
     1
 41
-30.0
176
     1
 62
     5
 63
     7
421
 16777215
176
     1
 74
     1
176
     1
 91
        4
176
     1
 64
     7
176
     1
 65
   257
176
     1
 75
     1
176
     1
175
     1
176
     1
 42
1.0
176
     1
 92
       12
176
     1
 66
     7
176
     1
 43
1.0
176
     1
 76
     1
176
     1
 77
     6
176
     1
 78
     2
176
     1
 67
     7
176
     1
 79
     5
176
     1
170
     0
176
     1
171
     0
176
     1
290
     0
176
     1
 93
        1
176
     1
 44
0.0
176
     1
173
     0
176
     1
  0
ENDSEC
  0
EOF
