  0
SECTION
  2
HEADER
  9
$ACADVER
  1
AC1024
  9
$ACADMAINTVER
 70
     6
  9
$DWGCODEPAGE
  3
UNDEFINED
  9
$INSBASE
 10
0.0
 20
0.0
 30
0.0
  9
$EXTMIN
 10
1.000000000000000E+20
 20
1.000000000000000E+20
 30
1.000000000000000E+20
  9
$EXTMAX
 10
-1.000000000000000E+20
 20
-1.000000000000000E+20
 30
-1.000000000000000E+20
  9
$LIMMIN
 10
0.0
 20
0.0
  9
$LIMMAX
 10
12.0
 20
9.0
  9
$ORTHOMODE
 70
     0
  9
$REGENMODE
 70
     1
  9
$FILLMODE
 70
     1
  9
$QTEXTMODE
 70
     0
  9
$MIRRTEXT
 70
     1
  9
$LTSCALE
 40
1.0
  9
$ATTMODE
 70
     1
  9
$TEXTSIZE
 40
0.2
  9
$TRACEWID
 40
0.05
  9
$TEXTSTYLE
  7
Standard
  9
$CLAYER
  8
0
  9
$CELTYPE
  6
ByLayer
  9
$CECOLOR
 62
   256
  9
$CELTSCALE
 40
1.0
  9
$DISPSILH
 70
     0
  9
$DIMSCALE
 40
1.0
  9
$DIMASZ
 40
0.18
  9
$DIMEXO
 40
0.0625
  9
$DIMDLI
 40
0.38
  9
$DIMRND
 40
0.0
  9
$DIMDLE
 40
0.0
  9
$DIMEXE
 40
0.18
  9
$DIMTP
 40
0.0
  9
$DIMTM
 40
0.0
  9
$DIMTXT
 40
0.18
  9
$DIMCEN
 40
0.09
  9
$DIMTSZ
 40
0.0
  9
$DIMTOL
 70
     0
  9
$DIMLIM
 70
     0
  9
$DIMTIH
 70
     1
  9
$DIMTOH
 70
     1
  9
$DIMSE1
 70
     0
  9
$DIMSE2
 70
     0
  9
$DIMTAD
 70
     0
  9
$DIMZIN
 70
     0
  9
$DIMBLK
  1

  9
$DIMASO
 70
     1
  9
$DIMSHO
 70
     1
  9
$DIMPOST
  1

  9
$DIMAPOST
  1

  9
$DIMALT
 70
     0
  9
$DIMALTD
 70
     2
  9
$DIMALTF
 40
25.4
  9
$DIMLFAC
 40
1.0
  9
$DIMTOFL
 70
     0
  9
$DIMTVP
 40
0.0
  9
$DIMTIX
 70
     0
  9
$DIMSOXD
 70
     0
  9
$DIMSAH
 70
     0
  9
$DIMBLK1
  1

  9
$DIMBLK2
  1

  9
$DIMSTYLE
  2
Standard
  9
$DIMCLRD
 70
     0
  9
$DIMCLRE
 70
     0
  9
$DIMCLRT
 70
     0
  9
$DIMTFAC
 40
1.0
  9
$DIMGAP
 40
0.09
  9
$DIMJUST
 70
     0
  9
$DIMSD1
 70
     0
  9
$DIMSD2
 70
     0
  9
$DIMTOLJ
 70
     1
  9
$DIMTZIN
 70
     0
  9
$DIMALTZ
 70
     0
  9
$DIMALTTZ
 70
     0
  9
$DIMUPT
 70
     0
  9
$DIMDEC
 70
     4
  9
$DIMTDEC
 70
     4
  9
$DIMALTU
 70
     2
  9
$DIMALTTD
 70
     2
  9
$DIMTXSTY
  7
Standard
  9
$DIMAUNIT
 70
     0
  9
$DIMADEC
 70
     0
  9
$DIMALTRND
 40
0.0
  9
$DIMAZIN
 70
     0
  9
$DIMDSEP
 70
    46
  9
$DIMATFIT
 70
     3
  9
$DIMFRAC
 70
     0
  9
$DIMLDRBLK
  1

  9
$DIMLUNIT
 70
     2
  9
$DIMLWD
 70
    -2
  9
$DIMLWE
 70
    -2
  9
$DIMTMOVE
 70
     0
  9
$DIMFXL
 40
1.0
  9
$DIMFXLON
 70
     0
  9
$DIMJOGANG
 40
0.7853981633974483
  9
$DIMTFILL
 70
     0
  9
$DIMTFILLCLR
 70
     0
  9
$DIMARCSYM
 70
     0
  9
$DIMLTYPE
  6

  9
$DIMLTEX1
  6

  9
$DIMLTEX2
  6

  9
$DIMTXTDIRECTION
 70
     0
  9
$LUNITS
 70
     2
  9
$LUPREC
 70
     4
  9
$SKETCHINC
 40
0.1
  9
$FILLETRAD
 40
0.5
  9
$AUNITS
 70
     0
  9
$AUPREC
 70
     0
  9
$MENU
  1
.
  9
$ELEVATION
 40
0.0
  9
$PELEVATION
 40
0.0
  9
$THICKNESS
 40
0.0
  9
$LIMCHECK
 70
     0
  9
$CHAMFERA
 40
0.5
  9
$CHAMFERB
 40
0.5
  9
$CHAMFERC
 40
1.0
  9
$CHAMFERD
 40
0.0
  9
$SKPOLY
 70
     0
  9
$TDCREATE
 40
2457917.625023136
  9
$TDUCREATE
 40
2457917.250023148
  9
$TDUPDATE
 40
2457917.625023136
  9
$TDUUPDATE
 40
2457917.250023148
  9
$TDINDWG
 40
0.0000000116
  9
$TDUSRTIMER
 40
0.0000000116
  9
$USRTIMER
 70
     1
  9
$ANGBASE
 50
0.0
  9
$ANGDIR
 70
     0
  9
$PDMODE
 70
     0
  9
$PDSIZE
 40
0.0
  9
$PLINEWID
 40
0.0
  9
$SPLFRAME
 70
     0
  9
$SPLINETYPE
 70
     6
  9
$SPLINESEGS
 70
     8
  9
$HANDSEED
  5
A6
  9
$SURFTAB1
 70
     6
  9
$SURFTAB2
 70
     6
  9
$SURFTYPE
 70
     6
  9
$SURFU
 70
     6
  9
$SURFV
 70
     6
  9
$UCSBASE
  2

  9
$UCSNAME
  2

  9
$UCSORG
 10
0.0
 20
0.0
 30
0.0
  9
$UCSXDIR
 10
1.0
 20
0.0
 30
0.0
  9
$UCSYDIR
 10
0.0
 20
1.0
 30
0.0
  9
$UCSORTHOREF
  2

  9
$UCSORTHOVIEW
 70
     0
  9
$UCSORGTOP
 10
0.0
 20
0.0
 30
0.0
  9
$UCSORGBOTTOM
 10
0.0
 20
0.0
 30
0.0
  9
$UCSORGLEFT
 10
0.0
 20
0.0
 30
0.0
  9
$UCSORGRIGHT
 10
0.0
 20
0.0
 30
0.0
  9
$UCSORGFRONT
 10
0.0
 20
0.0
 30
0.0
  9
$UCSORGBACK
 10
0.0
 20
0.0
 30
0.0
  9
$PUCSBASE
  2

  9
$PUCSNAME
  2

  9
$PUCSORG
 10
0.0
 20
0.0
 30
0.0
  9
$PUCSXDIR
 10
1.0
 20
0.0
 30
0.0
  9
$PUCSYDIR
 10
0.0
 20
1.0
 30
0.0
  9
$PUCSORTHOREF
  2

  9
$PUCSORTHOVIEW
 70
     0
  9
$PUCSORGTOP
 10
0.0
 20
0.0
 30
0.0
  9
$PUCSORGBOTTOM
 10
0.0
 20
0.0
 30
0.0
  9
$PUCSORGLEFT
 10
0.0
 20
0.0
 30
0.0
  9
$PUCSORGRIGHT
 10
0.0
 20
0.0
 30
0.0
  9
$PUCSORGFRONT
 10
0.0
 20
0.0
 30
0.0
  9
$PUCSORGBACK
 10
0.0
 20
0.0
 30
0.0
  9
$USERI1
 70
     0
  9
$USERI2
 70
     0
  9
$USERI3
 70
     0
  9
$USERI4
 70
     0
  9
$USERI5
 70
     0
  9
$USERR1
 40
0.0
  9
$USERR2
 40
0.0
  9
$USERR3
 40
0.0
  9
$USERR4
 40
0.0
  9
$USERR5
 40
0.0
  9
$WORLDVIEW
 70
     1
  9
$SHADEDGE
 70
     3
  9
$SHADEDIF
 70
    70
  9
$TILEMODE
 70
     1
  9
$MAXACTVP
 70
    64
  9
$PINSBASE
 10
0.0
 20
0.0
 30
0.0
  9
$PLIMCHECK
 70
     0
  9
$PEXTMIN
 10
1.000000000000000E+20
 20
1.000000000000000E+20
 30
1.000000000000000E+20
  9
$PEXTMAX
 10
-1.000000000000000E+20
 20
-1.000000000000000E+20
 30
-1.000000000000000E+20
  9
$PLIMMIN
 10
0.0
 20
0.0
  9
$PLIMMAX
 10
12.0
 20
9.0
  9
$UNITMODE
 70
     0
  9
$VISRETAIN
 70
     1
  9
$PLINEGEN
 70
     0
  9
$PSLTSCALE
 70
     1
  9
$TREEDEPTH
 70
  3020
  9
$CMLSTYLE
  2
Standard
  9
$CMLJUST
 70
     0
  9
$CMLSCALE
 40
1.0
  9
$PROXYGRAPHICS
 70
     1
  9
$MEASUREMENT
 70
     0
  9
$CELWEIGHT
370
    -1
  9
$ENDCAPS
280
     0
  9
$JOINSTYLE
280
     0
  9
$LWDISPLAY
290
     1
  9
$INSUNITS
 70
     1
  9
$HYPERLINKBASE
  1

  9
$STYLESHEET
  1

  9
$XEDIT
290
     1
  9
$CEPSNTYPE
380
     0
  9
$PSTYLEMODE
290
     1
  9
$FINGERPRINTGUID
  2
{413720D0-7FB0-BEC4-F79D-FE1FBCB05579}
  9
$VERSIONGUID
  2
{FAEB1C32-E019-11D5-929B-00C0DF256EC4}
  9
$EXTNAMES
290
     1
  9
$PSVPSCALE
 40
0.0
  9
$OLESTARTUP
290
     0
  9
$SORTENTS
280
   127
  9
$INDEXCTL
280
     0
  9
$HIDETEXT
280
     1
  9
$XCLIPFRAME
280
     2
  9
$HALOGAP
280
     0
  9
$OBSCOLOR
 70
   257
  9
$OBSLTYPE
280
     0
  9
$INTERSECTIONDISPLAY
280
     0
  9
$INTERSECTIONCOLOR
 70
   257
  9
$DIMASSOC
280
     2
  9
$PROJECTNAME
  1

  9
$CAMERADISPLAY
290
     0
  9
$LENSLENGTH
 40
50.0
  9
$CAMERAHEIGHT
 40
0.0
  9
$STEPSPERSEC
 40
2.0
  9
$STEPSIZE
 40
6.0
  9
$3DDWFPREC
 40
2.0
  9
$PSOLWIDTH
 40
0.25
  9
$PSOLHEIGHT
 40
4.0
  9
$LOFTANG1
 40
1.570796326794897
  9
$LOFTANG2
 40
1.570796326794897
  9
$LOFTMAG1
 40
0.0
  9
$LOFTMAG2
 40
0.0
  9
$LOFTPARAM
 70
     7
  9
$LOFTNORMALS
280
     1
  9
$LATITUDE
 40
37.795
  9
$LONGITUDE
 40
-122.394
  9
$NORTHDIRECTION
 40
0.0
  9
$TIMEZONE
 70
 -8000
  9
$LIGHTGLYPHDISPLAY
280
     1
  9
$TILEMODELIGHTSYNCH
280
     1
  9
$CMATERIAL
347
3C
  9
$SOLIDHIST
280
     1
  9
$SHOWHIST
280
     1
  9
$DWFFRAME
280
     2
  9
$DGNFRAME
280
     2
  9
$REALWORLDSCALE
290
     1
  9
$INTERFERECOLOR
 62
   256
  9
$CSHADOW
280
     0
  9
$SHADOWPLANELOCATION
 40
0.0
  0
ENDSEC
  0
SECTION
  2
CLASSES
  0
CLASS
  1
ACDBDICTIONARYWDFLT
  2
AcDbDictionaryWithDefault
  3
ObjectDBX Classes
 90
        0
 91
        4
280
     0
281
     0
  0
CLASS
  1
VISUALSTYLE
  2
AcDbVisualStyle
  3
ObjectDBX Classes
 90
     4095
 91
        4
280
     0
281
     0
  0
CLASS
  1
MATERIAL
  2
AcDbMaterial
  3
ObjectDBX Classes
 90
     1153
 91
        4
280
     0
281
     0
  0
CLASS
  1
SUN
  2
AcDbSun
  3
SCENEOE
 90
     1024
 91
        4
280
     0
281
     0
  0
ENDSEC
  0
SECTION
  2
TABLES
  0
TABLE
  2
VPORT
  5
8
330
0
100
AcDbSymbolTable
 70
     1
  0
VPORT
  5
29
330
8
100
AcDbSymbolTableRecord
100
AcDbViewportTableRecord
  2
*Active
 70
     0
 10
0.0
 20
0.0
 11
1.0
 21
1.0
 12
0.0
 22
0.0
 13
0.0
 23
0.0
 14
0.5
 24
0.5
 15
0.5
 25
0.5
 16
0.0
 26
0.0
 36
1.0
 17
91.00082462281999
 27
-128.4993055234307
 37
0.0
 40
256.9986110468615
 41
0.7081814508812795
 42
50.0
 43
0.0
 44
0.0
 50
0.0
 51
0.0
 71
     0
 72
   100
 73
     1
 74
     3
 75
     0
 76
     0
 77
     0
 78
     0
281
     0
 65
     1
110
0.0
120
0.0
130
0.0
111
1.0
121
0.0
131
0.0
112
0.0
122
1.0
132
0.0
 79
     0
146
0.0
 60
     3
 61
     5
292
     1
282
     1
141
0.0
142
0.0
 63
   250
361
3F
  0
ENDTAB
  0
TABLE
  2
LTYPE
  5
5
330
0
100
AcDbSymbolTable
 70
     1
  0
LTYPE
  5
14
330
5
100
AcDbSymbolTableRecord
100
AcDbLinetypeTableRecord
  2
ByBlock
 70
     0
  3

 72
    65
 73
     0
 40
0.0
  0
LTYPE
  5
15
330
5
100
AcDbSymbolTableRecord
100
AcDbLinetypeTableRecord
  2
ByLayer
 70
     0
  3

 72
    65
 73
     0
 40
0.0
  0
LTYPE
  5
16
330
5
100
AcDbSymbolTableRecord
100
AcDbLinetypeTableRecord
  2
Continuous
 70
     0
  3
Solid line
 72
    65
 73
     0
 40
0.0
  0
ENDTAB
  0
TABLE
  2
LAYER
  5
2
330
0
100
AcDbSymbolTable
 70
     2
  0
LAYER
  5
10
330
2
100
AcDbSymbolTableRecord
100
AcDbLayerTableRecord
  2
0
 70
     0
 62
     7
  6
Continuous
370
    -3
390
F
347
3E
  0
LAYER
  5
40
330
2
100
AcDbSymbolTableRecord
100
AcDbLayerTableRecord
  2
_U+30EC_U+30A4_U+30E4_U+30FC 1
 70
     0
 62
     7
  6
Continuous
370
    -3
390
F
347
3E
  0
ENDTAB
  0
TABLE
  2
STYLE
  5
3
330
0
100
AcDbSymbolTable
 70
     1
  0
STYLE
  5
11
330
3
100
AcDbSymbolTableRecord
100
AcDbTextStyleTableRecord
  2
Standard
 70
     0
 40
0.0
 41
1.0
 50
0.0
 71
     0
 42
0.2
  3
txt
  4

  0
ENDTAB
  0
TABLE
  2
VIEW
  5
6
330
0
100
AcDbSymbolTable
 70
     0
  0
ENDTAB
  0
TABLE
  2
UCS
  5
7
330
0
100
AcDbSymbolTable
 70
     0
  0
ENDTAB
  0
TABLE
  2
APPID
  5
9
330
0
100
AcDbSymbolTable
 70
     1
  0
APPID
  5
12
330
9
100
AcDbSymbolTableRecord
100
AcDbRegAppTableRecord
  2
ACAD
 70
     0
  0
ENDTAB
  0
TABLE
  2
DIMSTYLE
  5
A
330
0
100
AcDbSymbolTable
 70
     1
100
AcDbDimStyleTable
  0
DIMSTYLE
105
27
330
A
100
AcDbSymbolTableRecord
100
AcDbDimStyleTableRecord
  2
Standard
 70
     0
178
     0
340
11
  0
ENDTAB
  0
TABLE
  2
BLOCK_RECORD
  5
1
330
0
100
AcDbSymbolTable
 70
     5
  0
BLOCK_RECORD
  5
1F
330
1
100
AcDbSymbolTableRecord
100
AcDbBlockTableRecord
  2
*Model_Space
340
22
 70
     0
280
     1
281
     0
  0
BLOCK_RECORD
  5
1B
330
1
100
AcDbSymbolTableRecord
100
AcDbBlockTableRecord
  2
*Paper_Space
340
1E
 70
     0
280
     1
281
     0
  0
BLOCK_RECORD
  5
23
330
1
100
AcDbSymbolTableRecord
100
AcDbBlockTableRecord
  2
*Paper_Space0
340
26
 70
     0
280
     1
281
     0
  0
BLOCK_RECORD
  5
51
330
1
100
AcDbSymbolTableRecord
100
AcDbBlockTableRecord
  2
block 2
340
0
102
{BLKREFS
331
52
102
}
 70
     0
280
     1
281
     0
  0
BLOCK_RECORD
  5
61
330
1
100
AcDbSymbolTableRecord
100
AcDbBlockTableRecord
  2
block 3
340
0
102
{BLKREFS
331
62
102
}
 70
     0
280
     1
281
     0
  0
BLOCK_RECORD
  5
71
330
1
100
AcDbSymbolTableRecord
100
AcDbBlockTableRecord
  2
block 4
340
0
102
{BLKREFS
331
72
102
}
 70
     0
280
     1
281
     0
  0
BLOCK_RECORD
  5
9B
330
1
100
AcDbSymbolTableRecord
100
AcDbBlockTableRecord
  2
block 5
340
0
102
{BLKREFS
331
9C
102
}
 70
     0
280
     1
281
     0
  0
ENDTAB
  0
ENDSEC
  0
SECTION
  2
BLOCKS
  0
BLOCK
  5
20
330
1F
100
AcDbEntity
  8
0
100
AcDbBlockBegin
  2
*Model_Space
 70
     0
 10
0.0
 20
0.0
 30
0.0
  3
*Model_Space
  1

  0
ENDBLK
  5
21
330
1F
100
AcDbEntity
  8
0
100
AcDbBlockEnd
  0
BLOCK
  5
1C
330
1B
100
AcDbEntity
 67
     1
  8
0
100
AcDbBlockBegin
  2
*Paper_Space
 70
     0
 10
0.0
 20
0.0
 30
0.0
  3
*Paper_Space
  1

  0
ENDBLK
  5
1D
330
1B
100
AcDbEntity
 67
     1
  8
0
100
AcDbBlockEnd
  0
BLOCK
  5
24
330
23
100
AcDbEntity
  8
0
100
AcDbBlockBegin
  2
*Paper_Space0
 70
     0
 10
0.0
 20
0.0
 30
0.0
  3
*Paper_Space0
  1

  0
ENDBLK
  5
25
330
23
100
AcDbEntity
  8
0
100
AcDbBlockEnd
  0
BLOCK
  5
53
330
51
100
AcDbEntity
  8
0
100
AcDbBlockBegin
  2
block 2
 70
     0
 10
0.0
 20
0.0
 30
0.0
  3
block 2
  1

  0
SPLINE
  5
55
330
51
100
AcDbEntity
  8
_U+30EC_U+30A4_U+30E4_U+30FC 1
370
     0
100
AcDbSpline
210
0.0
220
0.0
230
1.0
 70
    11
 71
     3
 72
    29
 73
    25
 74
     0
 42
0.0000000001
 43
0.0000000001
 12
1.0
 22
0.0
 32
0.0
 13
1.0
 23
0.0
 33
0.0
 40
0.0
 40
0.0
 40
0.0
 40
0.0
 40
1.0
 40
1.0
 40
1.0
 40
2.0
 40
2.0
 40
2.0
 40
3.0
 40
3.0
 40
3.0
 40
4.0
 40
4.0
 40
4.0
 40
5.0
 40
5.0
 40
5.0
 40
6.0
 40
6.0
 40
6.0
 40
7.0
 40
7.0
 40
7.0
 40
8.0
 40
8.0
 40
8.0
 40
8.0
 10
90.79962562834176
 20
-134.0135253571216
 30
0.0
 10
90.53314749255769
 20
-134.0135253571216
 30
0.0
 10
90.27924395529477
 20
-133.8760660472602
 30
0.0
 10
90.27924395529477
 20
-133.5270778746043
 30
0.0
 10
90.27924395529477
 20
-133.2711072800503
 30
0.0
 10
90.42100963451281
 20
-133.1756781351089
 30
0.0
 10
90.52677406590998
 20
-133.1143554354714
 30
0.0
 10
90.40188935456968
 20
-133.0550997931251
 30
0.0
 10
90.32575274434565
 20
-132.9410671325633
 30
0.0
 10
90.32575274434565
 20
-132.7801811734022
 30
0.0
 10
90.32575274434565
 20
-132.5052625536792
 30
0.0
 10
90.52470700861883
 20
-132.3698703011089
 30
0.0
 10
90.79962562834176
 20
-132.3698703011089
 30
0.0
 10
91.08315698677782
 20
-132.3698703011089
 30
0.0
 10
91.27367076711214
 20
-132.5135307828438
 30
0.0
 10
91.27367076711214
 20
-132.7801811734022
 30
0.0
 10
91.27367076711214
 20
-132.9410671325633
 30
0.0
 10
91.19512259004844
 20
-133.0550997931251
 30
0.0
 10
91.0704101334824
 20
-133.1143554354714
 30
0.0
 10
91.15929359700185
 20
-133.1653428486531
 30
0.0
 10
91.31811249887187
 20
-133.260427484046
 30
0.0
 10
91.31811249887187
 20
-133.5229437600221
 30
0.0
 10
91.31811249887187
 20
-133.8970811297202
 30
0.0
 10
91.0387152550181
 20
-134.0135253571216
 30
0.0
 10
90.79962562834176
 20
-134.0135253571216
 30
0.0
  0
SPLINE
  5
56
330
51
100
AcDbEntity
  8
_U+30EC_U+30A4_U+30E4_U+30FC 1
370
     0
100
AcDbSpline
210
0.0
220
0.0
230
1.0
 70
    11
 71
     3
 72
    17
 73
    13
 74
     0
 42
0.0000000001
 43
0.0000000001
 12
1.0
 22
0.0
 32
0.0
 13
1.0
 23
0.0
 33
0.0
 40
0.0
 40
0.0
 40
0.0
 40
0.0
 40
1.0
 40
1.0
 40
1.0
 40
2.0
 40
2.0
 40
2.0
 40
3.0
 40
3.0
 40
3.0
 40
4.0
 40
4.0
 40
4.0
 40
4.0
 10
90.79962562834176
 20
-133.2225314337083
 30
0.0
 10
90.65579289183259
 20
-133.2225314337083
 30
0.0
 10
90.50351967138454
 20
-133.309003330388
 30
0.0
 10
90.50351967138454
 20
-133.5122639640178
 30
0.0
 10
90.50351967138454
 20
-133.7172471453901
 30
0.0
 10
90.630471440016
 20
-133.818877462205
 30
0.0
 10
90.79962562834176
 20
-133.818877462205
 30
0.0
 10
90.98566078454526
 20
-133.818877462205
 30
0.0
 10
91.09590384007325
 20
-133.6962320629301
 30
0.0
 10
91.09590384007325
 20
-133.5184651358912
 30
0.0
 10
91.09590384007325
 20
-133.2962564770926
 30
0.0
 10
90.93295082362093
 20
-133.2225314337083
 30
0.0
 10
90.79962562834176
 20
-133.2225314337083
 30
0.0
  0
SPLINE
  5
57
330
51
100
AcDbEntity
  8
_U+30EC_U+30A4_U+30E4_U+30FC 1
370
     0
100
AcDbSpline
210
0.0
220
0.0
230
1.0
 70
    11
 71
     3
 72
    17
 73
    13
 74
     0
 42
0.0000000001
 43
0.0000000001
 12
1.0
 22
0.0
 32
0.0
 13
1.0
 23
0.0
 33
0.0
 40
0.0
 40
0.0
 40
0.0
 40
0.0
 40
1.0
 40
1.0
 40
1.0
 40
2.0
 40
2.0
 40
2.0
 40
3.0
 40
3.0
 40
3.0
 40
4.0
 40
4.0
 40
4.0
 40
4.0
 10
90.79962562834176
 20
-132.5624511387344
 30
0.0
 10
90.6346055545983
 20
-132.5624511387344
 30
0.0
 10
90.55002846043541
 20
-132.6575357741273
 30
0.0
 10
90.55002846043541
 20
-132.7929280266976
 30
0.0
 10
90.55002846043541
 20
-132.9155734259725
 30
0.0
 10
90.62203095607714
 20
-133.0340847106651
 30
0.0
 10
90.79962562834176
 20
-133.0340847106651
 30
0.0
 10
90.97739255538066
 20
-133.0340847106651
 30
0.0
 10
91.04939505102237
 20
-132.9155734259725
 30
0.0
 10
91.04939505102237
 20
-132.7929280266976
 30
0.0
 10
91.04939505102237
 20
-132.6575357741273
 30
0.0
 10
90.96257864479408
 20
-132.5624511387344
 30
0.0
 10
90.79962562834176
 20
-132.5624511387344
 30
0.0
  0
HATCH
  5
58
330
51
100
AcDbEntity
  8
_U+30EC_U+30A4_U+30E4_U+30FC 1
 62
   179
420
  2234388
100
AcDbHatch
 10
0.0
 20
0.0
 30
0.0
210
0.0
220
0.0
230
1.0
  2
SOLID
 70
     1
 71
     0
 91
        3
 92
        1
 93
        1
 72
     4
 94
        3
 73
     0
 74
     1
 95
       29
 96
       25
 40
0.0
 40
0.0
 40
0.0
 40
0.0
 40
1.0
 40
1.0
 40
1.0
 40
2.0
 40
2.0
 40
2.0
 40
3.0
 40
3.0
 40
3.0
 40
4.0
 40
4.0
 40
4.0
 40
5.0
 40
5.0
 40
5.0
 40
6.0
 40
6.0
 40
6.0
 40
7.0
 40
7.0
 40
7.0
 40
8.0
 40
8.0
 40
8.0
 40
8.0
 10
90.79962562834176
 20
-134.0135253571216
 10
90.53314749255769
 20
-134.0135253571216
 10
90.27924395529477
 20
-133.8760660472602
 10
90.27924395529477
 20
-133.5270778746043
 10
90.27924395529477
 20
-133.2711072800503
 10
90.42100963451281
 20
-133.1756781351089
 10
90.52677406590998
 20
-133.1143554354714
 10
90.40188935456968
 20
-133.0550997931251
 10
90.32575274434565
 20
-132.9410671325633
 10
90.32575274434565
 20
-132.7801811734022
 10
90.32575274434565
 20
-132.5052625536792
 10
90.52470700861883
 20
-132.3698703011089
 10
90.79962562834176
 20
-132.3698703011089
 10
91.08315698677782
 20
-132.3698703011089
 10
91.27367076711214
 20
-132.5135307828438
 10
91.27367076711214
 20
-132.7801811734022
 10
91.27367076711214
 20
-132.9410671325633
 10
91.19512259004844
 20
-133.0550997931251
 10
91.0704101334824
 20
-133.1143554354714
 10
91.15929359700185
 20
-133.1653428486531
 10
91.31811249887187
 20
-133.260427484046
 10
91.31811249887187
 20
-133.5229437600221
 10
91.31811249887187
 20
-133.8970811297202
 10
91.0387152550181
 20
-134.0135253571216
 10
90.79962562834176
 20
-134.0135253571216
 97
        0
 97
        0
 92
        1
 93
        1
 72
     4
 94
        3
 73
     0
 74
     1
 95
       17
 96
       13
 40
0.0
 40
0.0
 40
0.0
 40
0.0
 40
1.0
 40
1.0
 40
1.0
 40
2.0
 40
2.0
 40
2.0
 40
3.0
 40
3.0
 40
3.0
 40
4.0
 40
4.0
 40
4.0
 40
4.0
 10
90.79962562834176
 20
-133.2225314337083
 10
90.65579289183259
 20
-133.2225314337083
 10
90.50351967138454
 20
-133.309003330388
 10
90.50351967138454
 20
-133.5122639640178
 10
90.50351967138454
 20
-133.7172471453901
 10
90.630471440016
 20
-133.818877462205
 10
90.79962562834176
 20
-133.818877462205
 10
90.98566078454526
 20
-133.818877462205
 10
91.09590384007325
 20
-133.6962320629301
 10
91.09590384007325
 20
-133.5184651358912
 10
91.09590384007325
 20
-133.2962564770926
 10
90.93295082362093
 20
-133.2225314337083
 10
90.79962562834176
 20
-133.2225314337083
 97
        0
 97
        0
 92
        1
 93
        1
 72
     4
 94
        3
 73
     0
 74
     1
 95
       17
 96
       13
 40
0.0
 40
0.0
 40
0.0
 40
0.0
 40
1.0
 40
1.0
 40
1.0
 40
2.0
 40
2.0
 40
2.0
 40
3.0
 40
3.0
 40
3.0
 40
4.0
 40
4.0
 40
4.0
 40
4.0
 10
90.79962562834176
 20
-132.5624511387344
 10
90.6346055545983
 20
-132.5624511387344
 10
90.55002846043541
 20
-132.6575357741273
 10
90.55002846043541
 20
-132.7929280266976
 10
90.55002846043541
 20
-132.9155734259725
 10
90.62203095607714
 20
-133.0340847106651
 10
90.79962562834176
 20
-133.0340847106651
 10
90.97739255538066
 20
-133.0340847106651
 10
91.04939505102237
 20
-132.9155734259725
 10
91.04939505102237
 20
-132.7929280266976
 10
91.04939505102237
 20
-132.6575357741273
 10
90.96257864479408
 20
-132.5624511387344
 10
90.79962562834176
 20
-132.5624511387344
 97
        0
 97
        0
 75
     2
 76
     1
 98
        0
  0
ENDBLK
  5
54
330
51
100
AcDbEntity
  8
0
100
AcDbBlockEnd
  0
BLOCK
  5
63
330
61
100
AcDbEntity
  8
0
100
AcDbBlockBegin
  2
block 3
 70
     0
 10
0.0
 20
0.0
 30
0.0
  3
block 3
  1

  0
SPLINE
  5
65
330
61
100
AcDbEntity
  8
_U+30EC_U+30A4_U+30E4_U+30FC 1
370
     0
100
AcDbSpline
210
0.0
220
0.0
230
1.0
 70
    11
 71
     3
 72
    26
 73
    22
 74
     0
 42
0.0000000001
 43
0.0000000001
 12
1.0
 22
0.0
 32
0.0
 13
1.0
 23
0.0
 33
0.0
 40
0.0
 40
0.0
 40
0.0
 40
0.0
 40
1.0
 40
1.0
 40
1.0
 40
2.0
 40
2.0
 40
2.0
 40
3.0
 40
3.0
 40
3.0
 40
4.0
 40
4.0
 40
4.0
 40
5.0
 40
5.0
 40
5.0
 40
6.0
 40
6.0
 40
6.0
 40
7.0
 40
7.0
 40
7.0
 40
7.0
 10
78.66255423380659
 20
-133.9628824534884
 30
0.0
 10
78.66255423380659
 20
-133.9628824534884
 30
0.0
 10
78.66255423380659
 20
-132.8583848409174
 30
0.0
 10
78.66255423380659
 20
-132.8583848409174
 30
0.0
 10
78.66255423380659
 20
-132.8583848409174
 30
0.0
 10
78.33251408631965
 20
-132.8583848409174
 30
0.0
 10
78.33251408631965
 20
-132.8583848409174
 30
0.0
 10
78.33251408631965
 20
-132.8583848409174
 30
0.0
 10
78.33251408631965
 20
-132.7105902446001
 30
0.0
 10
78.33251408631965
 20
-132.7105902446001
 30
0.0
 10
78.66462129109773
 20
-132.6957763340136
 30
0.0
 10
78.7111300801486
 20
-132.5328233175613
 30
0.0
 10
78.74075790132176
 20
-132.4184461474509
 30
0.0
 10
78.74075790132176
 20
-132.4184461474509
 30
0.0
 10
78.88682994989635
 20
-132.4184461474509
 30
0.0
 10
78.88682994989635
 20
-132.4184461474509
 30
0.0
 10
78.88682994989635
 20
-132.4184461474509
 30
0.0
 10
78.88682994989635
 20
-133.9628824534884
 30
0.0
 10
78.88682994989635
 20
-133.9628824534884
 30
0.0
 10
78.88682994989635
 20
-133.9628824534884
 30
0.0
 10
78.66255423380659
 20
-133.9628824534884
 30
0.0
 10
78.66255423380659
 20
-133.9628824534884
 30
0.0
  0
HATCH
  5
66
330
61
100
AcDbEntity
  8
_U+30EC_U+30A4_U+30E4_U+30FC 1
 62
   179
420
  2234388
100
AcDbHatch
 10
0.0
 20
0.0
 30
0.0
210
0.0
220
0.0
230
1.0
  2
SOLID
 70
     1
 71
     0
 91
        1
 92
        1
 93
        1
 72
     4
 94
        3
 73
     0
 74
     1
 95
       26
 96
       22
 40
0.0
 40
0.0
 40
0.0
 40
0.0
 40
1.0
 40
1.0
 40
1.0
 40
2.0
 40
2.0
 40
2.0
 40
3.0
 40
3.0
 40
3.0
 40
4.0
 40
4.0
 40
4.0
 40
5.0
 40
5.0
 40
5.0
 40
6.0
 40
6.0
 40
6.0
 40
7.0
 40
7.0
 40
7.0
 40
7.0
 10
78.66255423380659
 20
-133.9628824534884
 10
78.66255423380659
 20
-133.9628824534884
 10
78.66255423380659
 20
-132.8583848409174
 10
78.66255423380659
 20
-132.8583848409174
 10
78.66255423380659
 20
-132.8583848409174
 10
78.33251408631965
 20
-132.8583848409174
 10
78.33251408631965
 20
-132.8583848409174
 10
78.33251408631965
 20
-132.8583848409174
 10
78.33251408631965
 20
-132.7105902446001
 10
78.33251408631965
 20
-132.7105902446001
 10
78.66462129109773
 20
-132.6957763340136
 10
78.7111300801486
 20
-132.5328233175613
 10
78.74075790132176
 20
-132.4184461474509
 10
78.74075790132176
 20
-132.4184461474509
 10
78.88682994989635
 20
-132.4184461474509
 10
78.88682994989635
 20
-132.4184461474509
 10
78.88682994989635
 20
-132.4184461474509
 10
78.88682994989635
 20
-133.9628824534884
 10
78.88682994989635
 20
-133.9628824534884
 10
78.88682994989635
 20
-133.9628824534884
 10
78.66255423380659
 20
-133.9628824534884
 10
78.66255423380659
 20
-133.9628824534884
 97
        0
 97
        0
 75
     2
 76
     1
 98
        0
  0
SPLINE
  5
67
330
61
100
AcDbEntity
  8
_U+30EC_U+30A4_U+30E4_U+30FC 1
370
     0
100
AcDbSpline
210
0.0
220
0.0
230
1.0
 70
    11
 71
     3
 72
    53
 73
    49
 74
     0
 42
0.0000000001
 43
0.0000000001
 12
1.0
 22
0.0
 32
0.0
 13
1.0
 23
0.0
 33
0.0
 40
0.0
 40
0.0
 40
0.0
 40
0.0
 40
1.0
 40
1.0
 40
1.0
 40
2.0
 40
2.0
 40
2.0
 40
3.0
 40
3.0
 40
3.0
 40
4.0
 40
4.0
 40
4.0
 40
5.0
 40
5.0
 40
5.0
 40
6.0
 40
6.0
 40
6.0
 40
7.0
 40
7.0
 40
7.0
 40
8.0
 40
8.0
 40
8.0
 40
9.0
 40
9.0
 40
9.0
 40
10.0
 40
10.0
 40
10.0
 40
11.0
 40
11.0
 40
11.0
 40
12.0
 40
12.0
 40
12.0
 40
13.0
 40
13.0
 40
13.0
 40
14.0
 40
14.0
 40
14.0
 40
15.0
 40
15.0
 40
15.0
 40
16.0
 40
16.0
 40
16.0
 40
16.0
 10
79.86902667274109
 20
-134.0135253571216
 30
0.0
 10
79.79065075045165
 20
-134.0135253571216
 30
0.0
 10
79.68919268841104
 20
-133.9966443892439
 30
0.0
 10
79.58756237159616
 20
-133.9332546323153
 30
0.0
 10
79.41410181391385
 20
-133.8230115767873
 30
0.0
 10
79.39291447667955
 20
-133.6920979483478
 30
0.0
 10
79.37396645151068
 20
-133.5842664596595
 30
0.0
 10
79.37396645151068
 20
-133.5842664596595
 30
0.0
 10
79.59600285553503
 20
-133.5842664596595
 30
0.0
 10
79.59600285553503
 20
-133.5842664596595
 30
0.0
 10
79.65112438329903
 20
-133.7830484691584
 30
0.0
 10
79.77807615193048
 20
-133.8126762903316
 30
0.0
 10
79.87109373003223
 20
-133.8126762903316
 30
0.0
 10
80.01062009718486
 20
-133.8126762903316
 30
0.0
 10
80.16306557240715
 20
-133.7131130308078
 30
0.0
 10
80.16306557240715
 20
-133.4805690855535
 30
0.0
 10
80.16306557240715
 20
-133.2245984909994
 30
0.0
 10
79.98323158807712
 20
-133.1546630526488
 30
0.0
 10
79.86265324609337
 20
-133.1546630526488
 30
0.0
 10
79.83095836762907
 20
-133.1546630526488
 30
0.0
 10
79.68919268841104
 20
-133.1546630526488
 30
0.0
 10
79.60030922489159
 20
-133.2838541333457
 30
0.0
 10
79.60030922489159
 20
-133.2838541333457
 30
0.0
 10
79.42478160991811
 20
-133.2645615986283
 30
0.0
 10
79.42478160991811
 20
-133.2645615986283
 30
0.0
 10
79.42478160991811
 20
-133.2645615986283
 30
0.0
 10
79.54535995190186
 20
-132.4184461474509
 30
0.0
 10
79.54535995190186
 20
-132.4184461474509
 30
0.0
 10
79.54535995190186
 20
-132.4184461474509
 30
0.0
 10
80.32377927679406
 20
-132.4184461474509
 30
0.0
 10
80.32377927679406
 20
-132.4184461474509
 30
0.0
 10
80.32377927679406
 20
-132.4184461474509
 30
0.0
 10
80.32377927679406
 20
-132.6130940423676
 30
0.0
 10
80.32377927679406
 20
-132.6130940423676
 30
0.0
 10
80.32377927679406
 20
-132.6130940423676
 30
0.0
 10
79.70814071357991
 20
-132.6130940423676
 30
0.0
 10
79.70814071357991
 20
-132.6130940423676
 30
0.0
 10
79.70814071357991
 20
-132.6130940423676
 30
0.0
 10
79.64268389936016
 20
-133.0361517679563
 30
0.0
 10
79.64268389936016
 20
-133.0361517679563
 30
0.0
 10
79.70400659899761
 20
-133.0023898322008
 30
0.0
 10
79.78651663586935
 20
-132.9620822150234
 30
0.0
 10
79.90485566578768
 20
-132.9620822150234
 30
0.0
 10
80.1587592030506
 20
-132.9620822150234
 30
0.0
 10
80.39578177243578
 20
-133.1484618807754
 30
0.0
 10
80.39578177243578
 20
-133.4612765508361
 30
0.0
 10
80.39578177243578
 20
-133.7789143545761
 30
0.0
 10
80.17150605634602
 20
-134.0135253571216
 30
0.0
 10
79.86902667274109
 20
-134.0135253571216
 30
0.0
  0
HATCH
  5
68
330
61
100
AcDbEntity
  8
_U+30EC_U+30A4_U+30E4_U+30FC 1
 62
   179
420
  2234388
100
AcDbHatch
 10
0.0
 20
0.0
 30
0.0
210
0.0
220
0.0
230
1.0
  2
SOLID
 70
     1
 71
     0
 91
        1
 92
        1
 93
        1
 72
     4
 94
        3
 73
     0
 74
     1
 95
       53
 96
       49
 40
0.0
 40
0.0
 40
0.0
 40
0.0
 40
1.0
 40
1.0
 40
1.0
 40
2.0
 40
2.0
 40
2.0
 40
3.0
 40
3.0
 40
3.0
 40
4.0
 40
4.0
 40
4.0
 40
5.0
 40
5.0
 40
5.0
 40
6.0
 40
6.0
 40
6.0
 40
7.0
 40
7.0
 40
7.0
 40
8.0
 40
8.0
 40
8.0
 40
9.0
 40
9.0
 40
9.0
 40
10.0
 40
10.0
 40
10.0
 40
11.0
 40
11.0
 40
11.0
 40
12.0
 40
12.0
 40
12.0
 40
13.0
 40
13.0
 40
13.0
 40
14.0
 40
14.0
 40
14.0
 40
15.0
 40
15.0
 40
15.0
 40
16.0
 40
16.0
 40
16.0
 40
16.0
 10
79.86902667274109
 20
-134.0135253571216
 10
79.79065075045165
 20
-134.0135253571216
 10
79.68919268841104
 20
-133.9966443892439
 10
79.58756237159616
 20
-133.9332546323153
 10
79.41410181391385
 20
-133.8230115767873
 10
79.39291447667955
 20
-133.6920979483478
 10
79.37396645151068
 20
-133.5842664596595
 10
79.37396645151068
 20
-133.5842664596595
 10
79.59600285553503
 20
-133.5842664596595
 10
79.59600285553503
 20
-133.5842664596595
 10
79.65112438329903
 20
-133.7830484691584
 10
79.77807615193048
 20
-133.8126762903316
 10
79.87109373003223
 20
-133.8126762903316
 10
80.01062009718486
 20
-133.8126762903316
 10
80.16306557240715
 20
-133.7131130308078
 10
80.16306557240715
 20
-133.4805690855535
 10
80.16306557240715
 20
-133.2245984909994
 10
79.98323158807712
 20
-133.1546630526488
 10
79.86265324609337
 20
-133.1546630526488
 10
79.83095836762907
 20
-133.1546630526488
 10
79.68919268841104
 20
-133.1546630526488
 10
79.60030922489159
 20
-133.2838541333457
 10
79.60030922489159
 20
-133.2838541333457
 10
79.42478160991811
 20
-133.2645615986283
 10
79.42478160991811
 20
-133.2645615986283
 10
79.42478160991811
 20
-133.2645615986283
 10
79.54535995190186
 20
-132.4184461474509
 10
79.54535995190186
 20
-132.4184461474509
 10
79.54535995190186
 20
-132.4184461474509
 10
80.32377927679406
 20
-132.4184461474509
 10
80.32377927679406
 20
-132.4184461474509
 10
80.32377927679406
 20
-132.4184461474509
 10
80.32377927679406
 20
-132.6130940423676
 10
80.32377927679406
 20
-132.6130940423676
 10
80.32377927679406
 20
-132.6130940423676
 10
79.70814071357991
 20
-132.6130940423676
 10
79.70814071357991
 20
-132.6130940423676
 10
79.70814071357991
 20
-132.6130940423676
 10
79.64268389936016
 20
-133.0361517679563
 10
79.64268389936016
 20
-133.0361517679563
 10
79.70400659899761
 20
-133.0023898322008
 10
79.78651663586935
 20
-132.9620822150234
 10
79.90485566578768
 20
-132.9620822150234
 10
80.1587592030506
 20
-132.9620822150234
 10
80.39578177243578
 20
-133.1484618807754
 10
80.39578177243578
 20
-133.4612765508361
 10
80.39578177243578
 20
-133.7789143545761
 10
80.17150605634602
 20
-134.0135253571216
 10
79.86902667274109
 20
-134.0135253571216
 97
        0
 97
        0
 75
     2
 76
     1
 98
        0
  0
ENDBLK
  5
64
330
61
100
AcDbEntity
  8
0
100
AcDbBlockEnd
  0
BLOCK
  5
73
330
71
100
AcDbEntity
  8
0
100
AcDbBlockBegin
  2
block 4
 70
     0
 10
0.0
 20
0.0
 30
0.0
  3
block 4
  1

  0
SPLINE
  5
75
330
71
100
AcDbEntity
  8
_U+30EC_U+30A4_U+30E4_U+30FC 1
370
     0
100
AcDbSpline
210
0.0
220
0.0
230
1.0
 70
    11
 71
     3
 72
    26
 73
    22
 74
     0
 42
0.0000000001
 43
0.0000000001
 12
1.0
 22
0.0
 32
0.0
 13
1.0
 23
0.0
 33
0.0
 40
0.0
 40
0.0
 40
0.0
 40
0.0
 40
1.0
 40
1.0
 40
1.0
 40
2.0
 40
2.0
 40
2.0
 40
3.0
 40
3.0
 40
3.0
 40
4.0
 40
4.0
 40
4.0
 40
5.0
 40
5.0
 40
5.0
 40
6.0
 40
6.0
 40
6.0
 40
7.0
 40
7.0
 40
7.0
 40
7.0
 10
101.6627007124316
 20
-133.9628824534884
 30
0.0
 10
101.6627007124316
 20
-133.9628824534884
 30
0.0
 10
101.6627007124316
 20
-132.8583848409174
 30
0.0
 10
101.6627007124316
 20
-132.8583848409174
 30
0.0
 10
101.6627007124316
 20
-132.8583848409174
 30
0.0
 10
101.3326605649446
 20
-132.8583848409174
 30
0.0
 10
101.3326605649446
 20
-132.8583848409174
 30
0.0
 10
101.3326605649446
 20
-132.8583848409174
 30
0.0
 10
101.3326605649446
 20
-132.7105902446001
 30
0.0
 10
101.3326605649446
 20
-132.7105902446001
 30
0.0
 10
101.6647677697227
 20
-132.6957763340136
 30
0.0
 10
101.7112765587736
 20
-132.5328233175613
 30
0.0
 10
101.7409043799467
 20
-132.4184461474509
 30
0.0
 10
101.7409043799467
 20
-132.4184461474509
 30
0.0
 10
101.8869764285213
 20
-132.4184461474509
 30
0.0
 10
101.8869764285213
 20
-132.4184461474509
 30
0.0
 10
101.8869764285213
 20
-132.4184461474509
 30
0.0
 10
101.8869764285213
 20
-133.9628824534884
 30
0.0
 10
101.8869764285213
 20
-133.9628824534884
 30
0.0
 10
101.8869764285213
 20
-133.9628824534884
 30
0.0
 10
101.6627007124316
 20
-133.9628824534884
 30
0.0
 10
101.6627007124316
 20
-133.9628824534884
 30
0.0
  0
HATCH
  5
76
330
71
100
AcDbEntity
  8
_U+30EC_U+30A4_U+30E4_U+30FC 1
 62
   179
420
  2234388
100
AcDbHatch
 10
0.0
 20
0.0
 30
0.0
210
0.0
220
0.0
230
1.0
  2
SOLID
 70
     1
 71
     0
 91
        1
 92
        1
 93
        1
 72
     4
 94
        3
 73
     0
 74
     1
 95
       26
 96
       22
 40
0.0
 40
0.0
 40
0.0
 40
0.0
 40
1.0
 40
1.0
 40
1.0
 40
2.0
 40
2.0
 40
2.0
 40
3.0
 40
3.0
 40
3.0
 40
4.0
 40
4.0
 40
4.0
 40
5.0
 40
5.0
 40
5.0
 40
6.0
 40
6.0
 40
6.0
 40
7.0
 40
7.0
 40
7.0
 40
7.0
 10
101.6627007124316
 20
-133.9628824534884
 10
101.6627007124316
 20
-133.9628824534884
 10
101.6627007124316
 20
-132.8583848409174
 10
101.6627007124316
 20
-132.8583848409174
 10
101.6627007124316
 20
-132.8583848409174
 10
101.3326605649446
 20
-132.8583848409174
 10
101.3326605649446
 20
-132.8583848409174
 10
101.3326605649446
 20
-132.8583848409174
 10
101.3326605649446
 20
-132.7105902446001
 10
101.3326605649446
 20
-132.7105902446001
 10
101.6647677697227
 20
-132.6957763340136
 10
101.7112765587736
 20
-132.5328233175613
 10
101.7409043799467
 20
-132.4184461474509
 10
101.7409043799467
 20
-132.4184461474509
 10
101.8869764285213
 20
-132.4184461474509
 10
101.8869764285213
 20
-132.4184461474509
 10
101.8869764285213
 20
-132.4184461474509
 10
101.8869764285213
 20
-133.9628824534884
 10
101.8869764285213
 20
-133.9628824534884
 10
101.8869764285213
 20
-133.9628824534884
 10
101.6627007124316
 20
-133.9628824534884
 10
101.6627007124316
 20
-133.9628824534884
 97
        0
 97
        0
 75
     2
 76
     1
 98
        0
  0
SPLINE
  5
77
330
71
100
AcDbEntity
  8
_U+30EC_U+30A4_U+30E4_U+30FC 1
370
     0
100
AcDbSpline
210
0.0
220
0.0
230
1.0
 70
    11
 71
     3
 72
    53
 73
    49
 74
     0
 42
0.0000000001
 43
0.0000000001
 12
1.0
 22
0.0
 32
0.0
 13
1.0
 23
0.0
 33
0.0
 40
0.0
 40
0.0
 40
0.0
 40
0.0
 40
1.0
 40
1.0
 40
1.0
 40
2.0
 40
2.0
 40
2.0
 40
3.0
 40
3.0
 40
3.0
 40
4.0
 40
4.0
 40
4.0
 40
5.0
 40
5.0
 40
5.0
 40
6.0
 40
6.0
 40
6.0
 40
7.0
 40
7.0
 40
7.0
 40
8.0
 40
8.0
 40
8.0
 40
9.0
 40
9.0
 40
9.0
 40
10.0
 40
10.0
 40
10.0
 40
11.0
 40
11.0
 40
11.0
 40
12.0
 40
12.0
 40
12.0
 40
13.0
 40
13.0
 40
13.0
 40
14.0
 40
14.0
 40
14.0
 40
15.0
 40
15.0
 40
15.0
 40
16.0
 40
16.0
 40
16.0
 40
16.0
 10
102.869173151366
 20
-134.0135253571216
 30
0.0
 10
102.7909694838509
 20
-134.0135253571216
 30
0.0
 10
102.689339167036
 20
-133.9966443892439
 30
0.0
 10
102.5877088502211
 20
-133.9332546323153
 30
0.0
 10
102.4144205473131
 20
-133.8230115767873
 30
0.0
 10
102.3930609553045
 20
-133.6920979483478
 30
0.0
 10
102.3741129301356
 20
-133.5842664596595
 30
0.0
 10
102.3741129301356
 20
-133.5842664596595
 30
0.0
 10
102.5963215889343
 20
-133.5842664596595
 30
0.0
 10
102.5963215889343
 20
-133.5842664596595
 30
0.0
 10
102.6510986071497
 20
-133.7830484691584
 30
0.0
 10
102.7782226305554
 20
-133.8126762903316
 30
0.0
 10
102.8712402086572
 20
-133.8126762903316
 30
0.0
 10
103.0107665758098
 20
-133.8126762903316
 30
0.0
 10
103.1630397962579
 20
-133.7131130308078
 30
0.0
 10
103.1630397962579
 20
-133.4805690855535
 30
0.0
 10
103.1630397962579
 20
-133.2245984909994
 30
0.0
 10
102.9832058119278
 20
-133.1546630526488
 30
0.0
 10
102.8626274699441
 20
-133.1546630526488
 30
0.0
 10
102.8309325914798
 20
-133.1546630526488
 30
0.0
 10
102.689339167036
 20
-133.1546630526488
 30
0.0
 10
102.6004557035166
 20
-133.2838541333457
 30
0.0
 10
102.6004557035166
 20
-133.2838541333457
 30
0.0
 10
102.4247558337688
 20
-133.2645615986283
 30
0.0
 10
102.4247558337688
 20
-133.2645615986283
 30
0.0
 10
102.4247558337688
 20
-133.2645615986283
 30
0.0
 10
102.5453341757526
 20
-132.4184461474509
 30
0.0
 10
102.5453341757526
 20
-132.4184461474509
 30
0.0
 10
102.5453341757526
 20
-132.4184461474509
 30
0.0
 10
103.323925755419
 20
-132.4184461474509
 30
0.0
 10
103.323925755419
 20
-132.4184461474509
 30
0.0
 10
103.323925755419
 20
-132.4184461474509
 30
0.0
 10
103.323925755419
 20
-132.6130940423676
 30
0.0
 10
103.323925755419
 20
-132.6130940423676
 30
0.0
 10
103.323925755419
 20
-132.6130940423676
 30
0.0
 10
102.7082871922049
 20
-132.6130940423676
 30
0.0
 10
102.7082871922049
 20
-132.6130940423676
 30
0.0
 10
102.7082871922049
 20
-132.6130940423676
 30
0.0
 10
102.6428303779851
 20
-133.0361517679563
 30
0.0
 10
102.6428303779851
 20
-133.0361517679563
 30
0.0
 10
102.7041530776226
 20
-133.0023898322008
 30
0.0
 10
102.78649085972
 20
-132.9620822150234
 30
0.0
 10
102.9050021444126
 20
-132.9620822150234
 30
0.0
 10
103.1589056816756
 20
-132.9620822150234
 30
0.0
 10
103.3959282510607
 20
-133.1484618807754
 30
0.0
 10
103.3959282510607
 20
-133.4612765508361
 30
0.0
 10
103.3959282510607
 20
-133.7789143545761
 30
0.0
 10
103.171652534971
 20
-134.0135253571216
 30
0.0
 10
102.869173151366
 20
-134.0135253571216
 30
0.0
  0
HATCH
  5
78
330
71
100
AcDbEntity
  8
_U+30EC_U+30A4_U+30E4_U+30FC 1
 62
   179
420
  2234388
100
AcDbHatch
 10
0.0
 20
0.0
 30
0.0
210
0.0
220
0.0
230
1.0
  2
SOLID
 70
     1
 71
     0
 91
        1
 92
        1
 93
        1
 72
     4
 94
        3
 73
     0
 74
     1
 95
       53
 96
       49
 40
0.0
 40
0.0
 40
0.0
 40
0.0
 40
1.0
 40
1.0
 40
1.0
 40
2.0
 40
2.0
 40
2.0
 40
3.0
 40
3.0
 40
3.0
 40
4.0
 40
4.0
 40
4.0
 40
5.0
 40
5.0
 40
5.0
 40
6.0
 40
6.0
 40
6.0
 40
7.0
 40
7.0
 40
7.0
 40
8.0
 40
8.0
 40
8.0
 40
9.0
 40
9.0
 40
9.0
 40
10.0
 40
10.0
 40
10.0
 40
11.0
 40
11.0
 40
11.0
 40
12.0
 40
12.0
 40
12.0
 40
13.0
 40
13.0
 40
13.0
 40
14.0
 40
14.0
 40
14.0
 40
15.0
 40
15.0
 40
15.0
 40
16.0
 40
16.0
 40
16.0
 40
16.0
 10
102.869173151366
 20
-134.0135253571216
 10
102.7909694838509
 20
-134.0135253571216
 10
102.689339167036
 20
-133.9966443892439
 10
102.5877088502211
 20
-133.9332546323153
 10
102.4144205473131
 20
-133.8230115767873
 10
102.3930609553045
 20
-133.6920979483478
 10
102.3741129301356
 20
-133.5842664596595
 10
102.3741129301356
 20
-133.5842664596595
 10
102.5963215889343
 20
-133.5842664596595
 10
102.5963215889343
 20
-133.5842664596595
 10
102.6510986071497
 20
-133.7830484691584
 10
102.7782226305554
 20
-133.8126762903316
 10
102.8712402086572
 20
-133.8126762903316
 10
103.0107665758098
 20
-133.8126762903316
 10
103.1630397962579
 20
-133.7131130308078
 10
103.1630397962579
 20
-133.4805690855535
 10
103.1630397962579
 20
-133.2245984909994
 10
102.9832058119278
 20
-133.1546630526488
 10
102.8626274699441
 20
-133.1546630526488
 10
102.8309325914798
 20
-133.1546630526488
 10
102.689339167036
 20
-133.1546630526488
 10
102.6004557035166
 20
-133.2838541333457
 10
102.6004557035166
 20
-133.2838541333457
 10
102.4247558337688
 20
-133.2645615986283
 10
102.4247558337688
 20
-133.2645615986283
 10
102.4247558337688
 20
-133.2645615986283
 10
102.5453341757526
 20
-132.4184461474509
 10
102.5453341757526
 20
-132.4184461474509
 10
102.5453341757526
 20
-132.4184461474509
 10
103.323925755419
 20
-132.4184461474509
 10
103.323925755419
 20
-132.4184461474509
 10
103.323925755419
 20
-132.4184461474509
 10
103.323925755419
 20
-132.6130940423676
 10
103.323925755419
 20
-132.6130940423676
 10
103.323925755419
 20
-132.6130940423676
 10
102.7082871922049
 20
-132.6130940423676
 10
102.7082871922049
 20
-132.6130940423676
 10
102.7082871922049
 20
-132.6130940423676
 10
102.6428303779851
 20
-133.0361517679563
 10
102.6428303779851
 20
-133.0361517679563
 10
102.7041530776226
 20
-133.0023898322008
 10
102.78649085972
 20
-132.9620822150234
 10
102.9050021444126
 20
-132.9620822150234
 10
103.1589056816756
 20
-132.9620822150234
 10
103.3959282510607
 20
-133.1484618807754
 10
103.3959282510607
 20
-133.4612765508361
 10
103.3959282510607
 20
-133.7789143545761
 10
103.171652534971
 20
-134.0135253571216
 10
102.869173151366
 20
-134.0135253571216
 97
        0
 97
        0
 75
     2
 76
     1
 98
        0
  0
ENDBLK
  5
74
330
71
100
AcDbEntity
  8
0
100
AcDbBlockEnd
  0
BLOCK
  5
9D
330
9B
100
AcDbEntity
  8
0
100
AcDbBlockBegin
  2
block 5
 70
     0
 10
0.0
 20
0.0
 30
0.0
  3
block 5
  1

  0
SPLINE
  5
9F
330
9B
100
AcDbEntity
  8
_U+30EC_U+30A4_U+30E4_U+30FC 1
370
     0
100
AcDbSpline
210
0.0
220
0.0
230
1.0
 70
    11
 71
     3
 72
    26
 73
    22
 74
     0
 42
0.0000000001
 43
0.0000000001
 12
1.0
 22
0.0
 32
0.0
 13
1.0
 23
0.0
 33
0.0
 40
0.0
 40
0.0
 40
0.0
 40
0.0
 40
1.0
 40
1.0
 40
1.0
 40
2.0
 40
2.0
 40
2.0
 40
3.0
 40
3.0
 40
3.0
 40
4.0
 40
4.0
 40
4.0
 40
5.0
 40
5.0
 40
5.0
 40
6.0
 40
6.0
 40
6.0
 40
7.0
 40
7.0
 40
7.0
 40
7.0
 10
98.15421547025312
 20
-126.2458685665288
 30
0.0
 10
98.15421547025312
 20
-126.2458685665288
 30
0.0
 10
97.05006236723054
 20
-126.2458685665288
 30
0.0
 10
97.05006236723054
 20
-126.2458685665288
 30
0.0
 10
97.05006236723054
 20
-126.2458685665288
 30
0.0
 10
97.05006236723054
 20
-126.5759087140158
 30
0.0
 10
97.05006236723054
 20
-126.5759087140158
 30
0.0
 10
97.05006236723054
 20
-126.5759087140158
 30
0.0
 10
96.9019232613648
 20
-126.5759087140158
 30
0.0
 10
96.9019232613648
 20
-126.5759087140158
 30
0.0
 10
96.88710935077823
 20
-126.2438015092377
 30
0.0
 10
96.72415633432591
 20
-126.1972927201868
 30
0.0
 10
96.60977916421561
 20
-126.1676648990136
 30
0.0
 10
96.60977916421561
 20
-126.1676648990136
 30
0.0
 10
96.60977916421561
 20
-126.021592850439
 30
0.0
 10
96.60977916421561
 20
-126.021592850439
 30
0.0
 10
96.60977916421561
 20
-126.021592850439
 30
0.0
 10
98.15421547025312
 20
-126.021592850439
 30
0.0
 10
98.15421547025312
 20
-126.021592850439
 30
0.0
 10
98.15421547025312
 20
-126.021592850439
 30
0.0
 10
98.15421547025312
 20
-126.2458685665288
 30
0.0
 10
98.15421547025312
 20
-126.2458685665288
 30
0.0
  0
HATCH
  5
A0
330
9B
100
AcDbEntity
  8
_U+30EC_U+30A4_U+30E4_U+30FC 1
 62
   179
420
  2234388
100
AcDbHatch
 10
0.0
 20
0.0
 30
0.0
210
0.0
220
0.0
230
1.0
  2
SOLID
 70
     1
 71
     0
 91
        1
 92
        1
 93
        1
 72
     4
 94
        3
 73
     0
 74
     1
 95
       26
 96
       22
 40
0.0
 40
0.0
 40
0.0
 40
0.0
 40
1.0
 40
1.0
 40
1.0
 40
2.0
 40
2.0
 40
2.0
 40
3.0
 40
3.0
 40
3.0
 40
4.0
 40
4.0
 40
4.0
 40
5.0
 40
5.0
 40
5.0
 40
6.0
 40
6.0
 40
6.0
 40
7.0
 40
7.0
 40
7.0
 40
7.0
 10
98.15421547025312
 20
-126.2458685665288
 10
98.15421547025312
 20
-126.2458685665288
 10
97.05006236723054
 20
-126.2458685665288
 10
97.05006236723054
 20
-126.2458685665288
 10
97.05006236723054
 20
-126.2458685665288
 10
97.05006236723054
 20
-126.5759087140158
 10
97.05006236723054
 20
-126.5759087140158
 10
97.05006236723054
 20
-126.5759087140158
 10
96.9019232613648
 20
-126.5759087140158
 10
96.9019232613648
 20
-126.5759087140158
 10
96.88710935077823
 20
-126.2438015092377
 10
96.72415633432591
 20
-126.1972927201868
 10
96.60977916421561
 20
-126.1676648990136
 10
96.60977916421561
 20
-126.1676648990136
 10
96.60977916421561
 20
-126.021592850439
 10
96.60977916421561
 20
-126.021592850439
 10
96.60977916421561
 20
-126.021592850439
 10
98.15421547025312
 20
-126.021592850439
 10
98.15421547025312
 20
-126.021592850439
 10
98.15421547025312
 20
-126.021592850439
 10
98.15421547025312
 20
-126.2458685665288
 10
98.15421547025312
 20
-126.2458685665288
 97
        0
 97
        0
 75
     2
 76
     1
 98
        0
  0
SPLINE
  5
A1
330
9B
100
AcDbEntity
  8
_U+30EC_U+30A4_U+30E4_U+30FC 1
370
     0
100
AcDbSpline
210
0.0
220
0.0
230
1.0
 70
    11
 71
     3
 72
    29
 73
    25
 74
     0
 42
0.0000000001
 43
0.0000000001
 12
1.0
 22
0.0
 32
0.0
 13
1.0
 23
0.0
 33
0.0
 40
0.0
 40
0.0
 40
0.0
 40
0.0
 40
1.0
 40
1.0
 40
1.0
 40
2.0
 40
2.0
 40
2.0
 40
3.0
 40
3.0
 40
3.0
 40
4.0
 40
4.0
 40
4.0
 40
5.0
 40
5.0
 40
5.0
 40
6.0
 40
6.0
 40
6.0
 40
7.0
 40
7.0
 40
7.0
 40
8.0
 40
8.0
 40
8.0
 40
8.0
 10
97.97644854321423
 20
-124.6225395738791
 30
0.0
 10
98.18591034871741
 20
-124.7307155721159
 30
0.0
 10
98.2048583738863
 20
-124.904003875024
 30
0.0
 10
98.2048583738863
 20
-125.0204481024254
 30
0.0
 10
98.2048583738863
 20
-125.1813340615866
 30
0.0
 10
98.15834958483542
 20
-125.3229274860304
 30
0.0
 10
97.97644854321423
 20
-125.4180121214233
 30
0.0
 10
97.7818006482976
 20
-125.5217094955293
 30
0.0
 10
97.54477807891242
 20
-125.5406575206982
 30
0.0
 10
97.38216957200864
 20
-125.5406575206982
 30
0.0
 10
97.23816458072518
 20
-125.5406575206982
 30
0.0
 10
96.98632810075343
 20
-125.5237765528205
 30
0.0
 10
96.78754609125451
 20
-125.4180121214233
 30
0.0
 10
96.58462996717329
 20
-125.310180632735
 30
0.0
 10
96.56120331787359
 20
-125.1492946735738
 30
0.0
 10
96.56120331787359
 20
-125.0204481024254
 30
0.0
 10
96.56120331787359
 20
-124.8616292005554
 30
0.0
 10
96.60564504963331
 20
-124.7179687188205
 30
0.0
 10
96.78754609125451
 20
-124.6225395738791
 30
0.0
 10
96.98012692887997
 20
-124.5233208239039
 30
0.0
 10
97.20853675955203
 20
-124.4998941746042
 30
0.0
 10
97.38216957200864
 20
-124.4998941746042
 30
0.0
 10
97.55339081762554
 20
-124.4998941746042
 30
0.0
 10
97.78386770558876
 20
-124.5212537666127
 30
0.0
 10
97.97644854321423
 20
-124.6225395738791
 30
0.0
  0
SPLINE
  5
A2
330
9B
100
AcDbEntity
  8
_U+30EC_U+30A4_U+30E4_U+30FC 1
370
     0
100
AcDbSpline
210
0.0
220
0.0
230
1.0
 70
    11
 71
     3
 72
    17
 73
    13
 74
     0
 42
0.0000000001
 43
0.0000000001
 12
1.0
 22
0.0
 32
0.0
 13
1.0
 23
0.0
 33
0.0
 40
0.0
 40
0.0
 40
0.0
 40
0.0
 40
1.0
 40
1.0
 40
1.0
 40
2.0
 40
2.0
 40
2.0
 40
3.0
 40
3.0
 40
3.0
 40
4.0
 40
4.0
 40
4.0
 40
4.0
 10
96.75378415549906
 20
-125.0204481024254
 30
0.0
 10
96.75378415549906
 20
-125.2698730155575
 30
0.0
 10
97.03731551393513
 20
-125.3167263141569
 30
0.0
 10
97.38216957200864
 20
-125.3167263141569
 30
0.0
 10
97.7015299234913
 20
-125.3167263141569
 30
0.0
 10
98.01021047896967
 20
-125.2805528115618
 30
0.0
 10
98.01021047896967
 20
-125.0204481024254
 30
0.0
 10
98.01021047896967
 20
-124.772745737036
 30
0.0
 10
97.72909068737329
 20
-124.724169890694
 30
0.0
 10
97.38216957200864
 20
-124.724169890694
 30
0.0
 10
97.06246471097744
 20
-124.724169890694
 30
0.0
 10
96.75378415549906
 20
-124.7624104505802
 30
0.0
 10
96.75378415549906
 20
-125.0204481024254
 30
0.0
  0
HATCH
  5
A3
330
9B
100
AcDbEntity
  8
_U+30EC_U+30A4_U+30E4_U+30FC 1
 62
   179
420
  2234388
100
AcDbHatch
 10
0.0
 20
0.0
 30
0.0
210
0.0
220
0.0
230
1.0
  2
SOLID
 70
     1
 71
     0
 91
        2
 92
        1
 93
        1
 72
     4
 94
        3
 73
     0
 74
     1
 95
       29
 96
       25
 40
0.0
 40
0.0
 40
0.0
 40
0.0
 40
1.0
 40
1.0
 40
1.0
 40
2.0
 40
2.0
 40
2.0
 40
3.0
 40
3.0
 40
3.0
 40
4.0
 40
4.0
 40
4.0
 40
5.0
 40
5.0
 40
5.0
 40
6.0
 40
6.0
 40
6.0
 40
7.0
 40
7.0
 40
7.0
 40
8.0
 40
8.0
 40
8.0
 40
8.0
 10
97.97644854321423
 20
-124.6225395738791
 10
98.18591034871741
 20
-124.7307155721159
 10
98.2048583738863
 20
-124.904003875024
 10
98.2048583738863
 20
-125.0204481024254
 10
98.2048583738863
 20
-125.1813340615866
 10
98.15834958483542
 20
-125.3229274860304
 10
97.97644854321423
 20
-125.4180121214233
 10
97.7818006482976
 20
-125.5217094955293
 10
97.54477807891242
 20
-125.5406575206982
 10
97.38216957200864
 20
-125.5406575206982
 10
97.23816458072518
 20
-125.5406575206982
 10
96.98632810075343
 20
-125.5237765528205
 10
96.78754609125451
 20
-125.4180121214233
 10
96.58462996717329
 20
-125.310180632735
 10
96.56120331787359
 20
-125.1492946735738
 10
96.56120331787359
 20
-125.0204481024254
 10
96.56120331787359
 20
-124.8616292005554
 10
96.60564504963331
 20
-124.7179687188205
 10
96.78754609125451
 20
-124.6225395738791
 10
96.98012692887997
 20
-124.5233208239039
 10
97.20853675955203
 20
-124.4998941746042
 10
97.38216957200864
 20
-124.4998941746042
 10
97.55339081762554
 20
-124.4998941746042
 10
97.78386770558876
 20
-124.5212537666127
 10
97.97644854321423
 20
-124.6225395738791
 97
        0
 97
        0
 92
        1
 93
        1
 72
     4
 94
        3
 73
     0
 74
     1
 95
       17
 96
       13
 40
0.0
 40
0.0
 40
0.0
 40
0.0
 40
1.0
 40
1.0
 40
1.0
 40
2.0
 40
2.0
 40
2.0
 40
3.0
 40
3.0
 40
3.0
 40
4.0
 40
4.0
 40
4.0
 40
4.0
 10
96.75378415549906
 20
-125.0204481024254
 10
96.75378415549906
 20
-125.2698730155575
 10
97.03731551393513
 20
-125.3167263141569
 10
97.38216957200864
 20
-125.3167263141569
 10
97.7015299234913
 20
-125.3167263141569
 10
98.01021047896967
 20
-125.2805528115618
 10
98.01021047896967
 20
-125.0204481024254
 10
98.01021047896967
 20
-124.772745737036
 10
97.72909068737329
 20
-124.724169890694
 10
97.38216957200864
 20
-124.724169890694
 10
97.06246471097744
 20
-124.724169890694
 10
96.75378415549906
 20
-124.7624104505802
 10
96.75378415549906
 20
-125.0204481024254
 97
        0
 97
        0
 75
     2
 76
     1
 98
        0
  0
ENDBLK
  5
9E
330
9B
100
AcDbEntity
  8
0
100
AcDbBlockEnd
  0
ENDSEC
  0
SECTION
  2
ENTITIES
  0
SPLINE
  5
41
330
1F
100
AcDbEntity
  8
_U+30EC_U+30A4_U+30E4_U+30FC 1
 62
   179
420
  2234388
370
     9
100
AcDbSpline
210
0.0
220
0.0
230
1.0
 70
    11
 71
     3
 72
    17
 73
    13
 74
     0
 42
0.0000000001
 43
0.0000000001
 12
1.0
 22
0.0
 32
0.0
 13
1.0
 23
0.0
 33
0.0
 40
0.0
 40
0.0
 40
0.0
 40
0.0
 40
1.0
 40
1.0
 40
1.0
 40
2.0
 40
2.0
 40
2.0
 40
3.0
 40
3.0
 40
3.0
 40
4.0
 40
4.0
 40
4.0
 40
4.0
 10
71.89999164869157
 20
-134.6084994107923
 30
0.0
 10
71.89999164869157
 20
-134.5533602441392
 30
0.0
 10
71.85522233348722
 20
-134.5085927441507
 30
0.0
 10
71.79990677934288
 20
-134.5085927441507
 30
0.0
 10
71.7448028918598
 20
-134.5085927441507
 30
0.0
 10
71.70000011522505
 20
-134.5533602441392
 30
0.0
 10
71.70000011522505
 20
-134.6084994107923
 30
0.0
 10
71.70000011522505
 20
-134.6636032996672
 30
0.0
 10
71.7448028918598
 20
-134.7084060774339
 30
0.0
 10
71.79990677934288
 20
-134.7084060774339
 30
0.0
 10
71.85522233348722
 20
-134.7084060774339
 30
0.0
 10
71.89999164869157
 20
-134.6636032996672
 30
0.0
 10
71.89999164869157
 20
-134.6084994107923
 30
0.0
  0
SPLINE
  5
42
330
1F
100
AcDbEntity
  8
_U+30EC_U+30A4_U+30E4_U+30FC 1
 62
   179
420
  2234388
370
     9
100
AcDbSpline
210
0.0
220
0.0
230
1.0
 70
    11
 71
     3
 72
    17
 73
    13
 74
     0
 42
0.0000000001
 43
0.0000000001
 12
1.0
 22
0.0
 32
0.0
 13
1.0
 23
0.0
 33
0.0
 40
0.0
 40
0.0
 40
0.0
 40
0.0
 40
1.0
 40
1.0
 40
1.0
 40
2.0
 40
2.0
 40
2.0
 40
3.0
 40
3.0
 40
3.0
 40
4.0
 40
4.0
 40
4.0
 40
4.0
 10
109.9002585850997
 20
-134.6084994107923
 30
0.0
 10
109.9002585850997
 20
-134.5533602441392
 30
0.0
 10
109.8554910862418
 20
-134.5085927441507
 30
0.0
 10
109.8003519209819
 20
-134.5085927441507
 30
0.0
 10
109.7452480334988
 20
-134.5085927441507
 30
0.0
 10
109.700445256864
 20
-134.5533602441392
 30
0.0
 10
109.700445256864
 20
-134.6084994107923
 30
0.0
 10
109.700445256864
 20
-134.6636032996672
 30
0.0
 10
109.7452480334988
 20
-134.7084060774339
 30
0.0
 10
109.8003519209819
 20
-134.7084060774339
 30
0.0
 10
109.8554910862418
 20
-134.7084060774339
 30
0.0
 10
109.9002585850997
 20
-134.6636032996672
 30
0.0
 10
109.9002585850997
 20
-134.6084994107923
 30
0.0
  0
SPLINE
  5
43
330
1F
100
AcDbEntity
  8
_U+30EC_U+30A4_U+30E4_U+30FC 1
 62
   179
420
  2234388
370
     9
100
AcDbSpline
210
0.0
220
0.0
230
1.0
 70
    11
 71
     3
 72
    17
 73
    13
 74
     0
 42
0.0000000001
 43
0.0000000001
 12
1.0
 22
0.0
 32
0.0
 13
1.0
 23
0.0
 33
0.0
 40
0.0
 40
0.0
 40
0.0
 40
0.0
 40
1.0
 40
1.0
 40
1.0
 40
2.0
 40
2.0
 40
2.0
 40
3.0
 40
3.0
 40
3.0
 40
4.0
 40
4.0
 40
4.0
 40
4.0
 10
86.899959449664
 20
-134.6084994107923
 30
0.0
 10
86.899959449664
 20
-134.5533602441392
 30
0.0
 10
86.85515667302924
 20
-134.5085927441507
 30
0.0
 10
86.80005278554617
 20
-134.5085927441507
 30
0.0
 10
86.74473723140183
 20
-134.5085927441507
 30
0.0
 10
86.69996973254395
 20
-134.5533602441392
 30
0.0
 10
86.69996973254395
 20
-134.6084994107923
 30
0.0
 10
86.69996973254395
 20
-134.6636032996672
 30
0.0
 10
86.74473723140183
 20
-134.7084060774339
 30
0.0
 10
86.80005278554617
 20
-134.7084060774339
 30
0.0
 10
86.85515667302924
 20
-134.7084060774339
 30
0.0
 10
86.899959449664
 20
-134.6636032996672
 30
0.0
 10
86.899959449664
 20
-134.6084994107923
 30
0.0
  0
SPLINE
  5
44
330
1F
100
AcDbEntity
  8
_U+30EC_U+30A4_U+30E4_U+30FC 1
 62
   179
420
  2234388
370
     9
100
AcDbSpline
210
0.0
220
0.0
230
1.0
 70
    11
 71
     3
 72
    17
 73
    13
 74
     0
 42
0.0000000001
 43
0.0000000001
 12
1.0
 22
0.0
 32
0.0
 13
1.0
 23
0.0
 33
0.0
 40
0.0
 40
0.0
 40
0.0
 40
0.0
 40
1.0
 40
1.0
 40
1.0
 40
2.0
 40
2.0
 40
2.0
 40
3.0
 40
3.0
 40
3.0
 40
4.0
 40
4.0
 40
4.0
 40
4.0
 10
94.90032424555768
 20
-134.6084994107923
 30
0.0
 10
94.90032424555768
 20
-134.5533602441392
 30
0.0
 10
94.85552146892293
 20
-134.5085927441507
 30
0.0
 10
94.80041758143986
 20
-134.5085927441507
 30
0.0
 10
94.7452784161799
 20
-134.5085927441507
 30
0.0
 10
94.70051091732202
 20
-134.5533602441392
 30
0.0
 10
94.70051091732202
 20
-134.6084994107923
 30
0.0
 10
94.70051091732202
 20
-134.6636032996672
 30
0.0
 10
94.7452784161799
 20
-134.7084060774339
 30
0.0
 10
94.80041758143986
 20
-134.7084060774339
 30
0.0
 10
94.85552146892293
 20
-134.7084060774339
 30
0.0
 10
94.90032424555768
 20
-134.6636032996672
 30
0.0
 10
94.90032424555768
 20
-134.6084994107923
 30
0.0
  0
POLYLINE
  5
45
330
1F
100
AcDbEntity
  8
_U+30EC_U+30A4_U+30E4_U+30FC 1
 62
   179
420
  2234388
370
     9
100
AcDb2dPolyline
 66
     1
 10
0.0
 20
0.0
 30
0.0
  0
VERTEX
  5
46
330
45
100
AcDbEntity
  8
_U+30EC_U+30A4_U+30E4_U+30FC 1
 62
   179
420
  2234388
370
     9
100
AcDbVertex
100
AcDb2dVertex
 10
86.80005278554617
 20
-134.6084994107923
 30
0.0
  0
VERTEX
  5
47
330
45
100
AcDbEntity
  8
_U+30EC_U+30A4_U+30E4_U+30FC 1
 62
   179
420
  2234388
370
     9
100
AcDbVertex
100
AcDb2dVertex
 10
94.80041758143986
 20
-134.6084994107923
 30
0.0
  0
SEQEND
  5
48
330
45
100
AcDbEntity
  8
_U+30EC_U+30A4_U+30E4_U+30FC 1
 62
   179
420
  2234388
370
     9
  0
POLYLINE
  5
49
330
1F
100
AcDbEntity
  8
_U+30EC_U+30A4_U+30E4_U+30FC 1
 62
   179
420
  2234388
370
     9
100
AcDb2dPolyline
 66
     1
 10
0.0
 20
0.0
 30
0.0
  0
VERTEX
  5
4A
330
49
100
AcDbEntity
  8
_U+30EC_U+30A4_U+30E4_U+30FC 1
 62
   179
420
  2234388
370
     9
100
AcDbVertex
100
AcDb2dVertex
 10
86.80005278554617
 20
-133.1488108000463
 30
0.0
  0
VERTEX
  5
4B
330
49
100
AcDbEntity
  8
_U+30EC_U+30A4_U+30E4_U+30FC 1
 62
   179
420
  2234388
370
     9
100
AcDbVertex
100
AcDb2dVertex
 10
86.80005278554617
 20
-135.6085891327644
 30
0.0
  0
SEQEND
  5
4C
330
49
100
AcDbEntity
  8
_U+30EC_U+30A4_U+30E4_U+30FC 1
 62
   179
420
  2234388
370
     9
  0
POLYLINE
  5
4D
330
1F
100
AcDbEntity
  8
_U+30EC_U+30A4_U+30E4_U+30FC 1
 62
   179
420
  2234388
370
     9
100
AcDb2dPolyline
 66
     1
 10
0.0
 20
0.0
 30
0.0
  0
VERTEX
  5
4E
330
4D
100
AcDbEntity
  8
_U+30EC_U+30A4_U+30E4_U+30FC 1
 62
   179
420
  2234388
370
     9
100
AcDbVertex
100
AcDb2dVertex
 10
94.80041758143986
 20
-133.1488108000463
 30
0.0
  0
VERTEX
  5
4F
330
4D
100
AcDbEntity
  8
_U+30EC_U+30A4_U+30E4_U+30FC 1
 62
   179
420
  2234388
370
     9
100
AcDbVertex
100
AcDb2dVertex
 10
94.80041758143986
 20
-135.6085891327644
 30
0.0
  0
SEQEND
  5
50
330
4D
100
AcDbEntity
  8
_U+30EC_U+30A4_U+30E4_U+30FC 1
 62
   179
420
  2234388
370
     9
  0
INSERT
  5
52
330
1F
100
AcDbEntity
  8
_U+30EC_U+30A4_U+30E4_U+30FC 1
100
AcDbBlockReference
  2
block 2
 10
0.0
 20
0.0
 30
0.0
  0
POLYLINE
  5
59
330
1F
100
AcDbEntity
  8
_U+30EC_U+30A4_U+30E4_U+30FC 1
 62
   179
420
  2234388
370
     9
100
AcDb2dPolyline
 66
     1
 10
0.0
 20
0.0
 30
0.0
  0
VERTEX
  5
5A
330
59
100
AcDbEntity
  8
_U+30EC_U+30A4_U+30E4_U+30FC 1
 62
   179
420
  2234388
370
     9
100
AcDbVertex
100
AcDb2dVertex
 10
71.79990677934288
 20
-134.6084994107923
 30
0.0
  0
VERTEX
  5
5B
330
59
100
AcDbEntity
  8
_U+30EC_U+30A4_U+30E4_U+30FC 1
 62
   179
420
  2234388
370
     9
100
AcDbVertex
100
AcDb2dVertex
 10
86.80005278554617
 20
-134.6084994107923
 30
0.0
  0
SEQEND
  5
5C
330
59
100
AcDbEntity
  8
_U+30EC_U+30A4_U+30E4_U+30FC 1
 62
   179
420
  2234388
370
     9
  0
POLYLINE
  5
5D
330
1F
100
AcDbEntity
  8
_U+30EC_U+30A4_U+30E4_U+30FC 1
 62
   179
420
  2234388
370
     9
100
AcDb2dPolyline
 66
     1
 10
0.0
 20
0.0
 30
0.0
  0
VERTEX
  5
5E
330
5D
100
AcDbEntity
  8
_U+30EC_U+30A4_U+30E4_U+30FC 1
 62
   179
420
  2234388
370
     9
100
AcDbVertex
100
AcDb2dVertex
 10
71.79990677934288
 20
-132.1483683002965
 30
0.0
  0
VERTEX
  5
5F
330
5D
100
AcDbEntity
  8
_U+30EC_U+30A4_U+30E4_U+30FC 1
 62
   179
420
  2234388
370
     9
100
AcDbVertex
100
AcDb2dVertex
 10
71.79990677934288
 20
-135.6085891327644
 30
0.0
  0
SEQEND
  5
60
330
5D
100
AcDbEntity
  8
_U+30EC_U+30A4_U+30E4_U+30FC 1
 62
   179
420
  2234388
370
     9
  0
INSERT
  5
62
330
1F
100
AcDbEntity
  8
_U+30EC_U+30A4_U+30E4_U+30FC 1
100
AcDbBlockReference
  2
block 3
 10
0.0
 20
0.0
 30
0.0
  0
POLYLINE
  5
69
330
1F
100
AcDbEntity
  8
_U+30EC_U+30A4_U+30E4_U+30FC 1
 62
   179
420
  2234388
370
     9
100
AcDb2dPolyline
 66
     1
 10
0.0
 20
0.0
 30
0.0
  0
VERTEX
  5
6A
330
69
100
AcDbEntity
  8
_U+30EC_U+30A4_U+30E4_U+30FC 1
 62
   179
420
  2234388
370
     9
100
AcDbVertex
100
AcDb2dVertex
 10
94.80041758143986
 20
-134.6084994107923
 30
0.0
  0
VERTEX
  5
6B
330
69
100
AcDbEntity
  8
_U+30EC_U+30A4_U+30E4_U+30FC 1
 62
   179
420
  2234388
370
     9
100
AcDbVertex
100
AcDb2dVertex
 10
109.8003519209819
 20
-134.6084994107923
 30
0.0
  0
SEQEND
  5
6C
330
69
100
AcDbEntity
  8
_U+30EC_U+30A4_U+30E4_U+30FC 1
 62
   179
420
  2234388
370
     9
  0
POLYLINE
  5
6D
330
1F
100
AcDbEntity
  8
_U+30EC_U+30A4_U+30E4_U+30FC 1
 62
   179
420
  2234388
370
     9
100
AcDb2dPolyline
 66
     1
 10
0.0
 20
0.0
 30
0.0
  0
VERTEX
  5
6E
330
6D
100
AcDbEntity
  8
_U+30EC_U+30A4_U+30E4_U+30FC 1
 62
   179
420
  2234388
370
     9
100
AcDbVertex
100
AcDb2dVertex
 10
109.8003519209819
 20
-132.1483683002965
 30
0.0
  0
VERTEX
  5
6F
330
6D
100
AcDbEntity
  8
_U+30EC_U+30A4_U+30E4_U+30FC 1
 62
   179
420
  2234388
370
     9
100
AcDbVertex
100
AcDb2dVertex
 10
109.8003519209819
 20
-135.6085891327644
 30
0.0
  0
SEQEND
  5
70
330
6D
100
AcDbEntity
  8
_U+30EC_U+30A4_U+30E4_U+30FC 1
 62
   179
420
  2234388
370
     9
  0
INSERT
  5
72
330
1F
100
AcDbEntity
  8
_U+30EC_U+30A4_U+30E4_U+30FC 1
100
AcDbBlockReference
  2
block 4
 10
0.0
 20
0.0
 30
0.0
  0
POLYLINE
  5
79
330
1F
100
AcDbEntity
  8
_U+30EC_U+30A4_U+30E4_U+30FC 1
 62
   179
420
  2234388
370
    25
100
AcDb2dPolyline
 66
     1
 10
0.0
 20
0.0
 30
0.0
  0
VERTEX
  5
7A
330
79
100
AcDbEntity
  8
_U+30EC_U+30A4_U+30E4_U+30FC 1
 62
   179
420
  2234388
370
    25
100
AcDbVertex
100
AcDb2dVertex
 10
71.79990677934288
 20
-120.6084780254035
 30
0.0
  0
VERTEX
  5
7B
330
79
100
AcDbEntity
  8
_U+30EC_U+30A4_U+30E4_U+30FC 1
 62
   179
420
  2234388
370
    25
100
AcDbVertex
100
AcDb2dVertex
 10
85.79992781106148
 20
-120.6084780254035
 30
0.0
  0
SEQEND
  5
7C
330
79
100
AcDbEntity
  8
_U+30EC_U+30A4_U+30E4_U+30FC 1
 62
   179
420
  2234388
370
    25
  0
POLYLINE
  5
7D
330
1F
100
AcDbEntity
  8
_U+30EC_U+30A4_U+30E4_U+30FC 1
 62
   179
420
  2234388
370
    25
100
AcDb2dPolyline
 66
     1
 10
0.0
 20
0.0
 30
0.0
  0
VERTEX
  5
7E
330
7D
100
AcDbEntity
  8
_U+30EC_U+30A4_U+30E4_U+30FC 1
 62
   179
420
  2234388
370
    25
100
AcDbVertex
100
AcDb2dVertex
 10
87.79996609336959
 20
-130.6083874673477
 30
0.0
  0
VERTEX
  5
7F
330
7D
100
AcDbEntity
  8
_U+30EC_U+30A4_U+30E4_U+30FC 1
 62
   179
420
  2234388
370
    25
100
AcDbVertex
100
AcDb2dVertex
 10
93.79993982918639
 20
-130.6083874673477
 30
0.0
  0
SEQEND
  5
80
330
7D
100
AcDbEntity
  8
_U+30EC_U+30A4_U+30E4_U+30FC 1
 62
   179
420
  2234388
370
    25
  0
POLYLINE
  5
81
330
1F
100
AcDbEntity
  8
_U+30EC_U+30A4_U+30E4_U+30FC 1
 62
   179
420
  2234388
370
    25
100
AcDb2dPolyline
 66
     1
 10
0.0
 20
0.0
 30
0.0
  0
VERTEX
  5
82
330
81
100
AcDbEntity
  8
_U+30EC_U+30A4_U+30E4_U+30FC 1
 62
   179
420
  2234388
370
    25
100
AcDbVertex
100
AcDb2dVertex
 10
94.80041758143986
 20
-121.6086030251535
 30
0.0
  0
VERTEX
  5
83
330
81
100
AcDbEntity
  8
_U+30EC_U+30A4_U+30E4_U+30FC 1
 62
   179
420
  2234388
370
    25
100
AcDbVertex
100
AcDb2dVertex
 10
94.80041758143986
 20
-129.6086152453757
 30
0.0
  0
SEQEND
  5
84
330
81
100
AcDbEntity
  8
_U+30EC_U+30A4_U+30E4_U+30FC 1
 62
   179
420
  2234388
370
    25
  0
POLYLINE
  5
85
330
1F
100
AcDbEntity
  8
_U+30EC_U+30A4_U+30E4_U+30FC 1
 62
   179
420
  2234388
370
    25
100
AcDb2dPolyline
 66
     1
 10
0.0
 20
0.0
 30
0.0
  0
VERTEX
  5
86
330
85
100
AcDbEntity
  8
_U+30EC_U+30A4_U+30E4_U+30FC 1
 62
   179
420
  2234388
370
    25
100
AcDbVertex
100
AcDb2dVertex
 10
86.80005278554617
 20
-121.6086030251535
 30
0.0
  0
VERTEX
  5
87
330
85
100
AcDbEntity
  8
_U+30EC_U+30A4_U+30E4_U+30FC 1
 62
   179
420
  2234388
370
    25
100
AcDbVertex
100
AcDb2dVertex
 10
86.80005278554617
 20
-129.6086152453757
 30
0.0
  0
SEQEND
  5
88
330
85
100
AcDbEntity
  8
_U+30EC_U+30A4_U+30E4_U+30FC 1
 62
   179
420
  2234388
370
    25
  0
POLYLINE
  5
89
330
1F
100
AcDbEntity
  8
_U+30EC_U+30A4_U+30E4_U+30FC 1
 62
   179
420
  2234388
370
    25
100
AcDb2dPolyline
 66
     1
 10
0.0
 20
0.0
 30
0.0
  0
VERTEX
  5
8A
330
89
100
AcDbEntity
  8
_U+30EC_U+30A4_U+30E4_U+30FC 1
 62
   179
420
  2234388
370
    25
100
AcDbVertex
100
AcDb2dVertex
 10
95.80018977815577
 20
-120.6084780254035
 30
0.0
  0
VERTEX
  5
8B
330
89
100
AcDbEntity
  8
_U+30EC_U+30A4_U+30E4_U+30FC 1
 62
   179
420
  2234388
370
    25
100
AcDbVertex
100
AcDb2dVertex
 10
109.8003519209819
 20
-120.6084780254035
 30
0.0
  0
SEQEND
  5
8C
330
89
100
AcDbEntity
  8
_U+30EC_U+30A4_U+30E4_U+30FC 1
 62
   179
420
  2234388
370
    25
  0
SPLINE
  5
8D
330
1F
100
AcDbEntity
  8
_U+30EC_U+30A4_U+30E4_U+30FC 1
 62
   179
420
  2234388
370
    25
100
AcDbSpline
210
0.0
220
0.0
230
1.0
 70
     8
 71
     3
 72
     8
 73
     4
 74
     0
 42
0.0000000001
 43
0.0000000001
 12
1.0
 22
0.0
 32
0.0
 13
1.0
 23
0.0
 33
0.0
 40
0.0
 40
0.0
 40
0.0
 40
0.0
 40
1.0
 40
1.0
 40
1.0
 40
1.0
 10
95.80018977815577
 20
-120.6084780254035
 30
0.0
 10
95.24759868114242
 20
-120.6084780254035
 30
0.0
 10
94.80041758143986
 20
-121.0563646919581
 30
0.0
 10
94.80041758143986
 20
-121.6086030251535
 30
0.0
  0
SPLINE
  5
8E
330
1F
100
AcDbEntity
  8
_U+30EC_U+30A4_U+30E4_U+30FC 1
 62
   179
420
  2234388
370
    25
100
AcDbSpline
210
0.0
220
0.0
230
1.0
 70
     8
 71
     3
 72
     8
 73
     4
 74
     0
 42
0.0000000001
 43
0.0000000001
 12
1.0
 22
0.0
 32
0.0
 13
1.0
 23
0.0
 33
0.0
 40
0.0
 40
0.0
 40
0.0
 40
0.0
 40
1.0
 40
1.0
 40
1.0
 40
1.0
 10
93.79993982918639
 20
-130.6083874673477
 30
0.0
 10
94.35256620397661
 20
-130.6083874673477
 30
0.0
 10
94.80041758143986
 20
-130.1612063563486
 30
0.0
 10
94.80041758143986
 20
-129.6086152453757
 30
0.0
  0
SPLINE
  5
8F
330
1F
100
AcDbEntity
  8
_U+30EC_U+30A4_U+30E4_U+30FC 1
 62
   179
420
  2234388
370
    25
100
AcDbSpline
210
0.0
220
0.0
230
1.0
 70
     8
 71
     3
 72
     8
 73
     4
 74
     0
 42
0.0000000001
 43
0.0000000001
 12
1.0
 22
0.0
 32
0.0
 13
1.0
 23
0.0
 33
0.0
 40
0.0
 40
0.0
 40
0.0
 40
0.0
 40
1.0
 40
1.0
 40
1.0
 40
1.0
 10
86.80005278554617
 20
-129.6086152453757
 30
0.0
 10
86.80005278554617
 20
-130.1612063563486
 30
0.0
 10
87.24772777412502
 20
-130.6083874673477
 30
0.0
 10
87.79996609336959
 20
-130.6083874673477
 30
0.0
  0
SPLINE
  5
90
330
1F
100
AcDbEntity
  8
_U+30EC_U+30A4_U+30E4_U+30FC 1
 62
   179
420
  2234388
370
    25
100
AcDbSpline
210
0.0
220
0.0
230
1.0
 70
     8
 71
     3
 72
     8
 73
     4
 74
     0
 42
0.0000000001
 43
0.0000000001
 12
1.0
 22
0.0
 32
0.0
 13
1.0
 23
0.0
 33
0.0
 40
0.0
 40
0.0
 40
0.0
 40
0.0
 40
1.0
 40
1.0
 40
1.0
 40
1.0
 10
86.80005278554617
 20
-121.6086030251535
 30
0.0
 10
86.80005278554617
 20
-121.0563646919581
 30
0.0
 10
86.35234251919043
 20
-120.6084780254035
 30
0.0
 10
85.79992781106148
 20
-120.6084780254035
 30
0.0
  0
SPLINE
  5
91
330
1F
100
AcDbEntity
  8
_U+30EC_U+30A4_U+30E4_U+30FC 1
 62
   179
420
  2234388
370
     9
100
AcDbSpline
210
0.0
220
0.0
230
1.0
 70
    11
 71
     3
 72
    17
 73
    13
 74
     0
 42
0.0000000001
 43
0.0000000001
 12
1.0
 22
0.0
 32
0.0
 13
1.0
 23
0.0
 33
0.0
 40
0.0
 40
0.0
 40
0.0
 40
0.0
 40
1.0
 40
1.0
 40
1.0
 40
2.0
 40
2.0
 40
2.0
 40
3.0
 40
3.0
 40
3.0
 40
4.0
 40
4.0
 40
4.0
 40
4.0
 10
98.900083310182
 20
-130.6083874673477
 30
0.0
 10
98.900083310182
 20
-130.5532835784727
 30
0.0
 10
98.85528053354724
 20
-130.508480800706
 30
0.0
 10
98.80017664606417
 20
-130.508480800706
 30
0.0
 10
98.74503748080421
 20
-130.508480800706
 30
0.0
 10
98.70026998194633
 20
-130.5532835784727
 30
0.0
 10
98.70026998194633
 20
-130.6083874673477
 30
0.0
 10
98.70026998194633
 20
-130.6641969117781
 30
0.0
 10
98.74503748080421
 20
-130.7089996895448
 30
0.0
 10
98.80017664606417
 20
-130.7089996895448
 30
0.0
 10
98.85528053354724
 20
-130.7089996895448
 30
0.0
 10
98.900083310182
 20
-130.6641969117781
 30
0.0
 10
98.900083310182
 20
-130.6083874673477
 30
0.0
  0
SPLINE
  5
92
330
1F
100
AcDbEntity
  8
_U+30EC_U+30A4_U+30E4_U+30FC 1
 62
   179
420
  2234388
370
     9
100
AcDbSpline
210
0.0
220
0.0
230
1.0
 70
    11
 71
     3
 72
    17
 73
    13
 74
     0
 42
0.0000000001
 43
0.0000000001
 12
1.0
 22
0.0
 32
0.0
 13
1.0
 23
0.0
 33
0.0
 40
0.0
 40
0.0
 40
0.0
 40
0.0
 40
1.0
 40
1.0
 40
1.0
 40
2.0
 40
2.0
 40
2.0
 40
3.0
 40
3.0
 40
3.0
 40
4.0
 40
4.0
 40
4.0
 40
4.0
 10
98.900083310182
 20
-120.6084780254035
 30
0.0
 10
98.900083310182
 20
-120.5533741365283
 30
0.0
 10
98.85528053354724
 20
-120.5085713587619
 30
0.0
 10
98.80017664606417
 20
-120.5085713587619
 30
0.0
 10
98.74503748080421
 20
-120.5085713587619
 30
0.0
 10
98.70026998194633
 20
-120.5533741365283
 30
0.0
 10
98.70026998194633
 20
-120.6084780254035
 30
0.0
 10
98.70026998194633
 20
-120.663969969834
 30
0.0
 10
98.74503748080421
 20
-120.7087374698229
 30
0.0
 10
98.80017664606417
 20
-120.7087374698229
 30
0.0
 10
98.85528053354724
 20
-120.7087374698229
 30
0.0
 10
98.900083310182
 20
-120.663969969834
 30
0.0
 10
98.900083310182
 20
-120.6084780254035
 30
0.0
  0
POLYLINE
  5
93
330
1F
100
AcDbEntity
  8
_U+30EC_U+30A4_U+30E4_U+30FC 1
 62
   179
420
  2234388
370
     9
100
AcDb2dPolyline
 66
     1
 10
0.0
 20
0.0
 30
0.0
  0
VERTEX
  5
94
330
93
100
AcDbEntity
  8
_U+30EC_U+30A4_U+30E4_U+30FC 1
 62
   179
420
  2234388
370
     9
100
AcDbVertex
100
AcDb2dVertex
 10
98.80017664606417
 20
-130.6083874673477
 30
0.0
  0
VERTEX
  5
95
330
93
100
AcDbEntity
  8
_U+30EC_U+30A4_U+30E4_U+30FC 1
 62
   179
420
  2234388
370
     9
100
AcDbVertex
100
AcDb2dVertex
 10
98.80017664606417
 20
-120.6084780254035
 30
0.0
  0
SEQEND
  5
96
330
93
100
AcDbEntity
  8
_U+30EC_U+30A4_U+30E4_U+30FC 1
 62
   179
420
  2234388
370
     9
  0
POLYLINE
  5
97
330
1F
100
AcDbEntity
  8
_U+30EC_U+30A4_U+30E4_U+30FC 1
 62
   179
420
  2234388
370
     9
100
AcDb2dPolyline
 66
     1
 10
0.0
 20
0.0
 30
0.0
  0
VERTEX
  5
98
330
97
100
AcDbEntity
  8
_U+30EC_U+30A4_U+30E4_U+30FC 1
 62
   179
420
  2234388
370
     9
100
AcDbVertex
100
AcDb2dVertex
 10
96.34036309770812
 20
-130.6083874673477
 30
0.0
  0
VERTEX
  5
99
330
97
100
AcDbEntity
  8
_U+30EC_U+30A4_U+30E4_U+30FC 1
 62
   179
420
  2234388
370
     9
100
AcDbVertex
100
AcDb2dVertex
 10
99.79994884278007
 20
-130.6083874673477
 30
0.0
  0
SEQEND
  5
9A
330
97
100
AcDbEntity
  8
_U+30EC_U+30A4_U+30E4_U+30FC 1
 62
   179
420
  2234388
370
     9
  0
INSERT
  5
9C
330
1F
100
AcDbEntity
  8
_U+30EC_U+30A4_U+30E4_U+30FC 1
100
AcDbBlockReference
  2
block 5
 10
0.0
 20
0.0
 30
0.0
  0
ENDSEC
  0
SECTION
  2
OBJECTS
  0
DICTIONARY
  5
C
330
0
100
AcDbDictionary
281
     1
  3
ACAD_GROUP
350
D
  3
ACAD_LAYOUT
350
1A
  3
ACAD_MATERIAL
350
3B
  3
ACAD_MLEADERSTYLE
350
A5
  3
ACAD_MLINESTYLE
350
17
  3
ACAD_PLOTSETTINGS
350
19
  3
ACAD_PLOTSTYLENAME
350
E
  3
ACAD_TABLESTYLE
350
A4
  3
ACAD_VISUALSTYLE
350
2A
  0
SUN
  5
3F
330
29
100
AcDbSun
 90
        1
290
     0
 63
     7
421
 16777215
 40
1.0
291
     1
 91
  2455826
 92
 54000000
292
     0
 70
     2
 71
   256
280
     1
  0
DICTIONARY
  5
D
102
{ACAD_REACTORS
330
C
102
}
330
C
100
AcDbDictionary
281
     1
  0
DICTIONARY
  5
1A
102
{ACAD_REACTORS
330
C
102
}
330
C
100
AcDbDictionary
281
     1
  3
Layout1
350
1E
  3
Layout2
350
26
  3
Model
350
22
  0
DICTIONARY
  5
3B
102
{ACAD_REACTORS
330
C
102
}
330
C
100
AcDbDictionary
281
     1
  3
ByBlock
350
3D
  3
ByLayer
350
3C
  3
Global
350
3E
  0
DICTIONARY
  5
A5
102
{ACAD_REACTORS
330
C
102
}
330
C
100
AcDbDictionary
281
     1
  0
DICTIONARY
  5
17
102
{ACAD_REACTORS
330
C
102
}
330
C
100
AcDbDictionary
281
     1
  3
Standard
350
18
  0
DICTIONARY
  5
19
102
{ACAD_REACTORS
330
C
102
}
330
C
100
AcDbDictionary
281
     1
  0
ACDBDICTIONARYWDFLT
  5
E
102
{ACAD_REACTORS
330
C
102
}
330
C
100
AcDbDictionary
281
     1
  3
Normal
350
F
100
AcDbDictionaryWithDefault
340
F
  0
DICTIONARY
  5
A4
102
{ACAD_REACTORS
330
C
102
}
330
C
100
AcDbDictionary
281
     1
  0
DICTIONARY
  5
2A
102
{ACAD_REACTORS
330
C
102
}
330
C
100
AcDbDictionary
281
     1
  3
2dWireframe
350
2F
  3
3D Hidden
350
31
  3
3dWireframe
350
30
  3
Basic
350
32
  3
Brighten
350
36
  3
ColorChange
350
3A
  3
Conceptual
350
34
  3
Dim
350
35
  3
Facepattern
350
39
  3
Flat
350
2B
  3
FlatWithEdges
350
2C
  3
Gouraud
350
2D
  3
GouraudWithEdges
350
2E
  3
Linepattern
350
38
  3
Realistic
350
33
  3
Thicken
350
37
  0
LAYOUT
  5
1E
102
{ACAD_REACTORS
330
1A
102
}
330
1A
100
AcDbPlotSettings
  1

  2
none_device
  4

  6

 40
0.0
 41
0.0
 42
0.0
 43
0.0
 44
0.0
 45
0.0
 46
0.0
 47
0.0
 48
0.0
 49
0.0
140
0.0
141
0.0
142
1.0
143
1.0
 70
   688
 72
     0
 73
     0
 74
     5
  7

 75
    16
 76
     0
 77
     2
 78
   300
147
1.0
148
0.0
149
0.0
100
AcDbLayout
  1
Layout1
 70
     1
 71
     1
 10
0.0
 20
0.0
 11
12.0
 21
9.0
 12
0.0
 22
0.0
 32
0.0
 14
1.000000000000000E+20
 24
1.000000000000000E+20
 34
1.000000000000000E+20
 15
-1.000000000000000E+20
 25
-1.000000000000000E+20
 35
-1.000000000000000E+20
146
0.0
 13
0.0
 23
0.0
 33
0.0
 16
1.0
 26
0.0
 36
0.0
 17
0.0
 27
1.0
 37
0.0
 76
     0
330
1B
  0
LAYOUT
  5
26
102
{ACAD_REACTORS
330
1A
102
}
330
1A
100
AcDbPlotSettings
  1

  2
none_device
  4

  6

 40
0.0
 41
0.0
 42
0.0
 43
0.0
 44
0.0
 45
0.0
 46
0.0
 47
0.0
 48
0.0
 49
0.0
140
0.0
141
0.0
142
1.0
143
1.0
 70
   688
 72
     0
 73
     0
 74
     5
  7

 75
    16
 76
     0
 77
     2
 78
   300
147
1.0
148
0.0
149
0.0
100
AcDbLayout
  1
Layout2
 70
     1
 71
     2
 10
0.0
 20
0.0
 11
0.0
 21
0.0
 12
0.0
 22
0.0
 32
0.0
 14
0.0
 24
0.0
 34
0.0
 15
0.0
 25
0.0
 35
0.0
146
0.0
 13
0.0
 23
0.0
 33
0.0
 16
1.0
 26
0.0
 36
0.0
 17
0.0
 27
1.0
 37
0.0
 76
     0
330
23
  0
LAYOUT
  5
22
102
{ACAD_REACTORS
330
1A
102
}
330
1A
100
AcDbPlotSettings
  1

  2
none_device
  4

  6

 40
0.0
 41
0.0
 42
0.0
 43
0.0
 44
0.0
 45
0.0
 46
0.0
 47
0.0
 48
0.0
 49
0.0
140
0.0
141
0.0
142
1.0
143
1.0
 70
  1712
 72
     0
 73
     0
 74
     0
  7

 75
     0
 76
     0
 77
     2
 78
   300
147
1.0
148
0.0
149
0.0
100
AcDbLayout
  1
Model
 70
     1
 71
     0
 10
0.0
 20
0.0
 11
12.0
 21
9.0
 12
0.0
 22
0.0
 32
0.0
 14
1.000000000000000E+20
 24
1.000000000000000E+20
 34
1.000000000000000E+20
 15
-1.000000000000000E+20
 25
-1.000000000000000E+20
 35
-1.000000000000000E+20
146
0.0
 13
0.0
 23
0.0
 33
0.0
 16
1.0
 26
0.0
 36
0.0
 17
0.0
 27
1.0
 37
0.0
 76
     0
330
1F
331
29
  0
MATERIAL
  5
3D
102
{ACAD_REACTORS
330
3B
102
}
330
3B
100
AcDbMaterial
  1
ByBlock
 72
     1
 94
      127
  0
MATERIAL
  5
3C
102
{ACAD_REACTORS
330
3B
102
}
330
3B
100
AcDbMaterial
  1
ByLayer
 72
     1
 94
      127
  0
MATERIAL
  5
3E
102
{ACAD_REACTORS
330
3B
102
}
330
3B
100
AcDbMaterial
  1
Global
 72
     1
 94
      127
  0
MLINESTYLE
  5
18
102
{ACAD_REACTORS
330
17
102
}
330
17
100
AcDbMlineStyle
  2
Standard
 70
     0
  3

 62
   256
 51
90.0
 52
90.0
 71
     2
 49
0.5
 62
   256
  6
BYLAYER
 49
-0.5
 62
   256
  6
BYLAYER
  0
ACDBPLACEHOLDER
  5
F
102
{ACAD_REACTORS
330
E
102
}
330
E
  0
VISUALSTYLE
  5
2F
102
{ACAD_REACTORS
330
2A
102
}
330
2A
100
AcDbVisualStyle
  2
2dWireframe
 70
     4
177
     2
291
     0
 71
     0
176
     1
 72
     2
176
     1
 73
     0
176
     1
 90
        0
176
     1
 40
-0.6
176
     1
 41
-30.0
176
     1
 62
     5
 63
     7
421
 16777215
176
     1
 74
     1
176
     1
 91
        4
176
     1
 64
     7
176
     1
 65
   257
176
     1
 75
     1
176
     1
175
     1
176
     1
 42
1.0
176
     1
 92
        0
176
     1
 66
   257
176
     1
 43
1.0
176
     1
 76
     1
176
     1
 77
     6
176
     1
 78
     2
176
     1
 67
     7
176
     1
 79
     5
176
     1
170
     0
176
     1
171
     0
176
     1
290
     0
176
     1
 93
        1
176
     1
 44
0.0
176
     1
173
     0
176
     1
  0
VISUALSTYLE
  5
31
102
{ACAD_REACTORS
330
2A
102
}
330
2A
100
AcDbVisualStyle
  2
3D Hidden
 70
     6
177
     2
291
     0
 71
     1
176
     1
 72
     2
176
     1
 73
     2
176
     1
 90
        0
176
     1
 40
-0.6
176
     1
 41
-30.0
176
     1
 62
     5
 63
     7
421
 16777215
176
     1
 74
     2
176
     1
 91
        2
176
     1
 64
     7
176
     1
 65
   257
176
     1
 75
     2
176
     1
175
     1
176
     1
 42
40.0
176
     1
 92
        0
176
     1
 66
   257
176
     1
 43
1.0
176
     1
 76
     1
176
     1
 77
     6
176
     1
 78
     2
176
     1
 67
     7
176
     1
 79
     3
176
     1
170
     0
176
     1
171
     0
176
     1
290
     0
176
     1
 93
        1
176
     1
 44
0.0
176
     1
173
     0
176
     1
  0
VISUALSTYLE
  5
30
102
{ACAD_REACTORS
330
2A
102
}
330
2A
100
AcDbVisualStyle
  2
3dWireframe
 70
     5
177
     2
291
     0
 71
     0
176
     1
 72
     2
176
     1
 73
     0
176
     1
 90
        0
176
     1
 40
-0.6
176
     1
 41
-30.0
176
     1
 62
     5
 63
     7
421
 16777215
176
     1
 74
     1
176
     1
 91
        4
176
     1
 64
     7
176
     1
 65
   257
176
     1
 75
     1
176
     1
175
     1
176
     1
 42
1.0
176
     1
 92
        0
176
     1
 66
   257
176
     1
 43
1.0
176
     1
 76
     1
176
     1
 77
     6
176
     1
 78
     2
176
     1
 67
     7
176
     1
 79
     5
176
     1
170
     0
176
     1
171
     0
176
     1
290
     0
176
     1
 93
        1
176
     1
 44
0.0
176
     1
173
     0
176
     1
  0
VISUALSTYLE
  5
32
102
{ACAD_REACTORS
330
2A
102
}
330
2A
100
AcDbVisualStyle
  2
Basic
 70
     7
177
     2
291
     1
 71
     1
176
     1
 72
     0
176
     1
 73
     1
176
     1
 90
        0
176
     1
 40
-0.6
176
     1
 41
-30.0
176
     1
 62
     5
 63
     7
421
 16777215
176
     1
 74
     0
176
     1
 91
        4
176
     1
 64
     7
176
     1
 65
   257
176
     1
 75
     1
176
     1
175
     1
176
     1
 42
1.0
176
     1
 92
        8
176
     1
 66
     7
176
     1
 43
1.0
176
     1
 76
     1
176
     1
 77
     6
176
     1
 78
     2
176
     1
 67
     7
176
     1
 79
     5
176
     1
170
     0
176
     1
171
     0
176
     1
290
     0
176
     1
 93
        1
176
     1
 44
0.0
176
     1
173
     0
176
     1
  0
VISUALSTYLE
  5
36
102
{ACAD_REACTORS
330
2A
102
}
330
2A
100
AcDbVisualStyle
  2
Brighten
 70
    12
177
     2
291
     1
 71
     2
176
     1
 72
     2
176
     1
 73
     0
176
     1
 90
        0
176
     1
 40
-0.6
176
     1
 41
-30.0
176
     1
 62
     5
 63
     7
421
 16777215
176
     1
 74
     1
176
     1
 91
        4
176
     1
 64
     7
176
     1
 65
   257
176
     1
 75
     1
176
     1
175
     1
176
     1
 42
1.0
176
     1
 92
        8
176
     1
 66
     7
176
     1
 43
1.0
176
     1
 76
     1
176
     1
 77
     6
176
     1
 78
     2
176
     1
 67
     7
176
     1
 79
     5
176
     1
170
     0
176
     1
171
     0
176
     1
290
     0
176
     1
 93
        1
176
     1
 44
50.0
176
     1
173
     0
176
     1
  0
VISUALSTYLE
  5
3A
102
{ACAD_REACTORS
330
2A
102
}
330
2A
100
AcDbVisualStyle
  2
ColorChange
 70
    16
177
     2
291
     1
 71
     2
176
     1
 72
     2
176
     1
 73
     3
176
     1
 90
        0
176
     1
 40
-0.6
176
     1
 41
-30.0
176
     1
 62
     5
 63
     8
421
  8421504
176
     1
 74
     1
176
     1
 91
        4
176
     1
 64
     7
176
     1
 65
   257
176
     1
 75
     1
176
     1
175
     1
176
     1
 42
1.0
176
     1
 92
        8
176
     1
 66
     8
424
  8421504
176
     1
 43
1.0
176
     1
 76
     1
176
     1
 77
     6
176
     1
 78
     2
176
     1
 67
     7
176
     1
 79
     5
176
     1
170
     0
176
     1
171
     0
176
     1
290
     0
176
     1
 93
        1
176
     1
 44
0.0
176
     1
173
     0
176
     1
  0
VISUALSTYLE
  5
34
102
{ACAD_REACTORS
330
2A
102
}
330
2A
100
AcDbVisualStyle
  2
Conceptual
 70
     9
177
     2
291
     0
 71
     3
176
     1
 72
     2
176
     1
 73
     0
176
     1
 90
        0
176
     1
 40
-0.6
176
     1
 41
-30.0
176
     1
 62
     5
 63
     7
421
 16777215
176
     1
 74
     2
176
     1
 91
        2
176
     1
 64
     7
176
     1
 65
   257
176
     1
 75
     1
176
     1
175
     1
176
     1
 42
40.0
176
     1
 92
        8
176
     1
 66
     7
176
     1
 43
1.0
176
     1
 76
     1
176
     1
 77
     6
176
     1
 78
     2
176
     1
 67
     7
176
     1
 79
     3
176
     1
170
     0
176
     1
171
     0
176
     1
290
     0
176
     1
 93
        1
176
     1
 44
0.0
176
     1
173
     0
176
     1
  0
VISUALSTYLE
  5
35
102
{ACAD_REACTORS
330
2A
102
}
330
2A
100
AcDbVisualStyle
  2
Dim
 70
    11
177
     2
291
     1
 71
     2
176
     1
 72
     2
176
     1
 73
     0
176
     1
 90
        0
176
     1
 40
-0.6
176
     1
 41
-30.0
176
     1
 62
     5
 63
     7
421
 16777215
176
     1
 74
     1
176
     1
 91
        4
176
     1
 64
     7
176
     1
 65
   257
176
     1
 75
     1
176
     1
175
     1
176
     1
 42
1.0
176
     1
 92
        8
176
     1
 66
     7
176
     1
 43
1.0
176
     1
 76
     1
176
     1
 77
     6
176
     1
 78
     2
176
     1
 67
     7
176
     1
 79
     5
176
     1
170
     0
176
     1
171
     0
176
     1
290
     0
176
     1
 93
        1
176
     1
 44
-50.0
176
     1
173
     0
176
     1
  0
VISUALSTYLE
  5
39
102
{ACAD_REACTORS
330
2A
102
}
330
2A
100
AcDbVisualStyle
  2
Facepattern
 70
    15
177
     2
291
     1
 71
     2
176
     1
 72
     2
176
     1
 73
     0
176
     1
 90
        0
176
     1
 40
-0.6
176
     1
 41
-30.0
176
     1
 62
     5
 63
     7
421
 16777215
176
     1
 74
     1
176
     1
 91
        4
176
     1
 64
     7
176
     1
 65
   257
176
     1
 75
     1
176
     1
175
     1
176
     1
 42
1.0
176
     1
 92
        8
176
     1
 66
     7
176
     1
 43
1.0
176
     1
 76
     1
176
     1
 77
     6
176
     1
 78
     2
176
     1
 67
     7
176
     1
 79
     5
176
     1
170
     0
176
     1
171
     0
176
     1
290
     0
176
     1
 93
        1
176
     1
 44
0.0
176
     1
173
     0
176
     1
  0
VISUALSTYLE
  5
2B
102
{ACAD_REACTORS
330
2A
102
}
330
2A
100
AcDbVisualStyle
  2
Flat
 70
     0
177
     2
291
     1
 71
     2
176
     1
 72
     1
176
     1
 73
     1
176
     1
 90
        2
176
     1
 40
-0.6
176
     1
 41
30.0
176
     1
 62
     5
 63
     7
421
 16777215
176
     1
 74
     0
176
     1
 91
        4
176
     1
 64
     7
176
     1
 65
   257
176
     1
 75
     1
176
     1
175
     1
176
     1
 42
1.0
176
     1
 92
        8
176
     1
 66
     7
176
     1
 43
1.0
176
     1
 76
     1
176
     1
 77
     6
176
     1
 78
     2
176
     1
 67
     7
176
     1
 79
     5
176
     1
170
     0
176
     1
171
     0
176
     1
290
     0
176
     1
 93
       13
176
     1
 44
0.0
176
     1
173
     0
176
     1
  0
VISUALSTYLE
  5
2C
102
{ACAD_REACTORS
330
2A
102
}
330
2A
100
AcDbVisualStyle
  2
FlatWithEdges
 70
     1
177
     2
291
     1
 71
     2
176
     1
 72
     1
176
     1
 73
     1
176
     1
 90
        2
176
     1
 40
-0.6
176
     1
 41
30.0
176
     1
 62
     5
 63
     7
421
 16777215
176
     1
 74
     1
176
     1
 91
        4
176
     1
 64
     7
176
     1
 65
   257
176
     1
 75
     1
176
     1
175
     1
176
     1
 42
1.0
176
     1
 92
        0
176
     1
 66
   257
176
     1
 43
1.0
176
     1
 76
     1
176
     1
 77
     6
176
     1
 78
     2
176
     1
 67
     7
176
     1
 79
     5
176
     1
170
     0
176
     1
171
     0
176
     1
290
     0
176
     1
 93
       13
176
     1
 44
0.0
176
     1
173
     0
176
     1
  0
VISUALSTYLE
  5
2D
102
{ACAD_REACTORS
330
2A
102
}
330
2A
100
AcDbVisualStyle
  2
Gouraud
 70
     2
177
     2
291
     1
 71
     2
176
     1
 72
     2
176
     1
 73
     1
176
     1
 90
        2
176
     1
 40
-0.6
176
     1
 41
30.0
176
     1
 62
     5
 63
     7
421
 16777215
176
     1
 74
     0
176
     1
 91
        4
176
     1
 64
     7
176
     1
 65
   257
176
     1
 75
     1
176
     1
175
     1
176
     1
 42
1.0
176
     1
 92
        0
176
     1
 66
     7
176
     1
 43
1.0
176
     1
 76
     1
176
     1
 77
     6
176
     1
 78
     2
176
     1
 67
     7
176
     1
 79
     5
176
     1
170
     0
176
     1
171
     0
176
     1
290
     0
176
     1
 93
       13
176
     1
 44
0.0
176
     1
173
     0
176
     1
  0
VISUALSTYLE
  5
2E
102
{ACAD_REACTORS
330
2A
102
}
330
2A
100
AcDbVisualStyle
  2
GouraudWithEdges
 70
     3
177
     2
291
     1
 71
     2
176
     1
 72
     2
176
     1
 73
     1
176
     1
 90
        2
176
     1
 40
-0.6
176
     1
 41
30.0
176
     1
 62
     5
 63
     7
421
 16777215
176
     1
 74
     1
176
     1
 91
        4
176
     1
 64
     7
176
     1
 65
   257
176
     1
 75
     1
176
     1
175
     1
176
     1
 42
1.0
176
     1
 92
        0
176
     1
 66
   257
176
     1
 43
1.0
176
     1
 76
     1
176
     1
 77
     6
176
     1
 78
     2
176
     1
 67
     7
176
     1
 79
     5
176
     1
170
     0
176
     1
171
     0
176
     1
290
     0
176
     1
 93
       13
176
     1
 44
0.0
176
     1
173
     0
176
     1
  0
VISUALSTYLE
  5
38
102
{ACAD_REACTORS
330
2A
102
}
330
2A
100
AcDbVisualStyle
  2
Linepattern
 70
    14
177
     2
291
     1
 71
     2
176
     1
 72
     2
176
     1
 73
     0
176
     1
 90
        0
176
     1
 40
-0.6
176
     1
 41
-30.0
176
     1
 62
     5
 63
     7
421
 16777215
176
     1
 74
     1
176
     1
 91
        4
176
     1
 64
     7
176
     1
 65
   257
176
     1
 75
     7
176
     1
175
     7
176
     1
 42
1.0
176
     1
 92
        8
176
     1
 66
     7
176
     1
 43
1.0
176
     1
 76
     1
176
     1
 77
     6
176
     1
 78
     2
176
     1
 67
     7
176
     1
 79
     5
176
     1
170
     0
176
     1
171
     0
176
     1
290
     0
176
     1
 93
        1
176
     1
 44
0.0
176
     1
173
     0
176
     1
  0
VISUALSTYLE
  5
33
102
{ACAD_REACTORS
330
2A
102
}
330
2A
100
AcDbVisualStyle
  2
Realistic
 70
     8
177
     2
291
     0
 71
     2
176
     1
 72
     2
176
     1
 73
     0
176
     1
 90
        0
176
     1
 40
-0.6
176
     1
 41
-30.0
176
     1
 62
     5
 63
     7
421
 16777215
176
     1
 74
     1
176
     1
 91
        0
176
     1
 64
     7
176
     1
 65
   257
176
     1
 75
     1
176
     1
175
     1
176
     1
 42
1.0
176
     1
 92
        8
176
     1
 66
     8
424
  7895160
176
     1
 43
1.0
176
     1
 76
     1
176
     1
 77
     6
176
     1
 78
     2
176
     1
 67
     7
176
     1
 79
     5
176
     1
170
     0
176
     1
171
     0
176
     1
290
     0
176
     1
 93
       13
176
     1
 44
0.0
176
     1
173
     0
176
     1
  0
VISUALSTYLE
  5
37
102
{ACAD_REACTORS
330
2A
102
}
330
2A
100
AcDbVisualStyle
  2
Thicken
 70
    13
177
     2
291
     1
 71
     2
176
     1
 72
     2
176
     1
 73
     0
176
     1
 90
        0
176
     1
 40
-0.6
176
     1
 41
-30.0
176
     1
 62
     5
 63
     7
421
 16777215
176
     1
 74
     1
176
     1
 91
        4
176
     1
 64
     7
176
     1
 65
   257
176
     1
 75
     1
176
     1
175
     1
176
     1
 42
1.0
176
     1
 92
       12
176
     1
 66
     7
176
     1
 43
1.0
176
     1
 76
     1
176
     1
 77
     6
176
     1
 78
     2
176
     1
 67
     7
176
     1
 79
     5
176
     1
170
     0
176
     1
171
     0
176
     1
290
     0
176
     1
 93
        1
176
     1
 44
0.0
176
     1
173
     0
176
     1
  0
ENDSEC
  0
EOF
