  0
SECTION
  2
HEADER
  9
$ACADVER
  1
AC1024
  9
$ACADMAINTVER
 70
     6
  9
$DWGCODEPAGE
  3
UNDEFINED
  9
$INSBASE
 10
0.0
 20
0.0
 30
0.0
  9
$EXTMIN
 10
1.000000000000000E+20
 20
1.000000000000000E+20
 30
1.000000000000000E+20
  9
$EXTMAX
 10
-1.000000000000000E+20
 20
-1.000000000000000E+20
 30
-1.000000000000000E+20
  9
$LIMMIN
 10
0.0
 20
0.0
  9
$LIMMAX
 10
12.0
 20
9.0
  9
$ORTHOMODE
 70
     0
  9
$REGENMODE
 70
     1
  9
$FILLMODE
 70
     1
  9
$QTEXTMODE
 70
     0
  9
$MIRRTEXT
 70
     1
  9
$LTSCALE
 40
1.0
  9
$ATTMODE
 70
     1
  9
$TEXTSIZE
 40
0.2
  9
$TRACEWID
 40
0.05
  9
$TEXTSTYLE
  7
Standard
  9
$CLAYER
  8
0
  9
$CELTYPE
  6
ByLayer
  9
$CECOLOR
 62
   256
  9
$CELTSCALE
 40
1.0
  9
$DISPSILH
 70
     0
  9
$DIMSCALE
 40
1.0
  9
$DIMASZ
 40
0.18
  9
$DIMEXO
 40
0.0625
  9
$DIMDLI
 40
0.38
  9
$DIMRND
 40
0.0
  9
$DIMDLE
 40
0.0
  9
$DIMEXE
 40
0.18
  9
$DIMTP
 40
0.0
  9
$DIMTM
 40
0.0
  9
$DIMTXT
 40
0.18
  9
$DIMCEN
 40
0.09
  9
$DIMTSZ
 40
0.0
  9
$DIMTOL
 70
     0
  9
$DIMLIM
 70
     0
  9
$DIMTIH
 70
     1
  9
$DIMTOH
 70
     1
  9
$DIMSE1
 70
     0
  9
$DIMSE2
 70
     0
  9
$DIMTAD
 70
     0
  9
$DIMZIN
 70
     0
  9
$DIMBLK
  1

  9
$DIMASO
 70
     1
  9
$DIMSHO
 70
     1
  9
$DIMPOST
  1

  9
$DIMAPOST
  1

  9
$DIMALT
 70
     0
  9
$DIMALTD
 70
     2
  9
$DIMALTF
 40
25.4
  9
$DIMLFAC
 40
1.0
  9
$DIMTOFL
 70
     0
  9
$DIMTVP
 40
0.0
  9
$DIMTIX
 70
     0
  9
$DIMSOXD
 70
     0
  9
$DIMSAH
 70
     0
  9
$DIMBLK1
  1

  9
$DIMBLK2
  1

  9
$DIMSTYLE
  2
Standard
  9
$DIMCLRD
 70
     0
  9
$DIMCLRE
 70
     0
  9
$DIMCLRT
 70
     0
  9
$DIMTFAC
 40
1.0
  9
$DIMGAP
 40
0.09
  9
$DIMJUST
 70
     0
  9
$DIMSD1
 70
     0
  9
$DIMSD2
 70
     0
  9
$DIMTOLJ
 70
     1
  9
$DIMTZIN
 70
     0
  9
$DIMALTZ
 70
     0
  9
$DIMALTTZ
 70
     0
  9
$DIMUPT
 70
     0
  9
$DIMDEC
 70
     4
  9
$DIMTDEC
 70
     4
  9
$DIMALTU
 70
     2
  9
$DIMALTTD
 70
     2
  9
$DIMTXSTY
  7
Standard
  9
$DIMAUNIT
 70
     0
  9
$DIMADEC
 70
     0
  9
$DIMALTRND
 40
0.0
  9
$DIMAZIN
 70
     0
  9
$DIMDSEP
 70
    46
  9
$DIMATFIT
 70
     3
  9
$DIMFRAC
 70
     0
  9
$DIMLDRBLK
  1

  9
$DIMLUNIT
 70
     2
  9
$DIMLWD
 70
    -2
  9
$DIMLWE
 70
    -2
  9
$DIMTMOVE
 70
     0
  9
$DIMFXL
 40
1.0
  9
$DIMFXLON
 70
     0
  9
$DIMJOGANG
 40
0.7853981633974483
  9
$DIMTFILL
 70
     0
  9
$DIMTFILLCLR
 70
     0
  9
$DIMARCSYM
 70
     0
  9
$DIMLTYPE
  6

  9
$DIMLTEX1
  6

  9
$DIMLTEX2
  6

  9
$DIMTXTDIRECTION
 70
     0
  9
$LUNITS
 70
     2
  9
$LUPREC
 70
     4
  9
$SKETCHINC
 40
0.1
  9
$FILLETRAD
 40
0.5
  9
$AUNITS
 70
     0
  9
$AUPREC
 70
     0
  9
$MENU
  1
.
  9
$ELEVATION
 40
0.0
  9
$PELEVATION
 40
0.0
  9
$THICKNESS
 40
0.0
  9
$LIMCHECK
 70
     0
  9
$CHAMFERA
 40
0.5
  9
$CHAMFERB
 40
0.5
  9
$CHAMFERC
 40
1.0
  9
$CHAMFERD
 40
0.0
  9
$SKPOLY
 70
     0
  9
$TDCREATE
 40
2457917.624953692
  9
$TDUCREATE
 40
2457917.249953703
  9
$TDUPDATE
 40
2457917.624965278
  9
$TDUUPDATE
 40
2457917.249965278
  9
$TDINDWG
 40
0.0000000116
  9
$TDUSRTIMER
 40
0.0000000116
  9
$USRTIMER
 70
     1
  9
$ANGBASE
 50
0.0
  9
$ANGDIR
 70
     0
  9
$PDMODE
 70
     0
  9
$PDSIZE
 40
0.0
  9
$PLINEWID
 40
0.0
  9
$SPLFRAME
 70
     0
  9
$SPLINETYPE
 70
     6
  9
$SPLINESEGS
 70
     8
  9
$HANDSEED
  5
A5
  9
$SURFTAB1
 70
     6
  9
$SURFTAB2
 70
     6
  9
$SURFTYPE
 70
     6
  9
$SURFU
 70
     6
  9
$SURFV
 70
     6
  9
$UCSBASE
  2

  9
$UCSNAME
  2

  9
$UCSORG
 10
0.0
 20
0.0
 30
0.0
  9
$UCSXDIR
 10
1.0
 20
0.0
 30
0.0
  9
$UCSYDIR
 10
0.0
 20
1.0
 30
0.0
  9
$UCSORTHOREF
  2

  9
$UCSORTHOVIEW
 70
     0
  9
$UCSORGTOP
 10
0.0
 20
0.0
 30
0.0
  9
$UCSORGBOTTOM
 10
0.0
 20
0.0
 30
0.0
  9
$UCSORGLEFT
 10
0.0
 20
0.0
 30
0.0
  9
$UCSORGRIGHT
 10
0.0
 20
0.0
 30
0.0
  9
$UCSORGFRONT
 10
0.0
 20
0.0
 30
0.0
  9
$UCSORGBACK
 10
0.0
 20
0.0
 30
0.0
  9
$PUCSBASE
  2

  9
$PUCSNAME
  2

  9
$PUCSORG
 10
0.0
 20
0.0
 30
0.0
  9
$PUCSXDIR
 10
1.0
 20
0.0
 30
0.0
  9
$PUCSYDIR
 10
0.0
 20
1.0
 30
0.0
  9
$PUCSORTHOREF
  2

  9
$PUCSORTHOVIEW
 70
     0
  9
$PUCSORGTOP
 10
0.0
 20
0.0
 30
0.0
  9
$PUCSORGBOTTOM
 10
0.0
 20
0.0
 30
0.0
  9
$PUCSORGLEFT
 10
0.0
 20
0.0
 30
0.0
  9
$PUCSORGRIGHT
 10
0.0
 20
0.0
 30
0.0
  9
$PUCSORGFRONT
 10
0.0
 20
0.0
 30
0.0
  9
$PUCSORGBACK
 10
0.0
 20
0.0
 30
0.0
  9
$USERI1
 70
     0
  9
$USERI2
 70
     0
  9
$USERI3
 70
     0
  9
$USERI4
 70
     0
  9
$USERI5
 70
     0
  9
$USERR1
 40
0.0
  9
$USERR2
 40
0.0
  9
$USERR3
 40
0.0
  9
$USERR4
 40
0.0
  9
$USERR5
 40
0.0
  9
$WORLDVIEW
 70
     1
  9
$SHADEDGE
 70
     3
  9
$SHADEDIF
 70
    70
  9
$TILEMODE
 70
     1
  9
$MAXACTVP
 70
    64
  9
$PINSBASE
 10
0.0
 20
0.0
 30
0.0
  9
$PLIMCHECK
 70
     0
  9
$PEXTMIN
 10
1.000000000000000E+20
 20
1.000000000000000E+20
 30
1.000000000000000E+20
  9
$PEXTMAX
 10
-1.000000000000000E+20
 20
-1.000000000000000E+20
 30
-1.000000000000000E+20
  9
$PLIMMIN
 10
0.0
 20
0.0
  9
$PLIMMAX
 10
12.0
 20
9.0
  9
$UNITMODE
 70
     0
  9
$VISRETAIN
 70
     1
  9
$PLINEGEN
 70
     0
  9
$PSLTSCALE
 70
     1
  9
$TREEDEPTH
 70
  3020
  9
$CMLSTYLE
  2
Standard
  9
$CMLJUST
 70
     0
  9
$CMLSCALE
 40
1.0
  9
$PROXYGRAPHICS
 70
     1
  9
$MEASUREMENT
 70
     0
  9
$CELWEIGHT
370
    -1
  9
$ENDCAPS
280
     0
  9
$JOINSTYLE
280
     0
  9
$LWDISPLAY
290
     1
  9
$INSUNITS
 70
     1
  9
$HYPERLINKBASE
  1

  9
$STYLESHEET
  1

  9
$XEDIT
290
     1
  9
$CEPSNTYPE
380
     0
  9
$PSTYLEMODE
290
     1
  9
$FINGERPRINTGUID
  2
{5168A968-C865-DAA5-5FA6-CB64CD557755}
  9
$VERSIONGUID
  2
{FAEB1C32-E019-11D5-929B-00C0DF256EC4}
  9
$EXTNAMES
290
     1
  9
$PSVPSCALE
 40
0.0
  9
$OLESTARTUP
290
     0
  9
$SORTENTS
280
   127
  9
$INDEXCTL
280
     0
  9
$HIDETEXT
280
     1
  9
$XCLIPFRAME
280
     2
  9
$HALOGAP
280
     0
  9
$OBSCOLOR
 70
   257
  9
$OBSLTYPE
280
     0
  9
$INTERSECTIONDISPLAY
280
     0
  9
$INTERSECTIONCOLOR
 70
   257
  9
$DIMASSOC
280
     2
  9
$PROJECTNAME
  1

  9
$CAMERADISPLAY
290
     0
  9
$LENSLENGTH
 40
50.0
  9
$CAMERAHEIGHT
 40
0.0
  9
$STEPSPERSEC
 40
2.0
  9
$STEPSIZE
 40
6.0
  9
$3DDWFPREC
 40
2.0
  9
$PSOLWIDTH
 40
0.25
  9
$PSOLHEIGHT
 40
4.0
  9
$LOFTANG1
 40
1.570796326794897
  9
$LOFTANG2
 40
1.570796326794897
  9
$LOFTMAG1
 40
0.0
  9
$LOFTMAG2
 40
0.0
  9
$LOFTPARAM
 70
     7
  9
$LOFTNORMALS
280
     1
  9
$LATITUDE
 40
37.795
  9
$LONGITUDE
 40
-122.394
  9
$NORTHDIRECTION
 40
0.0
  9
$TIMEZONE
 70
 -8000
  9
$LIGHTGLYPHDISPLAY
280
     1
  9
$TILEMODELIGHTSYNCH
280
     1
  9
$CMATERIAL
347
3C
  9
$SOLIDHIST
280
     1
  9
$SHOWHIST
280
     1
  9
$DWFFRAME
280
     2
  9
$DGNFRAME
280
     2
  9
$REALWORLDSCALE
290
     1
  9
$INTERFERECOLOR
 62
   256
  9
$CSHADOW
280
     0
  9
$SHADOWPLANELOCATION
 40
0.0
  0
ENDSEC
  0
SECTION
  2
CLASSES
  0
CLASS
  1
ACDBDICTIONARYWDFLT
  2
AcDbDictionaryWithDefault
  3
ObjectDBX Classes
 90
        0
 91
        4
280
     0
281
     0
  0
CLASS
  1
VISUALSTYLE
  2
AcDbVisualStyle
  3
ObjectDBX Classes
 90
     4095
 91
        4
280
     0
281
     0
  0
CLASS
  1
MATERIAL
  2
AcDbMaterial
  3
ObjectDBX Classes
 90
     1153
 91
        4
280
     0
281
     0
  0
CLASS
  1
SUN
  2
AcDbSun
  3
SCENEOE
 90
     1024
 91
        4
280
     0
281
     0
  0
ENDSEC
  0
SECTION
  2
TABLES
  0
TABLE
  2
VPORT
  5
8
330
0
100
AcDbSymbolTable
 70
     1
  0
VPORT
  5
29
330
8
100
AcDbSymbolTableRecord
100
AcDbViewportTableRecord
  2
*Active
 70
     0
 10
0.0
 20
0.0
 11
1.0
 21
1.0
 12
0.0
 22
0.0
 13
0.0
 23
0.0
 14
0.5
 24
0.5
 15
0.5
 25
0.5
 16
0.0
 26
0.0
 36
1.0
 17
91.00082462281999
 27
-128.4993055234307
 37
0.0
 40
256.9986110468615
 41
0.7081814508812795
 42
50.0
 43
0.0
 44
0.0
 50
0.0
 51
0.0
 71
     0
 72
   100
 73
     1
 74
     3
 75
     0
 76
     0
 77
     0
 78
     0
281
     0
 65
     1
110
0.0
120
0.0
130
0.0
111
1.0
121
0.0
131
0.0
112
0.0
122
1.0
132
0.0
 79
     0
146
0.0
 60
     3
 61
     5
292
     1
282
     1
141
0.0
142
0.0
 63
   250
361
3F
  0
ENDTAB
  0
TABLE
  2
LTYPE
  5
5
330
0
100
AcDbSymbolTable
 70
     1
  0
LTYPE
  5
14
330
5
100
AcDbSymbolTableRecord
100
AcDbLinetypeTableRecord
  2
ByBlock
 70
     0
  3

 72
    65
 73
     0
 40
0.0
  0
LTYPE
  5
15
330
5
100
AcDbSymbolTableRecord
100
AcDbLinetypeTableRecord
  2
ByLayer
 70
     0
  3

 72
    65
 73
     0
 40
0.0
  0
LTYPE
  5
16
330
5
100
AcDbSymbolTableRecord
100
AcDbLinetypeTableRecord
  2
Continuous
 70
     0
  3
Solid line
 72
    65
 73
     0
 40
0.0
  0
ENDTAB
  0
TABLE
  2
LAYER
  5
2
330
0
100
AcDbSymbolTable
 70
     2
  0
LAYER
  5
10
330
2
100
AcDbSymbolTableRecord
100
AcDbLayerTableRecord
  2
0
 70
     0
 62
     7
  6
Continuous
370
    -3
390
F
347
3E
  0
LAYER
  5
40
330
2
100
AcDbSymbolTableRecord
100
AcDbLayerTableRecord
  2
_U+30EC_U+30A4_U+30E4_U+30FC 1
 70
     0
 62
     7
  6
Continuous
370
    -3
390
F
347
3E
  0
ENDTAB
  0
TABLE
  2
STYLE
  5
3
330
0
100
AcDbSymbolTable
 70
     1
  0
STYLE
  5
11
330
3
100
AcDbSymbolTableRecord
100
AcDbTextStyleTableRecord
  2
Standard
 70
     0
 40
0.0
 41
1.0
 50
0.0
 71
     0
 42
0.2
  3
txt
  4

  0
ENDTAB
  0
TABLE
  2
VIEW
  5
6
330
0
100
AcDbSymbolTable
 70
     0
  0
ENDTAB
  0
TABLE
  2
UCS
  5
7
330
0
100
AcDbSymbolTable
 70
     0
  0
ENDTAB
  0
TABLE
  2
APPID
  5
9
330
0
100
AcDbSymbolTable
 70
     1
  0
APPID
  5
12
330
9
100
AcDbSymbolTableRecord
100
AcDbRegAppTableRecord
  2
ACAD
 70
     0
  0
ENDTAB
  0
TABLE
  2
DIMSTYLE
  5
A
330
0
100
AcDbSymbolTable
 70
     1
100
AcDbDimStyleTable
  0
DIMSTYLE
105
27
330
A
100
AcDbSymbolTableRecord
100
AcDbDimStyleTableRecord
  2
Standard
 70
     0
178
     0
340
11
  0
ENDTAB
  0
TABLE
  2
BLOCK_RECORD
  5
1
330
0
100
AcDbSymbolTable
 70
     5
  0
BLOCK_RECORD
  5
1F
330
1
100
AcDbSymbolTableRecord
100
AcDbBlockTableRecord
  2
*Model_Space
340
22
 70
     0
280
     1
281
     0
  0
BLOCK_RECORD
  5
1B
330
1
100
AcDbSymbolTableRecord
100
AcDbBlockTableRecord
  2
*Paper_Space
340
1E
 70
     0
280
     1
281
     0
  0
BLOCK_RECORD
  5
23
330
1
100
AcDbSymbolTableRecord
100
AcDbBlockTableRecord
  2
*Paper_Space0
340
26
 70
     0
280
     1
281
     0
  0
BLOCK_RECORD
  5
63
330
1
100
AcDbSymbolTableRecord
100
AcDbBlockTableRecord
  2
block 2
340
0
102
{BLKREFS
331
64
102
}
 70
     0
280
     1
281
     0
  0
BLOCK_RECORD
  5
89
330
1
100
AcDbSymbolTableRecord
100
AcDbBlockTableRecord
  2
block 3
340
0
102
{BLKREFS
331
8A
102
}
 70
     0
280
     1
281
     0
  0
BLOCK_RECORD
  5
92
330
1
100
AcDbSymbolTableRecord
100
AcDbBlockTableRecord
  2
block 4
340
0
102
{BLKREFS
331
93
102
}
 70
     0
280
     1
281
     0
  0
BLOCK_RECORD
  5
9B
330
1
100
AcDbSymbolTableRecord
100
AcDbBlockTableRecord
  2
block 5
340
0
102
{BLKREFS
331
9C
102
}
 70
     0
280
     1
281
     0
  0
ENDTAB
  0
ENDSEC
  0
SECTION
  2
BLOCKS
  0
BLOCK
  5
20
330
1F
100
AcDbEntity
  8
0
100
AcDbBlockBegin
  2
*Model_Space
 70
     0
 10
0.0
 20
0.0
 30
0.0
  3
*Model_Space
  1

  0
ENDBLK
  5
21
330
1F
100
AcDbEntity
  8
0
100
AcDbBlockEnd
  0
BLOCK
  5
1C
330
1B
100
AcDbEntity
 67
     1
  8
0
100
AcDbBlockBegin
  2
*Paper_Space
 70
     0
 10
0.0
 20
0.0
 30
0.0
  3
*Paper_Space
  1

  0
ENDBLK
  5
1D
330
1B
100
AcDbEntity
 67
     1
  8
0
100
AcDbBlockEnd
  0
BLOCK
  5
24
330
23
100
AcDbEntity
  8
0
100
AcDbBlockBegin
  2
*Paper_Space0
 70
     0
 10
0.0
 20
0.0
 30
0.0
  3
*Paper_Space0
  1

  0
ENDBLK
  5
25
330
23
100
AcDbEntity
  8
0
100
AcDbBlockEnd
  0
BLOCK
  5
65
330
63
100
AcDbEntity
  8
0
100
AcDbBlockBegin
  2
block 2
 70
     0
 10
0.0
 20
0.0
 30
0.0
  3
block 2
  1

  0
SPLINE
  5
67
330
63
100
AcDbEntity
  8
_U+30EC_U+30A4_U+30E4_U+30FC 1
370
     0
100
AcDbSpline
210
0.0
220
0.0
230
1.0
 70
    11
 71
     3
 72
    53
 73
    49
 74
     0
 42
0.0000000001
 43
0.0000000001
 12
1.0
 22
0.0
 32
0.0
 13
1.0
 23
0.0
 33
0.0
 40
0.0
 40
0.0
 40
0.0
 40
0.0
 40
1.0
 40
1.0
 40
1.0
 40
2.0
 40
2.0
 40
2.0
 40
3.0
 40
3.0
 40
3.0
 40
4.0
 40
4.0
 40
4.0
 40
5.0
 40
5.0
 40
5.0
 40
6.0
 40
6.0
 40
6.0
 40
7.0
 40
7.0
 40
7.0
 40
8.0
 40
8.0
 40
8.0
 40
9.0
 40
9.0
 40
9.0
 40
10.0
 40
10.0
 40
10.0
 40
11.0
 40
11.0
 40
11.0
 40
12.0
 40
12.0
 40
12.0
 40
13.0
 40
13.0
 40
13.0
 40
14.0
 40
14.0
 40
14.0
 40
15.0
 40
15.0
 40
15.0
 40
16.0
 40
16.0
 40
16.0
 40
16.0
 10
98.14319116470031
 20
-126.0601779198739
 30
0.0
 10
98.14319116470031
 20
-126.138381587389
 30
0.0
 10
98.12631019682259
 20
-126.2400119042039
 30
0.0
 10
98.062920439894
 20
-126.3416422210188
 30
0.0
 10
97.95302189391452
 20
-126.5149305239268
 30
0.0
 10
97.82176375592651
 20
-126.5362901159354
 30
0.0
 10
97.71393226723819
 20
-126.5552381411043
 30
0.0
 10
97.71393226723819
 20
-126.5552381411043
 30
0.0
 10
97.71393226723819
 20
-126.3330294823056
 30
0.0
 10
97.71393226723819
 20
-126.3330294823056
 30
0.0
 10
97.9127142767371
 20
-126.2782524640902
 30
0.0
 10
97.94234209791026
 20
-126.1511284406844
 30
0.0
 10
97.94234209791026
 20
-126.0581108625827
 30
0.0
 10
97.94234209791026
 20
-125.9185844954301
 30
0.0
 10
97.84277883838654
 20
-125.766311274982
 30
0.0
 10
97.61023489313217
 20
-125.766311274982
 30
0.0
 10
97.3542642985781
 20
-125.766311274982
 30
0.0
 10
97.28432886022753
 20
-125.9461452593121
 30
0.0
 10
97.28432886022753
 20
-126.0667236012958
 30
0.0
 10
97.28432886022753
 20
-126.0984184797601
 30
0.0
 10
97.28432886022753
 20
-126.2400119042039
 30
0.0
 10
97.4135199409244
 20
-126.3288953677233
 30
0.0
 10
97.4135199409244
 20
-126.3288953677233
 30
0.0
 10
97.39457191575553
 20
-126.5045952374711
 30
0.0
 10
97.39457191575553
 20
-126.5045952374711
 30
0.0
 10
97.39457191575553
 20
-126.5045952374711
 30
0.0
 10
96.54811195502964
 20
-126.3840168954873
 30
0.0
 10
96.54811195502964
 20
-126.3840168954873
 30
0.0
 10
96.54811195502964
 20
-126.3840168954873
 30
0.0
 10
96.54811195502964
 20
-125.6054253158209
 30
0.0
 10
96.54811195502964
 20
-125.6054253158209
 30
0.0
 10
96.54811195502964
 20
-125.6054253158209
 30
0.0
 10
96.74275984994625
 20
-125.6054253158209
 30
0.0
 10
96.74275984994625
 20
-125.6054253158209
 30
0.0
 10
96.74275984994625
 20
-125.6054253158209
 30
0.0
 10
96.74275984994625
 20
-126.221063879035
 30
0.0
 10
96.74275984994625
 20
-126.221063879035
 30
0.0
 10
96.74275984994625
 20
-126.221063879035
 30
0.0
 10
97.16581757553494
 20
-126.2865206932548
 30
0.0
 10
97.16581757553494
 20
-126.2865206932548
 30
0.0
 10
97.1320556397795
 20
-126.2251979936173
 30
0.0
 10
97.09174802260206
 20
-126.1428602115198
 30
0.0
 10
97.09174802260206
 20
-126.0243489268273
 30
0.0
 10
97.09174802260206
 20
-125.7704453895643
 30
0.0
 10
97.27812768835409
 20
-125.5334228201792
 30
0.0
 10
97.59128686796329
 20
-125.5334228201792
 30
0.0
 10
97.9085801621548
 20
-125.5334228201792
 30
0.0
 10
98.14319116470031
 20
-125.7576985362689
 30
0.0
 10
98.14319116470031
 20
-126.0601779198739
 30
0.0
  0
HATCH
  5
68
330
63
100
AcDbEntity
  8
_U+30EC_U+30A4_U+30E4_U+30FC 1
 62
   179
420
  2234388
100
AcDbHatch
 10
0.0
 20
0.0
 30
0.0
210
0.0
220
0.0
230
1.0
  2
SOLID
 70
     1
 71
     0
 91
        1
 92
        1
 93
        1
 72
     4
 94
        3
 73
     0
 74
     1
 95
       53
 96
       49
 40
0.0
 40
0.0
 40
0.0
 40
0.0
 40
1.0
 40
1.0
 40
1.0
 40
2.0
 40
2.0
 40
2.0
 40
3.0
 40
3.0
 40
3.0
 40
4.0
 40
4.0
 40
4.0
 40
5.0
 40
5.0
 40
5.0
 40
6.0
 40
6.0
 40
6.0
 40
7.0
 40
7.0
 40
7.0
 40
8.0
 40
8.0
 40
8.0
 40
9.0
 40
9.0
 40
9.0
 40
10.0
 40
10.0
 40
10.0
 40
11.0
 40
11.0
 40
11.0
 40
12.0
 40
12.0
 40
12.0
 40
13.0
 40
13.0
 40
13.0
 40
14.0
 40
14.0
 40
14.0
 40
15.0
 40
15.0
 40
15.0
 40
16.0
 40
16.0
 40
16.0
 40
16.0
 10
98.14319116470031
 20
-126.0601779198739
 10
98.14319116470031
 20
-126.138381587389
 10
98.12631019682259
 20
-126.2400119042039
 10
98.062920439894
 20
-126.3416422210188
 10
97.95302189391452
 20
-126.5149305239268
 10
97.82176375592651
 20
-126.5362901159354
 10
97.71393226723819
 20
-126.5552381411043
 10
97.71393226723819
 20
-126.5552381411043
 10
97.71393226723819
 20
-126.3330294823056
 10
97.71393226723819
 20
-126.3330294823056
 10
97.9127142767371
 20
-126.2782524640902
 10
97.94234209791026
 20
-126.1511284406844
 10
97.94234209791026
 20
-126.0581108625827
 10
97.94234209791026
 20
-125.9185844954301
 10
97.84277883838654
 20
-125.766311274982
 10
97.61023489313217
 20
-125.766311274982
 10
97.3542642985781
 20
-125.766311274982
 10
97.28432886022753
 20
-125.9461452593121
 10
97.28432886022753
 20
-126.0667236012958
 10
97.28432886022753
 20
-126.0984184797601
 10
97.28432886022753
 20
-126.2400119042039
 10
97.4135199409244
 20
-126.3288953677233
 10
97.4135199409244
 20
-126.3288953677233
 10
97.39457191575553
 20
-126.5045952374711
 10
97.39457191575553
 20
-126.5045952374711
 10
97.39457191575553
 20
-126.5045952374711
 10
96.54811195502964
 20
-126.3840168954873
 10
96.54811195502964
 20
-126.3840168954873
 10
96.54811195502964
 20
-126.3840168954873
 10
96.54811195502964
 20
-125.6054253158209
 10
96.54811195502964
 20
-125.6054253158209
 10
96.54811195502964
 20
-125.6054253158209
 10
96.74275984994625
 20
-125.6054253158209
 10
96.74275984994625
 20
-125.6054253158209
 10
96.74275984994625
 20
-125.6054253158209
 10
96.74275984994625
 20
-126.221063879035
 10
96.74275984994625
 20
-126.221063879035
 10
96.74275984994625
 20
-126.221063879035
 10
97.16581757553494
 20
-126.2865206932548
 10
97.16581757553494
 20
-126.2865206932548
 10
97.1320556397795
 20
-126.2251979936173
 10
97.09174802260206
 20
-126.1428602115198
 10
97.09174802260206
 20
-126.0243489268273
 10
97.09174802260206
 20
-125.7704453895643
 10
97.27812768835409
 20
-125.5334228201792
 10
97.59128686796329
 20
-125.5334228201792
 10
97.9085801621548
 20
-125.5334228201792
 10
98.14319116470031
 20
-125.7576985362689
 10
98.14319116470031
 20
-126.0601779198739
 97
        0
 97
        0
 75
     2
 76
     1
 98
        0
  0
ENDBLK
  5
66
330
63
100
AcDbEntity
  8
0
100
AcDbBlockEnd
  0
BLOCK
  5
8B
330
89
100
AcDbEntity
  8
0
100
AcDbBlockBegin
  2
block 3
 70
     0
 10
0.0
 20
0.0
 30
0.0
  3
block 3
  1

  0
SPLINE
  5
8D
330
89
100
AcDbEntity
  8
_U+30EC_U+30A4_U+30E4_U+30FC 1
370
     0
100
AcDbSpline
210
0.0
220
0.0
230
1.0
 70
    11
 71
     3
 72
    26
 73
    22
 74
     0
 42
0.0000000001
 43
0.0000000001
 12
1.0
 22
0.0
 32
0.0
 13
1.0
 23
0.0
 33
0.0
 40
0.0
 40
0.0
 40
0.0
 40
0.0
 40
1.0
 40
1.0
 40
1.0
 40
2.0
 40
2.0
 40
2.0
 40
3.0
 40
3.0
 40
3.0
 40
4.0
 40
4.0
 40
4.0
 40
5.0
 40
5.0
 40
5.0
 40
6.0
 40
6.0
 40
6.0
 40
7.0
 40
7.0
 40
7.0
 40
7.0
 10
99.10161672869683
 20
-131.894791633693
 30
0.0
 10
99.10161672869683
 20
-131.894791633693
 30
0.0
 10
99.10161672869683
 20
-130.7902940211219
 30
0.0
 10
99.10161672869683
 20
-130.7902940211219
 30
0.0
 10
99.10161672869683
 20
-130.7902940211219
 30
0.0
 10
98.77157658120989
 20
-130.7902940211219
 30
0.0
 10
98.77157658120989
 20
-130.7902940211219
 30
0.0
 10
98.77157658120989
 20
-130.7902940211219
 30
0.0
 10
98.77157658120989
 20
-130.6421549152561
 30
0.0
 10
98.77157658120989
 20
-130.6421549152561
 30
0.0
 10
99.10368378598797
 20
-130.6276855142181
 30
0.0
 10
99.15019257503884
 20
-130.4643879882173
 30
0.0
 10
99.179820396212
 20
-130.3503553276555
 30
0.0
 10
99.179820396212
 20
-130.3503553276555
 30
0.0
 10
99.32589244478659
 20
-130.3503553276555
 30
0.0
 10
99.32589244478659
 20
-130.3503553276555
 30
0.0
 10
99.32589244478659
 20
-130.3503553276555
 30
0.0
 10
99.32589244478659
 20
-131.894791633693
 30
0.0
 10
99.32589244478659
 20
-131.894791633693
 30
0.0
 10
99.32589244478659
 20
-131.894791633693
 30
0.0
 10
99.10161672869683
 20
-131.894791633693
 30
0.0
 10
99.10161672869683
 20
-131.894791633693
 30
0.0
  0
HATCH
  5
8E
330
89
100
AcDbEntity
  8
_U+30EC_U+30A4_U+30E4_U+30FC 1
 62
   179
420
  2234388
100
AcDbHatch
 10
0.0
 20
0.0
 30
0.0
210
0.0
220
0.0
230
1.0
  2
SOLID
 70
     1
 71
     0
 91
        1
 92
        1
 93
        1
 72
     4
 94
        3
 73
     0
 74
     1
 95
       26
 96
       22
 40
0.0
 40
0.0
 40
0.0
 40
0.0
 40
1.0
 40
1.0
 40
1.0
 40
2.0
 40
2.0
 40
2.0
 40
3.0
 40
3.0
 40
3.0
 40
4.0
 40
4.0
 40
4.0
 40
5.0
 40
5.0
 40
5.0
 40
6.0
 40
6.0
 40
6.0
 40
7.0
 40
7.0
 40
7.0
 40
7.0
 10
99.10161672869683
 20
-131.894791633693
 10
99.10161672869683
 20
-131.894791633693
 10
99.10161672869683
 20
-130.7902940211219
 10
99.10161672869683
 20
-130.7902940211219
 10
99.10161672869683
 20
-130.7902940211219
 10
98.77157658120989
 20
-130.7902940211219
 10
98.77157658120989
 20
-130.7902940211219
 10
98.77157658120989
 20
-130.7902940211219
 10
98.77157658120989
 20
-130.6421549152561
 10
98.77157658120989
 20
-130.6421549152561
 10
99.10368378598797
 20
-130.6276855142181
 10
99.15019257503884
 20
-130.4643879882173
 10
99.179820396212
 20
-130.3503553276555
 10
99.179820396212
 20
-130.3503553276555
 10
99.32589244478659
 20
-130.3503553276555
 10
99.32589244478659
 20
-130.3503553276555
 10
99.32589244478659
 20
-130.3503553276555
 10
99.32589244478659
 20
-131.894791633693
 10
99.32589244478659
 20
-131.894791633693
 10
99.32589244478659
 20
-131.894791633693
 10
99.10161672869683
 20
-131.894791633693
 10
99.10161672869683
 20
-131.894791633693
 97
        0
 97
        0
 75
     2
 76
     1
 98
        0
  0
SPLINE
  5
8F
330
89
100
AcDbEntity
  8
_U+30EC_U+30A4_U+30E4_U+30FC 1
370
     0
100
AcDbSpline
210
0.0
220
0.0
230
1.0
 70
    11
 71
     3
 72
    29
 73
    25
 74
     0
 42
0.0000000001
 43
0.0000000001
 12
1.0
 22
0.0
 32
0.0
 13
1.0
 23
0.0
 33
0.0
 40
0.0
 40
0.0
 40
0.0
 40
0.0
 40
1.0
 40
1.0
 40
1.0
 40
2.0
 40
2.0
 40
2.0
 40
3.0
 40
3.0
 40
3.0
 40
4.0
 40
4.0
 40
4.0
 40
5.0
 40
5.0
 40
5.0
 40
6.0
 40
6.0
 40
6.0
 40
7.0
 40
7.0
 40
7.0
 40
8.0
 40
8.0
 40
8.0
 40
8.0
 10
100.7249457213465
 20
-131.7170247066541
 30
0.0
 10
100.6167697231097
 20
-131.9264865121573
 30
0.0
 10
100.4434814202016
 20
-131.9454345373262
 30
0.0
 10
100.3270371928002
 20
-131.9454345373262
 30
0.0
 10
100.166151233639
 20
-131.9454345373262
 30
0.0
 10
100.0245578091953
 20
-131.8989257482753
 30
0.0
 10
99.92947317380236
 20
-131.7170247066541
 30
0.0
 10
99.82577579969634
 20
-131.5220323021889
 30
0.0
 10
99.80682777452746
 20
-131.2853542423523
 30
0.0
 10
99.80682777452746
 20
-131.1224012258999
 30
0.0
 10
99.80682777452746
 20
-130.9783962346165
 30
0.0
 10
99.82370874240519
 20
-130.7269042641933
 30
0.0
 10
99.92947317380236
 20
-130.5277777451458
 30
0.0
 10
100.0373046624907
 20
-130.3248616210646
 30
0.0
 10
100.1981906216518
 20
-130.3017794813134
 30
0.0
 10
100.3270371928002
 20
-130.3017794813134
 30
0.0
 10
100.4858560946702
 20
-130.3017794813134
 30
0.0
 10
100.6295165764051
 20
-130.3458767035247
 30
0.0
 10
100.7249457213465
 20
-130.5277777451458
 30
0.0
 10
100.8241644713217
 20
-130.7207030923198
 30
0.0
 10
100.8475911206214
 20
-130.9487684134434
 30
0.0
 10
100.8475911206214
 20
-131.1224012258999
 30
0.0
 10
100.8475911206214
 20
-131.2939669810654
 30
0.0
 10
100.8262315286129
 20
-131.5244438690286
 30
0.0
 10
100.7249457213465
 20
-131.7170247066541
 30
0.0
  0
SPLINE
  5
90
330
89
100
AcDbEntity
  8
_U+30EC_U+30A4_U+30E4_U+30FC 1
370
     0
100
AcDbSpline
210
0.0
220
0.0
230
1.0
 70
    11
 71
     3
 72
    17
 73
    13
 74
     0
 42
0.0000000001
 43
0.0000000001
 12
1.0
 22
0.0
 32
0.0
 13
1.0
 23
0.0
 33
0.0
 40
0.0
 40
0.0
 40
0.0
 40
0.0
 40
1.0
 40
1.0
 40
1.0
 40
2.0
 40
2.0
 40
2.0
 40
3.0
 40
3.0
 40
3.0
 40
4.0
 40
4.0
 40
4.0
 40
4.0
 10
100.3270371928002
 20
-130.4940158093904
 30
0.0
 10
100.0776122796681
 20
-130.4940158093904
 30
0.0
 10
100.0307589810687
 20
-130.777891677375
 30
0.0
 10
100.0307589810687
 20
-131.1224012258999
 30
0.0
 10
100.0307589810687
 20
-131.4421060869311
 30
0.0
 10
100.0669324836638
 20
-131.7507866424095
 30
0.0
 10
100.3270371928002
 20
-131.7507866424095
 30
0.0
 10
100.5747395581896
 20
-131.7507866424095
 30
0.0
 10
100.6233154045317
 20
-131.4693223412646
 30
0.0
 10
100.6233154045317
 20
-131.1224012258999
 30
0.0
 10
100.6233154045317
 20
-130.8030408744173
 30
0.0
 10
100.5850748446454
 20
-130.4940158093904
 30
0.0
 10
100.3270371928002
 20
-130.4940158093904
 30
0.0
  0
HATCH
  5
91
330
89
100
AcDbEntity
  8
_U+30EC_U+30A4_U+30E4_U+30FC 1
 62
   179
420
  2234388
100
AcDbHatch
 10
0.0
 20
0.0
 30
0.0
210
0.0
220
0.0
230
1.0
  2
SOLID
 70
     1
 71
     0
 91
        2
 92
        1
 93
        1
 72
     4
 94
        3
 73
     0
 74
     1
 95
       29
 96
       25
 40
0.0
 40
0.0
 40
0.0
 40
0.0
 40
1.0
 40
1.0
 40
1.0
 40
2.0
 40
2.0
 40
2.0
 40
3.0
 40
3.0
 40
3.0
 40
4.0
 40
4.0
 40
4.0
 40
5.0
 40
5.0
 40
5.0
 40
6.0
 40
6.0
 40
6.0
 40
7.0
 40
7.0
 40
7.0
 40
8.0
 40
8.0
 40
8.0
 40
8.0
 10
100.7249457213465
 20
-131.7170247066541
 10
100.6167697231097
 20
-131.9264865121573
 10
100.4434814202016
 20
-131.9454345373262
 10
100.3270371928002
 20
-131.9454345373262
 10
100.166151233639
 20
-131.9454345373262
 10
100.0245578091953
 20
-131.8989257482753
 10
99.92947317380236
 20
-131.7170247066541
 10
99.82577579969634
 20
-131.5220323021889
 10
99.80682777452746
 20
-131.2853542423523
 10
99.80682777452746
 20
-131.1224012258999
 10
99.80682777452746
 20
-130.9783962346165
 10
99.82370874240519
 20
-130.7269042641933
 10
99.92947317380236
 20
-130.5277777451458
 10
100.0373046624907
 20
-130.3248616210646
 10
100.1981906216518
 20
-130.3017794813134
 10
100.3270371928002
 20
-130.3017794813134
 10
100.4858560946702
 20
-130.3017794813134
 10
100.6295165764051
 20
-130.3458767035247
 10
100.7249457213465
 20
-130.5277777451458
 10
100.8241644713217
 20
-130.7207030923198
 10
100.8475911206214
 20
-130.9487684134434
 10
100.8475911206214
 20
-131.1224012258999
 10
100.8475911206214
 20
-131.2939669810654
 10
100.8262315286129
 20
-131.5244438690286
 10
100.7249457213465
 20
-131.7170247066541
 97
        0
 97
        0
 92
        1
 93
        1
 72
     4
 94
        3
 73
     0
 74
     1
 95
       17
 96
       13
 40
0.0
 40
0.0
 40
0.0
 40
0.0
 40
1.0
 40
1.0
 40
1.0
 40
2.0
 40
2.0
 40
2.0
 40
3.0
 40
3.0
 40
3.0
 40
4.0
 40
4.0
 40
4.0
 40
4.0
 10
100.3270371928002
 20
-130.4940158093904
 10
100.0776122796681
 20
-130.4940158093904
 10
100.0307589810687
 20
-130.777891677375
 10
100.0307589810687
 20
-131.1224012258999
 10
100.0307589810687
 20
-131.4421060869311
 10
100.0669324836638
 20
-131.7507866424095
 10
100.3270371928002
 20
-131.7507866424095
 10
100.5747395581896
 20
-131.7507866424095
 10
100.6233154045317
 20
-131.4693223412646
 10
100.6233154045317
 20
-131.1224012258999
 10
100.6233154045317
 20
-130.8030408744173
 10
100.5850748446454
 20
-130.4940158093904
 10
100.3270371928002
 20
-130.4940158093904
 97
        0
 97
        0
 75
     2
 76
     1
 98
        0
  0
ENDBLK
  5
8C
330
89
100
AcDbEntity
  8
0
100
AcDbBlockEnd
  0
BLOCK
  5
94
330
92
100
AcDbEntity
  8
0
100
AcDbBlockBegin
  2
block 4
 70
     0
 10
0.0
 20
0.0
 30
0.0
  3
block 4
  1

  0
SPLINE
  5
96
330
92
100
AcDbEntity
  8
_U+30EC_U+30A4_U+30E4_U+30FC 1
370
     0
100
AcDbSpline
210
0.0
220
0.0
230
1.0
 70
    11
 71
     3
 72
    26
 73
    22
 74
     0
 42
0.0000000001
 43
0.0000000001
 12
1.0
 22
0.0
 32
0.0
 13
1.0
 23
0.0
 33
0.0
 40
0.0
 40
0.0
 40
0.0
 40
0.0
 40
1.0
 40
1.0
 40
1.0
 40
2.0
 40
2.0
 40
2.0
 40
3.0
 40
3.0
 40
3.0
 40
4.0
 40
4.0
 40
4.0
 40
5.0
 40
5.0
 40
5.0
 40
6.0
 40
6.0
 40
6.0
 40
7.0
 40
7.0
 40
7.0
 40
7.0
 10
81.10150958258922
 20
-131.894791633693
 30
0.0
 10
81.10150958258922
 20
-131.894791633693
 30
0.0
 10
81.10150958258922
 20
-130.7902940211219
 30
0.0
 10
81.10150958258922
 20
-130.7902940211219
 30
0.0
 10
81.10150958258922
 20
-130.7902940211219
 30
0.0
 10
80.77146943510228
 20
-130.7902940211219
 30
0.0
 10
80.77146943510228
 20
-130.7902940211219
 30
0.0
 10
80.77146943510228
 20
-130.7902940211219
 30
0.0
 10
80.77146943510228
 20
-130.6421549152561
 30
0.0
 10
80.77146943510228
 20
-130.6421549152561
 30
0.0
 10
81.10357663988036
 20
-130.6276855142181
 30
0.0
 10
81.15008542893123
 20
-130.4643879882173
 30
0.0
 10
81.17971325010438
 20
-130.3503553276555
 30
0.0
 10
81.17971325010438
 20
-130.3503553276555
 30
0.0
 10
81.32578529867898
 20
-130.3503553276555
 30
0.0
 10
81.32578529867898
 20
-130.3503553276555
 30
0.0
 10
81.32578529867898
 20
-130.3503553276555
 30
0.0
 10
81.32578529867898
 20
-131.894791633693
 30
0.0
 10
81.32578529867898
 20
-131.894791633693
 30
0.0
 10
81.32578529867898
 20
-131.894791633693
 30
0.0
 10
81.10150958258922
 20
-131.894791633693
 30
0.0
 10
81.10150958258922
 20
-131.894791633693
 30
0.0
  0
HATCH
  5
97
330
92
100
AcDbEntity
  8
_U+30EC_U+30A4_U+30E4_U+30FC 1
 62
   179
420
  2234388
100
AcDbHatch
 10
0.0
 20
0.0
 30
0.0
210
0.0
220
0.0
230
1.0
  2
SOLID
 70
     1
 71
     0
 91
        1
 92
        1
 93
        1
 72
     4
 94
        3
 73
     0
 74
     1
 95
       26
 96
       22
 40
0.0
 40
0.0
 40
0.0
 40
0.0
 40
1.0
 40
1.0
 40
1.0
 40
2.0
 40
2.0
 40
2.0
 40
3.0
 40
3.0
 40
3.0
 40
4.0
 40
4.0
 40
4.0
 40
5.0
 40
5.0
 40
5.0
 40
6.0
 40
6.0
 40
6.0
 40
7.0
 40
7.0
 40
7.0
 40
7.0
 10
81.10150958258922
 20
-131.894791633693
 10
81.10150958258922
 20
-131.894791633693
 10
81.10150958258922
 20
-130.7902940211219
 10
81.10150958258922
 20
-130.7902940211219
 10
81.10150958258922
 20
-130.7902940211219
 10
80.77146943510228
 20
-130.7902940211219
 10
80.77146943510228
 20
-130.7902940211219
 10
80.77146943510228
 20
-130.7902940211219
 10
80.77146943510228
 20
-130.6421549152561
 10
80.77146943510228
 20
-130.6421549152561
 10
81.10357663988036
 20
-130.6276855142181
 10
81.15008542893123
 20
-130.4643879882173
 10
81.17971325010438
 20
-130.3503553276555
 10
81.17971325010438
 20
-130.3503553276555
 10
81.32578529867898
 20
-130.3503553276555
 10
81.32578529867898
 20
-130.3503553276555
 10
81.32578529867898
 20
-130.3503553276555
 10
81.32578529867898
 20
-131.894791633693
 10
81.32578529867898
 20
-131.894791633693
 10
81.32578529867898
 20
-131.894791633693
 10
81.10150958258922
 20
-131.894791633693
 10
81.10150958258922
 20
-131.894791633693
 97
        0
 97
        0
 75
     2
 76
     1
 98
        0
  0
SPLINE
  5
98
330
92
100
AcDbEntity
  8
_U+30EC_U+30A4_U+30E4_U+30FC 1
370
     0
100
AcDbSpline
210
0.0
220
0.0
230
1.0
 70
    11
 71
     3
 72
    29
 73
    25
 74
     0
 42
0.0000000001
 43
0.0000000001
 12
1.0
 22
0.0
 32
0.0
 13
1.0
 23
0.0
 33
0.0
 40
0.0
 40
0.0
 40
0.0
 40
0.0
 40
1.0
 40
1.0
 40
1.0
 40
2.0
 40
2.0
 40
2.0
 40
3.0
 40
3.0
 40
3.0
 40
4.0
 40
4.0
 40
4.0
 40
5.0
 40
5.0
 40
5.0
 40
6.0
 40
6.0
 40
6.0
 40
7.0
 40
7.0
 40
7.0
 40
8.0
 40
8.0
 40
8.0
 40
8.0
 10
82.72466632046466
 20
-131.7170247066541
 30
0.0
 10
82.61683483177634
 20
-131.9264865121573
 30
0.0
 10
82.44337427409403
 20
-131.9454345373262
 30
0.0
 10
82.32693004669258
 20
-131.9454345373262
 30
0.0
 10
82.16621634230567
 20
-131.9454345373262
 30
0.0
 10
82.02445066308763
 20
-131.8989257482753
 30
0.0
 10
81.92919377292048
 20
-131.7170247066541
 30
0.0
 10
81.82566865358872
 20
-131.5220323021889
 30
0.0
 10
81.80654837364558
 20
-131.2853542423523
 30
0.0
 10
81.80654837364558
 20
-131.1224012258999
 30
0.0
 10
81.80654837364558
 20
-130.9783962346165
 30
0.0
 10
81.82342934152331
 20
-130.7269042641933
 30
0.0
 10
81.92919377292048
 20
-130.5277777451458
 30
0.0
 10
82.03719751638306
 20
-130.3248616210646
 30
0.0
 10
82.19791122076997
 20
-130.3017794813134
 30
0.0
 10
82.32693004669258
 20
-130.3017794813134
 30
0.0
 10
82.48557669378833
 20
-130.3017794813134
 30
0.0
 10
82.62940943029751
 20
-130.3458767035247
 30
0.0
 10
82.72466632046466
 20
-130.5277777451458
 30
0.0
 10
82.82405732521413
 20
-130.7207030923198
 30
0.0
 10
82.84731171973957
 20
-130.9487684134434
 30
0.0
 10
82.84731171973957
 20
-131.1224012258999
 30
0.0
 10
82.84731171973957
 20
-131.2939669810654
 30
0.0
 10
82.82629663727954
 20
-131.5244438690286
 30
0.0
 10
82.72466632046466
 20
-131.7170247066541
 30
0.0
  0
SPLINE
  5
99
330
92
100
AcDbEntity
  8
_U+30EC_U+30A4_U+30E4_U+30FC 1
370
     0
100
AcDbSpline
210
0.0
220
0.0
230
1.0
 70
    11
 71
     3
 72
    17
 73
    13
 74
     0
 42
0.0000000001
 43
0.0000000001
 12
1.0
 22
0.0
 32
0.0
 13
1.0
 23
0.0
 33
0.0
 40
0.0
 40
0.0
 40
0.0
 40
0.0
 40
1.0
 40
1.0
 40
1.0
 40
2.0
 40
2.0
 40
2.0
 40
3.0
 40
3.0
 40
3.0
 40
4.0
 40
4.0
 40
4.0
 40
4.0
 10
82.32693004669258
 20
-130.4940158093904
 30
0.0
 10
82.07733287878622
 20
-130.4940158093904
 30
0.0
 10
82.03082408973535
 20
-130.777891677375
 30
0.0
 10
82.03082408973535
 20
-131.1224012258999
 30
0.0
 10
82.03082408973535
 20
-131.4421060869311
 30
0.0
 10
82.06682533755621
 20
-131.7507866424095
 30
0.0
 10
82.32693004669258
 20
-131.7507866424095
 30
0.0
 10
82.57446015730778
 20
-131.7507866424095
 30
0.0
 10
82.62320825842406
 20
-131.4693223412646
 30
0.0
 10
82.62320825842406
 20
-131.1224012258999
 30
0.0
 10
82.62320825842406
 20
-130.8030408744173
 30
0.0
 10
82.5849676985378
 20
-130.4940158093904
 30
0.0
 10
82.32693004669258
 20
-130.4940158093904
 30
0.0
  0
HATCH
  5
9A
330
92
100
AcDbEntity
  8
_U+30EC_U+30A4_U+30E4_U+30FC 1
 62
   179
420
  2234388
100
AcDbHatch
 10
0.0
 20
0.0
 30
0.0
210
0.0
220
0.0
230
1.0
  2
SOLID
 70
     1
 71
     0
 91
        2
 92
        1
 93
        1
 72
     4
 94
        3
 73
     0
 74
     1
 95
       29
 96
       25
 40
0.0
 40
0.0
 40
0.0
 40
0.0
 40
1.0
 40
1.0
 40
1.0
 40
2.0
 40
2.0
 40
2.0
 40
3.0
 40
3.0
 40
3.0
 40
4.0
 40
4.0
 40
4.0
 40
5.0
 40
5.0
 40
5.0
 40
6.0
 40
6.0
 40
6.0
 40
7.0
 40
7.0
 40
7.0
 40
8.0
 40
8.0
 40
8.0
 40
8.0
 10
82.72466632046466
 20
-131.7170247066541
 10
82.61683483177634
 20
-131.9264865121573
 10
82.44337427409403
 20
-131.9454345373262
 10
82.32693004669258
 20
-131.9454345373262
 10
82.16621634230567
 20
-131.9454345373262
 10
82.02445066308763
 20
-131.8989257482753
 10
81.92919377292048
 20
-131.7170247066541
 10
81.82566865358872
 20
-131.5220323021889
 10
81.80654837364558
 20
-131.2853542423523
 10
81.80654837364558
 20
-131.1224012258999
 10
81.80654837364558
 20
-130.9783962346165
 10
81.82342934152331
 20
-130.7269042641933
 10
81.92919377292048
 20
-130.5277777451458
 10
82.03719751638306
 20
-130.3248616210646
 10
82.19791122076997
 20
-130.3017794813134
 10
82.32693004669258
 20
-130.3017794813134
 10
82.48557669378833
 20
-130.3017794813134
 10
82.62940943029751
 20
-130.3458767035247
 10
82.72466632046466
 20
-130.5277777451458
 10
82.82405732521413
 20
-130.7207030923198
 10
82.84731171973957
 20
-130.9487684134434
 10
82.84731171973957
 20
-131.1224012258999
 10
82.84731171973957
 20
-131.2939669810654
 10
82.82629663727954
 20
-131.5244438690286
 10
82.72466632046466
 20
-131.7170247066541
 97
        0
 97
        0
 92
        1
 93
        1
 72
     4
 94
        3
 73
     0
 74
     1
 95
       17
 96
       13
 40
0.0
 40
0.0
 40
0.0
 40
0.0
 40
1.0
 40
1.0
 40
1.0
 40
2.0
 40
2.0
 40
2.0
 40
3.0
 40
3.0
 40
3.0
 40
4.0
 40
4.0
 40
4.0
 40
4.0
 10
82.32693004669258
 20
-130.4940158093904
 10
82.07733287878622
 20
-130.4940158093904
 10
82.03082408973535
 20
-130.777891677375
 10
82.03082408973535
 20
-131.1224012258999
 10
82.03082408973535
 20
-131.4421060869311
 10
82.06682533755621
 20
-131.7507866424095
 10
82.32693004669258
 20
-131.7507866424095
 10
82.57446015730778
 20
-131.7507866424095
 10
82.62320825842406
 20
-131.4693223412646
 10
82.62320825842406
 20
-131.1224012258999
 10
82.62320825842406
 20
-130.8030408744173
 10
82.5849676985378
 20
-130.4940158093904
 10
82.32693004669258
 20
-130.4940158093904
 97
        0
 97
        0
 75
     2
 76
     1
 98
        0
  0
ENDBLK
  5
95
330
92
100
AcDbEntity
  8
0
100
AcDbBlockEnd
  0
BLOCK
  5
9D
330
9B
100
AcDbEntity
  8
0
100
AcDbBlockBegin
  2
block 5
 70
     0
 10
0.0
 20
0.0
 30
0.0
  3
block 5
  1

  0
SPLINE
  5
9F
330
9B
100
AcDbEntity
  8
_U+30EC_U+30A4_U+30E4_U+30FC 1
370
     0
100
AcDbSpline
210
0.0
220
0.0
230
1.0
 70
    11
 71
     3
 72
    29
 73
    25
 74
     0
 42
0.0000000001
 43
0.0000000001
 12
1.0
 22
0.0
 32
0.0
 13
1.0
 23
0.0
 33
0.0
 40
0.0
 40
0.0
 40
0.0
 40
0.0
 40
1.0
 40
1.0
 40
1.0
 40
2.0
 40
2.0
 40
2.0
 40
3.0
 40
3.0
 40
3.0
 40
4.0
 40
4.0
 40
4.0
 40
5.0
 40
5.0
 40
5.0
 40
6.0
 40
6.0
 40
6.0
 40
7.0
 40
7.0
 40
7.0
 40
8.0
 40
8.0
 40
8.0
 40
8.0
 10
90.73847518347858
 20
-131.9454345373262
 30
0.0
 10
90.4719970476945
 20
-131.9454345373262
 30
0.0
 10
90.21809351043159
 20
-131.8079752274647
 30
0.0
 10
90.21809351043159
 20
-131.4586425452603
 30
0.0
 10
90.21809351043159
 20
-131.2030164602548
 30
0.0
 10
90.35985918964963
 20
-131.1075873153134
 30
0.0
 10
90.46562362104679
 20
-131.0462646156759
 30
0.0
 10
90.34073890970649
 20
-130.9870089733296
 30
0.0
 10
90.26460229948246
 20
-130.8729763127679
 30
0.0
 10
90.26460229948246
 20
-130.7120903536067
 30
0.0
 10
90.26460229948246
 20
-130.4368272243352
 30
0.0
 10
90.46355656375565
 20
-130.3017794813134
 30
0.0
 10
90.73847518347858
 20
-130.3017794813134
 30
0.0
 10
91.02200654191464
 20
-130.3017794813134
 30
0.0
 10
91.21252032224896
 20
-130.4454399630484
 30
0.0
 10
91.21252032224896
 20
-130.7120903536067
 30
0.0
 10
91.21252032224896
 20
-130.8729763127679
 30
0.0
 10
91.13397214518527
 20
-130.9870089733296
 30
0.0
 10
91.00925968861922
 20
-131.0462646156759
 30
0.0
 10
91.09814315213866
 20
-131.0969075193091
 30
0.0
 10
91.25696205400868
 20
-131.1923366642505
 30
0.0
 10
91.25696205400868
 20
-131.454508430678
 30
0.0
 10
91.25696205400868
 20
-131.8289903099247
 30
0.0
 10
90.97756481015492
 20
-131.9454345373262
 30
0.0
 10
90.73847518347858
 20
-131.9454345373262
 30
0.0
  0
SPLINE
  5
A0
330
9B
100
AcDbEntity
  8
_U+30EC_U+30A4_U+30E4_U+30FC 1
370
     0
100
AcDbSpline
210
0.0
220
0.0
230
1.0
 70
    11
 71
     3
 72
    17
 73
    13
 74
     0
 42
0.0000000001
 43
0.0000000001
 12
1.0
 22
0.0
 32
0.0
 13
1.0
 23
0.0
 33
0.0
 40
0.0
 40
0.0
 40
0.0
 40
0.0
 40
1.0
 40
1.0
 40
1.0
 40
2.0
 40
2.0
 40
2.0
 40
3.0
 40
3.0
 40
3.0
 40
4.0
 40
4.0
 40
4.0
 40
4.0
 10
90.73847518347858
 20
-131.1540961043643
 30
0.0
 10
90.5946424469694
 20
-131.1540961043643
 30
0.0
 10
90.44236922652135
 20
-131.2409125105926
 30
0.0
 10
90.44236922652135
 20
-131.4441731442223
 30
0.0
 10
90.44236922652135
 20
-131.6491563255947
 30
0.0
 10
90.56932099515281
 20
-131.7507866424095
 30
0.0
 10
90.73847518347858
 20
-131.7507866424095
 30
0.0
 10
90.92451033968207
 20
-131.7507866424095
 30
0.0
 10
91.03475339521006
 20
-131.6281412431346
 30
0.0
 10
91.03475339521006
 20
-131.4503743160957
 30
0.0
 10
91.03475339521006
 20
-131.2281656572971
 30
0.0
 10
90.87180037875775
 20
-131.1540961043643
 30
0.0
 10
90.73847518347858
 20
-131.1540961043643
 30
0.0
  0
SPLINE
  5
A1
330
9B
100
AcDbEntity
  8
_U+30EC_U+30A4_U+30E4_U+30FC 1
370
     0
100
AcDbSpline
210
0.0
220
0.0
230
1.0
 70
    11
 71
     3
 72
    17
 73
    13
 74
     0
 42
0.0000000001
 43
0.0000000001
 12
1.0
 22
0.0
 32
0.0
 13
1.0
 23
0.0
 33
0.0
 40
0.0
 40
0.0
 40
0.0
 40
0.0
 40
1.0
 40
1.0
 40
1.0
 40
2.0
 40
2.0
 40
2.0
 40
3.0
 40
3.0
 40
3.0
 40
4.0
 40
4.0
 40
4.0
 40
4.0
 10
90.73847518347858
 20
-130.4940158093904
 30
0.0
 10
90.57345510973511
 20
-130.4940158093904
 30
0.0
 10
90.48887801557223
 20
-130.5891004447833
 30
0.0
 10
90.48887801557223
 20
-130.7248372069021
 30
0.0
 10
90.48887801557223
 20
-130.847482606177
 30
0.0
 10
90.56088051121395
 20
-130.9659938908696
 30
0.0
 10
90.73847518347858
 20
-130.9659938908696
 30
0.0
 10
90.91624211051747
 20
-130.9659938908696
 30
0.0
 10
90.9882446061592
 20
-130.847482606177
 30
0.0
 10
90.9882446061592
 20
-130.7248372069021
 30
0.0
 10
90.9882446061592
 20
-130.5891004447833
 30
0.0
 10
90.90142819993089
 20
-130.4940158093904
 30
0.0
 10
90.73847518347858
 20
-130.4940158093904
 30
0.0
  0
HATCH
  5
A2
330
9B
100
AcDbEntity
  8
_U+30EC_U+30A4_U+30E4_U+30FC 1
 62
   179
420
  2234388
100
AcDbHatch
 10
0.0
 20
0.0
 30
0.0
210
0.0
220
0.0
230
1.0
  2
SOLID
 70
     1
 71
     0
 91
        3
 92
        1
 93
        1
 72
     4
 94
        3
 73
     0
 74
     1
 95
       29
 96
       25
 40
0.0
 40
0.0
 40
0.0
 40
0.0
 40
1.0
 40
1.0
 40
1.0
 40
2.0
 40
2.0
 40
2.0
 40
3.0
 40
3.0
 40
3.0
 40
4.0
 40
4.0
 40
4.0
 40
5.0
 40
5.0
 40
5.0
 40
6.0
 40
6.0
 40
6.0
 40
7.0
 40
7.0
 40
7.0
 40
8.0
 40
8.0
 40
8.0
 40
8.0
 10
90.73847518347858
 20
-131.9454345373262
 10
90.4719970476945
 20
-131.9454345373262
 10
90.21809351043159
 20
-131.8079752274647
 10
90.21809351043159
 20
-131.4586425452603
 10
90.21809351043159
 20
-131.2030164602548
 10
90.35985918964963
 20
-131.1075873153134
 10
90.46562362104679
 20
-131.0462646156759
 10
90.34073890970649
 20
-130.9870089733296
 10
90.26460229948246
 20
-130.8729763127679
 10
90.26460229948246
 20
-130.7120903536067
 10
90.26460229948246
 20
-130.4368272243352
 10
90.46355656375565
 20
-130.3017794813134
 10
90.73847518347858
 20
-130.3017794813134
 10
91.02200654191464
 20
-130.3017794813134
 10
91.21252032224896
 20
-130.4454399630484
 10
91.21252032224896
 20
-130.7120903536067
 10
91.21252032224896
 20
-130.8729763127679
 10
91.13397214518527
 20
-130.9870089733296
 10
91.00925968861922
 20
-131.0462646156759
 10
91.09814315213866
 20
-131.0969075193091
 10
91.25696205400868
 20
-131.1923366642505
 10
91.25696205400868
 20
-131.454508430678
 10
91.25696205400868
 20
-131.8289903099247
 10
90.97756481015492
 20
-131.9454345373262
 10
90.73847518347858
 20
-131.9454345373262
 97
        0
 97
        0
 92
        1
 93
        1
 72
     4
 94
        3
 73
     0
 74
     1
 95
       17
 96
       13
 40
0.0
 40
0.0
 40
0.0
 40
0.0
 40
1.0
 40
1.0
 40
1.0
 40
2.0
 40
2.0
 40
2.0
 40
3.0
 40
3.0
 40
3.0
 40
4.0
 40
4.0
 40
4.0
 40
4.0
 10
90.73847518347858
 20
-131.1540961043643
 10
90.5946424469694
 20
-131.1540961043643
 10
90.44236922652135
 20
-131.2409125105926
 10
90.44236922652135
 20
-131.4441731442223
 10
90.44236922652135
 20
-131.6491563255947
 10
90.56932099515281
 20
-131.7507866424095
 10
90.73847518347858
 20
-131.7507866424095
 10
90.92451033968207
 20
-131.7507866424095
 10
91.03475339521006
 20
-131.6281412431346
 10
91.03475339521006
 20
-131.4503743160957
 10
91.03475339521006
 20
-131.2281656572971
 10
90.87180037875775
 20
-131.1540961043643
 10
90.73847518347858
 20
-131.1540961043643
 97
        0
 97
        0
 92
        1
 93
        1
 72
     4
 94
        3
 73
     0
 74
     1
 95
       17
 96
       13
 40
0.0
 40
0.0
 40
0.0
 40
0.0
 40
1.0
 40
1.0
 40
1.0
 40
2.0
 40
2.0
 40
2.0
 40
3.0
 40
3.0
 40
3.0
 40
4.0
 40
4.0
 40
4.0
 40
4.0
 10
90.73847518347858
 20
-130.4940158093904
 10
90.57345510973511
 20
-130.4940158093904
 10
90.48887801557223
 20
-130.5891004447833
 10
90.48887801557223
 20
-130.7248372069021
 10
90.48887801557223
 20
-130.847482606177
 10
90.56088051121395
 20
-130.9659938908696
 10
90.73847518347858
 20
-130.9659938908696
 10
90.91624211051747
 20
-130.9659938908696
 10
90.9882446061592
 20
-130.847482606177
 10
90.9882446061592
 20
-130.7248372069021
 10
90.9882446061592
 20
-130.5891004447833
 10
90.90142819993089
 20
-130.4940158093904
 10
90.73847518347858
 20
-130.4940158093904
 97
        0
 97
        0
 75
     2
 76
     1
 98
        0
  0
ENDBLK
  5
9E
330
9B
100
AcDbEntity
  8
0
100
AcDbBlockEnd
  0
ENDSEC
  0
SECTION
  2
ENTITIES
  0
POLYLINE
  5
41
330
1F
100
AcDbEntity
  8
_U+30EC_U+30A4_U+30E4_U+30FC 1
 62
   179
420
  2234388
370
    25
100
AcDb2dPolyline
 66
     1
 10
0.0
 20
0.0
 30
0.0
  0
VERTEX
  5
42
330
41
100
AcDbEntity
  8
_U+30EC_U+30A4_U+30E4_U+30FC 1
 62
   179
420
  2234388
370
    25
100
AcDbVertex
100
AcDb2dVertex
 10
76.73879554223022
 20
-123.5404494135594
 30
0.0
  0
VERTEX
  5
43
330
41
100
AcDbEntity
  8
_U+30EC_U+30A4_U+30E4_U+30FC 1
 62
   179
420
  2234388
370
    25
100
AcDbVertex
100
AcDb2dVertex
 10
85.73879142373231
 20
-123.5404494135594
 30
0.0
  0
SEQEND
  5
44
330
41
100
AcDbEntity
  8
_U+30EC_U+30A4_U+30E4_U+30FC 1
 62
   179
420
  2234388
370
    25
  0
POLYLINE
  5
45
330
1F
100
AcDbEntity
  8
_U+30EC_U+30A4_U+30E4_U+30FC 1
 62
   179
420
  2234388
370
    25
100
AcDb2dPolyline
 66
     1
 10
0.0
 20
0.0
 30
0.0
  0
VERTEX
  5
46
330
45
100
AcDbEntity
  8
_U+30EC_U+30A4_U+30E4_U+30FC 1
 62
   179
420
  2234388
370
    25
100
AcDbVertex
100
AcDb2dVertex
 10
87.73882970604042
 20
-128.5402983011984
 30
0.0
  0
VERTEX
  5
47
330
45
100
AcDbEntity
  8
_U+30EC_U+30A4_U+30E4_U+30FC 1
 62
   179
420
  2234388
370
    25
100
AcDbVertex
100
AcDb2dVertex
 10
93.73897983074161
 20
-128.5402983011984
 30
0.0
  0
SEQEND
  5
48
330
45
100
AcDbEntity
  8
_U+30EC_U+30A4_U+30E4_U+30FC 1
 62
   179
420
  2234388
370
    25
  0
POLYLINE
  5
49
330
1F
100
AcDbEntity
  8
_U+30EC_U+30A4_U+30E4_U+30FC 1
 62
   179
420
  2234388
370
    25
100
AcDb2dPolyline
 66
     1
 10
0.0
 20
0.0
 30
0.0
  0
VERTEX
  5
4A
330
49
100
AcDbEntity
  8
_U+30EC_U+30A4_U+30E4_U+30FC 1
 62
   179
420
  2234388
370
    25
100
AcDbVertex
100
AcDb2dVertex
 10
94.73910480522629
 20
-124.5401863577538
 30
0.0
  0
VERTEX
  5
4B
330
49
100
AcDbEntity
  8
_U+30EC_U+30A4_U+30E4_U+30FC 1
 62
   179
420
  2234388
370
    25
100
AcDbVertex
100
AcDb2dVertex
 10
94.73910480522629
 20
-127.5405260792259
 30
0.0
  0
SEQEND
  5
4C
330
49
100
AcDbEntity
  8
_U+30EC_U+30A4_U+30E4_U+30FC 1
 62
   179
420
  2234388
370
    25
  0
POLYLINE
  5
4D
330
1F
100
AcDbEntity
  8
_U+30EC_U+30A4_U+30E4_U+30FC 1
 62
   179
420
  2234388
370
    25
100
AcDb2dPolyline
 66
     1
 10
0.0
 20
0.0
 30
0.0
  0
VERTEX
  5
4E
330
4D
100
AcDbEntity
  8
_U+30EC_U+30A4_U+30E4_U+30FC 1
 62
   179
420
  2234388
370
    25
100
AcDbVertex
100
AcDb2dVertex
 10
86.73888331164855
 20
-124.5401863577538
 30
0.0
  0
VERTEX
  5
4F
330
4D
100
AcDbEntity
  8
_U+30EC_U+30A4_U+30E4_U+30FC 1
 62
   179
420
  2234388
370
    25
100
AcDbVertex
100
AcDb2dVertex
 10
86.73888331164855
 20
-127.5405260792259
 30
0.0
  0
SEQEND
  5
50
330
4D
100
AcDbEntity
  8
_U+30EC_U+30A4_U+30E4_U+30FC 1
 62
   179
420
  2234388
370
    25
  0
POLYLINE
  5
51
330
1F
100
AcDbEntity
  8
_U+30EC_U+30A4_U+30E4_U+30FC 1
 62
   179
420
  2234388
370
    25
100
AcDb2dPolyline
 66
     1
 10
0.0
 20
0.0
 30
0.0
  0
VERTEX
  5
52
330
51
100
AcDbEntity
  8
_U+30EC_U+30A4_U+30E4_U+30FC 1
 62
   179
420
  2234388
370
    25
100
AcDbVertex
100
AcDb2dVertex
 10
95.73884172416533
 20
-123.5404494135594
 30
0.0
  0
VERTEX
  5
53
330
51
100
AcDbEntity
  8
_U+30EC_U+30A4_U+30E4_U+30FC 1
 62
   179
420
  2234388
370
    25
100
AcDbVertex
100
AcDb2dVertex
 10
104.7388376056674
 20
-123.5404494135594
 30
0.0
  0
SEQEND
  5
54
330
51
100
AcDbEntity
  8
_U+30EC_U+30A4_U+30E4_U+30FC 1
 62
   179
420
  2234388
370
    25
  0
SPLINE
  5
55
330
1F
100
AcDbEntity
  8
_U+30EC_U+30A4_U+30E4_U+30FC 1
 62
   179
420
  2234388
370
    25
100
AcDbSpline
210
0.0
220
0.0
230
1.0
 70
     8
 71
     3
 72
     8
 73
     4
 74
     0
 42
0.0000000001
 43
0.0000000001
 12
1.0
 22
0.0
 32
0.0
 13
1.0
 23
0.0
 33
0.0
 40
0.0
 40
0.0
 40
0.0
 40
0.0
 40
1.0
 40
1.0
 40
1.0
 40
1.0
 10
95.73884172416533
 20
-123.5404494135594
 30
0.0
 10
95.18625062715199
 20
-123.5404494135594
 30
0.0
 10
94.73910480522629
 20
-123.9883008023364
 30
0.0
 10
94.73910480522629
 20
-124.5401863577538
 30
0.0
  0
SPLINE
  5
56
330
1F
100
AcDbEntity
  8
_U+30EC_U+30A4_U+30E4_U+30FC 1
 62
   179
420
  2234388
370
    25
100
AcDbSpline
210
0.0
220
0.0
230
1.0
 70
     8
 71
     3
 72
     8
 73
     4
 74
     0
 42
0.0000000001
 43
0.0000000001
 12
1.0
 22
0.0
 32
0.0
 13
1.0
 23
0.0
 33
0.0
 40
0.0
 40
0.0
 40
0.0
 40
0.0
 40
1.0
 40
1.0
 40
1.0
 40
1.0
 10
93.73897983074161
 20
-128.5402983011984
 30
0.0
 10
94.29121814998616
 20
-128.5402983011984
 30
0.0
 10
94.73910480522629
 20
-128.0927996901991
 30
0.0
 10
94.73910480522629
 20
-127.5405260792259
 30
0.0
  0
SPLINE
  5
57
330
1F
100
AcDbEntity
  8
_U+30EC_U+30A4_U+30E4_U+30FC 1
 62
   179
420
  2234388
370
    25
100
AcDbSpline
210
0.0
220
0.0
230
1.0
 70
     8
 71
     3
 72
     8
 73
     4
 74
     0
 42
0.0000000001
 43
0.0000000001
 12
1.0
 22
0.0
 32
0.0
 13
1.0
 23
0.0
 33
0.0
 40
0.0
 40
0.0
 40
0.0
 40
0.0
 40
1.0
 40
1.0
 40
1.0
 40
1.0
 10
86.73888331164855
 20
-127.5405260792259
 30
0.0
 10
86.73888331164855
 20
-128.0927996901991
 30
0.0
 10
87.18659138679585
 20
-128.5402983011984
 30
0.0
 10
87.73882970604042
 20
-128.5402983011984
 30
0.0
  0
SPLINE
  5
58
330
1F
100
AcDbEntity
  8
_U+30EC_U+30A4_U+30E4_U+30FC 1
 62
   179
420
  2234388
370
    25
100
AcDbSpline
210
0.0
220
0.0
230
1.0
 70
     8
 71
     3
 72
     8
 73
     4
 74
     0
 42
0.0000000001
 43
0.0000000001
 12
1.0
 22
0.0
 32
0.0
 13
1.0
 23
0.0
 33
0.0
 40
0.0
 40
0.0
 40
0.0
 40
0.0
 40
1.0
 40
1.0
 40
1.0
 40
1.0
 10
86.73888331164855
 20
-124.5401863577538
 30
0.0
 10
86.73888331164855
 20
-123.9883008023364
 30
0.0
 10
86.29120831176039
 20
-123.5404494135594
 30
0.0
 10
85.73879142373231
 20
-123.5404494135594
 30
0.0
  0
SPLINE
  5
59
330
1F
100
AcDbEntity
  8
_U+30EC_U+30A4_U+30E4_U+30FC 1
 62
   179
420
  2234388
370
     9
100
AcDbSpline
210
0.0
220
0.0
230
1.0
 70
    11
 71
     3
 72
    17
 73
    13
 74
     0
 42
0.0000000001
 43
0.0000000001
 12
1.0
 22
0.0
 32
0.0
 13
1.0
 23
0.0
 33
0.0
 40
0.0
 40
0.0
 40
0.0
 40
0.0
 40
1.0
 40
1.0
 40
1.0
 40
2.0
 40
2.0
 40
2.0
 40
3.0
 40
3.0
 40
3.0
 40
4.0
 40
4.0
 40
4.0
 40
4.0
 10
98.83877053396844
 20
-128.5402983011984
 30
0.0
 10
98.83877053396844
 20
-128.4851944123232
 30
0.0
 10
98.79396775733368
 20
-128.4403916345564
 30
0.0
 10
98.73882859207373
 20
-128.4403916345564
 30
0.0
 10
98.68372470459066
 20
-128.4403916345564
 30
0.0
 10
98.63892192795589
 20
-128.4851944123232
 30
0.0
 10
98.63892192795589
 20
-128.5402983011984
 30
0.0
 10
98.63892192795589
 20
-128.5957549678511
 30
0.0
 10
98.68372470459066
 20
-128.6405577456178
 30
0.0
 10
98.73882859207373
 20
-128.6405577456178
 30
0.0
 10
98.79396775733368
 20
-128.6405577456178
 30
0.0
 10
98.83877053396844
 20
-128.5957549678511
 30
0.0
 10
98.83877053396844
 20
-128.5402983011984
 30
0.0
  0
SPLINE
  5
5A
330
1F
100
AcDbEntity
  8
_U+30EC_U+30A4_U+30E4_U+30FC 1
 62
   179
420
  2234388
370
     9
100
AcDbSpline
210
0.0
220
0.0
230
1.0
 70
    11
 71
     3
 72
    17
 73
    13
 74
     0
 42
0.0000000001
 43
0.0000000001
 12
1.0
 22
0.0
 32
0.0
 13
1.0
 23
0.0
 33
0.0
 40
0.0
 40
0.0
 40
0.0
 40
0.0
 40
1.0
 40
1.0
 40
1.0
 40
2.0
 40
2.0
 40
2.0
 40
3.0
 40
3.0
 40
3.0
 40
4.0
 40
4.0
 40
4.0
 40
4.0
 10
98.83877053396844
 20
-123.5404494135594
 30
0.0
 10
98.83877053396844
 20
-123.4853102469063
 30
0.0
 10
98.79396775733368
 20
-123.4405427469177
 30
0.0
 10
98.73882859207373
 20
-123.4405427469177
 30
0.0
 10
98.68372470459066
 20
-123.4405427469177
 30
0.0
 10
98.63892192795589
 20
-123.4853102469063
 30
0.0
 10
98.63892192795589
 20
-123.5404494135594
 30
0.0
 10
98.63892192795589
 20
-123.5955533024343
 30
0.0
 10
98.68372470459066
 20
-123.640356080201
 30
0.0
 10
98.73882859207373
 20
-123.640356080201
 30
0.0
 10
98.79396775733368
 20
-123.640356080201
 30
0.0
 10
98.83877053396844
 20
-123.5955533024343
 30
0.0
 10
98.83877053396844
 20
-123.5404494135594
 30
0.0
  0
POLYLINE
  5
5B
330
1F
100
AcDbEntity
  8
_U+30EC_U+30A4_U+30E4_U+30FC 1
 62
   179
420
  2234388
370
     9
100
AcDb2dPolyline
 66
     1
 10
0.0
 20
0.0
 30
0.0
  0
VERTEX
  5
5C
330
5B
100
AcDbEntity
  8
_U+30EC_U+30A4_U+30E4_U+30FC 1
 62
   179
420
  2234388
370
     9
100
AcDbVertex
100
AcDb2dVertex
 10
98.73882859207373
 20
-128.5402983011984
 30
0.0
  0
VERTEX
  5
5D
330
5B
100
AcDbEntity
  8
_U+30EC_U+30A4_U+30E4_U+30FC 1
 62
   179
420
  2234388
370
     9
100
AcDbVertex
100
AcDb2dVertex
 10
98.73882859207373
 20
-123.5404494135594
 30
0.0
  0
SEQEND
  5
5E
330
5B
100
AcDbEntity
  8
_U+30EC_U+30A4_U+30E4_U+30FC 1
 62
   179
420
  2234388
370
     9
  0
POLYLINE
  5
5F
330
1F
100
AcDbEntity
  8
_U+30EC_U+30A4_U+30E4_U+30FC 1
 62
   179
420
  2234388
370
     9
100
AcDb2dPolyline
 66
     1
 10
0.0
 20
0.0
 30
0.0
  0
VERTEX
  5
60
330
5F
100
AcDbEntity
  8
_U+30EC_U+30A4_U+30E4_U+30FC 1
 62
   179
420
  2234388
370
     9
100
AcDbVertex
100
AcDb2dVertex
 10
96.27905275370783
 20
-128.5402983011984
 30
0.0
  0
VERTEX
  5
61
330
5F
100
AcDbEntity
  8
_U+30EC_U+30A4_U+30E4_U+30FC 1
 62
   179
420
  2234388
370
     9
100
AcDbVertex
100
AcDb2dVertex
 10
99.73860078878964
 20
-128.5402983011984
 30
0.0
  0
SEQEND
  5
62
330
5F
100
AcDbEntity
  8
_U+30EC_U+30A4_U+30E4_U+30FC 1
 62
   179
420
  2234388
370
     9
  0
INSERT
  5
64
330
1F
100
AcDbEntity
  8
_U+30EC_U+30A4_U+30E4_U+30FC 1
100
AcDbBlockReference
  2
block 2
 10
0.0
 20
0.0
 30
0.0
  0
SPLINE
  5
69
330
1F
100
AcDbEntity
  8
_U+30EC_U+30A4_U+30E4_U+30FC 1
 62
   179
420
  2234388
370
     9
100
AcDbSpline
210
0.0
220
0.0
230
1.0
 70
    11
 71
     3
 72
    17
 73
    13
 74
     0
 42
0.0000000001
 43
0.0000000001
 12
1.0
 22
0.0
 32
0.0
 13
1.0
 23
0.0
 33
0.0
 40
0.0
 40
0.0
 40
0.0
 40
0.0
 40
1.0
 40
1.0
 40
1.0
 40
2.0
 40
2.0
 40
2.0
 40
3.0
 40
3.0
 40
3.0
 40
4.0
 40
4.0
 40
4.0
 40
4.0
 10
76.83888053634573
 20
-132.5404102446424
 30
0.0
 10
76.83888053634573
 20
-132.48527107799
 30
0.0
 10
76.79411109637456
 20
-132.4405035780008
 30
0.0
 10
76.73879554223022
 20
-132.4405035780008
 30
0.0
 10
76.68369165474715
 20
-132.4405035780008
 30
0.0
 10
76.63888887811238
 20
-132.48527107799
 30
0.0
 10
76.63888887811238
 20
-132.5404102446424
 30
0.0
 10
76.63888887811238
 20
-132.595514133518
 30
0.0
 10
76.68369165474715
 20
-132.6403169112847
 30
0.0
 10
76.73879554223022
 20
-132.6403169112847
 30
0.0
 10
76.79411109637456
 20
-132.6403169112847
 30
0.0
 10
76.83888053634573
 20
-132.595514133518
 30
0.0
 10
76.83888053634573
 20
-132.5404102446424
 30
0.0
  0
SPLINE
  5
6A
330
1F
100
AcDbEntity
  8
_U+30EC_U+30A4_U+30E4_U+30FC 1
 62
   179
420
  2234388
370
     9
100
AcDbSpline
210
0.0
220
0.0
230
1.0
 70
    11
 71
     3
 72
    17
 73
    13
 74
     0
 42
0.0000000001
 43
0.0000000001
 12
1.0
 22
0.0
 32
0.0
 13
1.0
 23
0.0
 33
0.0
 40
0.0
 40
0.0
 40
0.0
 40
0.0
 40
1.0
 40
1.0
 40
1.0
 40
2.0
 40
2.0
 40
2.0
 40
3.0
 40
3.0
 40
3.0
 40
4.0
 40
4.0
 40
4.0
 40
4.0
 10
104.8387442697853
 20
-132.5404102446424
 30
0.0
 10
104.8387442697853
 20
-132.48527107799
 30
0.0
 10
104.7939414931505
 20
-132.4405035780008
 30
0.0
 10
104.7388376056674
 20
-132.4405035780008
 30
0.0
 10
104.6836984404075
 20
-132.4405035780008
 30
0.0
 10
104.6389309415496
 20
-132.48527107799
 30
0.0
 10
104.6389309415496
 20
-132.5404102446424
 30
0.0
 10
104.6389309415496
 20
-132.595514133518
 30
0.0
 10
104.6836984404075
 20
-132.6403169112847
 30
0.0
 10
104.7388376056674
 20
-132.6403169112847
 30
0.0
 10
104.7939414931505
 20
-132.6403169112847
 30
0.0
 10
104.8387442697853
 20
-132.595514133518
 30
0.0
 10
104.8387442697853
 20
-132.5404102446424
 30
0.0
  0
SPLINE
  5
6B
330
1F
100
AcDbEntity
  8
_U+30EC_U+30A4_U+30E4_U+30FC 1
 62
   179
420
  2234388
370
     9
100
AcDbSpline
210
0.0
220
0.0
230
1.0
 70
    11
 71
     3
 72
    17
 73
    13
 74
     0
 42
0.0000000001
 43
0.0000000001
 12
1.0
 22
0.0
 32
0.0
 13
1.0
 23
0.0
 33
0.0
 40
0.0
 40
0.0
 40
0.0
 40
0.0
 40
1.0
 40
1.0
 40
1.0
 40
2.0
 40
2.0
 40
2.0
 40
3.0
 40
3.0
 40
3.0
 40
4.0
 40
4.0
 40
4.0
 40
4.0
 10
86.83878778455795
 20
-132.5404102446424
 30
0.0
 10
86.83878778455795
 20
-132.48527107799
 30
0.0
 10
86.79402028570007
 20
-132.4405035780008
 30
0.0
 10
86.73888331164855
 20
-132.4405035780008
 30
0.0
 10
86.68360084407266
 20
-132.4405035780008
 30
0.0
 10
86.63879806743789
 20
-132.48527107799
 30
0.0
 10
86.63879806743789
 20
-132.5404102446424
 30
0.0
 10
86.63879806743789
 20
-132.595514133518
 30
0.0
 10
86.68360084407266
 20
-132.6403169112847
 30
0.0
 10
86.73888331164855
 20
-132.6403169112847
 30
0.0
 10
86.79402028570007
 20
-132.6403169112847
 30
0.0
 10
86.83878778455795
 20
-132.595514133518
 30
0.0
 10
86.83878778455795
 20
-132.5404102446424
 30
0.0
  0
SPLINE
  5
6C
330
1F
100
AcDbEntity
  8
_U+30EC_U+30A4_U+30E4_U+30FC 1
 62
   179
420
  2234388
370
     9
100
AcDbSpline
210
0.0
220
0.0
230
1.0
 70
    11
 71
     3
 72
    17
 73
    13
 74
     0
 42
0.0000000001
 43
0.0000000001
 12
1.0
 22
0.0
 32
0.0
 13
1.0
 23
0.0
 33
0.0
 40
0.0
 40
0.0
 40
0.0
 40
0.0
 40
1.0
 40
1.0
 40
1.0
 40
2.0
 40
2.0
 40
2.0
 40
3.0
 40
3.0
 40
3.0
 40
4.0
 40
4.0
 40
4.0
 40
4.0
 10
94.83901386517883
 20
-132.5404102446424
 30
0.0
 10
94.83901386517883
 20
-132.48527107799
 30
0.0
 10
94.79421108741275
 20
-132.4405035780008
 30
0.0
 10
94.73910480522629
 20
-132.4405035780008
 30
0.0
 10
94.68396563996635
 20
-132.4405035780008
 30
0.0
 10
94.63919814110847
 20
-132.48527107799
 30
0.0
 10
94.63919814110847
 20
-132.5404102446424
 30
0.0
 10
94.63919814110847
 20
-132.595514133518
 30
0.0
 10
94.68396563996635
 20
-132.6403169112847
 30
0.0
 10
94.73910480522629
 20
-132.6403169112847
 30
0.0
 10
94.79421108741275
 20
-132.6403169112847
 30
0.0
 10
94.83901386517883
 20
-132.595514133518
 30
0.0
 10
94.83901386517883
 20
-132.5404102446424
 30
0.0
  0
POLYLINE
  5
6D
330
1F
100
AcDbEntity
  8
_U+30EC_U+30A4_U+30E4_U+30FC 1
 62
   179
420
  2234388
370
     9
100
AcDb2dPolyline
 66
     1
 10
0.0
 20
0.0
 30
0.0
  0
VERTEX
  5
6E
330
6D
100
AcDbEntity
  8
_U+30EC_U+30A4_U+30E4_U+30FC 1
 62
   179
420
  2234388
370
     9
100
AcDbVertex
100
AcDb2dVertex
 10
94.73910480522629
 20
-132.5404102446424
 30
0.0
  0
VERTEX
  5
6F
330
6D
100
AcDbEntity
  8
_U+30EC_U+30A4_U+30E4_U+30FC 1
 62
   179
420
  2234388
370
     9
100
AcDbVertex
100
AcDb2dVertex
 10
104.7388376056674
 20
-132.5404102446424
 30
0.0
  0
SEQEND
  5
70
330
6D
100
AcDbEntity
  8
_U+30EC_U+30A4_U+30E4_U+30FC 1
 62
   179
420
  2234388
370
     9
  0
POLYLINE
  5
71
330
1F
100
AcDbEntity
  8
_U+30EC_U+30A4_U+30E4_U+30FC 1
 62
   179
420
  2234388
370
     9
100
AcDb2dPolyline
 66
     1
 10
0.0
 20
0.0
 30
0.0
  0
VERTEX
  5
72
330
71
100
AcDbEntity
  8
_U+30EC_U+30A4_U+30E4_U+30FC 1
 62
   179
420
  2234388
370
     9
100
AcDbVertex
100
AcDb2dVertex
 10
104.7388376056674
 20
-130.0799263563688
 30
0.0
  0
VERTEX
  5
73
330
71
100
AcDbEntity
  8
_U+30EC_U+30A4_U+30E4_U+30FC 1
 62
   179
420
  2234388
370
     9
100
AcDbVertex
100
AcDb2dVertex
 10
104.7388376056674
 20
-133.5401824666149
 30
0.0
  0
SEQEND
  5
74
330
71
100
AcDbEntity
  8
_U+30EC_U+30A4_U+30E4_U+30FC 1
 62
   179
420
  2234388
370
     9
  0
POLYLINE
  5
75
330
1F
100
AcDbEntity
  8
_U+30EC_U+30A4_U+30E4_U+30FC 1
 62
   179
420
  2234388
370
     9
100
AcDb2dPolyline
 66
     1
 10
0.0
 20
0.0
 30
0.0
  0
VERTEX
  5
76
330
75
100
AcDbEntity
  8
_U+30EC_U+30A4_U+30E4_U+30FC 1
 62
   179
420
  2234388
370
     9
100
AcDbVertex
100
AcDb2dVertex
 10
86.73888331164855
 20
-132.5404102446424
 30
0.0
  0
VERTEX
  5
77
330
75
100
AcDbEntity
  8
_U+30EC_U+30A4_U+30E4_U+30FC 1
 62
   179
420
  2234388
370
     9
100
AcDbVertex
100
AcDb2dVertex
 10
76.73879554223022
 20
-132.5404102446424
 30
0.0
  0
SEQEND
  5
78
330
75
100
AcDbEntity
  8
_U+30EC_U+30A4_U+30E4_U+30FC 1
 62
   179
420
  2234388
370
     9
  0
POLYLINE
  5
79
330
1F
100
AcDbEntity
  8
_U+30EC_U+30A4_U+30E4_U+30FC 1
 62
   179
420
  2234388
370
     9
100
AcDb2dPolyline
 66
     1
 10
0.0
 20
0.0
 30
0.0
  0
VERTEX
  5
7A
330
79
100
AcDbEntity
  8
_U+30EC_U+30A4_U+30E4_U+30FC 1
 62
   179
420
  2234388
370
     9
100
AcDbVertex
100
AcDb2dVertex
 10
76.73879554223022
 20
-130.0799263563688
 30
0.0
  0
VERTEX
  5
7B
330
79
100
AcDbEntity
  8
_U+30EC_U+30A4_U+30E4_U+30FC 1
 62
   179
420
  2234388
370
     9
100
AcDbVertex
100
AcDb2dVertex
 10
76.73879554223022
 20
-133.5401824666149
 30
0.0
  0
SEQEND
  5
7C
330
79
100
AcDbEntity
  8
_U+30EC_U+30A4_U+30E4_U+30FC 1
 62
   179
420
  2234388
370
     9
  0
POLYLINE
  5
7D
330
1F
100
AcDbEntity
  8
_U+30EC_U+30A4_U+30E4_U+30FC 1
 62
   179
420
  2234388
370
     9
100
AcDb2dPolyline
 66
     1
 10
0.0
 20
0.0
 30
0.0
  0
VERTEX
  5
7E
330
7D
100
AcDbEntity
  8
_U+30EC_U+30A4_U+30E4_U+30FC 1
 62
   179
420
  2234388
370
     9
100
AcDbVertex
100
AcDb2dVertex
 10
86.73888331164855
 20
-132.5404102446424
 30
0.0
  0
VERTEX
  5
7F
330
7D
100
AcDbEntity
  8
_U+30EC_U+30A4_U+30E4_U+30FC 1
 62
   179
420
  2234388
370
     9
100
AcDbVertex
100
AcDb2dVertex
 10
94.73910480522629
 20
-132.5404102446424
 30
0.0
  0
SEQEND
  5
80
330
7D
100
AcDbEntity
  8
_U+30EC_U+30A4_U+30E4_U+30FC 1
 62
   179
420
  2234388
370
     9
  0
POLYLINE
  5
81
330
1F
100
AcDbEntity
  8
_U+30EC_U+30A4_U+30E4_U+30FC 1
 62
   179
420
  2234388
370
     9
100
AcDb2dPolyline
 66
     1
 10
0.0
 20
0.0
 30
0.0
  0
VERTEX
  5
82
330
81
100
AcDbEntity
  8
_U+30EC_U+30A4_U+30E4_U+30FC 1
 62
   179
420
  2234388
370
     9
100
AcDbVertex
100
AcDb2dVertex
 10
86.73888331164855
 20
-131.0803688561187
 30
0.0
  0
VERTEX
  5
83
330
81
100
AcDbEntity
  8
_U+30EC_U+30A4_U+30E4_U+30FC 1
 62
   179
420
  2234388
370
     9
100
AcDbVertex
100
AcDb2dVertex
 10
86.73888331164855
 20
-133.5401824666149
 30
0.0
  0
SEQEND
  5
84
330
81
100
AcDbEntity
  8
_U+30EC_U+30A4_U+30E4_U+30FC 1
 62
   179
420
  2234388
370
     9
  0
POLYLINE
  5
85
330
1F
100
AcDbEntity
  8
_U+30EC_U+30A4_U+30E4_U+30FC 1
 62
   179
420
  2234388
370
     9
100
AcDb2dPolyline
 66
     1
 10
0.0
 20
0.0
 30
0.0
  0
VERTEX
  5
86
330
85
100
AcDbEntity
  8
_U+30EC_U+30A4_U+30E4_U+30FC 1
 62
   179
420
  2234388
370
     9
100
AcDbVertex
100
AcDb2dVertex
 10
94.73910480522629
 20
-131.0803688561187
 30
0.0
  0
VERTEX
  5
87
330
85
100
AcDbEntity
  8
_U+30EC_U+30A4_U+30E4_U+30FC 1
 62
   179
420
  2234388
370
     9
100
AcDbVertex
100
AcDb2dVertex
 10
94.73910480522629
 20
-133.5401824666149
 30
0.0
  0
SEQEND
  5
88
330
85
100
AcDbEntity
  8
_U+30EC_U+30A4_U+30E4_U+30FC 1
 62
   179
420
  2234388
370
     9
  0
INSERT
  5
8A
330
1F
100
AcDbEntity
  8
_U+30EC_U+30A4_U+30E4_U+30FC 1
100
AcDbBlockReference
  2
block 3
 10
0.0
 20
0.0
 30
0.0
  0
INSERT
  5
93
330
1F
100
AcDbEntity
  8
_U+30EC_U+30A4_U+30E4_U+30FC 1
100
AcDbBlockReference
  2
block 4
 10
0.0
 20
0.0
 30
0.0
  0
INSERT
  5
9C
330
1F
100
AcDbEntity
  8
_U+30EC_U+30A4_U+30E4_U+30FC 1
100
AcDbBlockReference
  2
block 5
 10
0.0
 20
0.0
 30
0.0
  0
ENDSEC
  0
SECTION
  2
OBJECTS
  0
DICTIONARY
  5
C
330
0
100
AcDbDictionary
281
     1
  3
ACAD_GROUP
350
D
  3
ACAD_LAYOUT
350
1A
  3
ACAD_MATERIAL
350
3B
  3
ACAD_MLEADERSTYLE
350
A4
  3
ACAD_MLINESTYLE
350
17
  3
ACAD_PLOTSETTINGS
350
19
  3
ACAD_PLOTSTYLENAME
350
E
  3
ACAD_TABLESTYLE
350
A3
  3
ACAD_VISUALSTYLE
350
2A
  0
SUN
  5
3F
330
29
100
AcDbSun
 90
        1
290
     0
 63
     7
421
 16777215
 40
1.0
291
     1
 91
  2455826
 92
 54000000
292
     0
 70
     2
 71
   256
280
     1
  0
DICTIONARY
  5
D
102
{ACAD_REACTORS
330
C
102
}
330
C
100
AcDbDictionary
281
     1
  0
DICTIONARY
  5
1A
102
{ACAD_REACTORS
330
C
102
}
330
C
100
AcDbDictionary
281
     1
  3
Layout1
350
1E
  3
Layout2
350
26
  3
Model
350
22
  0
DICTIONARY
  5
3B
102
{ACAD_REACTORS
330
C
102
}
330
C
100
AcDbDictionary
281
     1
  3
ByBlock
350
3D
  3
ByLayer
350
3C
  3
Global
350
3E
  0
DICTIONARY
  5
A4
102
{ACAD_REACTORS
330
C
102
}
330
C
100
AcDbDictionary
281
     1
  0
DICTIONARY
  5
17
102
{ACAD_REACTORS
330
C
102
}
330
C
100
AcDbDictionary
281
     1
  3
Standard
350
18
  0
DICTIONARY
  5
19
102
{ACAD_REACTORS
330
C
102
}
330
C
100
AcDbDictionary
281
     1
  0
ACDBDICTIONARYWDFLT
  5
E
102
{ACAD_REACTORS
330
C
102
}
330
C
100
AcDbDictionary
281
     1
  3
Normal
350
F
100
AcDbDictionaryWithDefault
340
F
  0
DICTIONARY
  5
A3
102
{ACAD_REACTORS
330
C
102
}
330
C
100
AcDbDictionary
281
     1
  0
DICTIONARY
  5
2A
102
{ACAD_REACTORS
330
C
102
}
330
C
100
AcDbDictionary
281
     1
  3
2dWireframe
350
2F
  3
3D Hidden
350
31
  3
3dWireframe
350
30
  3
Basic
350
32
  3
Brighten
350
36
  3
ColorChange
350
3A
  3
Conceptual
350
34
  3
Dim
350
35
  3
Facepattern
350
39
  3
Flat
350
2B
  3
FlatWithEdges
350
2C
  3
Gouraud
350
2D
  3
GouraudWithEdges
350
2E
  3
Linepattern
350
38
  3
Realistic
350
33
  3
Thicken
350
37
  0
LAYOUT
  5
1E
102
{ACAD_REACTORS
330
1A
102
}
330
1A
100
AcDbPlotSettings
  1

  2
none_device
  4

  6

 40
0.0
 41
0.0
 42
0.0
 43
0.0
 44
0.0
 45
0.0
 46
0.0
 47
0.0
 48
0.0
 49
0.0
140
0.0
141
0.0
142
1.0
143
1.0
 70
   688
 72
     0
 73
     0
 74
     5
  7

 75
    16
 76
     0
 77
     2
 78
   300
147
1.0
148
0.0
149
0.0
100
AcDbLayout
  1
Layout1
 70
     1
 71
     1
 10
0.0
 20
0.0
 11
12.0
 21
9.0
 12
0.0
 22
0.0
 32
0.0
 14
1.000000000000000E+20
 24
1.000000000000000E+20
 34
1.000000000000000E+20
 15
-1.000000000000000E+20
 25
-1.000000000000000E+20
 35
-1.000000000000000E+20
146
0.0
 13
0.0
 23
0.0
 33
0.0
 16
1.0
 26
0.0
 36
0.0
 17
0.0
 27
1.0
 37
0.0
 76
     0
330
1B
  0
LAYOUT
  5
26
102
{ACAD_REACTORS
330
1A
102
}
330
1A
100
AcDbPlotSettings
  1

  2
none_device
  4

  6

 40
0.0
 41
0.0
 42
0.0
 43
0.0
 44
0.0
 45
0.0
 46
0.0
 47
0.0
 48
0.0
 49
0.0
140
0.0
141
0.0
142
1.0
143
1.0
 70
   688
 72
     0
 73
     0
 74
     5
  7

 75
    16
 76
     0
 77
     2
 78
   300
147
1.0
148
0.0
149
0.0
100
AcDbLayout
  1
Layout2
 70
     1
 71
     2
 10
0.0
 20
0.0
 11
0.0
 21
0.0
 12
0.0
 22
0.0
 32
0.0
 14
0.0
 24
0.0
 34
0.0
 15
0.0
 25
0.0
 35
0.0
146
0.0
 13
0.0
 23
0.0
 33
0.0
 16
1.0
 26
0.0
 36
0.0
 17
0.0
 27
1.0
 37
0.0
 76
     0
330
23
  0
LAYOUT
  5
22
102
{ACAD_REACTORS
330
1A
102
}
330
1A
100
AcDbPlotSettings
  1

  2
none_device
  4

  6

 40
0.0
 41
0.0
 42
0.0
 43
0.0
 44
0.0
 45
0.0
 46
0.0
 47
0.0
 48
0.0
 49
0.0
140
0.0
141
0.0
142
1.0
143
1.0
 70
  1712
 72
     0
 73
     0
 74
     0
  7

 75
     0
 76
     0
 77
     2
 78
   300
147
1.0
148
0.0
149
0.0
100
AcDbLayout
  1
Model
 70
     1
 71
     0
 10
0.0
 20
0.0
 11
12.0
 21
9.0
 12
0.0
 22
0.0
 32
0.0
 14
1.000000000000000E+20
 24
1.000000000000000E+20
 34
1.000000000000000E+20
 15
-1.000000000000000E+20
 25
-1.000000000000000E+20
 35
-1.000000000000000E+20
146
0.0
 13
0.0
 23
0.0
 33
0.0
 16
1.0
 26
0.0
 36
0.0
 17
0.0
 27
1.0
 37
0.0
 76
     0
330
1F
331
29
  0
MATERIAL
  5
3D
102
{ACAD_REACTORS
330
3B
102
}
330
3B
100
AcDbMaterial
  1
ByBlock
 72
     1
 94
      127
  0
MATERIAL
  5
3C
102
{ACAD_REACTORS
330
3B
102
}
330
3B
100
AcDbMaterial
  1
ByLayer
 72
     1
 94
      127
  0
MATERIAL
  5
3E
102
{ACAD_REACTORS
330
3B
102
}
330
3B
100
AcDbMaterial
  1
Global
 72
     1
 94
      127
  0
MLINESTYLE
  5
18
102
{ACAD_REACTORS
330
17
102
}
330
17
100
AcDbMlineStyle
  2
Standard
 70
     0
  3

 62
   256
 51
90.0
 52
90.0
 71
     2
 49
0.5
 62
   256
  6
BYLAYER
 49
-0.5
 62
   256
  6
BYLAYER
  0
ACDBPLACEHOLDER
  5
F
102
{ACAD_REACTORS
330
E
102
}
330
E
  0
VISUALSTYLE
  5
2F
102
{ACAD_REACTORS
330
2A
102
}
330
2A
100
AcDbVisualStyle
  2
2dWireframe
 70
     4
177
     2
291
     0
 71
     0
176
     1
 72
     2
176
     1
 73
     0
176
     1
 90
        0
176
     1
 40
-0.6
176
     1
 41
-30.0
176
     1
 62
     5
 63
     7
421
 16777215
176
     1
 74
     1
176
     1
 91
        4
176
     1
 64
     7
176
     1
 65
   257
176
     1
 75
     1
176
     1
175
     1
176
     1
 42
1.0
176
     1
 92
        0
176
     1
 66
   257
176
     1
 43
1.0
176
     1
 76
     1
176
     1
 77
     6
176
     1
 78
     2
176
     1
 67
     7
176
     1
 79
     5
176
     1
170
     0
176
     1
171
     0
176
     1
290
     0
176
     1
 93
        1
176
     1
 44
0.0
176
     1
173
     0
176
     1
  0
VISUALSTYLE
  5
31
102
{ACAD_REACTORS
330
2A
102
}
330
2A
100
AcDbVisualStyle
  2
3D Hidden
 70
     6
177
     2
291
     0
 71
     1
176
     1
 72
     2
176
     1
 73
     2
176
     1
 90
        0
176
     1
 40
-0.6
176
     1
 41
-30.0
176
     1
 62
     5
 63
     7
421
 16777215
176
     1
 74
     2
176
     1
 91
        2
176
     1
 64
     7
176
     1
 65
   257
176
     1
 75
     2
176
     1
175
     1
176
     1
 42
40.0
176
     1
 92
        0
176
     1
 66
   257
176
     1
 43
1.0
176
     1
 76
     1
176
     1
 77
     6
176
     1
 78
     2
176
     1
 67
     7
176
     1
 79
     3
176
     1
170
     0
176
     1
171
     0
176
     1
290
     0
176
     1
 93
        1
176
     1
 44
0.0
176
     1
173
     0
176
     1
  0
VISUALSTYLE
  5
30
102
{ACAD_REACTORS
330
2A
102
}
330
2A
100
AcDbVisualStyle
  2
3dWireframe
 70
     5
177
     2
291
     0
 71
     0
176
     1
 72
     2
176
     1
 73
     0
176
     1
 90
        0
176
     1
 40
-0.6
176
     1
 41
-30.0
176
     1
 62
     5
 63
     7
421
 16777215
176
     1
 74
     1
176
     1
 91
        4
176
     1
 64
     7
176
     1
 65
   257
176
     1
 75
     1
176
     1
175
     1
176
     1
 42
1.0
176
     1
 92
        0
176
     1
 66
   257
176
     1
 43
1.0
176
     1
 76
     1
176
     1
 77
     6
176
     1
 78
     2
176
     1
 67
     7
176
     1
 79
     5
176
     1
170
     0
176
     1
171
     0
176
     1
290
     0
176
     1
 93
        1
176
     1
 44
0.0
176
     1
173
     0
176
     1
  0
VISUALSTYLE
  5
32
102
{ACAD_REACTORS
330
2A
102
}
330
2A
100
AcDbVisualStyle
  2
Basic
 70
     7
177
     2
291
     1
 71
     1
176
     1
 72
     0
176
     1
 73
     1
176
     1
 90
        0
176
     1
 40
-0.6
176
     1
 41
-30.0
176
     1
 62
     5
 63
     7
421
 16777215
176
     1
 74
     0
176
     1
 91
        4
176
     1
 64
     7
176
     1
 65
   257
176
     1
 75
     1
176
     1
175
     1
176
     1
 42
1.0
176
     1
 92
        8
176
     1
 66
     7
176
     1
 43
1.0
176
     1
 76
     1
176
     1
 77
     6
176
     1
 78
     2
176
     1
 67
     7
176
     1
 79
     5
176
     1
170
     0
176
     1
171
     0
176
     1
290
     0
176
     1
 93
        1
176
     1
 44
0.0
176
     1
173
     0
176
     1
  0
VISUALSTYLE
  5
36
102
{ACAD_REACTORS
330
2A
102
}
330
2A
100
AcDbVisualStyle
  2
Brighten
 70
    12
177
     2
291
     1
 71
     2
176
     1
 72
     2
176
     1
 73
     0
176
     1
 90
        0
176
     1
 40
-0.6
176
     1
 41
-30.0
176
     1
 62
     5
 63
     7
421
 16777215
176
     1
 74
     1
176
     1
 91
        4
176
     1
 64
     7
176
     1
 65
   257
176
     1
 75
     1
176
     1
175
     1
176
     1
 42
1.0
176
     1
 92
        8
176
     1
 66
     7
176
     1
 43
1.0
176
     1
 76
     1
176
     1
 77
     6
176
     1
 78
     2
176
     1
 67
     7
176
     1
 79
     5
176
     1
170
     0
176
     1
171
     0
176
     1
290
     0
176
     1
 93
        1
176
     1
 44
50.0
176
     1
173
     0
176
     1
  0
VISUALSTYLE
  5
3A
102
{ACAD_REACTORS
330
2A
102
}
330
2A
100
AcDbVisualStyle
  2
ColorChange
 70
    16
177
     2
291
     1
 71
     2
176
     1
 72
     2
176
     1
 73
     3
176
     1
 90
        0
176
     1
 40
-0.6
176
     1
 41
-30.0
176
     1
 62
     5
 63
     8
421
  8421504
176
     1
 74
     1
176
     1
 91
        4
176
     1
 64
     7
176
     1
 65
   257
176
     1
 75
     1
176
     1
175
     1
176
     1
 42
1.0
176
     1
 92
        8
176
     1
 66
     8
424
  8421504
176
     1
 43
1.0
176
     1
 76
     1
176
     1
 77
     6
176
     1
 78
     2
176
     1
 67
     7
176
     1
 79
     5
176
     1
170
     0
176
     1
171
     0
176
     1
290
     0
176
     1
 93
        1
176
     1
 44
0.0
176
     1
173
     0
176
     1
  0
VISUALSTYLE
  5
34
102
{ACAD_REACTORS
330
2A
102
}
330
2A
100
AcDbVisualStyle
  2
Conceptual
 70
     9
177
     2
291
     0
 71
     3
176
     1
 72
     2
176
     1
 73
     0
176
     1
 90
        0
176
     1
 40
-0.6
176
     1
 41
-30.0
176
     1
 62
     5
 63
     7
421
 16777215
176
     1
 74
     2
176
     1
 91
        2
176
     1
 64
     7
176
     1
 65
   257
176
     1
 75
     1
176
     1
175
     1
176
     1
 42
40.0
176
     1
 92
        8
176
     1
 66
     7
176
     1
 43
1.0
176
     1
 76
     1
176
     1
 77
     6
176
     1
 78
     2
176
     1
 67
     7
176
     1
 79
     3
176
     1
170
     0
176
     1
171
     0
176
     1
290
     0
176
     1
 93
        1
176
     1
 44
0.0
176
     1
173
     0
176
     1
  0
VISUALSTYLE
  5
35
102
{ACAD_REACTORS
330
2A
102
}
330
2A
100
AcDbVisualStyle
  2
Dim
 70
    11
177
     2
291
     1
 71
     2
176
     1
 72
     2
176
     1
 73
     0
176
     1
 90
        0
176
     1
 40
-0.6
176
     1
 41
-30.0
176
     1
 62
     5
 63
     7
421
 16777215
176
     1
 74
     1
176
     1
 91
        4
176
     1
 64
     7
176
     1
 65
   257
176
     1
 75
     1
176
     1
175
     1
176
     1
 42
1.0
176
     1
 92
        8
176
     1
 66
     7
176
     1
 43
1.0
176
     1
 76
     1
176
     1
 77
     6
176
     1
 78
     2
176
     1
 67
     7
176
     1
 79
     5
176
     1
170
     0
176
     1
171
     0
176
     1
290
     0
176
     1
 93
        1
176
     1
 44
-50.0
176
     1
173
     0
176
     1
  0
VISUALSTYLE
  5
39
102
{ACAD_REACTORS
330
2A
102
}
330
2A
100
AcDbVisualStyle
  2
Facepattern
 70
    15
177
     2
291
     1
 71
     2
176
     1
 72
     2
176
     1
 73
     0
176
     1
 90
        0
176
     1
 40
-0.6
176
     1
 41
-30.0
176
     1
 62
     5
 63
     7
421
 16777215
176
     1
 74
     1
176
     1
 91
        4
176
     1
 64
     7
176
     1
 65
   257
176
     1
 75
     1
176
     1
175
     1
176
     1
 42
1.0
176
     1
 92
        8
176
     1
 66
     7
176
     1
 43
1.0
176
     1
 76
     1
176
     1
 77
     6
176
     1
 78
     2
176
     1
 67
     7
176
     1
 79
     5
176
     1
170
     0
176
     1
171
     0
176
     1
290
     0
176
     1
 93
        1
176
     1
 44
0.0
176
     1
173
     0
176
     1
  0
VISUALSTYLE
  5
2B
102
{ACAD_REACTORS
330
2A
102
}
330
2A
100
AcDbVisualStyle
  2
Flat
 70
     0
177
     2
291
     1
 71
     2
176
     1
 72
     1
176
     1
 73
     1
176
     1
 90
        2
176
     1
 40
-0.6
176
     1
 41
30.0
176
     1
 62
     5
 63
     7
421
 16777215
176
     1
 74
     0
176
     1
 91
        4
176
     1
 64
     7
176
     1
 65
   257
176
     1
 75
     1
176
     1
175
     1
176
     1
 42
1.0
176
     1
 92
        8
176
     1
 66
     7
176
     1
 43
1.0
176
     1
 76
     1
176
     1
 77
     6
176
     1
 78
     2
176
     1
 67
     7
176
     1
 79
     5
176
     1
170
     0
176
     1
171
     0
176
     1
290
     0
176
     1
 93
       13
176
     1
 44
0.0
176
     1
173
     0
176
     1
  0
VISUALSTYLE
  5
2C
102
{ACAD_REACTORS
330
2A
102
}
330
2A
100
AcDbVisualStyle
  2
FlatWithEdges
 70
     1
177
     2
291
     1
 71
     2
176
     1
 72
     1
176
     1
 73
     1
176
     1
 90
        2
176
     1
 40
-0.6
176
     1
 41
30.0
176
     1
 62
     5
 63
     7
421
 16777215
176
     1
 74
     1
176
     1
 91
        4
176
     1
 64
     7
176
     1
 65
   257
176
     1
 75
     1
176
     1
175
     1
176
     1
 42
1.0
176
     1
 92
        0
176
     1
 66
   257
176
     1
 43
1.0
176
     1
 76
     1
176
     1
 77
     6
176
     1
 78
     2
176
     1
 67
     7
176
     1
 79
     5
176
     1
170
     0
176
     1
171
     0
176
     1
290
     0
176
     1
 93
       13
176
     1
 44
0.0
176
     1
173
     0
176
     1
  0
VISUALSTYLE
  5
2D
102
{ACAD_REACTORS
330
2A
102
}
330
2A
100
AcDbVisualStyle
  2
Gouraud
 70
     2
177
     2
291
     1
 71
     2
176
     1
 72
     2
176
     1
 73
     1
176
     1
 90
        2
176
     1
 40
-0.6
176
     1
 41
30.0
176
     1
 62
     5
 63
     7
421
 16777215
176
     1
 74
     0
176
     1
 91
        4
176
     1
 64
     7
176
     1
 65
   257
176
     1
 75
     1
176
     1
175
     1
176
     1
 42
1.0
176
     1
 92
        0
176
     1
 66
     7
176
     1
 43
1.0
176
     1
 76
     1
176
     1
 77
     6
176
     1
 78
     2
176
     1
 67
     7
176
     1
 79
     5
176
     1
170
     0
176
     1
171
     0
176
     1
290
     0
176
     1
 93
       13
176
     1
 44
0.0
176
     1
173
     0
176
     1
  0
VISUALSTYLE
  5
2E
102
{ACAD_REACTORS
330
2A
102
}
330
2A
100
AcDbVisualStyle
  2
GouraudWithEdges
 70
     3
177
     2
291
     1
 71
     2
176
     1
 72
     2
176
     1
 73
     1
176
     1
 90
        2
176
     1
 40
-0.6
176
     1
 41
30.0
176
     1
 62
     5
 63
     7
421
 16777215
176
     1
 74
     1
176
     1
 91
        4
176
     1
 64
     7
176
     1
 65
   257
176
     1
 75
     1
176
     1
175
     1
176
     1
 42
1.0
176
     1
 92
        0
176
     1
 66
   257
176
     1
 43
1.0
176
     1
 76
     1
176
     1
 77
     6
176
     1
 78
     2
176
     1
 67
     7
176
     1
 79
     5
176
     1
170
     0
176
     1
171
     0
176
     1
290
     0
176
     1
 93
       13
176
     1
 44
0.0
176
     1
173
     0
176
     1
  0
VISUALSTYLE
  5
38
102
{ACAD_REACTORS
330
2A
102
}
330
2A
100
AcDbVisualStyle
  2
Linepattern
 70
    14
177
     2
291
     1
 71
     2
176
     1
 72
     2
176
     1
 73
     0
176
     1
 90
        0
176
     1
 40
-0.6
176
     1
 41
-30.0
176
     1
 62
     5
 63
     7
421
 16777215
176
     1
 74
     1
176
     1
 91
        4
176
     1
 64
     7
176
     1
 65
   257
176
     1
 75
     7
176
     1
175
     7
176
     1
 42
1.0
176
     1
 92
        8
176
     1
 66
     7
176
     1
 43
1.0
176
     1
 76
     1
176
     1
 77
     6
176
     1
 78
     2
176
     1
 67
     7
176
     1
 79
     5
176
     1
170
     0
176
     1
171
     0
176
     1
290
     0
176
     1
 93
        1
176
     1
 44
0.0
176
     1
173
     0
176
     1
  0
VISUALSTYLE
  5
33
102
{ACAD_REACTORS
330
2A
102
}
330
2A
100
AcDbVisualStyle
  2
Realistic
 70
     8
177
     2
291
     0
 71
     2
176
     1
 72
     2
176
     1
 73
     0
176
     1
 90
        0
176
     1
 40
-0.6
176
     1
 41
-30.0
176
     1
 62
     5
 63
     7
421
 16777215
176
     1
 74
     1
176
     1
 91
        0
176
     1
 64
     7
176
     1
 65
   257
176
     1
 75
     1
176
     1
175
     1
176
     1
 42
1.0
176
     1
 92
        8
176
     1
 66
     8
424
  7895160
176
     1
 43
1.0
176
     1
 76
     1
176
     1
 77
     6
176
     1
 78
     2
176
     1
 67
     7
176
     1
 79
     5
176
     1
170
     0
176
     1
171
     0
176
     1
290
     0
176
     1
 93
       13
176
     1
 44
0.0
176
     1
173
     0
176
     1
  0
VISUALSTYLE
  5
37
102
{ACAD_REACTORS
330
2A
102
}
330
2A
100
AcDbVisualStyle
  2
Thicken
 70
    13
177
     2
291
     1
 71
     2
176
     1
 72
     2
176
     1
 73
     0
176
     1
 90
        0
176
     1
 40
-0.6
176
     1
 41
-30.0
176
     1
 62
     5
 63
     7
421
 16777215
176
     1
 74
     1
176
     1
 91
        4
176
     1
 64
     7
176
     1
 65
   257
176
     1
 75
     1
176
     1
175
     1
176
     1
 42
1.0
176
     1
 92
       12
176
     1
 66
     7
176
     1
 43
1.0
176
     1
 76
     1
176
     1
 77
     6
176
     1
 78
     2
176
     1
 67
     7
176
     1
 79
     5
176
     1
170
     0
176
     1
171
     0
176
     1
290
     0
176
     1
 93
        1
176
     1
 44
0.0
176
     1
173
     0
176
     1
  0
ENDSEC
  0
EOF
