  0
SECTION
  2
HEADER
  9
$ACADVER
  1
AC1024
  9
$ACADMAINTVER
 70
     6
  9
$DWGCODEPAGE
  3
UNDEFINED
  9
$INSBASE
 10
0.0
 20
0.0
 30
0.0
  9
$EXTMIN
 10
1.000000000000000E+20
 20
1.000000000000000E+20
 30
1.000000000000000E+20
  9
$EXTMAX
 10
-1.000000000000000E+20
 20
-1.000000000000000E+20
 30
-1.000000000000000E+20
  9
$LIMMIN
 10
0.0
 20
0.0
  9
$LIMMAX
 10
12.0
 20
9.0
  9
$ORTHOMODE
 70
     0
  9
$REGENMODE
 70
     1
  9
$FILLMODE
 70
     1
  9
$QTEXTMODE
 70
     0
  9
$MIRRTEXT
 70
     1
  9
$LTSCALE
 40
1.0
  9
$ATTMODE
 70
     1
  9
$TEXTSIZE
 40
0.2
  9
$TRACEWID
 40
0.05
  9
$TEXTSTYLE
  7
Standard
  9
$CLAYER
  8
0
  9
$CELTYPE
  6
ByLayer
  9
$CECOLOR
 62
   256
  9
$CELTSCALE
 40
1.0
  9
$DISPSILH
 70
     0
  9
$DIMSCALE
 40
1.0
  9
$DIMASZ
 40
0.18
  9
$DIMEXO
 40
0.0625
  9
$DIMDLI
 40
0.38
  9
$DIMRND
 40
0.0
  9
$DIMDLE
 40
0.0
  9
$DIMEXE
 40
0.18
  9
$DIMTP
 40
0.0
  9
$DIMTM
 40
0.0
  9
$DIMTXT
 40
0.18
  9
$DIMCEN
 40
0.09
  9
$DIMTSZ
 40
0.0
  9
$DIMTOL
 70
     0
  9
$DIMLIM
 70
     0
  9
$DIMTIH
 70
     1
  9
$DIMTOH
 70
     1
  9
$DIMSE1
 70
     0
  9
$DIMSE2
 70
     0
  9
$DIMTAD
 70
     0
  9
$DIMZIN
 70
     0
  9
$DIMBLK
  1

  9
$DIMASO
 70
     1
  9
$DIMSHO
 70
     1
  9
$DIMPOST
  1

  9
$DIMAPOST
  1

  9
$DIMALT
 70
     0
  9
$DIMALTD
 70
     2
  9
$DIMALTF
 40
25.4
  9
$DIMLFAC
 40
1.0
  9
$DIMTOFL
 70
     0
  9
$DIMTVP
 40
0.0
  9
$DIMTIX
 70
     0
  9
$DIMSOXD
 70
     0
  9
$DIMSAH
 70
     0
  9
$DIMBLK1
  1

  9
$DIMBLK2
  1

  9
$DIMSTYLE
  2
Standard
  9
$DIMCLRD
 70
     0
  9
$DIMCLRE
 70
     0
  9
$DIMCLRT
 70
     0
  9
$DIMTFAC
 40
1.0
  9
$DIMGAP
 40
0.09
  9
$DIMJUST
 70
     0
  9
$DIMSD1
 70
     0
  9
$DIMSD2
 70
     0
  9
$DIMTOLJ
 70
     1
  9
$DIMTZIN
 70
     0
  9
$DIMALTZ
 70
     0
  9
$DIMALTTZ
 70
     0
  9
$DIMUPT
 70
     0
  9
$DIMDEC
 70
     4
  9
$DIMTDEC
 70
     4
  9
$DIMALTU
 70
     2
  9
$DIMALTTD
 70
     2
  9
$DIMTXSTY
  7
Standard
  9
$DIMAUNIT
 70
     0
  9
$DIMADEC
 70
     0
  9
$DIMALTRND
 40
0.0
  9
$DIMAZIN
 70
     0
  9
$DIMDSEP
 70
    46
  9
$DIMATFIT
 70
     3
  9
$DIMFRAC
 70
     0
  9
$DIMLDRBLK
  1

  9
$DIMLUNIT
 70
     2
  9
$DIMLWD
 70
    -2
  9
$DIMLWE
 70
    -2
  9
$DIMTMOVE
 70
     0
  9
$DIMFXL
 40
1.0
  9
$DIMFXLON
 70
     0
  9
$DIMJOGANG
 40
0.7853981633974483
  9
$DIMTFILL
 70
     0
  9
$DIMTFILLCLR
 70
     0
  9
$DIMARCSYM
 70
     0
  9
$DIMLTYPE
  6

  9
$DIMLTEX1
  6

  9
$DIMLTEX2
  6

  9
$DIMTXTDIRECTION
 70
     0
  9
$LUNITS
 70
     2
  9
$LUPREC
 70
     4
  9
$SKETCHINC
 40
0.1
  9
$FILLETRAD
 40
0.5
  9
$AUNITS
 70
     0
  9
$AUPREC
 70
     0
  9
$MENU
  1
.
  9
$ELEVATION
 40
0.0
  9
$PELEVATION
 40
0.0
  9
$THICKNESS
 40
0.0
  9
$LIMCHECK
 70
     0
  9
$CHAMFERA
 40
0.5
  9
$CHAMFERB
 40
0.5
  9
$CHAMFERC
 40
1.0
  9
$CHAMFERD
 40
0.0
  9
$SKPOLY
 70
     0
  9
$TDCREATE
 40
2457917.62491897
  9
$TDUCREATE
 40
2457917.249918981
  9
$TDUPDATE
 40
2457917.62491897
  9
$TDUUPDATE
 40
2457917.249918981
  9
$TDINDWG
 40
0.0000000116
  9
$TDUSRTIMER
 40
0.0000000116
  9
$USRTIMER
 70
     1
  9
$ANGBASE
 50
0.0
  9
$ANGDIR
 70
     0
  9
$PDMODE
 70
     0
  9
$PDSIZE
 40
0.0
  9
$PLINEWID
 40
0.0
  9
$SPLFRAME
 70
     0
  9
$SPLINETYPE
 70
     6
  9
$SPLINESEGS
 70
     8
  9
$HANDSEED
  5
98
  9
$SURFTAB1
 70
     6
  9
$SURFTAB2
 70
     6
  9
$SURFTYPE
 70
     6
  9
$SURFU
 70
     6
  9
$SURFV
 70
     6
  9
$UCSBASE
  2

  9
$UCSNAME
  2

  9
$UCSORG
 10
0.0
 20
0.0
 30
0.0
  9
$UCSXDIR
 10
1.0
 20
0.0
 30
0.0
  9
$UCSYDIR
 10
0.0
 20
1.0
 30
0.0
  9
$UCSORTHOREF
  2

  9
$UCSORTHOVIEW
 70
     0
  9
$UCSORGTOP
 10
0.0
 20
0.0
 30
0.0
  9
$UCSORGBOTTOM
 10
0.0
 20
0.0
 30
0.0
  9
$UCSORGLEFT
 10
0.0
 20
0.0
 30
0.0
  9
$UCSORGRIGHT
 10
0.0
 20
0.0
 30
0.0
  9
$UCSORGFRONT
 10
0.0
 20
0.0
 30
0.0
  9
$UCSORGBACK
 10
0.0
 20
0.0
 30
0.0
  9
$PUCSBASE
  2

  9
$PUCSNAME
  2

  9
$PUCSORG
 10
0.0
 20
0.0
 30
0.0
  9
$PUCSXDIR
 10
1.0
 20
0.0
 30
0.0
  9
$PUCSYDIR
 10
0.0
 20
1.0
 30
0.0
  9
$PUCSORTHOREF
  2

  9
$PUCSORTHOVIEW
 70
     0
  9
$PUCSORGTOP
 10
0.0
 20
0.0
 30
0.0
  9
$PUCSORGBOTTOM
 10
0.0
 20
0.0
 30
0.0
  9
$PUCSORGLEFT
 10
0.0
 20
0.0
 30
0.0
  9
$PUCSORGRIGHT
 10
0.0
 20
0.0
 30
0.0
  9
$PUCSORGFRONT
 10
0.0
 20
0.0
 30
0.0
  9
$PUCSORGBACK
 10
0.0
 20
0.0
 30
0.0
  9
$USERI1
 70
     0
  9
$USERI2
 70
     0
  9
$USERI3
 70
     0
  9
$USERI4
 70
     0
  9
$USERI5
 70
     0
  9
$USERR1
 40
0.0
  9
$USERR2
 40
0.0
  9
$USERR3
 40
0.0
  9
$USERR4
 40
0.0
  9
$USERR5
 40
0.0
  9
$WORLDVIEW
 70
     1
  9
$SHADEDGE
 70
     3
  9
$SHADEDIF
 70
    70
  9
$TILEMODE
 70
     1
  9
$MAXACTVP
 70
    64
  9
$PINSBASE
 10
0.0
 20
0.0
 30
0.0
  9
$PLIMCHECK
 70
     0
  9
$PEXTMIN
 10
1.000000000000000E+20
 20
1.000000000000000E+20
 30
1.000000000000000E+20
  9
$PEXTMAX
 10
-1.000000000000000E+20
 20
-1.000000000000000E+20
 30
-1.000000000000000E+20
  9
$PLIMMIN
 10
0.0
 20
0.0
  9
$PLIMMAX
 10
12.0
 20
9.0
  9
$UNITMODE
 70
     0
  9
$VISRETAIN
 70
     1
  9
$PLINEGEN
 70
     0
  9
$PSLTSCALE
 70
     1
  9
$TREEDEPTH
 70
  3020
  9
$CMLSTYLE
  2
Standard
  9
$CMLJUST
 70
     0
  9
$CMLSCALE
 40
1.0
  9
$PROXYGRAPHICS
 70
     1
  9
$MEASUREMENT
 70
     0
  9
$CELWEIGHT
370
    -1
  9
$ENDCAPS
280
     0
  9
$JOINSTYLE
280
     0
  9
$LWDISPLAY
290
     1
  9
$INSUNITS
 70
     1
  9
$HYPERLINKBASE
  1

  9
$STYLESHEET
  1

  9
$XEDIT
290
     1
  9
$CEPSNTYPE
380
     0
  9
$PSTYLEMODE
290
     1
  9
$FINGERPRINTGUID
  2
{848DA12C-C9DF-9ACF-2505-BB17167AB25C}
  9
$VERSIONGUID
  2
{FAEB1C32-E019-11D5-929B-00C0DF256EC4}
  9
$EXTNAMES
290
     1
  9
$PSVPSCALE
 40
0.0
  9
$OLESTARTUP
290
     0
  9
$SORTENTS
280
   127
  9
$INDEXCTL
280
     0
  9
$HIDETEXT
280
     1
  9
$XCLIPFRAME
280
     2
  9
$HALOGAP
280
     0
  9
$OBSCOLOR
 70
   257
  9
$OBSLTYPE
280
     0
  9
$INTERSECTIONDISPLAY
280
     0
  9
$INTERSECTIONCOLOR
 70
   257
  9
$DIMASSOC
280
     2
  9
$PROJECTNAME
  1

  9
$CAMERADISPLAY
290
     0
  9
$LENSLENGTH
 40
50.0
  9
$CAMERAHEIGHT
 40
0.0
  9
$STEPSPERSEC
 40
2.0
  9
$STEPSIZE
 40
6.0
  9
$3DDWFPREC
 40
2.0
  9
$PSOLWIDTH
 40
0.25
  9
$PSOLHEIGHT
 40
4.0
  9
$LOFTANG1
 40
1.570796326794897
  9
$LOFTANG2
 40
1.570796326794897
  9
$LOFTMAG1
 40
0.0
  9
$LOFTMAG2
 40
0.0
  9
$LOFTPARAM
 70
     7
  9
$LOFTNORMALS
280
     1
  9
$LATITUDE
 40
37.795
  9
$LONGITUDE
 40
-122.394
  9
$NORTHDIRECTION
 40
0.0
  9
$TIMEZONE
 70
 -8000
  9
$LIGHTGLYPHDISPLAY
280
     1
  9
$TILEMODELIGHTSYNCH
280
     1
  9
$CMATERIAL
347
3C
  9
$SOLIDHIST
280
     1
  9
$SHOWHIST
280
     1
  9
$DWFFRAME
280
     2
  9
$DGNFRAME
280
     2
  9
$REALWORLDSCALE
290
     1
  9
$INTERFERECOLOR
 62
   256
  9
$CSHADOW
280
     0
  9
$SHADOWPLANELOCATION
 40
0.0
  0
ENDSEC
  0
SECTION
  2
CLASSES
  0
CLASS
  1
ACDBDICTIONARYWDFLT
  2
AcDbDictionaryWithDefault
  3
ObjectDBX Classes
 90
        0
 91
        4
280
     0
281
     0
  0
CLASS
  1
VISUALSTYLE
  2
AcDbVisualStyle
  3
ObjectDBX Classes
 90
     4095
 91
        4
280
     0
281
     0
  0
CLASS
  1
MATERIAL
  2
AcDbMaterial
  3
ObjectDBX Classes
 90
     1153
 91
        4
280
     0
281
     0
  0
CLASS
  1
SUN
  2
AcDbSun
  3
SCENEOE
 90
     1024
 91
        4
280
     0
281
     0
  0
ENDSEC
  0
SECTION
  2
TABLES
  0
TABLE
  2
VPORT
  5
8
330
0
100
AcDbSymbolTable
 70
     1
  0
VPORT
  5
29
330
8
100
AcDbSymbolTableRecord
100
AcDbViewportTableRecord
  2
*Active
 70
     0
 10
0.0
 20
0.0
 11
1.0
 21
1.0
 12
0.0
 22
0.0
 13
0.0
 23
0.0
 14
0.5
 24
0.5
 15
0.5
 25
0.5
 16
0.0
 26
0.0
 36
1.0
 17
91.00082462281999
 27
-128.4993055234307
 37
0.0
 40
256.9986110468615
 41
0.7081814508812795
 42
50.0
 43
0.0
 44
0.0
 50
0.0
 51
0.0
 71
     0
 72
   100
 73
     1
 74
     3
 75
     0
 76
     0
 77
     0
 78
     0
281
     0
 65
     1
110
0.0
120
0.0
130
0.0
111
1.0
121
0.0
131
0.0
112
0.0
122
1.0
132
0.0
 79
     0
146
0.0
 60
     3
 61
     5
292
     1
282
     1
141
0.0
142
0.0
 63
   250
361
3F
  0
ENDTAB
  0
TABLE
  2
LTYPE
  5
5
330
0
100
AcDbSymbolTable
 70
     2
  0
LTYPE
  5
14
330
5
100
AcDbSymbolTableRecord
100
AcDbLinetypeTableRecord
  2
ByBlock
 70
     0
  3

 72
    65
 73
     0
 40
0.0
  0
LTYPE
  5
15
330
5
100
AcDbSymbolTableRecord
100
AcDbLinetypeTableRecord
  2
ByLayer
 70
     0
  3

 72
    65
 73
     0
 40
0.0
  0
LTYPE
  5
16
330
5
100
AcDbSymbolTableRecord
100
AcDbLinetypeTableRecord
  2
Continuous
 70
     0
  3
Solid line
 72
    65
 73
     0
 40
0.0
  0
LTYPE
  5
95
330
5
100
AcDbSymbolTableRecord
100
AcDbLinetypeTableRecord
  2
AI-Linetype-1
 70
     0
  3
Adobe Illustrator Linetype No. 1
 72
    65
 73
     2
 40
1.411111110758333
 49
0.7055555553791667
 74
     0
 49
-0.7055555553791667
 74
     0
  0
ENDTAB
  0
TABLE
  2
LAYER
  5
2
330
0
100
AcDbSymbolTable
 70
     2
  0
LAYER
  5
10
330
2
100
AcDbSymbolTableRecord
100
AcDbLayerTableRecord
  2
0
 70
     0
 62
     7
  6
Continuous
370
    -3
390
F
347
3E
  0
LAYER
  5
40
330
2
100
AcDbSymbolTableRecord
100
AcDbLayerTableRecord
  2
_U+30EC_U+30A4_U+30E4_U+30FC 1
 70
     0
 62
     7
  6
Continuous
370
    -3
390
F
347
3E
  0
ENDTAB
  0
TABLE
  2
STYLE
  5
3
330
0
100
AcDbSymbolTable
 70
     1
  0
STYLE
  5
11
330
3
100
AcDbSymbolTableRecord
100
AcDbTextStyleTableRecord
  2
Standard
 70
     0
 40
0.0
 41
1.0
 50
0.0
 71
     0
 42
0.2
  3
txt
  4

  0
ENDTAB
  0
TABLE
  2
VIEW
  5
6
330
0
100
AcDbSymbolTable
 70
     0
  0
ENDTAB
  0
TABLE
  2
UCS
  5
7
330
0
100
AcDbSymbolTable
 70
     0
  0
ENDTAB
  0
TABLE
  2
APPID
  5
9
330
0
100
AcDbSymbolTable
 70
     1
  0
APPID
  5
12
330
9
100
AcDbSymbolTableRecord
100
AcDbRegAppTableRecord
  2
ACAD
 70
     0
  0
ENDTAB
  0
TABLE
  2
DIMSTYLE
  5
A
330
0
100
AcDbSymbolTable
 70
     1
100
AcDbDimStyleTable
  0
DIMSTYLE
105
27
330
A
100
AcDbSymbolTableRecord
100
AcDbDimStyleTableRecord
  2
Standard
 70
     0
178
     0
340
11
  0
ENDTAB
  0
TABLE
  2
BLOCK_RECORD
  5
1
330
0
100
AcDbSymbolTable
 70
     4
  0
BLOCK_RECORD
  5
1F
330
1
100
AcDbSymbolTableRecord
100
AcDbBlockTableRecord
  2
*Model_Space
340
22
 70
     0
280
     1
281
     0
  0
BLOCK_RECORD
  5
1B
330
1
100
AcDbSymbolTableRecord
100
AcDbBlockTableRecord
  2
*Paper_Space
340
1E
 70
     0
280
     1
281
     0
  0
BLOCK_RECORD
  5
23
330
1
100
AcDbSymbolTableRecord
100
AcDbBlockTableRecord
  2
*Paper_Space0
340
26
 70
     0
280
     1
281
     0
  0
BLOCK_RECORD
  5
7F
330
1
100
AcDbSymbolTableRecord
100
AcDbBlockTableRecord
  2
block 2
340
0
102
{BLKREFS
331
80
102
}
 70
     0
280
     1
281
     0
  0
BLOCK_RECORD
  5
87
330
1
100
AcDbSymbolTableRecord
100
AcDbBlockTableRecord
  2
block 3
340
0
102
{BLKREFS
331
88
102
}
 70
     0
280
     1
281
     0
  0
BLOCK_RECORD
  5
8E
330
1
100
AcDbSymbolTableRecord
100
AcDbBlockTableRecord
  2
block 4
340
0
102
{BLKREFS
331
8F
102
}
 70
     0
280
     1
281
     0
  0
ENDTAB
  0
ENDSEC
  0
SECTION
  2
BLOCKS
  0
BLOCK
  5
20
330
1F
100
AcDbEntity
  8
0
100
AcDbBlockBegin
  2
*Model_Space
 70
     0
 10
0.0
 20
0.0
 30
0.0
  3
*Model_Space
  1

  0
ENDBLK
  5
21
330
1F
100
AcDbEntity
  8
0
100
AcDbBlockEnd
  0
BLOCK
  5
1C
330
1B
100
AcDbEntity
 67
     1
  8
0
100
AcDbBlockBegin
  2
*Paper_Space
 70
     0
 10
0.0
 20
0.0
 30
0.0
  3
*Paper_Space
  1

  0
ENDBLK
  5
1D
330
1B
100
AcDbEntity
 67
     1
  8
0
100
AcDbBlockEnd
  0
BLOCK
  5
24
330
23
100
AcDbEntity
  8
0
100
AcDbBlockBegin
  2
*Paper_Space0
 70
     0
 10
0.0
 20
0.0
 30
0.0
  3
*Paper_Space0
  1

  0
ENDBLK
  5
25
330
23
100
AcDbEntity
  8
0
100
AcDbBlockEnd
  0
BLOCK
  5
81
330
7F
100
AcDbEntity
  8
0
100
AcDbBlockBegin
  2
block 2
 70
     0
 10
0.0
 20
0.0
 30
0.0
  3
block 2
  1

  0
SPLINE
  5
83
330
7F
100
AcDbEntity
  8
_U+30EC_U+30A4_U+30E4_U+30FC 1
370
     0
100
AcDbSpline
210
0.0
220
0.0
230
1.0
 70
    11
 71
     3
 72
    44
 73
    40
 74
     0
 42
0.0000000001
 43
0.0000000001
 12
1.0
 22
0.0
 32
0.0
 13
1.0
 23
0.0
 33
0.0
 40
0.0
 40
0.0
 40
0.0
 40
0.0
 40
1.0
 40
1.0
 40
1.0
 40
2.0
 40
2.0
 40
2.0
 40
3.0
 40
3.0
 40
3.0
 40
4.0
 40
4.0
 40
4.0
 40
5.0
 40
5.0
 40
5.0
 40
6.0
 40
6.0
 40
6.0
 40
7.0
 40
7.0
 40
7.0
 40
8.0
 40
8.0
 40
8.0
 40
9.0
 40
9.0
 40
9.0
 40
10.0
 40
10.0
 40
10.0
 40
11.0
 40
11.0
 40
11.0
 40
12.0
 40
12.0
 40
12.0
 40
13.0
 40
13.0
 40
13.0
 40
13.0
 10
90.24668780295917
 20
-122.9137722131952
 30
0.0
 10
90.02878551351711
 20
-123.0724188602909
 30
0.0
 10
89.9355956806411
 20
-123.1464884132238
 30
0.0
 10
89.88701983429908
 20
-123.290321149733
 30
0.0
 10
89.88701983429908
 20
-123.290321149733
 30
0.0
 10
90.66543915919128
 20
-123.290321149733
 30
0.0
 10
90.66543915919128
 20
-123.290321149733
 30
0.0
 10
90.66543915919128
 20
-123.290321149733
 30
0.0
 10
90.66543915919128
 20
-123.4954765858796
 30
0.0
 10
90.66543915919128
 20
-123.4954765858796
 30
0.0
 10
90.66543915919128
 20
-123.4954765858796
 30
0.0
 10
89.63742266639274
 20
-123.4954765858796
 30
0.0
 10
89.63742266639274
 20
-123.4954765858796
 30
0.0
 10
89.66911754485703
 20
-123.1378756745107
 30
0.0
 10
89.73457435907677
 20
-123.0596720069955
 30
0.0
 10
90.11973603432772
 20
-122.7613267379729
 30
0.0
 10
90.37570662888177
 20
-122.562544728474
 30
0.0
 10
90.44116344310152
 20
-122.4948486021888
 30
0.0
 10
90.44116344310152
 20
-122.3573892923273
 30
0.0
 10
90.44116344310152
 20
-122.2388780076347
 30
0.0
 10
90.36933320223406
 20
-122.107792124421
 30
0.0
 10
90.17261825002629
 20
-122.107792124421
 30
0.0
 10
89.91234128611566
 20
-122.107792124421
 30
0.0
 10
89.9039008021768
 20
-122.3382690123842
 30
0.0
 10
89.89959443282025
 20
-122.4547132397856
 30
0.0
 10
89.89959443282025
 20
-122.4547132397856
 30
0.0
 10
89.67549097150474
 20
-122.4547132397856
 30
0.0
 10
89.67549097150474
 20
-122.4547132397856
 30
0.0
 10
89.6839314554436
 20
-122.3277614711542
 30
0.0
 10
89.69443899667361
 20
-122.2156236131093
 30
0.0
 10
89.7748819762542
 20
-122.0971123284167
 30
0.0
 10
89.88478052223367
 20
-121.9363986240298
 30
0.0
 10
90.07098793321143
 20
-121.9024644335001
 30
0.0
 10
90.18743216061287
 20
-121.9024644335001
 30
0.0
 10
90.46459009240122
 20
-121.9024644335001
 30
0.0
 10
90.67181258583899
 20
-122.0866047871867
 30
0.0
 10
90.67181258583899
 20
-122.3594563496185
 30
0.0
 10
90.67181258583899
 20
-122.5878661802905
 30
0.0
 10
90.55554061321182
 20
-122.6874294398143
 30
0.0
 10
90.24668780295917
 20
-122.9137722131952
 30
0.0
  0
HATCH
  5
84
330
7F
100
AcDbEntity
  8
_U+30EC_U+30A4_U+30E4_U+30FC 1
 62
     7
420
 16777215
100
AcDbHatch
 10
0.0
 20
0.0
 30
0.0
210
0.0
220
0.0
230
1.0
  2
SOLID
 70
     1
 71
     0
 91
        1
 92
        1
 93
        1
 72
     4
 94
        3
 73
     0
 74
     1
 95
       44
 96
       40
 40
0.0
 40
0.0
 40
0.0
 40
0.0
 40
1.0
 40
1.0
 40
1.0
 40
2.0
 40
2.0
 40
2.0
 40
3.0
 40
3.0
 40
3.0
 40
4.0
 40
4.0
 40
4.0
 40
5.0
 40
5.0
 40
5.0
 40
6.0
 40
6.0
 40
6.0
 40
7.0
 40
7.0
 40
7.0
 40
8.0
 40
8.0
 40
8.0
 40
9.0
 40
9.0
 40
9.0
 40
10.0
 40
10.0
 40
10.0
 40
11.0
 40
11.0
 40
11.0
 40
12.0
 40
12.0
 40
12.0
 40
13.0
 40
13.0
 40
13.0
 40
13.0
 10
90.24668780295917
 20
-122.9137722131952
 10
90.02878551351711
 20
-123.0724188602909
 10
89.9355956806411
 20
-123.1464884132238
 10
89.88701983429908
 20
-123.290321149733
 10
89.88701983429908
 20
-123.290321149733
 10
90.66543915919128
 20
-123.290321149733
 10
90.66543915919128
 20
-123.290321149733
 10
90.66543915919128
 20
-123.290321149733
 10
90.66543915919128
 20
-123.4954765858796
 10
90.66543915919128
 20
-123.4954765858796
 10
90.66543915919128
 20
-123.4954765858796
 10
89.63742266639274
 20
-123.4954765858796
 10
89.63742266639274
 20
-123.4954765858796
 10
89.66911754485703
 20
-123.1378756745107
 10
89.73457435907677
 20
-123.0596720069955
 10
90.11973603432772
 20
-122.7613267379729
 10
90.37570662888177
 20
-122.562544728474
 10
90.44116344310152
 20
-122.4948486021888
 10
90.44116344310152
 20
-122.3573892923273
 10
90.44116344310152
 20
-122.2388780076347
 10
90.36933320223406
 20
-122.107792124421
 10
90.17261825002629
 20
-122.107792124421
 10
89.91234128611566
 20
-122.107792124421
 10
89.9039008021768
 20
-122.3382690123842
 10
89.89959443282025
 20
-122.4547132397856
 10
89.89959443282025
 20
-122.4547132397856
 10
89.67549097150474
 20
-122.4547132397856
 10
89.67549097150474
 20
-122.4547132397856
 10
89.6839314554436
 20
-122.3277614711542
 10
89.69443899667361
 20
-122.2156236131093
 10
89.7748819762542
 20
-122.0971123284167
 10
89.88478052223367
 20
-121.9363986240298
 10
90.07098793321143
 20
-121.9024644335001
 10
90.18743216061287
 20
-121.9024644335001
 10
90.46459009240122
 20
-121.9024644335001
 10
90.67181258583899
 20
-122.0866047871867
 10
90.67181258583899
 20
-122.3594563496185
 10
90.67181258583899
 20
-122.5878661802905
 10
90.55554061321182
 20
-122.6874294398143
 10
90.24668780295917
 20
-122.9137722131952
 97
        0
 97
        0
 75
     2
 76
     1
 98
        0
  0
SPLINE
  5
85
330
7F
100
AcDbEntity
  8
_U+30EC_U+30A4_U+30E4_U+30FC 1
370
     0
100
AcDbSpline
210
0.0
220
0.0
230
1.0
 70
    11
 71
     3
 72
    62
 73
    58
 74
     0
 42
0.0000000001
 43
0.0000000001
 12
1.0
 22
0.0
 32
0.0
 13
1.0
 23
0.0
 33
0.0
 40
0.0
 40
0.0
 40
0.0
 40
0.0
 40
1.0
 40
1.0
 40
1.0
 40
2.0
 40
2.0
 40
2.0
 40
3.0
 40
3.0
 40
3.0
 40
4.0
 40
4.0
 40
4.0
 40
5.0
 40
5.0
 40
5.0
 40
6.0
 40
6.0
 40
6.0
 40
7.0
 40
7.0
 40
7.0
 40
8.0
 40
8.0
 40
8.0
 40
9.0
 40
9.0
 40
9.0
 40
10.0
 40
10.0
 40
10.0
 40
11.0
 40
11.0
 40
11.0
 40
12.0
 40
12.0
 40
12.0
 40
13.0
 40
13.0
 40
13.0
 40
14.0
 40
14.0
 40
14.0
 40
15.0
 40
15.0
 40
15.0
 40
16.0
 40
16.0
 40
16.0
 40
17.0
 40
17.0
 40
17.0
 40
18.0
 40
18.0
 40
18.0
 40
19.0
 40
19.0
 40
19.0
 40
19.0
 10
91.3220743586799
 20
-123.546291744287
 30
0.0
 10
91.22664521373848
 20
-123.546291744287
 30
0.0
 10
91.0089151790707
 20
-123.5251044070528
 30
0.0
 10
90.88385821295613
 20
-123.338896996075
 30
0.0
 10
90.80996091479751
 20
-123.2267591380301
 30
0.0
 10
90.80565454544096
 20
-123.1273681332807
 30
0.0
 10
90.80152043085864
 20
-123.0427910391178
 30
0.0
 10
90.80152043085864
 20
-123.0427910391178
 30
0.0
 10
91.02166203236612
 20
-123.0427910391178
 30
0.0
 10
91.02166203236612
 20
-123.0427910391178
 30
0.0
 10
91.02372908965727
 20
-123.1168605920507
 30
0.0
 10
91.03406437611302
 20
-123.3516438493704
 30
0.0
 10
91.31759573454907
 20
-123.3516438493704
 30
0.0
 10
91.45488278963629
 20
-123.3516438493704
 30
0.0
 10
91.60750051963285
 20
-123.2818806657941
 30
0.0
 10
91.60750051963285
 20
-123.0532985803478
 30
0.0
 10
91.60750051963285
 20
-122.9370266077206
 30
0.0
 10
91.56925995974657
 20
-122.8882785066043
 30
0.0
 10
91.53756508128228
 20
-122.85658362814
 30
0.0
 10
91.46349552834941
 20
-122.7825140752072
 30
0.0
 10
91.34722355572222
 20
-122.769939476686
 30
0.0
 10
91.29244653750675
 20
-122.769939476686
 30
0.0
 10
91.27315400278935
 20
-122.769939476686
 30
0.0
 10
91.23732500974276
 20
-122.7720065339771
 30
0.0
 10
91.20976424586075
 20
-122.7761406485594
 30
0.0
 10
91.20976424586075
 20
-122.7761406485594
 30
0.0
 10
91.20976424586075
 20
-122.5814927536428
 30
0.0
 10
91.20976424586075
 20
-122.5814927536428
 30
0.0
 10
91.24800480574703
 20
-122.5878661802905
 30
0.0
 10
91.29003497066708
 20
-122.5901054923559
 30
0.0
 10
91.29658065208905
 20
-122.5901054923559
 30
0.0
 10
91.3620374663088
 20
-122.5901054923559
 30
0.0
 10
91.56064722103345
 20
-122.5689181551217
 30
0.0
 10
91.56064722103345
 20
-122.3318955857365
 30
0.0
 10
91.56064722103345
 20
-122.1543009134718
 30
0.0
 10
91.42973359259396
 20
-122.0991793857079
 30
0.0
 10
91.31966279184023
 20
-122.0991793857079
 30
0.0
 10
91.05542396812156
 20
-122.0991793857079
 30
0.0
 10
91.04681122940843
 20
-122.3318955857365
 30
0.0
 10
91.04267711482613
 20
-122.4038980813782
 30
0.0
 10
91.04267711482613
 20
-122.4038980813782
 30
0.0
 10
90.83958873597066
 20
-122.4038980813782
 30
0.0
 10
90.83958873597066
 20
-122.4038980813782
 30
0.0
 10
90.84802921990952
 20
-122.2790133700379
 30
0.0
 10
90.87558998379153
 20
-121.9024644335001
 30
0.0
 10
91.33240964513566
 20
-121.9024644335001
 30
0.0
 10
91.55651310645115
 20
-121.9024644335001
 30
0.0
 10
91.79766979041864
 20
-122.0294162021315
 30
0.0
 10
91.79766979041864
 20
-122.3255221590888
 30
0.0
 10
91.79766979041864
 20
-122.5117295700665
 30
0.0
 10
91.70258515502574
 20
-122.5942396069382
 30
0.0
 10
91.60302189550202
 20
-122.6555623065757
 30
0.0
 10
91.66434459513947
 20
-122.6831230704577
 30
0.0
 10
91.84624563676067
 20
-122.7635660500383
 30
0.0
 10
91.84624563676067
 20
-123.0407239818266
 30
0.0
 10
91.84624563676067
 20
-123.3792046132524
 30
0.0
 10
91.59888778091972
 20
-123.546291744287
 30
0.0
 10
91.3220743586799
 20
-123.546291744287
 30
0.0
  0
HATCH
  5
86
330
7F
100
AcDbEntity
  8
_U+30EC_U+30A4_U+30E4_U+30FC 1
 62
     7
420
 16777215
100
AcDbHatch
 10
0.0
 20
0.0
 30
0.0
210
0.0
220
0.0
230
1.0
  2
SOLID
 70
     1
 71
     0
 91
        1
 92
        1
 93
        1
 72
     4
 94
        3
 73
     0
 74
     1
 95
       62
 96
       58
 40
0.0
 40
0.0
 40
0.0
 40
0.0
 40
1.0
 40
1.0
 40
1.0
 40
2.0
 40
2.0
 40
2.0
 40
3.0
 40
3.0
 40
3.0
 40
4.0
 40
4.0
 40
4.0
 40
5.0
 40
5.0
 40
5.0
 40
6.0
 40
6.0
 40
6.0
 40
7.0
 40
7.0
 40
7.0
 40
8.0
 40
8.0
 40
8.0
 40
9.0
 40
9.0
 40
9.0
 40
10.0
 40
10.0
 40
10.0
 40
11.0
 40
11.0
 40
11.0
 40
12.0
 40
12.0
 40
12.0
 40
13.0
 40
13.0
 40
13.0
 40
14.0
 40
14.0
 40
14.0
 40
15.0
 40
15.0
 40
15.0
 40
16.0
 40
16.0
 40
16.0
 40
17.0
 40
17.0
 40
17.0
 40
18.0
 40
18.0
 40
18.0
 40
19.0
 40
19.0
 40
19.0
 40
19.0
 10
91.3220743586799
 20
-123.546291744287
 10
91.22664521373848
 20
-123.546291744287
 10
91.0089151790707
 20
-123.5251044070528
 10
90.88385821295613
 20
-123.338896996075
 10
90.80996091479751
 20
-123.2267591380301
 10
90.80565454544096
 20
-123.1273681332807
 10
90.80152043085864
 20
-123.0427910391178
 10
90.80152043085864
 20
-123.0427910391178
 10
91.02166203236612
 20
-123.0427910391178
 10
91.02166203236612
 20
-123.0427910391178
 10
91.02372908965727
 20
-123.1168605920507
 10
91.03406437611302
 20
-123.3516438493704
 10
91.31759573454907
 20
-123.3516438493704
 10
91.45488278963629
 20
-123.3516438493704
 10
91.60750051963285
 20
-123.2818806657941
 10
91.60750051963285
 20
-123.0532985803478
 10
91.60750051963285
 20
-122.9370266077206
 10
91.56925995974657
 20
-122.8882785066043
 10
91.53756508128228
 20
-122.85658362814
 10
91.46349552834941
 20
-122.7825140752072
 10
91.34722355572222
 20
-122.769939476686
 10
91.29244653750675
 20
-122.769939476686
 10
91.27315400278935
 20
-122.769939476686
 10
91.23732500974276
 20
-122.7720065339771
 10
91.20976424586075
 20
-122.7761406485594
 10
91.20976424586075
 20
-122.7761406485594
 10
91.20976424586075
 20
-122.5814927536428
 10
91.20976424586075
 20
-122.5814927536428
 10
91.24800480574703
 20
-122.5878661802905
 10
91.29003497066708
 20
-122.5901054923559
 10
91.29658065208905
 20
-122.5901054923559
 10
91.3620374663088
 20
-122.5901054923559
 10
91.56064722103345
 20
-122.5689181551217
 10
91.56064722103345
 20
-122.3318955857365
 10
91.56064722103345
 20
-122.1543009134718
 10
91.42973359259396
 20
-122.0991793857079
 10
91.31966279184023
 20
-122.0991793857079
 10
91.05542396812156
 20
-122.0991793857079
 10
91.04681122940843
 20
-122.3318955857365
 10
91.04267711482613
 20
-122.4038980813782
 10
91.04267711482613
 20
-122.4038980813782
 10
90.83958873597066
 20
-122.4038980813782
 10
90.83958873597066
 20
-122.4038980813782
 10
90.84802921990952
 20
-122.2790133700379
 10
90.87558998379153
 20
-121.9024644335001
 10
91.33240964513566
 20
-121.9024644335001
 10
91.55651310645115
 20
-121.9024644335001
 10
91.79766979041864
 20
-122.0294162021315
 10
91.79766979041864
 20
-122.3255221590888
 10
91.79766979041864
 20
-122.5117295700665
 10
91.70258515502574
 20
-122.5942396069382
 10
91.60302189550202
 20
-122.6555623065757
 10
91.66434459513947
 20
-122.6831230704577
 10
91.84624563676067
 20
-122.7635660500383
 10
91.84624563676067
 20
-123.0407239818266
 10
91.84624563676067
 20
-123.3792046132524
 10
91.59888778091972
 20
-123.546291744287
 10
91.3220743586799
 20
-123.546291744287
 97
        0
 97
        0
 75
     2
 76
     1
 98
        0
  0
ENDBLK
  5
82
330
7F
100
AcDbEntity
  8
0
100
AcDbBlockEnd
  0
BLOCK
  5
89
330
87
100
AcDbEntity
  8
0
100
AcDbBlockBegin
  2
block 3
 70
     0
 10
0.0
 20
0.0
 30
0.0
  3
block 3
  1

  0
SPLINE
  5
8B
330
87
100
AcDbEntity
  8
_U+30EC_U+30A4_U+30E4_U+30FC 1
370
     0
100
AcDbSpline
210
0.0
220
0.0
230
1.0
 70
    11
 71
     3
 72
    32
 73
    28
 74
     0
 42
0.0000000001
 43
0.0000000001
 12
1.0
 22
0.0
 32
0.0
 13
1.0
 23
0.0
 33
0.0
 40
0.0
 40
0.0
 40
0.0
 40
0.0
 40
1.0
 40
1.0
 40
1.0
 40
2.0
 40
2.0
 40
2.0
 40
3.0
 40
3.0
 40
3.0
 40
4.0
 40
4.0
 40
4.0
 40
5.0
 40
5.0
 40
5.0
 40
6.0
 40
6.0
 40
6.0
 40
7.0
 40
7.0
 40
7.0
 40
8.0
 40
8.0
 40
8.0
 40
9.0
 40
9.0
 40
9.0
 40
9.0
 10
90.74622664832039
 20
-134.5464816286898
 30
0.0
 10
90.2299790898557
 20
-134.5464816286898
 30
0.0
 10
90.22153860591685
 20
-133.9925102746616
 30
0.0
 10
90.22153860591685
 20
-133.7785698450276
 30
0.0
 10
90.22153860591685
 20
-133.5480929570644
 30
0.0
 10
90.24065888585997
 20
-132.9007595153859
 30
0.0
 10
90.78429495343241
 20
-132.9007595153859
 30
0.0
 10
90.95758325634047
 20
-132.9007595153859
 30
0.0
 10
91.20321856443879
 20
-132.9706949537365
 30
0.0
 10
91.24111461477654
 20
-133.3028021585146
 30
0.0
 10
91.24111461477654
 20
-133.3028021585146
 30
0.0
 10
91.02751869469104
 20
-133.3028021585146
 30
0.0
 10
91.02751869469104
 20
-133.3028021585146
 30
0.0
 10
91.01683889868677
 20
-133.2456135734594
 30
0.0
 10
90.98514402022246
 20
-133.0974744675937
 30
0.0
 10
90.78222789614125
 20
-133.0974744675937
 30
0.0
 10
90.49025605376633
 20
-133.0974744675937
 30
0.0
 10
90.44994843658891
 20
-133.4254475577895
 30
0.0
 10
90.43737383806774
 20
-133.6304307391619
 30
0.0
 10
90.5303914161695
 20
-133.5522270716467
 30
0.0
 10
90.59808754245465
 20
-133.4929714293004
 30
0.0
 10
90.77998858407584
 20
-133.4929714293004
 30
0.0
 10
90.95999482318014
 20
-133.4929714293004
 30
0.0
 10
91.26247420678509
 20
-133.6011474275372
 30
0.0
 10
91.26247420678509
 20
-134.0073241852482
 30
0.0
 10
91.26247420678509
 20
-134.3266845367308
 30
0.0
 10
91.06334768773763
 20
-134.5464816286898
 30
0.0
 10
90.74622664832039
 20
-134.5464816286898
 30
0.0
  0
SPLINE
  5
8C
330
87
100
AcDbEntity
  8
_U+30EC_U+30A4_U+30E4_U+30FC 1
370
     0
100
AcDbSpline
210
0.0
220
0.0
230
1.0
 70
    11
 71
     3
 72
    17
 73
    13
 74
     0
 42
0.0000000001
 43
0.0000000001
 12
1.0
 22
0.0
 32
0.0
 13
1.0
 23
0.0
 33
0.0
 40
0.0
 40
0.0
 40
0.0
 40
0.0
 40
1.0
 40
1.0
 40
1.0
 40
2.0
 40
2.0
 40
2.0
 40
3.0
 40
3.0
 40
3.0
 40
4.0
 40
4.0
 40
4.0
 40
4.0
 10
90.76310761619811
 20
-133.687619324217
 30
0.0
 10
90.50076359499634
 20
-133.687619324217
 30
0.0
 10
90.46269528988434
 20
-133.8991481870113
 30
0.0
 10
90.46269528988434
 20
-134.0155924144128
 30
0.0
 10
90.46269528988434
 20
-134.1912922841605
 30
0.0
 10
90.55795218005149
 20
-134.3542453006128
 30
0.0
 10
90.74192027896383
 20
-134.3542453006128
 30
0.0
 10
90.86249862094758
 20
-134.3542453006128
 30
0.0
 10
91.03819849069532
 20
-134.2949896582665
 30
0.0
 10
91.03819849069532
 20
-134.0093912425393
 30
0.0
 10
91.03819849069532
 20
-133.7851155264496
 30
0.0
 10
90.89832761399417
 20
-133.687619324217
 30
0.0
 10
90.76310761619811
 20
-133.687619324217
 30
0.0
  0
HATCH
  5
8D
330
87
100
AcDbEntity
  8
_U+30EC_U+30A4_U+30E4_U+30FC 1
 62
     7
420
 16777215
100
AcDbHatch
 10
0.0
 20
0.0
 30
0.0
210
0.0
220
0.0
230
1.0
  2
SOLID
 70
     1
 71
     0
 91
        2
 92
        1
 93
        1
 72
     4
 94
        3
 73
     0
 74
     1
 95
       32
 96
       28
 40
0.0
 40
0.0
 40
0.0
 40
0.0
 40
1.0
 40
1.0
 40
1.0
 40
2.0
 40
2.0
 40
2.0
 40
3.0
 40
3.0
 40
3.0
 40
4.0
 40
4.0
 40
4.0
 40
5.0
 40
5.0
 40
5.0
 40
6.0
 40
6.0
 40
6.0
 40
7.0
 40
7.0
 40
7.0
 40
8.0
 40
8.0
 40
8.0
 40
9.0
 40
9.0
 40
9.0
 40
9.0
 10
90.74622664832039
 20
-134.5464816286898
 10
90.2299790898557
 20
-134.5464816286898
 10
90.22153860591685
 20
-133.9925102746616
 10
90.22153860591685
 20
-133.7785698450276
 10
90.22153860591685
 20
-133.5480929570644
 10
90.24065888585997
 20
-132.9007595153859
 10
90.78429495343241
 20
-132.9007595153859
 10
90.95758325634047
 20
-132.9007595153859
 10
91.20321856443879
 20
-132.9706949537365
 10
91.24111461477654
 20
-133.3028021585146
 10
91.24111461477654
 20
-133.3028021585146
 10
91.02751869469104
 20
-133.3028021585146
 10
91.02751869469104
 20
-133.3028021585146
 10
91.01683889868677
 20
-133.2456135734594
 10
90.98514402022246
 20
-133.0974744675937
 10
90.78222789614125
 20
-133.0974744675937
 10
90.49025605376633
 20
-133.0974744675937
 10
90.44994843658891
 20
-133.4254475577895
 10
90.43737383806774
 20
-133.6304307391619
 10
90.5303914161695
 20
-133.5522270716467
 10
90.59808754245465
 20
-133.4929714293004
 10
90.77998858407584
 20
-133.4929714293004
 10
90.95999482318014
 20
-133.4929714293004
 10
91.26247420678509
 20
-133.6011474275372
 10
91.26247420678509
 20
-134.0073241852482
 10
91.26247420678509
 20
-134.3266845367308
 10
91.06334768773763
 20
-134.5464816286898
 10
90.74622664832039
 20
-134.5464816286898
 97
        0
 97
        0
 92
        1
 93
        1
 72
     4
 94
        3
 73
     0
 74
     1
 95
       17
 96
       13
 40
0.0
 40
0.0
 40
0.0
 40
0.0
 40
1.0
 40
1.0
 40
1.0
 40
2.0
 40
2.0
 40
2.0
 40
3.0
 40
3.0
 40
3.0
 40
4.0
 40
4.0
 40
4.0
 40
4.0
 10
90.76310761619811
 20
-133.687619324217
 10
90.50076359499634
 20
-133.687619324217
 10
90.46269528988434
 20
-133.8991481870113
 10
90.46269528988434
 20
-134.0155924144128
 10
90.46269528988434
 20
-134.1912922841605
 10
90.55795218005149
 20
-134.3542453006128
 10
90.74192027896383
 20
-134.3542453006128
 10
90.86249862094758
 20
-134.3542453006128
 10
91.03819849069532
 20
-134.2949896582665
 10
91.03819849069532
 20
-134.0093912425393
 10
91.03819849069532
 20
-133.7851155264496
 10
90.89832761399417
 20
-133.687619324217
 10
90.76310761619811
 20
-133.687619324217
 97
        0
 97
        0
 75
     2
 76
     1
 98
        0
  0
ENDBLK
  5
8A
330
87
100
AcDbEntity
  8
0
100
AcDbBlockEnd
  0
BLOCK
  5
90
330
8E
100
AcDbEntity
  8
0
100
AcDbBlockBegin
  2
block 4
 70
     0
 10
0.0
 20
0.0
 30
0.0
  3
block 4
  1

  0
SPLINE
  5
92
330
8E
100
AcDbEntity
  8
_U+30EC_U+30A4_U+30E4_U+30FC 1
370
     0
100
AcDbSpline
210
0.0
220
0.0
230
1.0
 70
    11
 71
     3
 72
    62
 73
    58
 74
     0
 42
0.0000000001
 43
0.0000000001
 12
1.0
 22
0.0
 32
0.0
 13
1.0
 23
0.0
 33
0.0
 40
0.0
 40
0.0
 40
0.0
 40
0.0
 40
1.0
 40
1.0
 40
1.0
 40
2.0
 40
2.0
 40
2.0
 40
3.0
 40
3.0
 40
3.0
 40
4.0
 40
4.0
 40
4.0
 40
5.0
 40
5.0
 40
5.0
 40
6.0
 40
6.0
 40
6.0
 40
7.0
 40
7.0
 40
7.0
 40
8.0
 40
8.0
 40
8.0
 40
9.0
 40
9.0
 40
9.0
 40
10.0
 40
10.0
 40
10.0
 40
11.0
 40
11.0
 40
11.0
 40
12.0
 40
12.0
 40
12.0
 40
13.0
 40
13.0
 40
13.0
 40
14.0
 40
14.0
 40
14.0
 40
15.0
 40
15.0
 40
15.0
 40
16.0
 40
16.0
 40
16.0
 40
17.0
 40
17.0
 40
17.0
 40
18.0
 40
18.0
 40
18.0
 40
19.0
 40
19.0
 40
19.0
 40
19.0
 10
97.14652504081754
 20
-129.6485893773101
 30
0.0
 10
97.14652504081754
 20
-129.7440185222515
 30
0.0
 10
97.12550995835751
 20
-129.9617485569193
 30
0.0
 10
96.93947480215402
 20
-130.0868055230339
 30
0.0
 10
96.82716468933488
 20
-130.1605305664182
 30
0.0
 10
96.72794593935969
 20
-130.165009190549
 30
0.0
 10
96.64319659042253
 20
-130.1691433051313
 30
0.0
 10
96.64319659042253
 20
-130.1691433051313
 30
0.0
 10
96.64319659042253
 20
-129.9490017036239
 30
0.0
 10
96.64319659042253
 20
-129.9490017036239
 30
0.0
 10
96.71726614335542
 20
-129.9469346463327
 30
0.0
 10
96.95187714590092
 20
-129.936599359877
 30
0.0
 10
96.95187714590092
 20
-129.6530680014409
 30
0.0
 10
96.95187714590092
 20
-129.5156086915794
 30
0.0
 10
96.88228621709888
 20
-129.3629909615829
 30
0.0
 10
96.65387638642682
 20
-129.3629909615829
 30
0.0
 10
96.53743215902537
 20
-129.3629909615829
 30
0.0
 10
96.48885631268334
 20
-129.4012315214691
 30
0.0
 10
96.45716143421905
 20
-129.4329263999335
 30
0.0
 10
96.38309188128618
 20
-129.5069959528663
 30
0.0
 10
96.37034502799075
 20
-129.6234401802677
 30
0.0
 10
96.37034502799075
 20
-129.6782171984832
 30
0.0
 10
96.37034502799075
 20
-129.6975097332006
 30
0.0
 10
96.37241208528191
 20
-129.7333387262472
 30
0.0
 10
96.37654619986421
 20
-129.7608994901292
 30
0.0
 10
96.37654619986421
 20
-129.7608994901292
 30
0.0
 10
96.18189830494758
 20
-129.7608994901292
 30
0.0
 10
96.18189830494758
 20
-129.7608994901292
 30
0.0
 10
96.18844398636956
 20
-129.7226589302429
 30
0.0
 10
96.1905110436607
 20
-129.6806287653229
 30
0.0
 10
96.1905110436607
 20
-129.6740830839009
 30
0.0
 10
96.1905110436607
 20
-129.6086262696812
 30
0.0
 10
96.16915145165216
 20
-129.4098442601823
 30
0.0
 10
95.93247339181549
 20
-129.4098442601823
 30
0.0
 10
95.7547064647766
 20
-129.4098442601823
 30
0.0
 10
95.6995849370126
 20
-129.5407578886218
 30
0.0
 10
95.6995849370126
 20
-129.6510009441498
 30
0.0
 10
95.6995849370126
 20
-129.9152397678684
 30
0.0
 10
95.93247339181549
 20
-129.9238525065815
 30
0.0
 10
96.00413137790869
 20
-129.9279866211639
 30
0.0
 10
96.00413137790869
 20
-129.9279866211639
 30
0.0
 10
96.00413137790869
 20
-130.1312472547936
 30
0.0
 10
96.00413137790869
 20
-130.1312472547936
 30
0.0
 10
95.87941892134265
 20
-130.1226345160805
 30
0.0
 10
95.50286998480485
 20
-130.0950737521985
 30
0.0
 10
95.50286998480485
 20
-129.6382540908543
 30
0.0
 10
95.50286998480485
 20
-129.4139783747646
 30
0.0
 10
95.62999400821056
 20
-129.1728216907971
 30
0.0
 10
95.92592771039352
 20
-129.1728216907971
 30
0.0
 10
96.11230737614554
 20
-129.1728216907971
 30
0.0
 10
96.194645158243
 20
-129.26790632619
 30
0.0
 10
96.25596785788046
 20
-129.3674695857137
 30
0.0
 10
96.28352862176246
 20
-129.3061468860762
 30
0.0
 10
96.36379934656878
 20
-129.1242458444551
 30
0.0
 10
96.64112953313139
 20
-129.1242458444551
 30
0.0
 10
96.97943790978292
 20
-129.1242458444551
 30
0.0
 10
97.14652504081754
 20
-129.371603700296
 30
0.0
 10
97.14652504081754
 20
-129.6485893773101
 30
0.0
  0
HATCH
  5
93
330
8E
100
AcDbEntity
  8
_U+30EC_U+30A4_U+30E4_U+30FC 1
 62
     7
420
 16777215
100
AcDbHatch
 10
0.0
 20
0.0
 30
0.0
210
0.0
220
0.0
230
1.0
  2
SOLID
 70
     1
 71
     0
 91
        1
 92
        1
 93
        1
 72
     4
 94
        3
 73
     0
 74
     1
 95
       62
 96
       58
 40
0.0
 40
0.0
 40
0.0
 40
0.0
 40
1.0
 40
1.0
 40
1.0
 40
2.0
 40
2.0
 40
2.0
 40
3.0
 40
3.0
 40
3.0
 40
4.0
 40
4.0
 40
4.0
 40
5.0
 40
5.0
 40
5.0
 40
6.0
 40
6.0
 40
6.0
 40
7.0
 40
7.0
 40
7.0
 40
8.0
 40
8.0
 40
8.0
 40
9.0
 40
9.0
 40
9.0
 40
10.0
 40
10.0
 40
10.0
 40
11.0
 40
11.0
 40
11.0
 40
12.0
 40
12.0
 40
12.0
 40
13.0
 40
13.0
 40
13.0
 40
14.0
 40
14.0
 40
14.0
 40
15.0
 40
15.0
 40
15.0
 40
16.0
 40
16.0
 40
16.0
 40
17.0
 40
17.0
 40
17.0
 40
18.0
 40
18.0
 40
18.0
 40
19.0
 40
19.0
 40
19.0
 40
19.0
 10
97.14652504081754
 20
-129.6485893773101
 10
97.14652504081754
 20
-129.7440185222515
 10
97.12550995835751
 20
-129.9617485569193
 10
96.93947480215402
 20
-130.0868055230339
 10
96.82716468933488
 20
-130.1605305664182
 10
96.72794593935969
 20
-130.165009190549
 10
96.64319659042253
 20
-130.1691433051313
 10
96.64319659042253
 20
-130.1691433051313
 10
96.64319659042253
 20
-129.9490017036239
 10
96.64319659042253
 20
-129.9490017036239
 10
96.71726614335542
 20
-129.9469346463327
 10
96.95187714590092
 20
-129.936599359877
 10
96.95187714590092
 20
-129.6530680014409
 10
96.95187714590092
 20
-129.5156086915794
 10
96.88228621709888
 20
-129.3629909615829
 10
96.65387638642682
 20
-129.3629909615829
 10
96.53743215902537
 20
-129.3629909615829
 10
96.48885631268334
 20
-129.4012315214691
 10
96.45716143421905
 20
-129.4329263999335
 10
96.38309188128618
 20
-129.5069959528663
 10
96.37034502799075
 20
-129.6234401802677
 10
96.37034502799075
 20
-129.6782171984832
 10
96.37034502799075
 20
-129.6975097332006
 10
96.37241208528191
 20
-129.7333387262472
 10
96.37654619986421
 20
-129.7608994901292
 10
96.37654619986421
 20
-129.7608994901292
 10
96.18189830494758
 20
-129.7608994901292
 10
96.18189830494758
 20
-129.7608994901292
 10
96.18844398636956
 20
-129.7226589302429
 10
96.1905110436607
 20
-129.6806287653229
 10
96.1905110436607
 20
-129.6740830839009
 10
96.1905110436607
 20
-129.6086262696812
 10
96.16915145165216
 20
-129.4098442601823
 10
95.93247339181549
 20
-129.4098442601823
 10
95.7547064647766
 20
-129.4098442601823
 10
95.6995849370126
 20
-129.5407578886218
 10
95.6995849370126
 20
-129.6510009441498
 10
95.6995849370126
 20
-129.9152397678684
 10
95.93247339181549
 20
-129.9238525065815
 10
96.00413137790869
 20
-129.9279866211639
 10
96.00413137790869
 20
-129.9279866211639
 10
96.00413137790869
 20
-130.1312472547936
 10
96.00413137790869
 20
-130.1312472547936
 10
95.87941892134265
 20
-130.1226345160805
 10
95.50286998480485
 20
-130.0950737521985
 10
95.50286998480485
 20
-129.6382540908543
 10
95.50286998480485
 20
-129.4139783747646
 10
95.62999400821056
 20
-129.1728216907971
 10
95.92592771039352
 20
-129.1728216907971
 10
96.11230737614554
 20
-129.1728216907971
 10
96.194645158243
 20
-129.26790632619
 10
96.25596785788046
 20
-129.3674695857137
 10
96.28352862176246
 20
-129.3061468860762
 10
96.36379934656878
 20
-129.1242458444551
 10
96.64112953313139
 20
-129.1242458444551
 10
96.97943790978292
 20
-129.1242458444551
 10
97.14652504081754
 20
-129.371603700296
 10
97.14652504081754
 20
-129.6485893773101
 97
        0
 97
        0
 75
     2
 76
     1
 98
        0
  0
ENDBLK
  5
91
330
8E
100
AcDbEntity
  8
0
100
AcDbBlockEnd
  0
ENDSEC
  0
SECTION
  2
ENTITIES
  0
POLYLINE
  5
41
330
1F
100
AcDbEntity
  8
_U+30EC_U+30A4_U+30E4_U+30FC 1
 62
     7
420
 16777215
370
    25
100
AcDb2dPolyline
 66
     1
 10
0.0
 20
0.0
 30
0.0
  0
VERTEX
  5
42
330
41
100
AcDbEntity
  8
_U+30EC_U+30A4_U+30E4_U+30FC 1
 62
     7
420
 16777215
370
    25
100
AcDbVertex
100
AcDb2dVertex
 10
79.24252992279908
 20
-128.141694690187
 30
0.0
  0
VERTEX
  5
43
330
41
100
AcDbEntity
  8
_U+30EC_U+30A4_U+30E4_U+30FC 1
 62
     7
420
 16777215
370
    25
100
AcDbVertex
100
AcDb2dVertex
 10
86.74251473145853
 20
-128.141694690187
 30
0.0
  0
SEQEND
  5
44
330
41
100
AcDbEntity
  8
_U+30EC_U+30A4_U+30E4_U+30FC 1
 62
     7
420
 16777215
370
    25
  0
POLYLINE
  5
45
330
1F
100
AcDbEntity
  8
_U+30EC_U+30A4_U+30E4_U+30FC 1
 62
     7
420
 16777215
370
    25
100
AcDb2dPolyline
 66
     1
 10
0.0
 20
0.0
 30
0.0
  0
VERTEX
  5
46
330
45
100
AcDbEntity
  8
_U+30EC_U+30A4_U+30E4_U+30FC 1
 62
     7
420
 16777215
370
    25
100
AcDbVertex
100
AcDb2dVertex
 10
88.74272940265102
 20
-131.1416816338813
 30
0.0
  0
VERTEX
  5
47
330
45
100
AcDbEntity
  8
_U+30EC_U+30A4_U+30E4_U+30FC 1
 62
     7
420
 16777215
370
    25
100
AcDbVertex
100
AcDb2dVertex
 10
92.74266485615972
 20
-131.1416816338813
 30
0.0
  0
SEQEND
  5
48
330
45
100
AcDbEntity
  8
_U+30EC_U+30A4_U+30E4_U+30FC 1
 62
     7
420
 16777215
370
    25
  0
POLYLINE
  5
49
330
1F
100
AcDbEntity
  8
_U+30EC_U+30A4_U+30E4_U+30FC 1
 62
     7
420
 16777215
370
    25
100
AcDb2dPolyline
 66
     1
 10
0.0
 20
0.0
 30
0.0
  0
VERTEX
  5
4A
330
49
100
AcDbEntity
  8
_U+30EC_U+30A4_U+30E4_U+30FC 1
 62
     7
420
 16777215
370
    25
100
AcDbVertex
100
AcDb2dVertex
 10
93.74243705287563
 20
-129.1414669121589
 30
0.0
  0
VERTEX
  5
4B
330
49
100
AcDbEntity
  8
_U+30EC_U+30A4_U+30E4_U+30FC 1
 62
     7
420
 16777215
370
    25
100
AcDbVertex
100
AcDb2dVertex
 10
93.74243705287563
 20
-130.1412391341314
 30
0.0
  0
SEQEND
  5
4C
330
49
100
AcDbEntity
  8
_U+30EC_U+30A4_U+30E4_U+30FC 1
 62
     7
420
 16777215
370
    25
  0
POLYLINE
  5
4D
330
1F
100
AcDbEntity
  8
_U+30EC_U+30A4_U+30E4_U+30FC 1
 62
     7
420
 16777215
370
    25
100
AcDb2dPolyline
 66
     1
 10
0.0
 20
0.0
 30
0.0
  0
VERTEX
  5
4E
330
4D
100
AcDbEntity
  8
_U+30EC_U+30A4_U+30E4_U+30FC 1
 62
     7
420
 16777215
370
    25
100
AcDbVertex
100
AcDb2dVertex
 10
87.74260442816633
 20
-129.1414669121589
 30
0.0
  0
VERTEX
  5
4F
330
4D
100
AcDbEntity
  8
_U+30EC_U+30A4_U+30E4_U+30FC 1
 62
     7
420
 16777215
370
    25
100
AcDbVertex
100
AcDb2dVertex
 10
87.74260442816633
 20
-130.1412391341314
 30
0.0
  0
SEQEND
  5
50
330
4D
100
AcDbEntity
  8
_U+30EC_U+30A4_U+30E4_U+30FC 1
 62
     7
420
 16777215
370
    25
  0
POLYLINE
  5
51
330
1F
100
AcDbEntity
  8
_U+30EC_U+30A4_U+30E4_U+30FC 1
 62
     7
420
 16777215
370
    25
100
AcDb2dPolyline
 66
     1
 10
0.0
 20
0.0
 30
0.0
  0
VERTEX
  5
52
330
51
100
AcDbEntity
  8
_U+30EC_U+30A4_U+30E4_U+30FC 1
 62
     7
420
 16777215
370
    25
100
AcDbVertex
100
AcDb2dVertex
 10
94.74287952735222
 20
-128.141694690187
 30
0.0
  0
VERTEX
  5
53
330
51
100
AcDbEntity
  8
_U+30EC_U+30A4_U+30E4_U+30FC 1
 62
     7
420
 16777215
370
    25
100
AcDbVertex
100
AcDb2dVertex
 10
102.2428643360117
 20
-128.141694690187
 30
0.0
  0
SEQEND
  5
54
330
51
100
AcDbEntity
  8
_U+30EC_U+30A4_U+30E4_U+30FC 1
 62
     7
420
 16777215
370
    25
  0
SPLINE
  5
55
330
1F
100
AcDbEntity
  8
_U+30EC_U+30A4_U+30E4_U+30FC 1
 62
     7
420
 16777215
370
    25
100
AcDbSpline
210
0.0
220
0.0
230
1.0
 70
     8
 71
     3
 72
     8
 73
     4
 74
     0
 42
0.0000000001
 43
0.0000000001
 12
1.0
 22
0.0
 32
0.0
 13
1.0
 23
0.0
 33
0.0
 40
0.0
 40
0.0
 40
0.0
 40
0.0
 40
1.0
 40
1.0
 40
1.0
 40
1.0
 10
94.74287952735222
 20
-128.141694690187
 30
0.0
 10
94.19028843033888
 20
-128.141694690187
 30
0.0
 10
93.74243705287563
 20
-128.5895813567415
 30
0.0
 10
93.74243705287563
 20
-129.1414669121589
 30
0.0
  0
SPLINE
  5
56
330
1F
100
AcDbEntity
  8
_U+30EC_U+30A4_U+30E4_U+30FC 1
 62
     7
420
 16777215
370
    25
100
AcDbSpline
210
0.0
220
0.0
230
1.0
 70
     8
 71
     3
 72
     8
 73
     4
 74
     0
 42
0.0000000001
 43
0.0000000001
 12
1.0
 22
0.0
 32
0.0
 13
1.0
 23
0.0
 33
0.0
 40
0.0
 40
0.0
 40
0.0
 40
0.0
 40
1.0
 40
1.0
 40
1.0
 40
1.0
 10
92.74266485615972
 20
-131.1416816338813
 30
0.0
 10
93.29525831000979
 20
-131.1416816338813
 30
0.0
 10
93.74243705287563
 20
-130.6938302451043
 30
0.0
 10
93.74243705287563
 20
-130.1412391341314
 30
0.0
  0
SPLINE
  5
57
330
1F
100
AcDbEntity
  8
_U+30EC_U+30A4_U+30E4_U+30FC 1
 62
     7
420
 16777215
370
    25
100
AcDbSpline
210
0.0
220
0.0
230
1.0
 70
     8
 71
     3
 72
     8
 73
     4
 74
     0
 42
0.0000000001
 43
0.0000000001
 12
1.0
 22
0.0
 32
0.0
 13
1.0
 23
0.0
 33
0.0
 40
0.0
 40
0.0
 40
0.0
 40
0.0
 40
1.0
 40
1.0
 40
1.0
 40
1.0
 10
87.74260442816633
 20
-130.1412391341314
 30
0.0
 10
87.74260442816633
 20
-130.6938302451043
 30
0.0
 10
88.19013830563769
 20
-131.1416816338813
 30
0.0
 10
88.74272940265102
 20
-131.1416816338813
 30
0.0
  0
SPLINE
  5
58
330
1F
100
AcDbEntity
  8
_U+30EC_U+30A4_U+30E4_U+30FC 1
 62
     7
420
 16777215
370
    25
100
AcDbSpline
210
0.0
220
0.0
230
1.0
 70
     8
 71
     3
 72
     8
 73
     4
 74
     0
 42
0.0000000001
 43
0.0000000001
 12
1.0
 22
0.0
 32
0.0
 13
1.0
 23
0.0
 33
0.0
 40
0.0
 40
0.0
 40
0.0
 40
0.0
 40
1.0
 40
1.0
 40
1.0
 40
1.0
 10
87.74260442816633
 20
-129.1414669121589
 30
0.0
 10
87.74260442816633
 20
-128.5895813567415
 30
0.0
 10
87.29510582847186
 20
-128.141694690187
 30
0.0
 10
86.74251473145853
 20
-128.141694690187
 30
0.0
  0
SPLINE
  5
59
330
1F
100
AcDbEntity
  8
_U+30EC_U+30A4_U+30E4_U+30FC 1
 62
     7
420
 16777215
370
     9
100
AcDbSpline
210
0.0
220
0.0
230
1.0
 70
    11
 71
     3
 72
    17
 73
    13
 74
     0
 42
0.0000000001
 43
0.0000000001
 12
1.0
 22
0.0
 32
0.0
 13
1.0
 23
0.0
 33
0.0
 40
0.0
 40
0.0
 40
0.0
 40
0.0
 40
1.0
 40
1.0
 40
1.0
 40
2.0
 40
2.0
 40
2.0
 40
3.0
 40
3.0
 40
3.0
 40
4.0
 40
4.0
 40
4.0
 40
4.0
 10
79.34243658691692
 20
-124.1412652467424
 30
0.0
 10
79.34243658691692
 20
-124.0861260800897
 30
0.0
 10
79.29766908805902
 20
-124.0413585801008
 30
0.0
 10
79.24252992279908
 20
-124.0413585801008
 30
0.0
 10
79.18742603531601
 20
-124.0413585801008
 30
0.0
 10
79.14262325868124
 20
-124.0861260800897
 30
0.0
 10
79.14262325868124
 20
-124.1412652467424
 30
0.0
 10
79.14262325868124
 20
-124.1970746911728
 30
0.0
 10
79.18742603531601
 20
-124.2418421911617
 30
0.0
 10
79.24252992279908
 20
-124.2418421911617
 30
0.0
 10
79.29766908805902
 20
-124.2418421911617
 30
0.0
 10
79.34243658691692
 20
-124.1970746911728
 30
0.0
 10
79.34243658691692
 20
-124.1412652467424
 30
0.0
  0
SPLINE
  5
5A
330
1F
100
AcDbEntity
  8
_U+30EC_U+30A4_U+30E4_U+30FC 1
 62
     7
420
 16777215
370
     9
100
AcDbSpline
210
0.0
220
0.0
230
1.0
 70
    11
 71
     3
 72
    17
 73
    13
 74
     0
 42
0.0000000001
 43
0.0000000001
 12
1.0
 22
0.0
 32
0.0
 13
1.0
 23
0.0
 33
0.0
 40
0.0
 40
0.0
 40
0.0
 40
0.0
 40
1.0
 40
1.0
 40
1.0
 40
2.0
 40
2.0
 40
2.0
 40
3.0
 40
3.0
 40
3.0
 40
4.0
 40
4.0
 40
4.0
 40
4.0
 10
87.84286387005295
 20
-135.1414407995482
 30
0.0
 10
87.84286387005295
 20
-135.0863369106727
 30
0.0
 10
87.79809637119506
 20
-135.0415341329066
 30
0.0
 10
87.74260442816633
 20
-135.0415341329066
 30
0.0
 10
87.68750275585595
 20
-135.0415341329066
 30
0.0
 10
87.64269997808923
 20
-135.0863369106727
 30
0.0
 10
87.64269997808923
 20
-135.1414407995482
 30
0.0
 10
87.64269997808923
 20
-135.1965799662006
 30
0.0
 10
87.68750275585595
 20
-135.2413474661898
 30
0.0
 10
87.74260442816633
 20
-135.2413474661898
 30
0.0
 10
87.79809637119506
 20
-135.2413474661898
 30
0.0
 10
87.84286387005295
 20
-135.1965799662006
 30
0.0
 10
87.84286387005295
 20
-135.1414407995482
 30
0.0
  0
SPLINE
  5
5B
330
1F
100
AcDbEntity
  8
_U+30EC_U+30A4_U+30E4_U+30FC 1
 62
     7
420
 16777215
370
     9
100
AcDbSpline
210
0.0
220
0.0
230
1.0
 70
    11
 71
     3
 72
    17
 73
    13
 74
     0
 42
0.0000000001
 43
0.0000000001
 12
1.0
 22
0.0
 32
0.0
 13
1.0
 23
0.0
 33
0.0
 40
0.0
 40
0.0
 40
0.0
 40
0.0
 40
1.0
 40
1.0
 40
1.0
 40
2.0
 40
2.0
 40
2.0
 40
3.0
 40
3.0
 40
3.0
 40
4.0
 40
4.0
 40
4.0
 40
4.0
 10
93.84234371699347
 20
-135.1414407995482
 30
0.0
 10
93.84234371699347
 20
-135.0863369106727
 30
0.0
 10
93.7975409403587
 20
-135.0415341329066
 30
0.0
 10
93.74243705287563
 20
-135.0415341329066
 30
0.0
 10
93.68729788761568
 20
-135.0415341329066
 30
0.0
 10
93.64253038875779
 20
-135.0863369106727
 30
0.0
 10
93.64253038875779
 20
-135.1414407995482
 30
0.0
 10
93.64253038875779
 20
-135.1965799662006
 30
0.0
 10
93.68729788761568
 20
-135.2413474661898
 30
0.0
 10
93.74243705287563
 20
-135.2413474661898
 30
0.0
 10
93.7975409403587
 20
-135.2413474661898
 30
0.0
 10
93.84234371699347
 20
-135.1965799662006
 30
0.0
 10
93.84234371699347
 20
-135.1414407995482
 30
0.0
  0
SPLINE
  5
5C
330
1F
100
AcDbEntity
  8
_U+30EC_U+30A4_U+30E4_U+30FC 1
 62
     7
420
 16777215
370
     9
100
AcDbSpline
210
0.0
220
0.0
230
1.0
 70
    11
 71
     3
 72
    17
 73
    13
 74
     0
 42
0.0000000001
 43
0.0000000001
 12
1.0
 22
0.0
 32
0.0
 13
1.0
 23
0.0
 33
0.0
 40
0.0
 40
0.0
 40
0.0
 40
0.0
 40
1.0
 40
1.0
 40
1.0
 40
2.0
 40
2.0
 40
2.0
 40
3.0
 40
3.0
 40
3.0
 40
4.0
 40
4.0
 40
4.0
 40
4.0
 10
97.84277305937846
 20
-131.1416816338813
 30
0.0
 10
97.84277305937846
 20
-131.0865777450064
 30
0.0
 10
97.79800556052056
 20
-131.0417749672397
 30
0.0
 10
97.74286639526062
 20
-131.0417749672397
 30
0.0
 10
97.68776250777755
 20
-131.0417749672397
 30
0.0
 10
97.64295973114278
 20
-131.0865777450064
 30
0.0
 10
97.64295973114278
 20
-131.1416816338813
 30
0.0
 10
97.64295973114278
 20
-131.1968208005344
 30
0.0
 10
97.68776250777755
 20
-131.2415883005229
 30
0.0
 10
97.74286639526062
 20
-131.2415883005229
 30
0.0
 10
97.79800556052056
 20
-131.2415883005229
 30
0.0
 10
97.84277305937846
 20
-131.1968208005344
 30
0.0
 10
97.84277305937846
 20
-131.1416816338813
 30
0.0
  0
SPLINE
  5
5D
330
1F
100
AcDbEntity
  8
_U+30EC_U+30A4_U+30E4_U+30FC 1
 62
     7
420
 16777215
370
     9
100
AcDbSpline
210
0.0
220
0.0
230
1.0
 70
    11
 71
     3
 72
    17
 73
    13
 74
     0
 42
0.0000000001
 43
0.0000000001
 12
1.0
 22
0.0
 32
0.0
 13
1.0
 23
0.0
 33
0.0
 40
0.0
 40
0.0
 40
0.0
 40
0.0
 40
1.0
 40
1.0
 40
1.0
 40
2.0
 40
2.0
 40
2.0
 40
3.0
 40
3.0
 40
3.0
 40
4.0
 40
4.0
 40
4.0
 40
4.0
 10
97.84277305937846
 20
-128.141694690187
 30
0.0
 10
97.84277305937846
 20
-128.0865908013117
 30
0.0
 10
97.79800556052056
 20
-128.041788023545
 30
0.0
 10
97.74286639526062
 20
-128.041788023545
 30
0.0
 10
97.68776250777755
 20
-128.041788023545
 30
0.0
 10
97.64295973114278
 20
-128.0865908013117
 30
0.0
 10
97.64295973114278
 20
-128.141694690187
 30
0.0
 10
97.64295973114278
 20
-128.1968338568397
 30
0.0
 10
97.68776250777755
 20
-128.2416013568286
 30
0.0
 10
97.74286639526062
 20
-128.2416013568286
 30
0.0
 10
97.79800556052056
 20
-128.2416013568286
 30
0.0
 10
97.84277305937846
 20
-128.1968338568397
 30
0.0
 10
97.84277305937846
 20
-128.141694690187
 30
0.0
  0
SPLINE
  5
5E
330
1F
100
AcDbEntity
  8
_U+30EC_U+30A4_U+30E4_U+30FC 1
 62
     7
420
 16777215
370
     9
100
AcDbSpline
210
0.0
220
0.0
230
1.0
 70
    11
 71
     3
 72
    17
 73
    13
 74
     0
 42
0.0000000001
 43
0.0000000001
 12
1.0
 22
0.0
 32
0.0
 13
1.0
 23
0.0
 33
0.0
 40
0.0
 40
0.0
 40
0.0
 40
0.0
 40
1.0
 40
1.0
 40
1.0
 40
2.0
 40
2.0
 40
2.0
 40
3.0
 40
3.0
 40
3.0
 40
4.0
 40
4.0
 40
4.0
 40
4.0
 10
102.3427710001295
 20
-124.1412652467424
 30
0.0
 10
102.3427710001295
 20
-124.0861260800897
 30
0.0
 10
102.2979682234947
 20
-124.0413585801008
 30
0.0
 10
102.2428643360117
 20
-124.0413585801008
 30
0.0
 10
102.1877277522306
 20
-124.0413585801008
 30
0.0
 10
102.1429576718938
 20
-124.0861260800897
 30
0.0
 10
102.1429576718938
 20
-124.1412652467424
 30
0.0
 10
102.1429576718938
 20
-124.1970746911728
 30
0.0
 10
102.1877277522306
 20
-124.2418421911617
 30
0.0
 10
102.2428643360117
 20
-124.2418421911617
 30
0.0
 10
102.2979682234947
 20
-124.2418421911617
 30
0.0
 10
102.3427710001295
 20
-124.1970746911728
 30
0.0
 10
102.3427710001295
 20
-124.1412652467424
 30
0.0
  0
POLYLINE
  5
5F
330
1F
100
AcDbEntity
  8
_U+30EC_U+30A4_U+30E4_U+30FC 1
 62
     7
420
 16777215
370
     9
100
AcDb2dPolyline
 66
     1
 10
0.0
 20
0.0
 30
0.0
  0
VERTEX
  5
60
330
5F
100
AcDbEntity
  8
_U+30EC_U+30A4_U+30E4_U+30FC 1
 62
     7
420
 16777215
370
     9
100
AcDbVertex
100
AcDb2dVertex
 10
79.24252992279908
 20
-124.1412652467424
 30
0.0
  0
VERTEX
  5
61
330
5F
100
AcDbEntity
  8
_U+30EC_U+30A4_U+30E4_U+30FC 1
 62
     7
420
 16777215
370
     9
100
AcDbVertex
100
AcDb2dVertex
 10
102.2428643360117
 20
-124.1412652467424
 30
0.0
  0
SEQEND
  5
62
330
5F
100
AcDbEntity
  8
_U+30EC_U+30A4_U+30E4_U+30FC 1
 62
     7
420
 16777215
370
     9
  0
POLYLINE
  5
63
330
1F
100
AcDbEntity
  8
_U+30EC_U+30A4_U+30E4_U+30FC 1
 62
     7
420
 16777215
370
     9
100
AcDb2dPolyline
 66
     1
 10
0.0
 20
0.0
 30
0.0
  0
VERTEX
  5
64
330
63
100
AcDbEntity
  8
_U+30EC_U+30A4_U+30E4_U+30FC 1
 62
     7
420
 16777215
370
     9
100
AcDbVertex
100
AcDb2dVertex
 10
79.24252992279908
 20
-125.6013066352664
 30
0.0
  0
VERTEX
  5
65
330
63
100
AcDbEntity
  8
_U+30EC_U+30A4_U+30E4_U+30FC 1
 62
     7
420
 16777215
370
     9
100
AcDbVertex
100
AcDb2dVertex
 10
79.24252992279908
 20
-123.1414930247702
 30
0.0
  0
SEQEND
  5
66
330
63
100
AcDbEntity
  8
_U+30EC_U+30A4_U+30E4_U+30FC 1
 62
     7
420
 16777215
370
     9
  0
POLYLINE
  5
67
330
1F
100
AcDbEntity
  8
_U+30EC_U+30A4_U+30E4_U+30FC 1
 62
     7
420
 16777215
370
     9
100
AcDb2dPolyline
 66
     1
 10
0.0
 20
0.0
 30
0.0
  0
VERTEX
  5
68
330
67
100
AcDbEntity
  8
_U+30EC_U+30A4_U+30E4_U+30FC 1
 62
     7
420
 16777215
370
     9
100
AcDbVertex
100
AcDb2dVertex
 10
102.2428643360117
 20
-125.6013066352664
 30
0.0
  0
VERTEX
  5
69
330
67
100
AcDbEntity
  8
_U+30EC_U+30A4_U+30E4_U+30FC 1
 62
     7
420
 16777215
370
     9
100
AcDbVertex
100
AcDb2dVertex
 10
102.2428643360117
 20
-123.1414930247702
 30
0.0
  0
SEQEND
  5
6A
330
67
100
AcDbEntity
  8
_U+30EC_U+30A4_U+30E4_U+30FC 1
 62
     7
420
 16777215
370
     9
  0
POLYLINE
  5
6B
330
1F
100
AcDbEntity
  8
_U+30EC_U+30A4_U+30E4_U+30FC 1
 62
     7
420
 16777215
370
     9
100
AcDb2dPolyline
 66
     1
 10
0.0
 20
0.0
 30
0.0
  0
VERTEX
  5
6C
330
6B
100
AcDbEntity
  8
_U+30EC_U+30A4_U+30E4_U+30FC 1
 62
     7
420
 16777215
370
     9
100
AcDbVertex
100
AcDb2dVertex
 10
87.74260442816633
 20
-135.1414407995482
 30
0.0
  0
VERTEX
  5
6D
330
6B
100
AcDbEntity
  8
_U+30EC_U+30A4_U+30E4_U+30FC 1
 62
     7
420
 16777215
370
     9
100
AcDbVertex
100
AcDb2dVertex
 10
93.74243705287563
 20
-135.1414407995482
 30
0.0
  0
SEQEND
  5
6E
330
6B
100
AcDbEntity
  8
_U+30EC_U+30A4_U+30E4_U+30FC 1
 62
     7
420
 16777215
370
     9
  0
POLYLINE
  5
6F
330
1F
100
AcDbEntity
  8
_U+30EC_U+30A4_U+30E4_U+30FC 1
 62
     7
420
 16777215
370
     9
100
AcDb2dPolyline
 66
     1
 10
0.0
 20
0.0
 30
0.0
  0
VERTEX
  5
70
330
6F
100
AcDbEntity
  8
_U+30EC_U+30A4_U+30E4_U+30FC 1
 62
     7
420
 16777215
370
     9
100
AcDbVertex
100
AcDb2dVertex
 10
87.74260442816633
 20
-132.6816624668295
 30
0.0
  0
VERTEX
  5
71
330
6F
100
AcDbEntity
  8
_U+30EC_U+30A4_U+30E4_U+30FC 1
 62
     7
420
 16777215
370
     9
100
AcDbVertex
100
AcDb2dVertex
 10
87.74260442816633
 20
-136.1412130215201
 30
0.0
  0
SEQEND
  5
72
330
6F
100
AcDbEntity
  8
_U+30EC_U+30A4_U+30E4_U+30FC 1
 62
     7
420
 16777215
370
     9
  0
POLYLINE
  5
73
330
1F
100
AcDbEntity
  8
_U+30EC_U+30A4_U+30E4_U+30FC 1
 62
     7
420
 16777215
370
     9
100
AcDb2dPolyline
 66
     1
 10
0.0
 20
0.0
 30
0.0
  0
VERTEX
  5
74
330
73
100
AcDbEntity
  8
_U+30EC_U+30A4_U+30E4_U+30FC 1
 62
     7
420
 16777215
370
     9
100
AcDbVertex
100
AcDb2dVertex
 10
93.74243705287563
 20
-132.6816624668295
 30
0.0
  0
VERTEX
  5
75
330
73
100
AcDbEntity
  8
_U+30EC_U+30A4_U+30E4_U+30FC 1
 62
     7
420
 16777215
370
     9
100
AcDbVertex
100
AcDb2dVertex
 10
93.74243705287563
 20
-136.1412130215201
 30
0.0
  0
SEQEND
  5
76
330
73
100
AcDbEntity
  8
_U+30EC_U+30A4_U+30E4_U+30FC 1
 62
     7
420
 16777215
370
     9
  0
POLYLINE
  5
77
330
1F
100
AcDbEntity
  8
_U+30EC_U+30A4_U+30E4_U+30FC 1
 62
     7
420
 16777215
370
     9
100
AcDb2dPolyline
 66
     1
 10
0.0
 20
0.0
 30
0.0
  0
VERTEX
  5
78
330
77
100
AcDbEntity
  8
_U+30EC_U+30A4_U+30E4_U+30FC 1
 62
     7
420
 16777215
370
     9
100
AcDbVertex
100
AcDb2dVertex
 10
97.74286639526062
 20
-132.1414538558532
 30
0.0
  0
VERTEX
  5
79
330
77
100
AcDbEntity
  8
_U+30EC_U+30A4_U+30E4_U+30FC 1
 62
     7
420
 16777215
370
     9
100
AcDbVertex
100
AcDb2dVertex
 10
97.74286639526062
 20
-127.1412521904371
 30
0.0
  0
SEQEND
  5
7A
330
77
100
AcDbEntity
  8
_U+30EC_U+30A4_U+30E4_U+30FC 1
 62
     7
420
 16777215
370
     9
  0
POLYLINE
  5
7B
330
1F
100
AcDbEntity
  8
_U+30EC_U+30A4_U+30E4_U+30FC 1
 62
     7
420
 16777215
370
     9
100
AcDb2dPolyline
 66
     1
 10
0.0
 20
0.0
 30
0.0
  0
VERTEX
  5
7C
330
7B
100
AcDbEntity
  8
_U+30EC_U+30A4_U+30E4_U+30FC 1
 62
     7
420
 16777215
370
     9
100
AcDbVertex
100
AcDb2dVertex
 10
95.2823825691439
 20
-131.1416816338813
 30
0.0
  0
VERTEX
  5
7D
330
7B
100
AcDbEntity
  8
_U+30EC_U+30A4_U+30E4_U+30FC 1
 62
     7
420
 16777215
370
     9
100
AcDbVertex
100
AcDb2dVertex
 10
98.74263859197653
 20
-131.1416816338813
 30
0.0
  0
SEQEND
  5
7E
330
7B
100
AcDbEntity
  8
_U+30EC_U+30A4_U+30E4_U+30FC 1
 62
     7
420
 16777215
370
     9
  0
INSERT
  5
80
330
1F
100
AcDbEntity
  8
_U+30EC_U+30A4_U+30E4_U+30FC 1
100
AcDbBlockReference
  2
block 2
 10
0.0
 20
0.0
 30
0.0
  0
INSERT
  5
88
330
1F
100
AcDbEntity
  8
_U+30EC_U+30A4_U+30E4_U+30FC 1
100
AcDbBlockReference
  2
block 3
 10
0.0
 20
0.0
 30
0.0
  0
INSERT
  5
8F
330
1F
100
AcDbEntity
  8
_U+30EC_U+30A4_U+30E4_U+30FC 1
100
AcDbBlockReference
  2
block 4
 10
0.0
 20
0.0
 30
0.0
  0
SPLINE
  5
94
330
1F
100
AcDbEntity
  8
_U+30EC_U+30A4_U+30E4_U+30FC 1
  6
AI-Linetype-1
 62
   251
420
  5855577
370
    25
100
AcDbSpline
210
0.0
220
0.0
230
1.0
 70
     8
 71
     3
 72
    32
 73
    28
 74
     0
 42
0.0000000001
 43
0.0000000001
 12
1.0
 22
0.0
 32
0.0
 13
1.0
 23
0.0
 33
0.0
 40
0.0
 40
0.0
 40
0.0
 40
0.0
 40
1.0
 40
1.0
 40
1.0
 40
2.0
 40
2.0
 40
2.0
 40
3.0
 40
3.0
 40
3.0
 40
4.0
 40
4.0
 40
4.0
 40
5.0
 40
5.0
 40
5.0
 40
6.0
 40
6.0
 40
6.0
 40
7.0
 40
7.0
 40
7.0
 40
8.0
 40
8.0
 40
8.0
 40
9.0
 40
9.0
 40
9.0
 40
9.0
 10
79.08681381566062
 20
-128.6123002456248
 30
0.0
 10
79.08681381566062
 20
-128.6123002456248
 30
0.0
 10
85.96598030682513
 20
-128.6123002456248
 30
0.0
 10
85.96598030682513
 20
-128.6123002456248
 30
0.0
 10
85.96598030682513
 20
-128.6123002456248
 30
0.0
 10
87.22998305235551
 20
-128.6123002456248
 30
0.0
 10
87.22998305235551
 20
-129.5900238564914
 30
0.0
 10
87.22998305235551
 20
-129.5900238564914
 30
0.0
 10
87.22998305235551
 20
-130.4154533007294
 30
0.0
 10
87.22998305235551
 20
-130.4154533007294
 30
0.0
 10
87.22998305235551
 20
-130.4154533007294
 30
0.0
 10
87.31817749454993
 20
-131.6081596893202
 30
0.0
 10
88.08264691949113
 20
-131.6081596893202
 30
0.0
 10
88.08264691949113
 20
-131.6081596893202
 30
0.0
 10
93.22702873269147
 20
-131.6081596893202
 30
0.0
 10
93.22702873269147
 20
-131.6081596893202
 30
0.0
 10
93.22702873269147
 20
-131.6081596893202
 30
0.0
 10
94.31499537160178
 20
-131.6384633004237
 30
0.0
 10
94.31499537160178
 20
-130.5071049673731
 30
0.0
 10
94.31499537160178
 20
-130.5071049673731
 30
0.0
 10
94.31499537160178
 20
-129.4983721898477
 30
0.0
 10
94.31499537160178
 20
-129.4983721898477
 30
0.0
 10
94.31499537160178
 20
-129.4983721898477
 30
0.0
 10
94.31499537160178
 20
-128.6123002456248
 30
0.0
 10
95.22657312612327
 20
-128.6123002456248
 30
0.0
 10
95.22657312612327
 20
-128.6123002456248
 30
0.0
 10
102.2821285016766
 20
-128.6123002456248
 30
0.0
 10
102.2821285016766
 20
-128.6123002456248
 30
0.0
  0
ENDSEC
  0
SECTION
  2
OBJECTS
  0
DICTIONARY
  5
C
330
0
100
AcDbDictionary
281
     1
  3
ACAD_GROUP
350
D
  3
ACAD_LAYOUT
350
1A
  3
ACAD_MATERIAL
350
3B
  3
ACAD_MLEADERSTYLE
350
97
  3
ACAD_MLINESTYLE
350
17
  3
ACAD_PLOTSETTINGS
350
19
  3
ACAD_PLOTSTYLENAME
350
E
  3
ACAD_TABLESTYLE
350
96
  3
ACAD_VISUALSTYLE
350
2A
  0
SUN
  5
3F
330
29
100
AcDbSun
 90
        1
290
     0
 63
     7
421
 16777215
 40
1.0
291
     1
 91
  2455826
 92
 54000000
292
     0
 70
     2
 71
   256
280
     1
  0
DICTIONARY
  5
D
102
{ACAD_REACTORS
330
C
102
}
330
C
100
AcDbDictionary
281
     1
  0
DICTIONARY
  5
1A
102
{ACAD_REACTORS
330
C
102
}
330
C
100
AcDbDictionary
281
     1
  3
Layout1
350
1E
  3
Layout2
350
26
  3
Model
350
22
  0
DICTIONARY
  5
3B
102
{ACAD_REACTORS
330
C
102
}
330
C
100
AcDbDictionary
281
     1
  3
ByBlock
350
3D
  3
ByLayer
350
3C
  3
Global
350
3E
  0
DICTIONARY
  5
97
102
{ACAD_REACTORS
330
C
102
}
330
C
100
AcDbDictionary
281
     1
  0
DICTIONARY
  5
17
102
{ACAD_REACTORS
330
C
102
}
330
C
100
AcDbDictionary
281
     1
  3
Standard
350
18
  0
DICTIONARY
  5
19
102
{ACAD_REACTORS
330
C
102
}
330
C
100
AcDbDictionary
281
     1
  0
ACDBDICTIONARYWDFLT
  5
E
102
{ACAD_REACTORS
330
C
102
}
330
C
100
AcDbDictionary
281
     1
  3
Normal
350
F
100
AcDbDictionaryWithDefault
340
F
  0
DICTIONARY
  5
96
102
{ACAD_REACTORS
330
C
102
}
330
C
100
AcDbDictionary
281
     1
  0
DICTIONARY
  5
2A
102
{ACAD_REACTORS
330
C
102
}
330
C
100
AcDbDictionary
281
     1
  3
2dWireframe
350
2F
  3
3D Hidden
350
31
  3
3dWireframe
350
30
  3
Basic
350
32
  3
Brighten
350
36
  3
ColorChange
350
3A
  3
Conceptual
350
34
  3
Dim
350
35
  3
Facepattern
350
39
  3
Flat
350
2B
  3
FlatWithEdges
350
2C
  3
Gouraud
350
2D
  3
GouraudWithEdges
350
2E
  3
Linepattern
350
38
  3
Realistic
350
33
  3
Thicken
350
37
  0
LAYOUT
  5
1E
102
{ACAD_REACTORS
330
1A
102
}
330
1A
100
AcDbPlotSettings
  1

  2
none_device
  4

  6

 40
0.0
 41
0.0
 42
0.0
 43
0.0
 44
0.0
 45
0.0
 46
0.0
 47
0.0
 48
0.0
 49
0.0
140
0.0
141
0.0
142
1.0
143
1.0
 70
   688
 72
     0
 73
     0
 74
     5
  7

 75
    16
 76
     0
 77
     2
 78
   300
147
1.0
148
0.0
149
0.0
100
AcDbLayout
  1
Layout1
 70
     1
 71
     1
 10
0.0
 20
0.0
 11
12.0
 21
9.0
 12
0.0
 22
0.0
 32
0.0
 14
1.000000000000000E+20
 24
1.000000000000000E+20
 34
1.000000000000000E+20
 15
-1.000000000000000E+20
 25
-1.000000000000000E+20
 35
-1.000000000000000E+20
146
0.0
 13
0.0
 23
0.0
 33
0.0
 16
1.0
 26
0.0
 36
0.0
 17
0.0
 27
1.0
 37
0.0
 76
     0
330
1B
  0
LAYOUT
  5
26
102
{ACAD_REACTORS
330
1A
102
}
330
1A
100
AcDbPlotSettings
  1

  2
none_device
  4

  6

 40
0.0
 41
0.0
 42
0.0
 43
0.0
 44
0.0
 45
0.0
 46
0.0
 47
0.0
 48
0.0
 49
0.0
140
0.0
141
0.0
142
1.0
143
1.0
 70
   688
 72
     0
 73
     0
 74
     5
  7

 75
    16
 76
     0
 77
     2
 78
   300
147
1.0
148
0.0
149
0.0
100
AcDbLayout
  1
Layout2
 70
     1
 71
     2
 10
0.0
 20
0.0
 11
0.0
 21
0.0
 12
0.0
 22
0.0
 32
0.0
 14
0.0
 24
0.0
 34
0.0
 15
0.0
 25
0.0
 35
0.0
146
0.0
 13
0.0
 23
0.0
 33
0.0
 16
1.0
 26
0.0
 36
0.0
 17
0.0
 27
1.0
 37
0.0
 76
     0
330
23
  0
LAYOUT
  5
22
102
{ACAD_REACTORS
330
1A
102
}
330
1A
100
AcDbPlotSettings
  1

  2
none_device
  4

  6

 40
0.0
 41
0.0
 42
0.0
 43
0.0
 44
0.0
 45
0.0
 46
0.0
 47
0.0
 48
0.0
 49
0.0
140
0.0
141
0.0
142
1.0
143
1.0
 70
  1712
 72
     0
 73
     0
 74
     0
  7

 75
     0
 76
     0
 77
     2
 78
   300
147
1.0
148
0.0
149
0.0
100
AcDbLayout
  1
Model
 70
     1
 71
     0
 10
0.0
 20
0.0
 11
12.0
 21
9.0
 12
0.0
 22
0.0
 32
0.0
 14
1.000000000000000E+20
 24
1.000000000000000E+20
 34
1.000000000000000E+20
 15
-1.000000000000000E+20
 25
-1.000000000000000E+20
 35
-1.000000000000000E+20
146
0.0
 13
0.0
 23
0.0
 33
0.0
 16
1.0
 26
0.0
 36
0.0
 17
0.0
 27
1.0
 37
0.0
 76
     0
330
1F
331
29
  0
MATERIAL
  5
3D
102
{ACAD_REACTORS
330
3B
102
}
330
3B
100
AcDbMaterial
  1
ByBlock
 72
     1
 94
      127
  0
MATERIAL
  5
3C
102
{ACAD_REACTORS
330
3B
102
}
330
3B
100
AcDbMaterial
  1
ByLayer
 72
     1
 94
      127
  0
MATERIAL
  5
3E
102
{ACAD_REACTORS
330
3B
102
}
330
3B
100
AcDbMaterial
  1
Global
 72
     1
 94
      127
  0
MLINESTYLE
  5
18
102
{ACAD_REACTORS
330
17
102
}
330
17
100
AcDbMlineStyle
  2
Standard
 70
     0
  3

 62
   256
 51
90.0
 52
90.0
 71
     2
 49
0.5
 62
   256
  6
BYLAYER
 49
-0.5
 62
   256
  6
BYLAYER
  0
ACDBPLACEHOLDER
  5
F
102
{ACAD_REACTORS
330
E
102
}
330
E
  0
VISUALSTYLE
  5
2F
102
{ACAD_REACTORS
330
2A
102
}
330
2A
100
AcDbVisualStyle
  2
2dWireframe
 70
     4
177
     2
291
     0
 71
     0
176
     1
 72
     2
176
     1
 73
     0
176
     1
 90
        0
176
     1
 40
-0.6
176
     1
 41
-30.0
176
     1
 62
     5
 63
     7
421
 16777215
176
     1
 74
     1
176
     1
 91
        4
176
     1
 64
     7
176
     1
 65
   257
176
     1
 75
     1
176
     1
175
     1
176
     1
 42
1.0
176
     1
 92
        0
176
     1
 66
   257
176
     1
 43
1.0
176
     1
 76
     1
176
     1
 77
     6
176
     1
 78
     2
176
     1
 67
     7
176
     1
 79
     5
176
     1
170
     0
176
     1
171
     0
176
     1
290
     0
176
     1
 93
        1
176
     1
 44
0.0
176
     1
173
     0
176
     1
  0
VISUALSTYLE
  5
31
102
{ACAD_REACTORS
330
2A
102
}
330
2A
100
AcDbVisualStyle
  2
3D Hidden
 70
     6
177
     2
291
     0
 71
     1
176
     1
 72
     2
176
     1
 73
     2
176
     1
 90
        0
176
     1
 40
-0.6
176
     1
 41
-30.0
176
     1
 62
     5
 63
     7
421
 16777215
176
     1
 74
     2
176
     1
 91
        2
176
     1
 64
     7
176
     1
 65
   257
176
     1
 75
     2
176
     1
175
     1
176
     1
 42
40.0
176
     1
 92
        0
176
     1
 66
   257
176
     1
 43
1.0
176
     1
 76
     1
176
     1
 77
     6
176
     1
 78
     2
176
     1
 67
     7
176
     1
 79
     3
176
     1
170
     0
176
     1
171
     0
176
     1
290
     0
176
     1
 93
        1
176
     1
 44
0.0
176
     1
173
     0
176
     1
  0
VISUALSTYLE
  5
30
102
{ACAD_REACTORS
330
2A
102
}
330
2A
100
AcDbVisualStyle
  2
3dWireframe
 70
     5
177
     2
291
     0
 71
     0
176
     1
 72
     2
176
     1
 73
     0
176
     1
 90
        0
176
     1
 40
-0.6
176
     1
 41
-30.0
176
     1
 62
     5
 63
     7
421
 16777215
176
     1
 74
     1
176
     1
 91
        4
176
     1
 64
     7
176
     1
 65
   257
176
     1
 75
     1
176
     1
175
     1
176
     1
 42
1.0
176
     1
 92
        0
176
     1
 66
   257
176
     1
 43
1.0
176
     1
 76
     1
176
     1
 77
     6
176
     1
 78
     2
176
     1
 67
     7
176
     1
 79
     5
176
     1
170
     0
176
     1
171
     0
176
     1
290
     0
176
     1
 93
        1
176
     1
 44
0.0
176
     1
173
     0
176
     1
  0
VISUALSTYLE
  5
32
102
{ACAD_REACTORS
330
2A
102
}
330
2A
100
AcDbVisualStyle
  2
Basic
 70
     7
177
     2
291
     1
 71
     1
176
     1
 72
     0
176
     1
 73
     1
176
     1
 90
        0
176
     1
 40
-0.6
176
     1
 41
-30.0
176
     1
 62
     5
 63
     7
421
 16777215
176
     1
 74
     0
176
     1
 91
        4
176
     1
 64
     7
176
     1
 65
   257
176
     1
 75
     1
176
     1
175
     1
176
     1
 42
1.0
176
     1
 92
        8
176
     1
 66
     7
176
     1
 43
1.0
176
     1
 76
     1
176
     1
 77
     6
176
     1
 78
     2
176
     1
 67
     7
176
     1
 79
     5
176
     1
170
     0
176
     1
171
     0
176
     1
290
     0
176
     1
 93
        1
176
     1
 44
0.0
176
     1
173
     0
176
     1
  0
VISUALSTYLE
  5
36
102
{ACAD_REACTORS
330
2A
102
}
330
2A
100
AcDbVisualStyle
  2
Brighten
 70
    12
177
     2
291
     1
 71
     2
176
     1
 72
     2
176
     1
 73
     0
176
     1
 90
        0
176
     1
 40
-0.6
176
     1
 41
-30.0
176
     1
 62
     5
 63
     7
421
 16777215
176
     1
 74
     1
176
     1
 91
        4
176
     1
 64
     7
176
     1
 65
   257
176
     1
 75
     1
176
     1
175
     1
176
     1
 42
1.0
176
     1
 92
        8
176
     1
 66
     7
176
     1
 43
1.0
176
     1
 76
     1
176
     1
 77
     6
176
     1
 78
     2
176
     1
 67
     7
176
     1
 79
     5
176
     1
170
     0
176
     1
171
     0
176
     1
290
     0
176
     1
 93
        1
176
     1
 44
50.0
176
     1
173
     0
176
     1
  0
VISUALSTYLE
  5
3A
102
{ACAD_REACTORS
330
2A
102
}
330
2A
100
AcDbVisualStyle
  2
ColorChange
 70
    16
177
     2
291
     1
 71
     2
176
     1
 72
     2
176
     1
 73
     3
176
     1
 90
        0
176
     1
 40
-0.6
176
     1
 41
-30.0
176
     1
 62
     5
 63
     8
421
  8421504
176
     1
 74
     1
176
     1
 91
        4
176
     1
 64
     7
176
     1
 65
   257
176
     1
 75
     1
176
     1
175
     1
176
     1
 42
1.0
176
     1
 92
        8
176
     1
 66
     8
424
  8421504
176
     1
 43
1.0
176
     1
 76
     1
176
     1
 77
     6
176
     1
 78
     2
176
     1
 67
     7
176
     1
 79
     5
176
     1
170
     0
176
     1
171
     0
176
     1
290
     0
176
     1
 93
        1
176
     1
 44
0.0
176
     1
173
     0
176
     1
  0
VISUALSTYLE
  5
34
102
{ACAD_REACTORS
330
2A
102
}
330
2A
100
AcDbVisualStyle
  2
Conceptual
 70
     9
177
     2
291
     0
 71
     3
176
     1
 72
     2
176
     1
 73
     0
176
     1
 90
        0
176
     1
 40
-0.6
176
     1
 41
-30.0
176
     1
 62
     5
 63
     7
421
 16777215
176
     1
 74
     2
176
     1
 91
        2
176
     1
 64
     7
176
     1
 65
   257
176
     1
 75
     1
176
     1
175
     1
176
     1
 42
40.0
176
     1
 92
        8
176
     1
 66
     7
176
     1
 43
1.0
176
     1
 76
     1
176
     1
 77
     6
176
     1
 78
     2
176
     1
 67
     7
176
     1
 79
     3
176
     1
170
     0
176
     1
171
     0
176
     1
290
     0
176
     1
 93
        1
176
     1
 44
0.0
176
     1
173
     0
176
     1
  0
VISUALSTYLE
  5
35
102
{ACAD_REACTORS
330
2A
102
}
330
2A
100
AcDbVisualStyle
  2
Dim
 70
    11
177
     2
291
     1
 71
     2
176
     1
 72
     2
176
     1
 73
     0
176
     1
 90
        0
176
     1
 40
-0.6
176
     1
 41
-30.0
176
     1
 62
     5
 63
     7
421
 16777215
176
     1
 74
     1
176
     1
 91
        4
176
     1
 64
     7
176
     1
 65
   257
176
     1
 75
     1
176
     1
175
     1
176
     1
 42
1.0
176
     1
 92
        8
176
     1
 66
     7
176
     1
 43
1.0
176
     1
 76
     1
176
     1
 77
     6
176
     1
 78
     2
176
     1
 67
     7
176
     1
 79
     5
176
     1
170
     0
176
     1
171
     0
176
     1
290
     0
176
     1
 93
        1
176
     1
 44
-50.0
176
     1
173
     0
176
     1
  0
VISUALSTYLE
  5
39
102
{ACAD_REACTORS
330
2A
102
}
330
2A
100
AcDbVisualStyle
  2
Facepattern
 70
    15
177
     2
291
     1
 71
     2
176
     1
 72
     2
176
     1
 73
     0
176
     1
 90
        0
176
     1
 40
-0.6
176
     1
 41
-30.0
176
     1
 62
     5
 63
     7
421
 16777215
176
     1
 74
     1
176
     1
 91
        4
176
     1
 64
     7
176
     1
 65
   257
176
     1
 75
     1
176
     1
175
     1
176
     1
 42
1.0
176
     1
 92
        8
176
     1
 66
     7
176
     1
 43
1.0
176
     1
 76
     1
176
     1
 77
     6
176
     1
 78
     2
176
     1
 67
     7
176
     1
 79
     5
176
     1
170
     0
176
     1
171
     0
176
     1
290
     0
176
     1
 93
        1
176
     1
 44
0.0
176
     1
173
     0
176
     1
  0
VISUALSTYLE
  5
2B
102
{ACAD_REACTORS
330
2A
102
}
330
2A
100
AcDbVisualStyle
  2
Flat
 70
     0
177
     2
291
     1
 71
     2
176
     1
 72
     1
176
     1
 73
     1
176
     1
 90
        2
176
     1
 40
-0.6
176
     1
 41
30.0
176
     1
 62
     5
 63
     7
421
 16777215
176
     1
 74
     0
176
     1
 91
        4
176
     1
 64
     7
176
     1
 65
   257
176
     1
 75
     1
176
     1
175
     1
176
     1
 42
1.0
176
     1
 92
        8
176
     1
 66
     7
176
     1
 43
1.0
176
     1
 76
     1
176
     1
 77
     6
176
     1
 78
     2
176
     1
 67
     7
176
     1
 79
     5
176
     1
170
     0
176
     1
171
     0
176
     1
290
     0
176
     1
 93
       13
176
     1
 44
0.0
176
     1
173
     0
176
     1
  0
VISUALSTYLE
  5
2C
102
{ACAD_REACTORS
330
2A
102
}
330
2A
100
AcDbVisualStyle
  2
FlatWithEdges
 70
     1
177
     2
291
     1
 71
     2
176
     1
 72
     1
176
     1
 73
     1
176
     1
 90
        2
176
     1
 40
-0.6
176
     1
 41
30.0
176
     1
 62
     5
 63
     7
421
 16777215
176
     1
 74
     1
176
     1
 91
        4
176
     1
 64
     7
176
     1
 65
   257
176
     1
 75
     1
176
     1
175
     1
176
     1
 42
1.0
176
     1
 92
        0
176
     1
 66
   257
176
     1
 43
1.0
176
     1
 76
     1
176
     1
 77
     6
176
     1
 78
     2
176
     1
 67
     7
176
     1
 79
     5
176
     1
170
     0
176
     1
171
     0
176
     1
290
     0
176
     1
 93
       13
176
     1
 44
0.0
176
     1
173
     0
176
     1
  0
VISUALSTYLE
  5
2D
102
{ACAD_REACTORS
330
2A
102
}
330
2A
100
AcDbVisualStyle
  2
Gouraud
 70
     2
177
     2
291
     1
 71
     2
176
     1
 72
     2
176
     1
 73
     1
176
     1
 90
        2
176
     1
 40
-0.6
176
     1
 41
30.0
176
     1
 62
     5
 63
     7
421
 16777215
176
     1
 74
     0
176
     1
 91
        4
176
     1
 64
     7
176
     1
 65
   257
176
     1
 75
     1
176
     1
175
     1
176
     1
 42
1.0
176
     1
 92
        0
176
     1
 66
     7
176
     1
 43
1.0
176
     1
 76
     1
176
     1
 77
     6
176
     1
 78
     2
176
     1
 67
     7
176
     1
 79
     5
176
     1
170
     0
176
     1
171
     0
176
     1
290
     0
176
     1
 93
       13
176
     1
 44
0.0
176
     1
173
     0
176
     1
  0
VISUALSTYLE
  5
2E
102
{ACAD_REACTORS
330
2A
102
}
330
2A
100
AcDbVisualStyle
  2
GouraudWithEdges
 70
     3
177
     2
291
     1
 71
     2
176
     1
 72
     2
176
     1
 73
     1
176
     1
 90
        2
176
     1
 40
-0.6
176
     1
 41
30.0
176
     1
 62
     5
 63
     7
421
 16777215
176
     1
 74
     1
176
     1
 91
        4
176
     1
 64
     7
176
     1
 65
   257
176
     1
 75
     1
176
     1
175
     1
176
     1
 42
1.0
176
     1
 92
        0
176
     1
 66
   257
176
     1
 43
1.0
176
     1
 76
     1
176
     1
 77
     6
176
     1
 78
     2
176
     1
 67
     7
176
     1
 79
     5
176
     1
170
     0
176
     1
171
     0
176
     1
290
     0
176
     1
 93
       13
176
     1
 44
0.0
176
     1
173
     0
176
     1
  0
VISUALSTYLE
  5
38
102
{ACAD_REACTORS
330
2A
102
}
330
2A
100
AcDbVisualStyle
  2
Linepattern
 70
    14
177
     2
291
     1
 71
     2
176
     1
 72
     2
176
     1
 73
     0
176
     1
 90
        0
176
     1
 40
-0.6
176
     1
 41
-30.0
176
     1
 62
     5
 63
     7
421
 16777215
176
     1
 74
     1
176
     1
 91
        4
176
     1
 64
     7
176
     1
 65
   257
176
     1
 75
     7
176
     1
175
     7
176
     1
 42
1.0
176
     1
 92
        8
176
     1
 66
     7
176
     1
 43
1.0
176
     1
 76
     1
176
     1
 77
     6
176
     1
 78
     2
176
     1
 67
     7
176
     1
 79
     5
176
     1
170
     0
176
     1
171
     0
176
     1
290
     0
176
     1
 93
        1
176
     1
 44
0.0
176
     1
173
     0
176
     1
  0
VISUALSTYLE
  5
33
102
{ACAD_REACTORS
330
2A
102
}
330
2A
100
AcDbVisualStyle
  2
Realistic
 70
     8
177
     2
291
     0
 71
     2
176
     1
 72
     2
176
     1
 73
     0
176
     1
 90
        0
176
     1
 40
-0.6
176
     1
 41
-30.0
176
     1
 62
     5
 63
     7
421
 16777215
176
     1
 74
     1
176
     1
 91
        0
176
     1
 64
     7
176
     1
 65
   257
176
     1
 75
     1
176
     1
175
     1
176
     1
 42
1.0
176
     1
 92
        8
176
     1
 66
     8
424
  7895160
176
     1
 43
1.0
176
     1
 76
     1
176
     1
 77
     6
176
     1
 78
     2
176
     1
 67
     7
176
     1
 79
     5
176
     1
170
     0
176
     1
171
     0
176
     1
290
     0
176
     1
 93
       13
176
     1
 44
0.0
176
     1
173
     0
176
     1
  0
VISUALSTYLE
  5
37
102
{ACAD_REACTORS
330
2A
102
}
330
2A
100
AcDbVisualStyle
  2
Thicken
 70
    13
177
     2
291
     1
 71
     2
176
     1
 72
     2
176
     1
 73
     0
176
     1
 90
        0
176
     1
 40
-0.6
176
     1
 41
-30.0
176
     1
 62
     5
 63
     7
421
 16777215
176
     1
 74
     1
176
     1
 91
        4
176
     1
 64
     7
176
     1
 65
   257
176
     1
 75
     1
176
     1
175
     1
176
     1
 42
1.0
176
     1
 92
       12
176
     1
 66
     7
176
     1
 43
1.0
176
     1
 76
     1
176
     1
 77
     6
176
     1
 78
     2
176
     1
 67
     7
176
     1
 79
     5
176
     1
170
     0
176
     1
171
     0
176
     1
290
     0
176
     1
 93
        1
176
     1
 44
0.0
176
     1
173
     0
176
     1
  0
ENDSEC
  0
EOF
