  0
SECTION
  2
HEADER
  9
$ACADVER
  1
AC1024
  9
$ACADMAINTVER
 70
     6
  9
$DWGCODEPAGE
  3
UNDEFINED
  9
$INSBASE
 10
0.0
 20
0.0
 30
0.0
  9
$EXTMIN
 10
1.000000000000000E+20
 20
1.000000000000000E+20
 30
1.000000000000000E+20
  9
$EXTMAX
 10
-1.000000000000000E+20
 20
-1.000000000000000E+20
 30
-1.000000000000000E+20
  9
$LIMMIN
 10
0.0
 20
0.0
  9
$LIMMAX
 10
12.0
 20
9.0
  9
$ORTHOMODE
 70
     0
  9
$REGENMODE
 70
     1
  9
$FILLMODE
 70
     1
  9
$QTEXTMODE
 70
     0
  9
$MIRRTEXT
 70
     1
  9
$LTSCALE
 40
1.0
  9
$ATTMODE
 70
     1
  9
$TEXTSIZE
 40
0.2
  9
$TRACEWID
 40
0.05
  9
$TEXTSTYLE
  7
Standard
  9
$CLAYER
  8
0
  9
$CELTYPE
  6
ByLayer
  9
$CECOLOR
 62
   256
  9
$CELTSCALE
 40
1.0
  9
$DISPSILH
 70
     0
  9
$DIMSCALE
 40
1.0
  9
$DIMASZ
 40
0.18
  9
$DIMEXO
 40
0.0625
  9
$DIMDLI
 40
0.38
  9
$DIMRND
 40
0.0
  9
$DIMDLE
 40
0.0
  9
$DIMEXE
 40
0.18
  9
$DIMTP
 40
0.0
  9
$DIMTM
 40
0.0
  9
$DIMTXT
 40
0.18
  9
$DIMCEN
 40
0.09
  9
$DIMTSZ
 40
0.0
  9
$DIMTOL
 70
     0
  9
$DIMLIM
 70
     0
  9
$DIMTIH
 70
     1
  9
$DIMTOH
 70
     1
  9
$DIMSE1
 70
     0
  9
$DIMSE2
 70
     0
  9
$DIMTAD
 70
     0
  9
$DIMZIN
 70
     0
  9
$DIMBLK
  1

  9
$DIMASO
 70
     1
  9
$DIMSHO
 70
     1
  9
$DIMPOST
  1

  9
$DIMAPOST
  1

  9
$DIMALT
 70
     0
  9
$DIMALTD
 70
     2
  9
$DIMALTF
 40
25.4
  9
$DIMLFAC
 40
1.0
  9
$DIMTOFL
 70
     0
  9
$DIMTVP
 40
0.0
  9
$DIMTIX
 70
     0
  9
$DIMSOXD
 70
     0
  9
$DIMSAH
 70
     0
  9
$DIMBLK1
  1

  9
$DIMBLK2
  1

  9
$DIMSTYLE
  2
Standard
  9
$DIMCLRD
 70
     0
  9
$DIMCLRE
 70
     0
  9
$DIMCLRT
 70
     0
  9
$DIMTFAC
 40
1.0
  9
$DIMGAP
 40
0.09
  9
$DIMJUST
 70
     0
  9
$DIMSD1
 70
     0
  9
$DIMSD2
 70
     0
  9
$DIMTOLJ
 70
     1
  9
$DIMTZIN
 70
     0
  9
$DIMALTZ
 70
     0
  9
$DIMALTTZ
 70
     0
  9
$DIMUPT
 70
     0
  9
$DIMDEC
 70
     4
  9
$DIMTDEC
 70
     4
  9
$DIMALTU
 70
     2
  9
$DIMALTTD
 70
     2
  9
$DIMTXSTY
  7
Standard
  9
$DIMAUNIT
 70
     0
  9
$DIMADEC
 70
     0
  9
$DIMALTRND
 40
0.0
  9
$DIMAZIN
 70
     0
  9
$DIMDSEP
 70
    46
  9
$DIMATFIT
 70
     3
  9
$DIMFRAC
 70
     0
  9
$DIMLDRBLK
  1

  9
$DIMLUNIT
 70
     2
  9
$DIMLWD
 70
    -2
  9
$DIMLWE
 70
    -2
  9
$DIMTMOVE
 70
     0
  9
$DIMFXL
 40
1.0
  9
$DIMFXLON
 70
     0
  9
$DIMJOGANG
 40
0.7853981633974483
  9
$DIMTFILL
 70
     0
  9
$DIMTFILLCLR
 70
     0
  9
$DIMARCSYM
 70
     0
  9
$DIMLTYPE
  6

  9
$DIMLTEX1
  6

  9
$DIMLTEX2
  6

  9
$DIMTXTDIRECTION
 70
     0
  9
$LUNITS
 70
     2
  9
$LUPREC
 70
     4
  9
$SKETCHINC
 40
0.1
  9
$FILLETRAD
 40
0.5
  9
$AUNITS
 70
     0
  9
$AUPREC
 70
     0
  9
$MENU
  1
.
  9
$ELEVATION
 40
0.0
  9
$PELEVATION
 40
0.0
  9
$THICKNESS
 40
0.0
  9
$LIMCHECK
 70
     0
  9
$CHAMFERA
 40
0.5
  9
$CHAMFERB
 40
0.5
  9
$CHAMFERC
 40
1.0
  9
$CHAMFERD
 40
0.0
  9
$SKPOLY
 70
     0
  9
$TDCREATE
 40
2457917.624699063
  9
$TDUCREATE
 40
2457917.249699074
  9
$TDUPDATE
 40
2457917.624699063
  9
$TDUUPDATE
 40
2457917.249699074
  9
$TDINDWG
 40
0.0000000116
  9
$TDUSRTIMER
 40
0.0000000116
  9
$USRTIMER
 70
     1
  9
$ANGBASE
 50
0.0
  9
$ANGDIR
 70
     0
  9
$PDMODE
 70
     0
  9
$PDSIZE
 40
0.0
  9
$PLINEWID
 40
0.0
  9
$SPLFRAME
 70
     0
  9
$SPLINETYPE
 70
     6
  9
$SPLINESEGS
 70
     8
  9
$HANDSEED
  5
A3
  9
$SURFTAB1
 70
     6
  9
$SURFTAB2
 70
     6
  9
$SURFTYPE
 70
     6
  9
$SURFU
 70
     6
  9
$SURFV
 70
     6
  9
$UCSBASE
  2

  9
$UCSNAME
  2

  9
$UCSORG
 10
0.0
 20
0.0
 30
0.0
  9
$UCSXDIR
 10
1.0
 20
0.0
 30
0.0
  9
$UCSYDIR
 10
0.0
 20
1.0
 30
0.0
  9
$UCSORTHOREF
  2

  9
$UCSORTHOVIEW
 70
     0
  9
$UCSORGTOP
 10
0.0
 20
0.0
 30
0.0
  9
$UCSORGBOTTOM
 10
0.0
 20
0.0
 30
0.0
  9
$UCSORGLEFT
 10
0.0
 20
0.0
 30
0.0
  9
$UCSORGRIGHT
 10
0.0
 20
0.0
 30
0.0
  9
$UCSORGFRONT
 10
0.0
 20
0.0
 30
0.0
  9
$UCSORGBACK
 10
0.0
 20
0.0
 30
0.0
  9
$PUCSBASE
  2

  9
$PUCSNAME
  2

  9
$PUCSORG
 10
0.0
 20
0.0
 30
0.0
  9
$PUCSXDIR
 10
1.0
 20
0.0
 30
0.0
  9
$PUCSYDIR
 10
0.0
 20
1.0
 30
0.0
  9
$PUCSORTHOREF
  2

  9
$PUCSORTHOVIEW
 70
     0
  9
$PUCSORGTOP
 10
0.0
 20
0.0
 30
0.0
  9
$PUCSORGBOTTOM
 10
0.0
 20
0.0
 30
0.0
  9
$PUCSORGLEFT
 10
0.0
 20
0.0
 30
0.0
  9
$PUCSORGRIGHT
 10
0.0
 20
0.0
 30
0.0
  9
$PUCSORGFRONT
 10
0.0
 20
0.0
 30
0.0
  9
$PUCSORGBACK
 10
0.0
 20
0.0
 30
0.0
  9
$USERI1
 70
     0
  9
$USERI2
 70
     0
  9
$USERI3
 70
     0
  9
$USERI4
 70
     0
  9
$USERI5
 70
     0
  9
$USERR1
 40
0.0
  9
$USERR2
 40
0.0
  9
$USERR3
 40
0.0
  9
$USERR4
 40
0.0
  9
$USERR5
 40
0.0
  9
$WORLDVIEW
 70
     1
  9
$SHADEDGE
 70
     3
  9
$SHADEDIF
 70
    70
  9
$TILEMODE
 70
     1
  9
$MAXACTVP
 70
    64
  9
$PINSBASE
 10
0.0
 20
0.0
 30
0.0
  9
$PLIMCHECK
 70
     0
  9
$PEXTMIN
 10
1.000000000000000E+20
 20
1.000000000000000E+20
 30
1.000000000000000E+20
  9
$PEXTMAX
 10
-1.000000000000000E+20
 20
-1.000000000000000E+20
 30
-1.000000000000000E+20
  9
$PLIMMIN
 10
0.0
 20
0.0
  9
$PLIMMAX
 10
12.0
 20
9.0
  9
$UNITMODE
 70
     0
  9
$VISRETAIN
 70
     1
  9
$PLINEGEN
 70
     0
  9
$PSLTSCALE
 70
     1
  9
$TREEDEPTH
 70
  3020
  9
$CMLSTYLE
  2
Standard
  9
$CMLJUST
 70
     0
  9
$CMLSCALE
 40
1.0
  9
$PROXYGRAPHICS
 70
     1
  9
$MEASUREMENT
 70
     0
  9
$CELWEIGHT
370
    -1
  9
$ENDCAPS
280
     0
  9
$JOINSTYLE
280
     0
  9
$LWDISPLAY
290
     1
  9
$INSUNITS
 70
     1
  9
$HYPERLINKBASE
  1

  9
$STYLESHEET
  1

  9
$XEDIT
290
     1
  9
$CEPSNTYPE
380
     0
  9
$PSTYLEMODE
290
     1
  9
$FINGERPRINTGUID
  2
{0EA402A2-6496-F12E-7064-52030E662E6D}
  9
$VERSIONGUID
  2
{FAEB1C32-E019-11D5-929B-00C0DF256EC4}
  9
$EXTNAMES
290
     1
  9
$PSVPSCALE
 40
0.0
  9
$OLESTARTUP
290
     0
  9
$SORTENTS
280
   127
  9
$INDEXCTL
280
     0
  9
$HIDETEXT
280
     1
  9
$XCLIPFRAME
280
     2
  9
$HALOGAP
280
     0
  9
$OBSCOLOR
 70
   257
  9
$OBSLTYPE
280
     0
  9
$INTERSECTIONDISPLAY
280
     0
  9
$INTERSECTIONCOLOR
 70
   257
  9
$DIMASSOC
280
     2
  9
$PROJECTNAME
  1

  9
$CAMERADISPLAY
290
     0
  9
$LENSLENGTH
 40
50.0
  9
$CAMERAHEIGHT
 40
0.0
  9
$STEPSPERSEC
 40
2.0
  9
$STEPSIZE
 40
6.0
  9
$3DDWFPREC
 40
2.0
  9
$PSOLWIDTH
 40
0.25
  9
$PSOLHEIGHT
 40
4.0
  9
$LOFTANG1
 40
1.570796326794897
  9
$LOFTANG2
 40
1.570796326794897
  9
$LOFTMAG1
 40
0.0
  9
$LOFTMAG2
 40
0.0
  9
$LOFTPARAM
 70
     7
  9
$LOFTNORMALS
280
     1
  9
$LATITUDE
 40
37.795
  9
$LONGITUDE
 40
-122.394
  9
$NORTHDIRECTION
 40
0.0
  9
$TIMEZONE
 70
 -8000
  9
$LIGHTGLYPHDISPLAY
280
     1
  9
$TILEMODELIGHTSYNCH
280
     1
  9
$CMATERIAL
347
3C
  9
$SOLIDHIST
280
     1
  9
$SHOWHIST
280
     1
  9
$DWFFRAME
280
     2
  9
$DGNFRAME
280
     2
  9
$REALWORLDSCALE
290
     1
  9
$INTERFERECOLOR
 62
   256
  9
$CSHADOW
280
     0
  9
$SHADOWPLANELOCATION
 40
0.0
  0
ENDSEC
  0
SECTION
  2
CLASSES
  0
CLASS
  1
ACDBDICTIONARYWDFLT
  2
AcDbDictionaryWithDefault
  3
ObjectDBX Classes
 90
        0
 91
        4
280
     0
281
     0
  0
CLASS
  1
VISUALSTYLE
  2
AcDbVisualStyle
  3
ObjectDBX Classes
 90
     4095
 91
        4
280
     0
281
     0
  0
CLASS
  1
MATERIAL
  2
AcDbMaterial
  3
ObjectDBX Classes
 90
     1153
 91
        4
280
     0
281
     0
  0
CLASS
  1
SUN
  2
AcDbSun
  3
SCENEOE
 90
     1024
 91
        4
280
     0
281
     0
  0
ENDSEC
  0
SECTION
  2
TABLES
  0
TABLE
  2
VPORT
  5
8
330
0
100
AcDbSymbolTable
 70
     1
  0
VPORT
  5
29
330
8
100
AcDbSymbolTableRecord
100
AcDbViewportTableRecord
  2
*Active
 70
     0
 10
0.0
 20
0.0
 11
1.0
 21
1.0
 12
0.0
 22
0.0
 13
0.0
 23
0.0
 14
0.5
 24
0.5
 15
0.5
 25
0.5
 16
0.0
 26
0.0
 36
1.0
 17
91.00082462281999
 27
-128.4993055234307
 37
0.0
 40
256.9986110468615
 41
0.7081814508812795
 42
50.0
 43
0.0
 44
0.0
 50
0.0
 51
0.0
 71
     0
 72
   100
 73
     1
 74
     3
 75
     0
 76
     0
 77
     0
 78
     0
281
     0
 65
     1
110
0.0
120
0.0
130
0.0
111
1.0
121
0.0
131
0.0
112
0.0
122
1.0
132
0.0
 79
     0
146
0.0
 60
     3
 61
     5
292
     1
282
     1
141
0.0
142
0.0
 63
   250
361
3F
  0
ENDTAB
  0
TABLE
  2
LTYPE
  5
5
330
0
100
AcDbSymbolTable
 70
     1
  0
LTYPE
  5
14
330
5
100
AcDbSymbolTableRecord
100
AcDbLinetypeTableRecord
  2
ByBlock
 70
     0
  3

 72
    65
 73
     0
 40
0.0
  0
LTYPE
  5
15
330
5
100
AcDbSymbolTableRecord
100
AcDbLinetypeTableRecord
  2
ByLayer
 70
     0
  3

 72
    65
 73
     0
 40
0.0
  0
LTYPE
  5
16
330
5
100
AcDbSymbolTableRecord
100
AcDbLinetypeTableRecord
  2
Continuous
 70
     0
  3
Solid line
 72
    65
 73
     0
 40
0.0
  0
ENDTAB
  0
TABLE
  2
LAYER
  5
2
330
0
100
AcDbSymbolTable
 70
     2
  0
LAYER
  5
10
330
2
100
AcDbSymbolTableRecord
100
AcDbLayerTableRecord
  2
0
 70
     0
 62
     7
  6
Continuous
370
    -3
390
F
347
3E
  0
LAYER
  5
40
330
2
100
AcDbSymbolTableRecord
100
AcDbLayerTableRecord
  2
_U+30EC_U+30A4_U+30E4_U+30FC 1
 70
     0
 62
     7
  6
Continuous
370
    -3
390
F
347
3E
  0
ENDTAB
  0
TABLE
  2
STYLE
  5
3
330
0
100
AcDbSymbolTable
 70
     1
  0
STYLE
  5
11
330
3
100
AcDbSymbolTableRecord
100
AcDbTextStyleTableRecord
  2
Standard
 70
     0
 40
0.0
 41
1.0
 50
0.0
 71
     0
 42
0.2
  3
txt
  4

  0
ENDTAB
  0
TABLE
  2
VIEW
  5
6
330
0
100
AcDbSymbolTable
 70
     0
  0
ENDTAB
  0
TABLE
  2
UCS
  5
7
330
0
100
AcDbSymbolTable
 70
     0
  0
ENDTAB
  0
TABLE
  2
APPID
  5
9
330
0
100
AcDbSymbolTable
 70
     1
  0
APPID
  5
12
330
9
100
AcDbSymbolTableRecord
100
AcDbRegAppTableRecord
  2
ACAD
 70
     0
  0
ENDTAB
  0
TABLE
  2
DIMSTYLE
  5
A
330
0
100
AcDbSymbolTable
 70
     1
100
AcDbDimStyleTable
  0
DIMSTYLE
105
27
330
A
100
AcDbSymbolTableRecord
100
AcDbDimStyleTableRecord
  2
Standard
 70
     0
178
     0
340
11
  0
ENDTAB
  0
TABLE
  2
BLOCK_RECORD
  5
1
330
0
100
AcDbSymbolTable
 70
     4
  0
BLOCK_RECORD
  5
1F
330
1
100
AcDbSymbolTableRecord
100
AcDbBlockTableRecord
  2
*Model_Space
340
22
 70
     0
280
     1
281
     0
  0
BLOCK_RECORD
  5
1B
330
1
100
AcDbSymbolTableRecord
100
AcDbBlockTableRecord
  2
*Paper_Space
340
1E
 70
     0
280
     1
281
     0
  0
BLOCK_RECORD
  5
23
330
1
100
AcDbSymbolTableRecord
100
AcDbBlockTableRecord
  2
*Paper_Space0
340
26
 70
     0
280
     1
281
     0
  0
BLOCK_RECORD
  5
7E
330
1
100
AcDbSymbolTableRecord
100
AcDbBlockTableRecord
  2
block 2
340
0
102
{BLKREFS
331
7F
102
}
 70
     0
280
     1
281
     0
  0
BLOCK_RECORD
  5
90
330
1
100
AcDbSymbolTableRecord
100
AcDbBlockTableRecord
  2
block 3
340
0
102
{BLKREFS
331
91
102
}
 70
     0
280
     1
281
     0
  0
BLOCK_RECORD
  5
98
330
1
100
AcDbSymbolTableRecord
100
AcDbBlockTableRecord
  2
block 4
340
0
102
{BLKREFS
331
99
102
}
 70
     0
280
     1
281
     0
  0
ENDTAB
  0
ENDSEC
  0
SECTION
  2
BLOCKS
  0
BLOCK
  5
20
330
1F
100
AcDbEntity
  8
0
100
AcDbBlockBegin
  2
*Model_Space
 70
     0
 10
0.0
 20
0.0
 30
0.0
  3
*Model_Space
  1

  0
ENDBLK
  5
21
330
1F
100
AcDbEntity
  8
0
100
AcDbBlockEnd
  0
BLOCK
  5
1C
330
1B
100
AcDbEntity
 67
     1
  8
0
100
AcDbBlockBegin
  2
*Paper_Space
 70
     0
 10
0.0
 20
0.0
 30
0.0
  3
*Paper_Space
  1

  0
ENDBLK
  5
1D
330
1B
100
AcDbEntity
 67
     1
  8
0
100
AcDbBlockEnd
  0
BLOCK
  5
24
330
23
100
AcDbEntity
  8
0
100
AcDbBlockBegin
  2
*Paper_Space0
 70
     0
 10
0.0
 20
0.0
 30
0.0
  3
*Paper_Space0
  1

  0
ENDBLK
  5
25
330
23
100
AcDbEntity
  8
0
100
AcDbBlockEnd
  0
BLOCK
  5
80
330
7E
100
AcDbEntity
  8
0
100
AcDbBlockBegin
  2
block 2
 70
     0
 10
0.0
 20
0.0
 30
0.0
  3
block 2
  1

  0
SPLINE
  5
82
330
7E
100
AcDbEntity
  8
_U+30EC_U+30A4_U+30E4_U+30FC 1
370
     0
100
AcDbSpline
210
0.0
220
0.0
230
1.0
 70
    11
 71
     3
 72
    29
 73
    25
 74
     0
 42
0.0000000001
 43
0.0000000001
 12
1.0
 22
0.0
 32
0.0
 13
1.0
 23
0.0
 33
0.0
 40
0.0
 40
0.0
 40
0.0
 40
0.0
 40
1.0
 40
1.0
 40
1.0
 40
2.0
 40
2.0
 40
2.0
 40
3.0
 40
3.0
 40
3.0
 40
4.0
 40
4.0
 40
4.0
 40
5.0
 40
5.0
 40
5.0
 40
6.0
 40
6.0
 40
6.0
 40
7.0
 40
7.0
 40
7.0
 40
8.0
 40
8.0
 40
8.0
 40
8.0
 10
101.2909749095731
 20
-130.1298692165995
 30
0.0
 10
101.2909749095731
 20
-130.4147786132297
 30
0.0
 10
101.1535155997116
 20
-130.6859076279188
 30
0.0
 10
100.8045274270558
 20
-130.6859076279188
 30
0.0
 10
100.5485568325018
 20
-130.6859076279188
 30
0.0
 10
100.4534721971089
 20
-130.5343234265678
 30
0.0
 10
100.3921494974714
 20
-130.4213242946516
 30
0.0
 10
100.3328938551251
 20
-130.5546494899308
 30
0.0
 10
100.2185166850148
 20
-130.6362982529312
 30
0.0
 10
100.0576307258537
 20
-130.6362982529312
 30
0.0
 10
99.78271210613072
 20
-130.6362982529312
 30
0.0
 10
99.64731985356039
 20
-130.4237358614913
 30
0.0
 10
99.64731985356039
 20
-130.1298692165995
 30
0.0
 10
99.64731985356039
 20
-129.8267008138975
 30
0.0
 10
99.79132484484384
 20
-129.6234401802677
 30
0.0
 10
100.0576307258537
 20
-129.6234401802677
 30
0.0
 10
100.2185166850148
 20
-129.6234401802677
 30
0.0
 10
100.3328938551251
 20
-129.7068114910108
 30
0.0
 10
100.3921494974714
 20
-129.8404811958385
 30
0.0
 10
100.4427924011046
 20
-129.7453965604456
 30
0.0
 10
100.5378770364975
 20
-129.5758978625713
 30
0.0
 10
100.8003933124735
 20
-129.5758978625713
 30
0.0
 10
101.1748751917202
 20
-129.5758978625713
 30
0.0
 10
101.2909749095731
 20
-129.8742431315939
 30
0.0
 10
101.2909749095731
 20
-130.1298692165995
 30
0.0
  0
SPLINE
  5
83
330
7E
100
AcDbEntity
  8
_U+30EC_U+30A4_U+30E4_U+30FC 1
370
     0
100
AcDbSpline
210
0.0
220
0.0
230
1.0
 70
    11
 71
     3
 72
    17
 73
    13
 74
     0
 42
0.0000000001
 43
0.0000000001
 12
1.0
 22
0.0
 32
0.0
 13
1.0
 23
0.0
 33
0.0
 40
0.0
 40
0.0
 40
0.0
 40
0.0
 40
1.0
 40
1.0
 40
1.0
 40
2.0
 40
2.0
 40
2.0
 40
3.0
 40
3.0
 40
3.0
 40
4.0
 40
4.0
 40
4.0
 40
4.0
 10
99.83990069118586
 20
-130.1298692165995
 30
0.0
 10
99.83990069118586
 20
-130.3059135958958
 30
0.0
 10
99.93498532657875
 20
-130.3965196071578
 30
0.0
 10
100.0703775791491
 20
-130.3965196071578
 30
0.0
 10
100.193022978424
 20
-130.3965196071578
 30
0.0
 10
100.3115342631166
 20
-130.3196939778367
 30
0.0
 10
100.3115342631166
 20
-130.1298692165995
 30
0.0
 10
100.3115342631166
 20
-129.9396999458137
 30
0.0
 10
100.193022978424
 20
-129.8628743164926
 30
0.0
 10
100.0703775791491
 20
-129.8628743164926
 30
0.0
 10
99.93498532657875
 20
-129.8628743164926
 30
0.0
 10
99.83990069118586
 20
-129.9555473850458
 30
0.0
 10
99.83990069118586
 20
-130.1298692165995
 30
0.0
  0
SPLINE
  5
84
330
7E
100
AcDbEntity
  8
_U+30EC_U+30A4_U+30E4_U+30FC 1
370
     0
100
AcDbSpline
210
0.0
220
0.0
230
1.0
 70
    11
 71
     3
 72
    17
 73
    13
 74
     0
 42
0.0000000001
 43
0.0000000001
 12
1.0
 22
0.0
 32
0.0
 13
1.0
 23
0.0
 33
0.0
 40
0.0
 40
0.0
 40
0.0
 40
0.0
 40
1.0
 40
1.0
 40
1.0
 40
2.0
 40
2.0
 40
2.0
 40
3.0
 40
3.0
 40
3.0
 40
4.0
 40
4.0
 40
4.0
 40
4.0
 10
100.4999809861597
 20
-130.1298692165995
 30
0.0
 10
100.4999809861597
 20
-130.2835204752416
 30
0.0
 10
100.586797392388
 20
-130.4461289821454
 30
0.0
 10
100.7897135164692
 20
-130.4461289821454
 30
0.0
 10
100.9950412073901
 20
-130.4461289821454
 30
0.0
 10
101.0963270146565
 20
-130.3107367295751
 30
0.0
 10
101.0963270146565
 20
-130.1298692165995
 30
0.0
 10
101.0963270146565
 20
-129.930742697552
 30
0.0
 10
100.9736816153816
 20
-129.813264941505
 30
0.0
 10
100.7959146883427
 20
-129.813264941505
 30
0.0
 10
100.5740505390926
 20
-129.813264941505
 30
0.0
 10
100.4999809861597
 20
-129.9872422635101
 30
0.0
 10
100.4999809861597
 20
-130.1298692165995
 30
0.0
  0
HATCH
  5
85
330
7E
100
AcDbEntity
  8
_U+30EC_U+30A4_U+30E4_U+30FC 1
 62
   179
420
  2234388
100
AcDbHatch
 10
0.0
 20
0.0
 30
0.0
210
0.0
220
0.0
230
1.0
  2
SOLID
 70
     1
 71
     0
 91
        3
 92
        1
 93
        1
 72
     4
 94
        3
 73
     0
 74
     1
 95
       29
 96
       25
 40
0.0
 40
0.0
 40
0.0
 40
0.0
 40
1.0
 40
1.0
 40
1.0
 40
2.0
 40
2.0
 40
2.0
 40
3.0
 40
3.0
 40
3.0
 40
4.0
 40
4.0
 40
4.0
 40
5.0
 40
5.0
 40
5.0
 40
6.0
 40
6.0
 40
6.0
 40
7.0
 40
7.0
 40
7.0
 40
8.0
 40
8.0
 40
8.0
 40
8.0
 10
101.2909749095731
 20
-130.1298692165995
 10
101.2909749095731
 20
-130.4147786132297
 10
101.1535155997116
 20
-130.6859076279188
 10
100.8045274270558
 20
-130.6859076279188
 10
100.5485568325018
 20
-130.6859076279188
 10
100.4534721971089
 20
-130.5343234265678
 10
100.3921494974714
 20
-130.4213242946516
 10
100.3328938551251
 20
-130.5546494899308
 10
100.2185166850148
 20
-130.6362982529312
 10
100.0576307258537
 20
-130.6362982529312
 10
99.78271210613072
 20
-130.6362982529312
 10
99.64731985356039
 20
-130.4237358614913
 10
99.64731985356039
 20
-130.1298692165995
 10
99.64731985356039
 20
-129.8267008138975
 10
99.79132484484384
 20
-129.6234401802677
 10
100.0576307258537
 20
-129.6234401802677
 10
100.2185166850148
 20
-129.6234401802677
 10
100.3328938551251
 20
-129.7068114910108
 10
100.3921494974714
 20
-129.8404811958385
 10
100.4427924011046
 20
-129.7453965604456
 10
100.5378770364975
 20
-129.5758978625713
 10
100.8003933124735
 20
-129.5758978625713
 10
101.1748751917202
 20
-129.5758978625713
 10
101.2909749095731
 20
-129.8742431315939
 10
101.2909749095731
 20
-130.1298692165995
 97
        0
 97
        0
 92
        1
 93
        1
 72
     4
 94
        3
 73
     0
 74
     1
 95
       17
 96
       13
 40
0.0
 40
0.0
 40
0.0
 40
0.0
 40
1.0
 40
1.0
 40
1.0
 40
2.0
 40
2.0
 40
2.0
 40
3.0
 40
3.0
 40
3.0
 40
4.0
 40
4.0
 40
4.0
 40
4.0
 10
99.83990069118586
 20
-130.1298692165995
 10
99.83990069118586
 20
-130.3059135958958
 10
99.93498532657875
 20
-130.3965196071578
 10
100.0703775791491
 20
-130.3965196071578
 10
100.193022978424
 20
-130.3965196071578
 10
100.3115342631166
 20
-130.3196939778367
 10
100.3115342631166
 20
-130.1298692165995
 10
100.3115342631166
 20
-129.9396999458137
 10
100.193022978424
 20
-129.8628743164926
 10
100.0703775791491
 20
-129.8628743164926
 10
99.93498532657875
 20
-129.8628743164926
 10
99.83990069118586
 20
-129.9555473850458
 10
99.83990069118586
 20
-130.1298692165995
 97
        0
 97
        0
 92
        1
 93
        1
 72
     4
 94
        3
 73
     0
 74
     1
 95
       17
 96
       13
 40
0.0
 40
0.0
 40
0.0
 40
0.0
 40
1.0
 40
1.0
 40
1.0
 40
2.0
 40
2.0
 40
2.0
 40
3.0
 40
3.0
 40
3.0
 40
4.0
 40
4.0
 40
4.0
 40
4.0
 10
100.4999809861597
 20
-130.1298692165995
 10
100.4999809861597
 20
-130.2835204752416
 10
100.586797392388
 20
-130.4461289821454
 10
100.7897135164692
 20
-130.4461289821454
 10
100.9950412073901
 20
-130.4461289821454
 10
101.0963270146565
 20
-130.3107367295751
 10
101.0963270146565
 20
-130.1298692165995
 10
101.0963270146565
 20
-129.930742697552
 10
100.9736816153816
 20
-129.813264941505
 10
100.7959146883427
 20
-129.813264941505
 10
100.5740505390926
 20
-129.813264941505
 10
100.4999809861597
 20
-129.9872422635101
 10
100.4999809861597
 20
-130.1298692165995
 97
        0
 97
        0
 75
     2
 76
     1
 98
        0
  0
POLYLINE
  5
86
330
7E
100
AcDbEntity
  8
_U+30EC_U+30A4_U+30E4_U+30FC 1
370
     0
100
AcDb2dPolyline
 66
     1
 10
0.0
 20
0.0
 30
0.0
  0
VERTEX
  5
87
330
86
100
AcDbEntity
  8
_U+30EC_U+30A4_U+30E4_U+30FC 1
370
     0
100
AcDbVertex
100
AcDb2dVertex
 10
101.2403320059399
 20
-129.3423203886714
 30
0.0
  0
VERTEX
  5
88
330
86
100
AcDbEntity
  8
_U+30EC_U+30A4_U+30E4_U+30FC 1
370
     0
100
AcDbVertex
100
AcDb2dVertex
 10
100.9884955259682
 20
-129.3423203886714
 30
0.0
  0
VERTEX
  5
89
330
86
100
AcDbEntity
  8
_U+30EC_U+30A4_U+30E4_U+30FC 1
370
     0
100
AcDbVertex
100
AcDb2dVertex
 10
100.9884955259682
 20
-129.0732584312734
 30
0.0
  0
VERTEX
  5
8A
330
86
100
AcDbEntity
  8
_U+30EC_U+30A4_U+30E4_U+30FC 1
370
     0
100
AcDbVertex
100
AcDb2dVertex
 10
101.2403320059399
 20
-129.0732584312734
 30
0.0
  0
VERTEX
  5
8B
330
86
100
AcDbEntity
  8
_U+30EC_U+30A4_U+30E4_U+30FC 1
370
     0
100
AcDbVertex
100
AcDb2dVertex
 10
101.2403320059399
 20
-129.3423203886714
 30
0.0
  0
SEQEND
  5
8C
330
86
100
AcDbEntity
  8
_U+30EC_U+30A4_U+30E4_U+30FC 1
370
     0
  0
HATCH
  5
8D
330
7E
100
AcDbEntity
  8
_U+30EC_U+30A4_U+30E4_U+30FC 1
 62
   179
420
  2234388
100
AcDbHatch
 10
0.0
 20
0.0
 30
0.0
210
0.0
220
0.0
230
1.0
  2
SOLID
 70
     1
 71
     0
 91
        1
 92
        1
 93
        4
 72
     1
 10
101.2403320059399
 20
-129.3423203886714
 11
100.9884955259682
 21
-129.3423203886714
 72
     1
 10
100.9884955259682
 20
-129.3423203886714
 11
100.9884955259682
 21
-129.0732584312734
 72
     1
 10
100.9884955259682
 20
-129.0732584312734
 11
101.2403320059399
 21
-129.0732584312734
 72
     1
 10
101.2403320059399
 20
-129.0732584312734
 11
101.2403320059399
 21
-129.3423203886714
 97
        0
 75
     2
 76
     1
 98
        0
  0
SPLINE
  5
8E
330
7E
100
AcDbEntity
  8
_U+30EC_U+30A4_U+30E4_U+30FC 1
370
     0
100
AcDbSpline
210
0.0
220
0.0
230
1.0
 70
    11
 71
     3
 72
    53
 73
    49
 74
     0
 42
0.0000000001
 43
0.0000000001
 12
1.0
 22
0.0
 32
0.0
 13
1.0
 23
0.0
 33
0.0
 40
0.0
 40
0.0
 40
0.0
 40
0.0
 40
1.0
 40
1.0
 40
1.0
 40
2.0
 40
2.0
 40
2.0
 40
3.0
 40
3.0
 40
3.0
 40
4.0
 40
4.0
 40
4.0
 40
5.0
 40
5.0
 40
5.0
 40
6.0
 40
6.0
 40
6.0
 40
7.0
 40
7.0
 40
7.0
 40
8.0
 40
8.0
 40
8.0
 40
9.0
 40
9.0
 40
9.0
 40
10.0
 40
10.0
 40
10.0
 40
11.0
 40
11.0
 40
11.0
 40
12.0
 40
12.0
 40
12.0
 40
13.0
 40
13.0
 40
13.0
 40
14.0
 40
14.0
 40
14.0
 40
15.0
 40
15.0
 40
15.0
 40
16.0
 40
16.0
 40
16.0
 40
16.0
 10
101.2909749095731
 20
-128.3063801762567
 30
0.0
 10
101.2909749095731
 20
-128.3897514869998
 30
0.0
 10
101.2740939416954
 20
-128.4986165043337
 30
0.0
 10
101.2107041847668
 20
-128.6067925025705
 30
0.0
 10
101.1008056387873
 20
-128.7924831492255
 30
0.0
 10
100.9695475007993
 20
-128.8148762698796
 30
0.0
 10
100.861716012111
 20
-128.8352023332426
 30
0.0
 10
100.861716012111
 20
-128.8352023332426
 30
0.0
 10
100.861716012111
 20
-128.5978352543089
 30
0.0
 10
100.861716012111
 20
-128.5978352543089
 30
0.0
 10
101.0604980216099
 20
-128.5392686310596
 30
0.0
 10
101.090125842783
 20
-128.4035318689408
 30
0.0
 10
101.090125842783
 20
-128.3039686094171
 30
0.0
 10
101.090125842783
 20
-128.1547959749057
 30
0.0
 10
100.9905625832593
 20
-127.992187468002
 30
0.0
 10
100.7580186380049
 20
-127.992187468002
 30
0.0
 10
100.5020480434509
 20
-127.992187468002
 30
0.0
 10
100.4321126051003
 20
-128.1840792865304
 30
0.0
 10
100.4321126051003
 20
-128.3129258576787
 30
0.0
 10
100.4321126051003
 20
-128.3470323029827
 30
0.0
 10
100.4321126051003
 20
-128.4986165043337
 30
0.0
 10
100.5613036857972
 20
-128.5933566301781
 30
0.0
 10
100.5613036857972
 20
-128.5933566301781
 30
0.0
 10
100.5423556606283
 20
-128.7811143341242
 30
0.0
 10
100.5423556606283
 20
-128.7811143341242
 30
0.0
 10
100.5423556606283
 20
-128.7811143341242
 30
0.0
 10
99.69589569990242
 20
-128.6522677629758
 30
0.0
 10
99.69589569990242
 20
-128.6522677629758
 30
0.0
 10
99.69589569990242
 20
-128.6522677629758
 30
0.0
 10
99.69589569990242
 20
-127.820277203288
 30
0.0
 10
99.69589569990242
 20
-127.820277203288
 30
0.0
 10
99.69589569990242
 20
-127.820277203288
 30
0.0
 10
99.89054359481904
 20
-127.820277203288
 30
0.0
 10
99.89054359481904
 20
-127.820277203288
 30
0.0
 10
99.89054359481904
 20
-127.820277203288
 30
0.0
 10
99.89054359481904
 20
-128.4779459314222
 30
0.0
 10
99.89054359481904
 20
-128.4779459314222
 30
0.0
 10
99.89054359481904
 20
-128.4779459314222
 30
0.0
 10
100.3136013204077
 20
-128.5482258793213
 30
0.0
 10
100.3136013204077
 20
-128.5482258793213
 30
0.0
 10
100.2798393846523
 20
-128.4827690651015
 30
0.0
 10
100.2395317674748
 20
-128.3945746206792
 30
0.0
 10
100.2395317674748
 20
-128.2677951068219
 30
0.0
 10
100.2395317674748
 20
-127.9966660921328
 30
0.0
 10
100.4259114332269
 20
-127.7434515739669
 30
0.0
 10
100.7390706128361
 20
-127.7434515739669
 30
0.0
 10
101.0563639070276
 20
-127.7434515739669
 30
0.0
 10
101.2909749095731
 20
-127.9828857101918
 30
0.0
 10
101.2909749095731
 20
-128.3063801762567
 30
0.0
  0
HATCH
  5
8F
330
7E
100
AcDbEntity
  8
_U+30EC_U+30A4_U+30E4_U+30FC 1
 62
   179
420
  2234388
100
AcDbHatch
 10
0.0
 20
0.0
 30
0.0
210
0.0
220
0.0
230
1.0
  2
SOLID
 70
     1
 71
     0
 91
        1
 92
        1
 93
        1
 72
     4
 94
        3
 73
     0
 74
     1
 95
       53
 96
       49
 40
0.0
 40
0.0
 40
0.0
 40
0.0
 40
1.0
 40
1.0
 40
1.0
 40
2.0
 40
2.0
 40
2.0
 40
3.0
 40
3.0
 40
3.0
 40
4.0
 40
4.0
 40
4.0
 40
5.0
 40
5.0
 40
5.0
 40
6.0
 40
6.0
 40
6.0
 40
7.0
 40
7.0
 40
7.0
 40
8.0
 40
8.0
 40
8.0
 40
9.0
 40
9.0
 40
9.0
 40
10.0
 40
10.0
 40
10.0
 40
11.0
 40
11.0
 40
11.0
 40
12.0
 40
12.0
 40
12.0
 40
13.0
 40
13.0
 40
13.0
 40
14.0
 40
14.0
 40
14.0
 40
15.0
 40
15.0
 40
15.0
 40
16.0
 40
16.0
 40
16.0
 40
16.0
 10
101.2909749095731
 20
-128.3063801762567
 10
101.2909749095731
 20
-128.3897514869998
 10
101.2740939416954
 20
-128.4986165043337
 10
101.2107041847668
 20
-128.6067925025705
 10
101.1008056387873
 20
-128.7924831492255
 10
100.9695475007993
 20
-128.8148762698796
 10
100.861716012111
 20
-128.8352023332426
 10
100.861716012111
 20
-128.8352023332426
 10
100.861716012111
 20
-128.5978352543089
 10
100.861716012111
 20
-128.5978352543089
 10
101.0604980216099
 20
-128.5392686310596
 10
101.090125842783
 20
-128.4035318689408
 10
101.090125842783
 20
-128.3039686094171
 10
101.090125842783
 20
-128.1547959749057
 10
100.9905625832593
 20
-127.992187468002
 10
100.7580186380049
 20
-127.992187468002
 10
100.5020480434509
 20
-127.992187468002
 10
100.4321126051003
 20
-128.1840792865304
 10
100.4321126051003
 20
-128.3129258576787
 10
100.4321126051003
 20
-128.3470323029827
 10
100.4321126051003
 20
-128.4986165043337
 10
100.5613036857972
 20
-128.5933566301781
 10
100.5613036857972
 20
-128.5933566301781
 10
100.5423556606283
 20
-128.7811143341242
 10
100.5423556606283
 20
-128.7811143341242
 10
100.5423556606283
 20
-128.7811143341242
 10
99.69589569990242
 20
-128.6522677629758
 10
99.69589569990242
 20
-128.6522677629758
 10
99.69589569990242
 20
-128.6522677629758
 10
99.69589569990242
 20
-127.820277203288
 10
99.69589569990242
 20
-127.820277203288
 10
99.69589569990242
 20
-127.820277203288
 10
99.89054359481904
 20
-127.820277203288
 10
99.89054359481904
 20
-127.820277203288
 10
99.89054359481904
 20
-127.820277203288
 10
99.89054359481904
 20
-128.4779459314222
 10
99.89054359481904
 20
-128.4779459314222
 10
99.89054359481904
 20
-128.4779459314222
 10
100.3136013204077
 20
-128.5482258793213
 10
100.3136013204077
 20
-128.5482258793213
 10
100.2798393846523
 20
-128.4827690651015
 10
100.2395317674748
 20
-128.3945746206792
 10
100.2395317674748
 20
-128.2677951068219
 10
100.2395317674748
 20
-127.9966660921328
 10
100.4259114332269
 20
-127.7434515739669
 10
100.7390706128361
 20
-127.7434515739669
 10
101.0563639070276
 20
-127.7434515739669
 10
101.2909749095731
 20
-127.9828857101918
 10
101.2909749095731
 20
-128.3063801762567
 97
        0
 97
        0
 75
     2
 76
     1
 98
        0
  0
ENDBLK
  5
81
330
7E
100
AcDbEntity
  8
0
100
AcDbBlockEnd
  0
BLOCK
  5
92
330
90
100
AcDbEntity
  8
0
100
AcDbBlockBegin
  2
block 3
 70
     0
 10
0.0
 20
0.0
 30
0.0
  3
block 3
  1

  0
SPLINE
  5
94
330
90
100
AcDbEntity
  8
_U+30EC_U+30A4_U+30E4_U+30FC 1
370
     0
100
AcDbSpline
210
0.0
220
0.0
230
1.0
 70
    11
 71
     3
 72
    26
 73
    22
 74
     0
 42
0.0000000001
 43
0.0000000001
 12
1.0
 22
0.0
 32
0.0
 13
1.0
 23
0.0
 33
0.0
 40
0.0
 40
0.0
 40
0.0
 40
0.0
 40
1.0
 40
1.0
 40
1.0
 40
2.0
 40
2.0
 40
2.0
 40
3.0
 40
3.0
 40
3.0
 40
4.0
 40
4.0
 40
4.0
 40
5.0
 40
5.0
 40
5.0
 40
6.0
 40
6.0
 40
6.0
 40
7.0
 40
7.0
 40
7.0
 40
7.0
 10
84.20485159570227
 20
-137.8110541105125
 30
0.0
 10
84.20485159570227
 20
-137.8110541105125
 30
0.0
 10
84.20485159570227
 20
-136.70690100749
 30
0.0
 10
84.20485159570227
 20
-136.70690100749
 30
0.0
 10
84.20485159570227
 20
-136.70690100749
 30
0.0
 10
83.85207381801268
 20
-136.70690100749
 30
0.0
 10
83.85207381801268
 20
-136.70690100749
 30
0.0
 10
83.85207381801268
 20
-136.70690100749
 30
0.0
 10
83.85207381801268
 20
-136.5587619016242
 30
0.0
 10
83.85207381801268
 20
-136.5587619016242
 30
0.0
 10
84.20709090776768
 20
-136.5439479910376
 30
0.0
 10
84.25687253752953
 20
-136.3809949745853
 30
0.0
 10
84.28839516121957
 20
-136.266617804475
 30
0.0
 10
84.28839516121957
 20
-136.266617804475
 30
0.0
 10
84.4444579867014
 20
-136.266617804475
 30
0.0
 10
84.4444579867014
 20
-136.266617804475
 30
0.0
 10
84.4444579867014
 20
-136.266617804475
 30
0.0
 10
84.4444579867014
 20
-137.8110541105125
 30
0.0
 10
84.4444579867014
 20
-137.8110541105125
 30
0.0
 10
84.4444579867014
 20
-137.8110541105125
 30
0.0
 10
84.20485159570227
 20
-137.8110541105125
 30
0.0
 10
84.20485159570227
 20
-137.8110541105125
 30
0.0
  0
HATCH
  5
95
330
90
100
AcDbEntity
  8
_U+30EC_U+30A4_U+30E4_U+30FC 1
 62
   179
420
  2234388
100
AcDbHatch
 10
0.0
 20
0.0
 30
0.0
210
0.0
220
0.0
230
1.0
  2
SOLID
 70
     1
 71
     0
 91
        1
 92
        1
 93
        1
 72
     4
 94
        3
 73
     0
 74
     1
 95
       26
 96
       22
 40
0.0
 40
0.0
 40
0.0
 40
0.0
 40
1.0
 40
1.0
 40
1.0
 40
2.0
 40
2.0
 40
2.0
 40
3.0
 40
3.0
 40
3.0
 40
4.0
 40
4.0
 40
4.0
 40
5.0
 40
5.0
 40
5.0
 40
6.0
 40
6.0
 40
6.0
 40
7.0
 40
7.0
 40
7.0
 40
7.0
 10
84.20485159570227
 20
-137.8110541105125
 10
84.20485159570227
 20
-137.8110541105125
 10
84.20485159570227
 20
-136.70690100749
 10
84.20485159570227
 20
-136.70690100749
 10
84.20485159570227
 20
-136.70690100749
 10
83.85207381801268
 20
-136.70690100749
 10
83.85207381801268
 20
-136.70690100749
 10
83.85207381801268
 20
-136.70690100749
 10
83.85207381801268
 20
-136.5587619016242
 10
83.85207381801268
 20
-136.5587619016242
 10
84.20709090776768
 20
-136.5439479910376
 10
84.25687253752953
 20
-136.3809949745853
 10
84.28839516121957
 20
-136.266617804475
 10
84.28839516121957
 20
-136.266617804475
 10
84.4444579867014
 20
-136.266617804475
 10
84.4444579867014
 20
-136.266617804475
 10
84.4444579867014
 20
-136.266617804475
 10
84.4444579867014
 20
-137.8110541105125
 10
84.4444579867014
 20
-137.8110541105125
 10
84.4444579867014
 20
-137.8110541105125
 10
84.20485159570227
 20
-137.8110541105125
 10
84.20485159570227
 20
-137.8110541105125
 97
        0
 97
        0
 75
     2
 76
     1
 98
        0
  0
SPLINE
  5
96
330
90
100
AcDbEntity
  8
_U+30EC_U+30A4_U+30E4_U+30FC 1
370
     0
100
AcDbSpline
210
0.0
220
0.0
230
1.0
 70
    11
 71
     3
 72
    53
 73
    49
 74
     0
 42
0.0000000001
 43
0.0000000001
 12
1.0
 22
0.0
 32
0.0
 13
1.0
 23
0.0
 33
0.0
 40
0.0
 40
0.0
 40
0.0
 40
0.0
 40
1.0
 40
1.0
 40
1.0
 40
2.0
 40
2.0
 40
2.0
 40
3.0
 40
3.0
 40
3.0
 40
4.0
 40
4.0
 40
4.0
 40
5.0
 40
5.0
 40
5.0
 40
6.0
 40
6.0
 40
6.0
 40
7.0
 40
7.0
 40
7.0
 40
8.0
 40
8.0
 40
8.0
 40
9.0
 40
9.0
 40
9.0
 40
10.0
 40
10.0
 40
10.0
 40
11.0
 40
11.0
 40
11.0
 40
12.0
 40
12.0
 40
12.0
 40
13.0
 40
13.0
 40
13.0
 40
14.0
 40
14.0
 40
14.0
 40
15.0
 40
15.0
 40
15.0
 40
16.0
 40
16.0
 40
16.0
 40
16.0
 10
85.49435083583128
 20
-137.8616970141457
 30
0.0
 10
85.41063501553971
 20
-137.8616970141457
 30
0.0
 10
85.30211450775434
 20
-137.844816046268
 30
0.0
 10
85.19359399996897
 20
-137.7814262893394
 30
0.0
 10
85.00824786286252
 20
-137.6715277433599
 30
0.0
 10
84.98568248743413
 20
-137.5402696053719
 30
0.0
 10
84.9651841692969
 20
-137.4324381166836
 30
0.0
 10
84.9651841692969
 20
-137.4324381166836
 30
0.0
 10
85.20272350300488
 20
-137.4324381166836
 30
0.0
 10
85.20272350300488
 20
-137.4324381166836
 30
0.0
 10
85.2614623810284
 20
-137.6312201261825
 30
0.0
 10
85.39702688837296
 20
-137.6608479473556
 30
0.0
 10
85.49659014789668
 20
-137.6608479473556
 30
0.0
 10
85.64576278240801
 20
-137.6608479473556
 30
0.0
 10
85.80854354408606
 20
-137.5612846878319
 30
0.0
 10
85.80854354408606
 20
-137.3287407425775
 30
0.0
 10
85.80854354408606
 20
-137.0727701480235
 30
0.0
 10
85.61630721600912
 20
-137.0028347096729
 30
0.0
 10
85.48746064486078
 20
-137.0028347096729
 30
0.0
 10
85.45352645433107
 20
-137.0028347096729
 30
0.0
 10
85.30211450775434
 20
-137.0028347096729
 30
0.0
 10
85.2072021271357
 20
-137.1320257903698
 30
0.0
 10
85.2072021271357
 20
-137.1320257903698
 30
0.0
 10
85.01944442318958
 20
-137.1130777652009
 30
0.0
 10
85.01944442318958
 20
-137.1130777652009
 30
0.0
 10
85.01944442318958
 20
-137.1130777652009
 30
0.0
 10
85.14829099433793
 20
-136.266617804475
 30
0.0
 10
85.14829099433793
 20
-136.266617804475
 30
0.0
 10
85.14829099433793
 20
-136.266617804475
 30
0.0
 10
85.98028155402577
 20
-136.266617804475
 30
0.0
 10
85.98028155402577
 20
-136.266617804475
 30
0.0
 10
85.98028155402577
 20
-136.266617804475
 30
0.0
 10
85.98028155402577
 20
-136.4612656993916
 30
0.0
 10
85.98028155402577
 20
-136.4612656993916
 30
0.0
 10
85.98028155402577
 20
-136.4612656993916
 30
0.0
 10
85.32244057111731
 20
-136.4612656993916
 30
0.0
 10
85.32244057111731
 20
-136.4612656993916
 30
0.0
 10
85.32244057111731
 20
-136.4612656993916
 30
0.0
 10
85.25233287799247
 20
-136.8843234249803
 30
0.0
 10
85.25233287799247
 20
-136.8843234249803
 30
0.0
 10
85.31796194698649
 20
-136.8505614892249
 30
0.0
 10
85.40615639140889
 20
-136.8102538720474
 30
0.0
 10
85.53276365049182
 20
-136.8102538720474
 30
0.0
 10
85.80406491995524
 20
-136.8102538720474
 30
0.0
 10
86.0572794381211
 20
-136.9966335377995
 30
0.0
 10
86.0572794381211
 20
-137.3097927174087
 30
0.0
 10
86.0572794381211
 20
-137.6270860116002
 30
0.0
 10
85.81767304712197
 20
-137.8616970141457
 30
0.0
 10
85.49435083583128
 20
-137.8616970141457
 30
0.0
  0
HATCH
  5
97
330
90
100
AcDbEntity
  8
_U+30EC_U+30A4_U+30E4_U+30FC 1
 62
   179
420
  2234388
100
AcDbHatch
 10
0.0
 20
0.0
 30
0.0
210
0.0
220
0.0
230
1.0
  2
SOLID
 70
     1
 71
     0
 91
        1
 92
        1
 93
        1
 72
     4
 94
        3
 73
     0
 74
     1
 95
       53
 96
       49
 40
0.0
 40
0.0
 40
0.0
 40
0.0
 40
1.0
 40
1.0
 40
1.0
 40
2.0
 40
2.0
 40
2.0
 40
3.0
 40
3.0
 40
3.0
 40
4.0
 40
4.0
 40
4.0
 40
5.0
 40
5.0
 40
5.0
 40
6.0
 40
6.0
 40
6.0
 40
7.0
 40
7.0
 40
7.0
 40
8.0
 40
8.0
 40
8.0
 40
9.0
 40
9.0
 40
9.0
 40
10.0
 40
10.0
 40
10.0
 40
11.0
 40
11.0
 40
11.0
 40
12.0
 40
12.0
 40
12.0
 40
13.0
 40
13.0
 40
13.0
 40
14.0
 40
14.0
 40
14.0
 40
15.0
 40
15.0
 40
15.0
 40
16.0
 40
16.0
 40
16.0
 40
16.0
 10
85.49435083583128
 20
-137.8616970141457
 10
85.41063501553971
 20
-137.8616970141457
 10
85.30211450775434
 20
-137.844816046268
 10
85.19359399996897
 20
-137.7814262893394
 10
85.00824786286252
 20
-137.6715277433599
 10
84.98568248743413
 20
-137.5402696053719
 10
84.9651841692969
 20
-137.4324381166836
 10
84.9651841692969
 20
-137.4324381166836
 10
85.20272350300488
 20
-137.4324381166836
 10
85.20272350300488
 20
-137.4324381166836
 10
85.2614623810284
 20
-137.6312201261825
 10
85.39702688837296
 20
-137.6608479473556
 10
85.49659014789668
 20
-137.6608479473556
 10
85.64576278240801
 20
-137.6608479473556
 10
85.80854354408606
 20
-137.5612846878319
 10
85.80854354408606
 20
-137.3287407425775
 10
85.80854354408606
 20
-137.0727701480235
 10
85.61630721600912
 20
-137.0028347096729
 10
85.48746064486078
 20
-137.0028347096729
 10
85.45352645433107
 20
-137.0028347096729
 10
85.30211450775434
 20
-137.0028347096729
 10
85.2072021271357
 20
-137.1320257903698
 10
85.2072021271357
 20
-137.1320257903698
 10
85.01944442318958
 20
-137.1130777652009
 10
85.01944442318958
 20
-137.1130777652009
 10
85.01944442318958
 20
-137.1130777652009
 10
85.14829099433793
 20
-136.266617804475
 10
85.14829099433793
 20
-136.266617804475
 10
85.14829099433793
 20
-136.266617804475
 10
85.98028155402577
 20
-136.266617804475
 10
85.98028155402577
 20
-136.266617804475
 10
85.98028155402577
 20
-136.266617804475
 10
85.98028155402577
 20
-136.4612656993916
 10
85.98028155402577
 20
-136.4612656993916
 10
85.98028155402577
 20
-136.4612656993916
 10
85.32244057111731
 20
-136.4612656993916
 10
85.32244057111731
 20
-136.4612656993916
 10
85.32244057111731
 20
-136.4612656993916
 10
85.25233287799247
 20
-136.8843234249803
 10
85.25233287799247
 20
-136.8843234249803
 10
85.31796194698649
 20
-136.8505614892249
 10
85.40615639140889
 20
-136.8102538720474
 10
85.53276365049182
 20
-136.8102538720474
 10
85.80406491995524
 20
-136.8102538720474
 10
86.0572794381211
 20
-136.9966335377995
 10
86.0572794381211
 20
-137.3097927174087
 10
86.0572794381211
 20
-137.6270860116002
 10
85.81767304712197
 20
-137.8616970141457
 10
85.49435083583128
 20
-137.8616970141457
 97
        0
 97
        0
 75
     2
 76
     1
 98
        0
  0
ENDBLK
  5
93
330
90
100
AcDbEntity
  8
0
100
AcDbBlockEnd
  0
BLOCK
  5
9A
330
98
100
AcDbEntity
  8
0
100
AcDbBlockBegin
  2
block 4
 70
     0
 10
0.0
 20
0.0
 30
0.0
  3
block 4
  1

  0
SPLINE
  5
9C
330
98
100
AcDbEntity
  8
_U+30EC_U+30A4_U+30E4_U+30FC 1
370
     0
100
AcDbSpline
210
0.0
220
0.0
230
1.0
 70
    11
 71
     3
 72
    44
 73
    40
 74
     0
 42
0.0000000001
 43
0.0000000001
 12
1.0
 22
0.0
 32
0.0
 13
1.0
 23
0.0
 33
0.0
 40
0.0
 40
0.0
 40
0.0
 40
0.0
 40
1.0
 40
1.0
 40
1.0
 40
2.0
 40
2.0
 40
2.0
 40
3.0
 40
3.0
 40
3.0
 40
4.0
 40
4.0
 40
4.0
 40
5.0
 40
5.0
 40
5.0
 40
6.0
 40
6.0
 40
6.0
 40
7.0
 40
7.0
 40
7.0
 40
8.0
 40
8.0
 40
8.0
 40
9.0
 40
9.0
 40
9.0
 40
10.0
 40
10.0
 40
10.0
 40
11.0
 40
11.0
 40
11.0
 40
12.0
 40
12.0
 40
12.0
 40
13.0
 40
13.0
 40
13.0
 40
13.0
 10
87.35625269083455
 20
-119.7292982014045
 30
0.0
 10
87.12336423603166
 20
-119.8879448485002
 30
0.0
 10
87.02380097650794
 20
-119.9620144014331
 30
0.0
 10
86.97178003468068
 20
-120.1058471379423
 30
0.0
 10
86.97178003468068
 20
-120.1058471379423
 30
0.0
 10
87.80411510391703
 20
-120.1058471379423
 30
0.0
 10
87.80411510391703
 20
-120.1058471379423
 30
0.0
 10
87.80411510391703
 20
-120.1058471379423
 30
0.0
 10
87.80411510391703
 20
-120.3110025740889
 30
0.0
 10
87.80411510391703
 20
-120.3110025740889
 30
0.0
 10
87.80411510391703
 20
-120.3110025740889
 30
0.0
 10
86.70512964412234
 20
-120.3110025740889
 30
0.0
 10
86.70512964412234
 20
-120.3110025740889
 30
0.0
 10
86.73906383465204
 20
-119.95340166272
 30
0.0
 10
86.80917152777688
 20
-119.8751979952048
 30
0.0
 10
87.22051592871571
 20
-119.5768527261822
 30
0.0
 10
87.49405651024455
 20
-119.3780707166833
 30
0.0
 10
87.56433645814364
 20
-119.3103745903981
 30
0.0
 10
87.56433645814364
 20
-119.1729152805366
 30
0.0
 10
87.56433645814364
 20
-119.054403995844
 30
0.0
 10
87.48751082882256
 20
-118.9233181126303
 30
0.0
 10
87.2770154946738
 20
-118.9233181126303
 30
0.0
 10
86.99899628901414
 20
-118.9233181126303
 30
0.0
 10
86.99003904075249
 20
-119.1537950005935
 30
0.0
 10
86.98556041662167
 20
-119.2702392279949
 30
0.0
 10
86.98556041662167
 20
-119.2702392279949
 30
0.0
 10
86.74578177084828
 20
-119.2702392279949
 30
0.0
 10
86.74578177084828
 20
-119.2702392279949
 30
0.0
 10
86.75491127388419
 20
-119.1432874593635
 30
0.0
 10
86.76610783421125
 20
-119.0311496013186
 30
0.0
 10
86.8522352213425
 20
-118.912638316626
 30
0.0
 10
86.96971297738952
 20
-118.7519246122391
 30
0.0
 10
87.16849498688843
 20
-118.7179904217094
 30
0.0
 10
87.29286293390595
 20
-118.7179904217094
 30
0.0
 10
87.58914114563744
 20
-118.7179904217094
 30
0.0
 10
87.81066078533901
 20
-118.902130775396
 30
0.0
 10
87.81066078533901
 20
-119.1749823378278
 30
0.0
 10
87.81066078533901
 20
-119.4033921684998
 30
0.0
 10
87.68629283832149
 20
-119.5029554280236
 30
0.0
 10
87.35625269083455
 20
-119.7292982014045
 30
0.0
  0
HATCH
  5
9D
330
98
100
AcDbEntity
  8
_U+30EC_U+30A4_U+30E4_U+30FC 1
 62
   179
420
  2234388
100
AcDbHatch
 10
0.0
 20
0.0
 30
0.0
210
0.0
220
0.0
230
1.0
  2
SOLID
 70
     1
 71
     0
 91
        1
 92
        1
 93
        1
 72
     4
 94
        3
 73
     0
 74
     1
 95
       44
 96
       40
 40
0.0
 40
0.0
 40
0.0
 40
0.0
 40
1.0
 40
1.0
 40
1.0
 40
2.0
 40
2.0
 40
2.0
 40
3.0
 40
3.0
 40
3.0
 40
4.0
 40
4.0
 40
4.0
 40
5.0
 40
5.0
 40
5.0
 40
6.0
 40
6.0
 40
6.0
 40
7.0
 40
7.0
 40
7.0
 40
8.0
 40
8.0
 40
8.0
 40
9.0
 40
9.0
 40
9.0
 40
10.0
 40
10.0
 40
10.0
 40
11.0
 40
11.0
 40
11.0
 40
12.0
 40
12.0
 40
12.0
 40
13.0
 40
13.0
 40
13.0
 40
13.0
 10
87.35625269083455
 20
-119.7292982014045
 10
87.12336423603166
 20
-119.8879448485002
 10
87.02380097650794
 20
-119.9620144014331
 10
86.97178003468068
 20
-120.1058471379423
 10
86.97178003468068
 20
-120.1058471379423
 10
87.80411510391703
 20
-120.1058471379423
 10
87.80411510391703
 20
-120.1058471379423
 10
87.80411510391703
 20
-120.1058471379423
 10
87.80411510391703
 20
-120.3110025740889
 10
87.80411510391703
 20
-120.3110025740889
 10
87.80411510391703
 20
-120.3110025740889
 10
86.70512964412234
 20
-120.3110025740889
 10
86.70512964412234
 20
-120.3110025740889
 10
86.73906383465204
 20
-119.95340166272
 10
86.80917152777688
 20
-119.8751979952048
 10
87.22051592871571
 20
-119.5768527261822
 10
87.49405651024455
 20
-119.3780707166833
 10
87.56433645814364
 20
-119.3103745903981
 10
87.56433645814364
 20
-119.1729152805366
 10
87.56433645814364
 20
-119.054403995844
 10
87.48751082882256
 20
-118.9233181126303
 10
87.2770154946738
 20
-118.9233181126303
 10
86.99899628901414
 20
-118.9233181126303
 10
86.99003904075249
 20
-119.1537950005935
 10
86.98556041662167
 20
-119.2702392279949
 10
86.98556041662167
 20
-119.2702392279949
 10
86.74578177084828
 20
-119.2702392279949
 10
86.74578177084828
 20
-119.2702392279949
 10
86.75491127388419
 20
-119.1432874593635
 10
86.76610783421125
 20
-119.0311496013186
 10
86.8522352213425
 20
-118.912638316626
 10
86.96971297738952
 20
-118.7519246122391
 10
87.16849498688843
 20
-118.7179904217094
 10
87.29286293390595
 20
-118.7179904217094
 10
87.58914114563744
 20
-118.7179904217094
 10
87.81066078533901
 20
-118.902130775396
 10
87.81066078533901
 20
-119.1749823378278
 10
87.81066078533901
 20
-119.4033921684998
 10
87.68629283832149
 20
-119.5029554280236
 10
87.35625269083455
 20
-119.7292982014045
 97
        0
 97
        0
 75
     2
 76
     1
 98
        0
  0
SPLINE
  5
9E
330
98
100
AcDbEntity
  8
_U+30EC_U+30A4_U+30E4_U+30FC 1
370
     0
100
AcDbSpline
210
0.0
220
0.0
230
1.0
 70
    11
 71
     3
 72
    29
 73
    25
 74
     0
 42
0.0000000001
 43
0.0000000001
 12
1.0
 22
0.0
 32
0.0
 13
1.0
 23
0.0
 33
0.0
 40
0.0
 40
0.0
 40
0.0
 40
0.0
 40
1.0
 40
1.0
 40
1.0
 40
2.0
 40
2.0
 40
2.0
 40
3.0
 40
3.0
 40
3.0
 40
4.0
 40
4.0
 40
4.0
 40
5.0
 40
5.0
 40
5.0
 40
6.0
 40
6.0
 40
6.0
 40
7.0
 40
7.0
 40
7.0
 40
8.0
 40
8.0
 40
8.0
 40
8.0
 10
88.93961857585538
 20
-120.13323564705
 30
0.0
 10
88.82420787709951
 20
-120.3426974525532
 30
0.0
 10
88.63886173999306
 20
-120.3618177324964
 30
0.0
 10
88.51449379297554
 20
-120.3618177324964
 30
0.0
 10
88.34292803781011
 20
-120.3618177324964
 30
0.0
 10
88.19134383645911
 20
-120.3153089434455
 30
0.0
 10
88.08971351964425
 20
-120.13323564705
 30
0.0
 10
87.9787814450192
 20
-119.9385877521334
 30
0.0
 10
87.95845538165622
 20
-119.7017374375225
 30
0.0
 10
87.95845538165622
 20
-119.5387844210702
 30
0.0
 10
87.95845538165622
 20
-119.394951684561
 30
0.0
 10
87.97636987817953
 20
-119.1432874593635
 30
0.0
 10
88.08971351964425
 20
-118.9443331950903
 30
0.0
 10
88.20477970885159
 20
-118.7412448162348
 30
0.0
 10
88.37668997356555
 20
-118.7179904217094
 30
0.0
 10
88.51449379297554
 20
-118.7179904217094
 30
0.0
 10
88.68433700039836
 20
-118.7179904217094
 30
0.0
 10
88.8379882590405
 20
-118.7624321534691
 30
0.0
 10
88.93961857585538
 20
-118.9443331950903
 30
0.0
 10
89.04607202634959
 20
-119.1369140327158
 30
0.0
 10
89.07087671384339
 20
-119.3653238633878
 30
0.0
 10
89.07087671384339
 20
-119.5387844210702
 30
0.0
 10
89.07087671384339
 20
-119.7101779214614
 30
0.0
 10
89.04813908364075
 20
-119.9408270641988
 30
0.0
 10
88.93961857585538
 20
-120.13323564705
 30
0.0
  0
SPLINE
  5
9F
330
98
100
AcDbEntity
  8
_U+30EC_U+30A4_U+30E4_U+30FC 1
370
     0
100
AcDbSpline
210
0.0
220
0.0
230
1.0
 70
    11
 71
     3
 72
    17
 73
    13
 74
     0
 42
0.0000000001
 43
0.0000000001
 12
1.0
 22
0.0
 32
0.0
 13
1.0
 23
0.0
 33
0.0
 40
0.0
 40
0.0
 40
0.0
 40
0.0
 40
1.0
 40
1.0
 40
1.0
 40
2.0
 40
2.0
 40
2.0
 40
3.0
 40
3.0
 40
3.0
 40
4.0
 40
4.0
 40
4.0
 40
4.0
 10
88.51449379297554
 20
-118.9105712593349
 30
0.0
 10
88.2478434024172
 20
-118.9105712593349
 30
0.0
 10
88.1982340274296
 20
-119.1941026177709
 30
0.0
 10
88.1982340274296
 20
-119.5387844210702
 30
0.0
 10
88.1982340274296
 20
-119.8583170273271
 30
0.0
 10
88.23647458731588
 20
-120.1671698375797
 30
0.0
 10
88.51449379297554
 20
-120.1671698375797
 30
0.0
 10
88.77907712624274
 20
-120.1671698375797
 30
0.0
 10
88.83109806807
 20
-119.8857055364348
 30
0.0
 10
88.83109806807
 20
-119.5387844210702
 30
0.0
 10
88.83109806807
 20
-119.2194240695875
 30
0.0
 10
88.79044594134406
 20
-118.9105712593349
 30
0.0
 10
88.51449379297554
 20
-118.9105712593349
 30
0.0
  0
HATCH
  5
A0
330
98
100
AcDbEntity
  8
_U+30EC_U+30A4_U+30E4_U+30FC 1
 62
   179
420
  2234388
100
AcDbHatch
 10
0.0
 20
0.0
 30
0.0
210
0.0
220
0.0
230
1.0
  2
SOLID
 70
     1
 71
     0
 91
        2
 92
        1
 93
        1
 72
     4
 94
        3
 73
     0
 74
     1
 95
       29
 96
       25
 40
0.0
 40
0.0
 40
0.0
 40
0.0
 40
1.0
 40
1.0
 40
1.0
 40
2.0
 40
2.0
 40
2.0
 40
3.0
 40
3.0
 40
3.0
 40
4.0
 40
4.0
 40
4.0
 40
5.0
 40
5.0
 40
5.0
 40
6.0
 40
6.0
 40
6.0
 40
7.0
 40
7.0
 40
7.0
 40
8.0
 40
8.0
 40
8.0
 40
8.0
 10
88.93961857585538
 20
-120.13323564705
 10
88.82420787709951
 20
-120.3426974525532
 10
88.63886173999306
 20
-120.3618177324964
 10
88.51449379297554
 20
-120.3618177324964
 10
88.34292803781011
 20
-120.3618177324964
 10
88.19134383645911
 20
-120.3153089434455
 10
88.08971351964425
 20
-120.13323564705
 10
87.9787814450192
 20
-119.9385877521334
 10
87.95845538165622
 20
-119.7017374375225
 10
87.95845538165622
 20
-119.5387844210702
 10
87.95845538165622
 20
-119.394951684561
 10
87.97636987817953
 20
-119.1432874593635
 10
88.08971351964425
 20
-118.9443331950903
 10
88.20477970885159
 20
-118.7412448162348
 10
88.37668997356555
 20
-118.7179904217094
 10
88.51449379297554
 20
-118.7179904217094
 10
88.68433700039836
 20
-118.7179904217094
 10
88.8379882590405
 20
-118.7624321534691
 10
88.93961857585538
 20
-118.9443331950903
 10
89.04607202634959
 20
-119.1369140327158
 10
89.07087671384339
 20
-119.3653238633878
 10
89.07087671384339
 20
-119.5387844210702
 10
89.07087671384339
 20
-119.7101779214614
 10
89.04813908364075
 20
-119.9408270641988
 10
88.93961857585538
 20
-120.13323564705
 97
        0
 97
        0
 92
        1
 93
        1
 72
     4
 94
        3
 73
     0
 74
     1
 95
       17
 96
       13
 40
0.0
 40
0.0
 40
0.0
 40
0.0
 40
1.0
 40
1.0
 40
1.0
 40
2.0
 40
2.0
 40
2.0
 40
3.0
 40
3.0
 40
3.0
 40
4.0
 40
4.0
 40
4.0
 40
4.0
 10
88.51449379297554
 20
-118.9105712593349
 10
88.2478434024172
 20
-118.9105712593349
 10
88.1982340274296
 20
-119.1941026177709
 10
88.1982340274296
 20
-119.5387844210702
 10
88.1982340274296
 20
-119.8583170273271
 10
88.23647458731588
 20
-120.1671698375797
 10
88.51449379297554
 20
-120.1671698375797
 10
88.77907712624274
 20
-120.1671698375797
 10
88.83109806807
 20
-119.8857055364348
 10
88.83109806807
 20
-119.5387844210702
 10
88.83109806807
 20
-119.2194240695875
 10
88.79044594134406
 20
-118.9105712593349
 10
88.51449379297554
 20
-118.9105712593349
 97
        0
 97
        0
 75
     2
 76
     1
 98
        0
  0
ENDBLK
  5
9B
330
98
100
AcDbEntity
  8
0
100
AcDbBlockEnd
  0
ENDSEC
  0
SECTION
  2
ENTITIES
  0
POLYLINE
  5
41
330
1F
100
AcDbEntity
  8
_U+30EC_U+30A4_U+30E4_U+30FC 1
 62
   179
420
  2234388
370
    30
100
AcDb2dPolyline
 66
     1
 10
0.0
 20
0.0
 30
0.0
  0
VERTEX
  5
42
330
41
100
AcDbEntity
  8
_U+30EC_U+30A4_U+30E4_U+30FC 1
 62
   179
420
  2234388
370
    30
100
AcDbVertex
100
AcDb2dVertex
 10
77.88602884629519
 20
-125.9563069129555
 30
0.0
  0
VERTEX
  5
43
330
41
100
AcDbEntity
  8
_U+30EC_U+30A4_U+30E4_U+30FC 1
 62
   179
420
  2234388
370
    30
100
AcDbVertex
100
AcDb2dVertex
 10
77.88602884629519
 20
-133.4561155221919
 30
0.0
  0
SEQEND
  5
44
330
41
100
AcDbEntity
  8
_U+30EC_U+30A4_U+30E4_U+30FC 1
 62
   179
420
  2234388
370
    30
  0
POLYLINE
  5
45
330
1F
100
AcDbEntity
  8
_U+30EC_U+30A4_U+30E4_U+30FC 1
 62
   179
420
  2234388
370
    30
100
AcDb2dPolyline
 66
     1
 10
0.0
 20
0.0
 30
0.0
  0
VERTEX
  5
46
330
45
100
AcDbEntity
  8
_U+30EC_U+30A4_U+30E4_U+30FC 1
 62
   179
420
  2234388
370
    30
100
AcDbVertex
100
AcDb2dVertex
 10
78.88615382077988
 20
-134.4565580219411
 30
0.0
  0
VERTEX
  5
47
330
45
100
AcDbEntity
  8
_U+30EC_U+30A4_U+30E4_U+30FC 1
 62
   179
420
  2234388
370
    30
100
AcDbVertex
100
AcDb2dVertex
 10
92.38607708747925
 20
-134.4565580219411
 30
0.0
  0
SEQEND
  5
48
330
45
100
AcDbEntity
  8
_U+30EC_U+30A4_U+30E4_U+30FC 1
 62
   179
420
  2234388
370
    30
  0
POLYLINE
  5
49
330
1F
100
AcDbEntity
  8
_U+30EC_U+30A4_U+30E4_U+30FC 1
 62
   179
420
  2234388
370
    30
100
AcDb2dPolyline
 66
     1
 10
0.0
 20
0.0
 30
0.0
  0
VERTEX
  5
4A
330
49
100
AcDbEntity
  8
_U+30EC_U+30A4_U+30E4_U+30FC 1
 62
   179
420
  2234388
370
    30
100
AcDbVertex
100
AcDb2dVertex
 10
78.88615382077988
 20
-124.9563583020944
 30
0.0
  0
VERTEX
  5
4B
330
49
100
AcDbEntity
  8
_U+30EC_U+30A4_U+30E4_U+30FC 1
 62
   179
420
  2234388
370
    30
100
AcDbVertex
100
AcDb2dVertex
 10
97.88620000271499
 20
-124.9563583020944
 30
0.0
  0
SEQEND
  5
4C
330
49
100
AcDbEntity
  8
_U+30EC_U+30A4_U+30E4_U+30FC 1
 62
   179
420
  2234388
370
    30
  0
POLYLINE
  5
4D
330
1F
100
AcDbEntity
  8
_U+30EC_U+30A4_U+30E4_U+30FC 1
 62
   179
420
  2234388
370
    30
100
AcDb2dPolyline
 66
     1
 10
0.0
 20
0.0
 30
0.0
  0
VERTEX
  5
4E
330
4D
100
AcDbEntity
  8
_U+30EC_U+30A4_U+30E4_U+30FC 1
 62
   179
420
  2234388
370
    30
100
AcDbVertex
100
AcDb2dVertex
 10
87.60738470939386
 20
-133.4561155221919
 30
0.0
  0
VERTEX
  5
4F
330
4D
100
AcDbEntity
  8
_U+30EC_U+30A4_U+30E4_U+30FC 1
 62
   179
420
  2234388
370
    30
100
AcDbVertex
100
AcDb2dVertex
 10
92.1073826501449
 20
-133.4561155221919
 30
0.0
  0
SEQEND
  5
50
330
4D
100
AcDbEntity
  8
_U+30EC_U+30A4_U+30E4_U+30FC 1
 62
   179
420
  2234388
370
    30
  0
SPLINE
  5
51
330
1F
100
AcDbEntity
  8
_U+30EC_U+30A4_U+30E4_U+30FC 1
 62
   179
420
  2234388
370
    30
100
AcDbSpline
210
0.0
220
0.0
230
1.0
 70
     8
 71
     3
 72
    11
 73
     7
 74
     0
 42
0.0000000001
 43
0.0000000001
 12
1.0
 22
0.0
 32
0.0
 13
1.0
 23
0.0
 33
0.0
 40
0.0
 40
0.0
 40
0.0
 40
0.0
 40
1.0
 40
1.0
 40
1.0
 40
2.0
 40
2.0
 40
2.0
 40
2.0
 10
92.1073826501449
 20
-134.4565580219411
 30
0.0
 10
92.38368053245964
 20
-134.4565580219411
 30
0.0
 10
92.60762152627163
 20
-134.232649966442
 30
0.0
 10
92.60762152627163
 20
-133.9563544109556
 30
0.0
 10
92.60762152627163
 20
-133.680023577691
 30
0.0
 10
92.38368053245964
 20
-133.4561155221919
 30
0.0
 10
92.1073826501449
 20
-133.4561155221919
 30
0.0
  0
SPLINE
  5
52
330
1F
100
AcDbEntity
  8
_U+30EC_U+30A4_U+30E4_U+30FC 1
 62
   179
420
  2234388
370
    30
100
AcDbSpline
210
0.0
220
0.0
230
1.0
 70
     8
 71
     3
 72
     8
 73
     4
 74
     0
 42
0.0000000001
 43
0.0000000001
 12
1.0
 22
0.0
 32
0.0
 13
1.0
 23
0.0
 33
0.0
 40
0.0
 40
0.0
 40
0.0
 40
0.0
 40
1.0
 40
1.0
 40
1.0
 40
1.0
 10
77.88602884629519
 20
-133.4561155221919
 30
0.0
 10
77.88602884629519
 20
-134.0087066331647
 30
0.0
 10
78.33388022375844
 20
-134.4565580219411
 30
0.0
 10
78.88615382077988
 20
-134.4565580219411
 30
0.0
  0
SPLINE
  5
53
330
1F
100
AcDbEntity
  8
_U+30EC_U+30A4_U+30E4_U+30FC 1
 62
   179
420
  2234388
370
    30
100
AcDbSpline
210
0.0
220
0.0
230
1.0
 70
     8
 71
     3
 72
     8
 73
     4
 74
     0
 42
0.0000000001
 43
0.0000000001
 12
1.0
 22
0.0
 32
0.0
 13
1.0
 23
0.0
 33
0.0
 40
0.0
 40
0.0
 40
0.0
 40
0.0
 40
1.0
 40
1.0
 40
1.0
 40
1.0
 10
78.88615382077988
 20
-124.9563583020944
 30
0.0
 10
78.33388022375844
 20
-124.9563583020944
 30
0.0
 10
77.88602884629519
 20
-125.4040685797601
 30
0.0
 10
77.88602884629519
 20
-125.9563069129555
 30
0.0
  0
SPLINE
  5
54
330
1F
100
AcDbEntity
  8
_U+30EC_U+30A4_U+30E4_U+30FC 1
 62
   179
420
  2234388
370
     9
100
AcDbSpline
210
0.0
220
0.0
230
1.0
 70
    11
 71
     3
 72
    17
 73
    13
 74
     0
 42
0.0000000001
 43
0.0000000001
 12
1.0
 22
0.0
 32
0.0
 13
1.0
 23
0.0
 33
0.0
 40
0.0
 40
0.0
 40
0.0
 40
0.0
 40
1.0
 40
1.0
 40
1.0
 40
2.0
 40
2.0
 40
2.0
 40
3.0
 40
3.0
 40
3.0
 40
4.0
 40
4.0
 40
4.0
 40
4.0
 10
92.9562388656497
 20
-138.456317187608
 30
0.0
 10
92.9562388656497
 20
-138.4012132987331
 30
0.0
 10
92.91146901851984
 20
-138.3564105209664
 30
0.0
 10
92.8563298532599
 20
-138.3564105209664
 30
0.0
 10
92.80087318800804
 20
-138.3564105209664
 30
0.0
 10
92.75610568915015
 20
-138.4012132987331
 30
0.0
 10
92.75610568915015
 20
-138.456317187608
 30
0.0
 10
92.75610568915015
 20
-138.5114563542611
 30
0.0
 10
92.80087318800804
 20
-138.5562238542496
 30
0.0
 10
92.8563298532599
 20
-138.5562238542496
 30
0.0
 10
92.91146901851984
 20
-138.5562238542496
 30
0.0
 10
92.9562388656497
 20
-138.5114563542611
 30
0.0
 10
92.9562388656497
 20
-138.456317187608
 30
0.0
  0
SPLINE
  5
55
330
1F
100
AcDbEntity
  8
_U+30EC_U+30A4_U+30E4_U+30FC 1
 62
   179
420
  2234388
370
     9
100
AcDbSpline
210
0.0
220
0.0
230
1.0
 70
    11
 71
     3
 72
    17
 73
    13
 74
     0
 42
0.0000000001
 43
0.0000000001
 12
1.0
 22
0.0
 32
0.0
 13
1.0
 23
0.0
 33
0.0
 40
0.0
 40
0.0
 40
0.0
 40
0.0
 40
1.0
 40
1.0
 40
1.0
 40
2.0
 40
2.0
 40
2.0
 40
3.0
 40
3.0
 40
3.0
 40
4.0
 40
4.0
 40
4.0
 40
4.0
 10
77.9861138693924
 20
-138.456317187608
 30
0.0
 10
77.9861138693924
 20
-138.4012132987331
 30
0.0
 10
77.94131109162568
 20
-138.3564105209664
 30
0.0
 10
77.88602884629519
 20
-138.3564105209664
 30
0.0
 10
77.8308916472088
 20
-138.3564105209664
 30
0.0
 10
77.78612218217737
 20
-138.4012132987331
 30
0.0
 10
77.78612218217737
 20
-138.456317187608
 30
0.0
 10
77.78612218217737
 20
-138.5114563542611
 30
0.0
 10
77.8308916472088
 20
-138.5562238542496
 30
0.0
 10
77.88602884629519
 20
-138.5562238542496
 30
0.0
 10
77.94131109162568
 20
-138.5562238542496
 30
0.0
 10
77.9861138693924
 20
-138.5114563542611
 30
0.0
 10
77.9861138693924
 20
-138.456317187608
 30
0.0
  0
SPLINE
  5
56
330
1F
100
AcDbEntity
  8
_U+30EC_U+30A4_U+30E4_U+30FC 1
 62
   179
420
  2234388
370
     9
100
AcDbSpline
210
0.0
220
0.0
230
1.0
 70
    11
 71
     3
 72
    17
 73
    13
 74
     0
 42
0.0000000001
 43
0.0000000001
 12
1.0
 22
0.0
 32
0.0
 13
1.0
 23
0.0
 33
0.0
 40
0.0
 40
0.0
 40
0.0
 40
0.0
 40
1.0
 40
1.0
 40
1.0
 40
2.0
 40
2.0
 40
2.0
 40
3.0
 40
3.0
 40
3.0
 40
4.0
 40
4.0
 40
4.0
 40
4.0
 10
77.9861138693924
 20
-120.9564580253164
 30
0.0
 10
77.9861138693924
 20
-120.9011424697748
 30
0.0
 10
77.94131109162568
 20
-120.8563749697859
 30
0.0
 10
77.88602884629519
 20
-120.8563749697859
 30
0.0
 10
77.8308916472088
 20
-120.8563749697859
 30
0.0
 10
77.78612218217737
 20
-120.9011424697748
 30
0.0
 10
77.78612218217737
 20
-120.9564580253164
 30
0.0
 10
77.78612218217737
 20
-121.0115619141917
 30
0.0
 10
77.8308916472088
 20
-121.0563646919581
 30
0.0
 10
77.88602884629519
 20
-121.0563646919581
 30
0.0
 10
77.94131109162568
 20
-121.0563646919581
 30
0.0
 10
77.9861138693924
 20
-121.0115619141917
 30
0.0
 10
77.9861138693924
 20
-120.9564580253164
 30
0.0
  0
SPLINE
  5
57
330
1F
100
AcDbEntity
  8
_U+30EC_U+30A4_U+30E4_U+30FC 1
 62
   179
420
  2234388
370
     9
100
AcDbSpline
210
0.0
220
0.0
230
1.0
 70
    11
 71
     3
 72
    17
 73
    13
 74
     0
 42
0.0000000001
 43
0.0000000001
 12
1.0
 22
0.0
 32
0.0
 13
1.0
 23
0.0
 33
0.0
 40
0.0
 40
0.0
 40
0.0
 40
0.0
 40
1.0
 40
1.0
 40
1.0
 40
2.0
 40
2.0
 40
2.0
 40
3.0
 40
3.0
 40
3.0
 40
4.0
 40
4.0
 40
4.0
 40
4.0
 10
97.98610666683282
 20
-120.9564580253164
 30
0.0
 10
97.98610666683282
 20
-120.9011424697748
 30
0.0
 10
97.94130389019806
 20
-120.8563749697859
 30
0.0
 10
97.88620000271499
 20
-120.8563749697859
 30
0.0
 10
97.83070805968626
 20
-120.8563749697859
 30
0.0
 10
97.78629333859715
 20
-120.9011424697748
 30
0.0
 10
97.78629333859715
 20
-120.9564580253164
 30
0.0
 10
97.78629333859715
 20
-121.0115619141917
 30
0.0
 10
97.83070805968626
 20
-121.0563646919581
 30
0.0
 10
97.88620000271499
 20
-121.0563646919581
 30
0.0
 10
97.94130389019806
 20
-121.0563646919581
 30
0.0
 10
97.98610666683282
 20
-121.0115619141917
 30
0.0
 10
97.98610666683282
 20
-120.9564580253164
 30
0.0
  0
SPLINE
  5
58
330
1F
100
AcDbEntity
  8
_U+30EC_U+30A4_U+30E4_U+30FC 1
 62
   179
420
  2234388
370
     9
100
AcDbSpline
210
0.0
220
0.0
230
1.0
 70
    11
 71
     3
 72
    17
 73
    13
 74
     0
 42
0.0000000001
 43
0.0000000001
 12
1.0
 22
0.0
 32
0.0
 13
1.0
 23
0.0
 33
0.0
 40
0.0
 40
0.0
 40
0.0
 40
0.0
 40
1.0
 40
1.0
 40
1.0
 40
2.0
 40
2.0
 40
2.0
 40
3.0
 40
3.0
 40
3.0
 40
4.0
 40
4.0
 40
4.0
 40
4.0
 10
101.986183231449
 20
-124.9563583020944
 30
0.0
 10
101.986183231449
 20
-124.9010780243302
 30
0.0
 10
101.9414157325912
 20
-124.8562752465639
 30
0.0
 10
101.8862765673312
 20
-124.8562752465639
 30
0.0
 10
101.8308199020794
 20
-124.8562752465639
 30
0.0
 10
101.7860171254446
 20
-124.9010780243302
 30
0.0
 10
101.7860171254446
 20
-124.9563583020944
 30
0.0
 10
101.7860171254446
 20
-125.011673857636
 30
0.0
 10
101.8308199020794
 20
-125.056264968736
 30
0.0
 10
101.8862765673312
 20
-125.056264968736
 30
0.0
 10
101.9414157325912
 20
-125.056264968736
 30
0.0
 10
101.986183231449
 20
-125.011673857636
 30
0.0
 10
101.986183231449
 20
-124.9563583020944
 30
0.0
  0
SPLINE
  5
59
330
1F
100
AcDbEntity
  8
_U+30EC_U+30A4_U+30E4_U+30FC 1
 62
   179
420
  2234388
370
     9
100
AcDbSpline
210
0.0
220
0.0
230
1.0
 70
    11
 71
     3
 72
    17
 73
    13
 74
     0
 42
0.0000000001
 43
0.0000000001
 12
1.0
 22
0.0
 32
0.0
 13
1.0
 23
0.0
 33
0.0
 40
0.0
 40
0.0
 40
0.0
 40
0.0
 40
1.0
 40
1.0
 40
1.0
 40
2.0
 40
2.0
 40
2.0
 40
3.0
 40
3.0
 40
3.0
 40
4.0
 40
4.0
 40
4.0
 40
4.0
 10
101.986183231449
 20
-133.4561155221919
 30
0.0
 10
101.986183231449
 20
-133.4009763555388
 30
0.0
 10
101.9414157325912
 20
-133.3562088555496
 30
0.0
 10
101.8862765673312
 20
-133.3562088555496
 30
0.0
 10
101.8308199020794
 20
-133.3562088555496
 30
0.0
 10
101.7860171254446
 20
-133.4009763555388
 30
0.0
 10
101.7860171254446
 20
-133.4561155221919
 30
0.0
 10
101.7860171254446
 20
-133.5112194110668
 30
0.0
 10
101.8308199020794
 20
-133.5560221888335
 30
0.0
 10
101.8862765673312
 20
-133.5560221888335
 30
0.0
 10
101.9414157325912
 20
-133.5560221888335
 30
0.0
 10
101.986183231449
 20
-133.5112194110668
 30
0.0
 10
101.986183231449
 20
-133.4561155221919
 30
0.0
  0
POLYLINE
  5
5A
330
1F
100
AcDbEntity
  8
_U+30EC_U+30A4_U+30E4_U+30FC 1
 62
   179
420
  2234388
370
     9
100
AcDb2dPolyline
 66
     1
 10
0.0
 20
0.0
 30
0.0
  0
VERTEX
  5
5B
330
5A
100
AcDbEntity
  8
_U+30EC_U+30A4_U+30E4_U+30FC 1
 62
   179
420
  2234388
370
     9
100
AcDbVertex
100
AcDb2dVertex
 10
101.8862765673312
 20
-133.4561155221919
 30
0.0
  0
VERTEX
  5
5C
330
5A
100
AcDbEntity
  8
_U+30EC_U+30A4_U+30E4_U+30FC 1
 62
   179
420
  2234388
370
     9
100
AcDbVertex
100
AcDb2dVertex
 10
101.8862765673312
 20
-124.9563583020944
 30
0.0
  0
SEQEND
  5
5D
330
5A
100
AcDbEntity
  8
_U+30EC_U+30A4_U+30E4_U+30FC 1
 62
   179
420
  2234388
370
     9
  0
POLYLINE
  5
5E
330
1F
100
AcDbEntity
  8
_U+30EC_U+30A4_U+30E4_U+30FC 1
 62
   179
420
  2234388
370
     9
100
AcDb2dPolyline
 66
     1
 10
0.0
 20
0.0
 30
0.0
  0
VERTEX
  5
5F
330
5E
100
AcDbEntity
  8
_U+30EC_U+30A4_U+30E4_U+30FC 1
 62
   179
420
  2234388
370
     9
100
AcDbVertex
100
AcDb2dVertex
 10
93.92605788152441
 20
-133.4561155221919
 30
0.0
  0
VERTEX
  5
60
330
5E
100
AcDbEntity
  8
_U+30EC_U+30A4_U+30E4_U+30FC 1
 62
   179
420
  2234388
370
     9
100
AcDbVertex
100
AcDb2dVertex
 10
102.8860487640471
 20
-133.4561155221919
 30
0.0
  0
SEQEND
  5
61
330
5E
100
AcDbEntity
  8
_U+30EC_U+30A4_U+30E4_U+30FC 1
 62
   179
420
  2234388
370
     9
  0
POLYLINE
  5
62
330
1F
100
AcDbEntity
  8
_U+30EC_U+30A4_U+30E4_U+30FC 1
 62
   179
420
  2234388
370
     9
100
AcDb2dPolyline
 66
     1
 10
0.0
 20
0.0
 30
0.0
  0
VERTEX
  5
63
330
62
100
AcDbEntity
  8
_U+30EC_U+30A4_U+30E4_U+30FC 1
 62
   179
420
  2234388
370
     9
100
AcDbVertex
100
AcDb2dVertex
 10
100.4262704934679
 20
-124.9563583020944
 30
0.0
  0
VERTEX
  5
64
330
62
100
AcDbEntity
  8
_U+30EC_U+30A4_U+30E4_U+30FC 1
 62
   179
420
  2234388
370
     9
100
AcDbVertex
100
AcDb2dVertex
 10
102.8860487640471
 20
-124.9563583020944
 30
0.0
  0
SEQEND
  5
65
330
62
100
AcDbEntity
  8
_U+30EC_U+30A4_U+30E4_U+30FC 1
 62
   179
420
  2234388
370
     9
  0
POLYLINE
  5
66
330
1F
100
AcDbEntity
  8
_U+30EC_U+30A4_U+30E4_U+30FC 1
 62
   179
420
  2234388
370
     9
100
AcDb2dPolyline
 66
     1
 10
0.0
 20
0.0
 30
0.0
  0
VERTEX
  5
67
330
66
100
AcDbEntity
  8
_U+30EC_U+30A4_U+30E4_U+30FC 1
 62
   179
420
  2234388
370
     9
100
AcDbVertex
100
AcDb2dVertex
 10
77.88602884629519
 20
-138.456317187608
 30
0.0
  0
VERTEX
  5
68
330
66
100
AcDbEntity
  8
_U+30EC_U+30A4_U+30E4_U+30FC 1
 62
   179
420
  2234388
370
     9
100
AcDbVertex
100
AcDb2dVertex
 10
92.88596318583721
 20
-138.456317187608
 30
0.0
  0
SEQEND
  5
69
330
66
100
AcDbEntity
  8
_U+30EC_U+30A4_U+30E4_U+30FC 1
 62
   179
420
  2234388
370
     9
  0
POLYLINE
  5
6A
330
1F
100
AcDbEntity
  8
_U+30EC_U+30A4_U+30E4_U+30FC 1
 62
   179
420
  2234388
370
     9
100
AcDb2dPolyline
 66
     1
 10
0.0
 20
0.0
 30
0.0
  0
VERTEX
  5
6B
330
6A
100
AcDbEntity
  8
_U+30EC_U+30A4_U+30E4_U+30FC 1
 62
   179
420
  2234388
370
     9
100
AcDbVertex
100
AcDb2dVertex
 10
77.88602884629519
 20
-135.9965388548899
 30
0.0
  0
VERTEX
  5
6C
330
6A
100
AcDbEntity
  8
_U+30EC_U+30A4_U+30E4_U+30FC 1
 62
   179
420
  2234388
370
     9
100
AcDbVertex
100
AcDb2dVertex
 10
77.88602884629519
 20
-139.4560894095805
 30
0.0
  0
SEQEND
  5
6D
330
6A
100
AcDbEntity
  8
_U+30EC_U+30A4_U+30E4_U+30FC 1
 62
   179
420
  2234388
370
     9
  0
POLYLINE
  5
6E
330
1F
100
AcDbEntity
  8
_U+30EC_U+30A4_U+30E4_U+30FC 1
 62
   179
420
  2234388
370
     9
100
AcDb2dPolyline
 66
     1
 10
0.0
 20
0.0
 30
0.0
  0
VERTEX
  5
6F
330
6E
100
AcDbEntity
  8
_U+30EC_U+30A4_U+30E4_U+30FC 1
 62
   179
420
  2234388
370
     9
100
AcDbVertex
100
AcDb2dVertex
 10
92.8563298532599
 20
-136.4960721880981
 30
0.0
  0
VERTEX
  5
70
330
6E
100
AcDbEntity
  8
_U+30EC_U+30A4_U+30E4_U+30FC 1
 62
   179
420
  2234388
370
     9
100
AcDbVertex
100
AcDb2dVertex
 10
92.8563298532599
 20
-139.4560894095805
 30
0.0
  0
SEQEND
  5
71
330
6E
100
AcDbEntity
  8
_U+30EC_U+30A4_U+30E4_U+30FC 1
 62
   179
420
  2234388
370
     9
  0
POLYLINE
  5
72
330
1F
100
AcDbEntity
  8
_U+30EC_U+30A4_U+30E4_U+30FC 1
 62
   179
420
  2234388
370
     9
100
AcDb2dPolyline
 66
     1
 10
0.0
 20
0.0
 30
0.0
  0
VERTEX
  5
73
330
72
100
AcDbEntity
  8
_U+30EC_U+30A4_U+30E4_U+30FC 1
 62
   179
420
  2234388
370
     9
100
AcDbVertex
100
AcDb2dVertex
 10
77.88602884629519
 20
-120.9564580253164
 30
0.0
  0
VERTEX
  5
74
330
72
100
AcDbEntity
  8
_U+30EC_U+30A4_U+30E4_U+30FC 1
 62
   179
420
  2234388
370
     9
100
AcDbVertex
100
AcDb2dVertex
 10
97.88620000271499
 20
-120.9564580253164
 30
0.0
  0
SEQEND
  5
75
330
72
100
AcDbEntity
  8
_U+30EC_U+30A4_U+30E4_U+30FC 1
 62
   179
420
  2234388
370
     9
  0
POLYLINE
  5
76
330
1F
100
AcDbEntity
  8
_U+30EC_U+30A4_U+30E4_U+30FC 1
 62
   179
420
  2234388
370
     9
100
AcDb2dPolyline
 66
     1
 10
0.0
 20
0.0
 30
0.0
  0
VERTEX
  5
77
330
76
100
AcDbEntity
  8
_U+30EC_U+30A4_U+30E4_U+30FC 1
 62
   179
420
  2234388
370
     9
100
AcDbVertex
100
AcDb2dVertex
 10
77.88602884629519
 20
-123.4164127469237
 30
0.0
  0
VERTEX
  5
78
330
76
100
AcDbEntity
  8
_U+30EC_U+30A4_U+30E4_U+30FC 1
 62
   179
420
  2234388
370
     9
100
AcDbVertex
100
AcDb2dVertex
 10
77.88602884629519
 20
-119.9563330255665
 30
0.0
  0
SEQEND
  5
79
330
76
100
AcDbEntity
  8
_U+30EC_U+30A4_U+30E4_U+30FC 1
 62
   179
420
  2234388
370
     9
  0
POLYLINE
  5
7A
330
1F
100
AcDbEntity
  8
_U+30EC_U+30A4_U+30E4_U+30FC 1
 62
   179
420
  2234388
370
     9
100
AcDb2dPolyline
 66
     1
 10
0.0
 20
0.0
 30
0.0
  0
VERTEX
  5
7B
330
7A
100
AcDbEntity
  8
_U+30EC_U+30A4_U+30E4_U+30FC 1
 62
   179
420
  2234388
370
     9
100
AcDbVertex
100
AcDb2dVertex
 10
97.88620000271499
 20
-122.4162877471738
 30
0.0
  0
VERTEX
  5
7C
330
7A
100
AcDbEntity
  8
_U+30EC_U+30A4_U+30E4_U+30FC 1
 62
   179
420
  2234388
370
     9
100
AcDbVertex
100
AcDb2dVertex
 10
97.88620000271499
 20
-119.9563330255665
 30
0.0
  0
SEQEND
  5
7D
330
7A
100
AcDbEntity
  8
_U+30EC_U+30A4_U+30E4_U+30FC 1
 62
   179
420
  2234388
370
     9
  0
INSERT
  5
7F
330
1F
100
AcDbEntity
  8
_U+30EC_U+30A4_U+30E4_U+30FC 1
100
AcDbBlockReference
  2
block 2
 10
0.0
 20
0.0
 30
0.0
  0
INSERT
  5
91
330
1F
100
AcDbEntity
  8
_U+30EC_U+30A4_U+30E4_U+30FC 1
100
AcDbBlockReference
  2
block 3
 10
0.0
 20
0.0
 30
0.0
  0
INSERT
  5
99
330
1F
100
AcDbEntity
  8
_U+30EC_U+30A4_U+30E4_U+30FC 1
100
AcDbBlockReference
  2
block 4
 10
0.0
 20
0.0
 30
0.0
  0
ENDSEC
  0
SECTION
  2
OBJECTS
  0
DICTIONARY
  5
C
330
0
100
AcDbDictionary
281
     1
  3
ACAD_GROUP
350
D
  3
ACAD_LAYOUT
350
1A
  3
ACAD_MATERIAL
350
3B
  3
ACAD_MLEADERSTYLE
350
A2
  3
ACAD_MLINESTYLE
350
17
  3
ACAD_PLOTSETTINGS
350
19
  3
ACAD_PLOTSTYLENAME
350
E
  3
ACAD_TABLESTYLE
350
A1
  3
ACAD_VISUALSTYLE
350
2A
  0
SUN
  5
3F
330
29
100
AcDbSun
 90
        1
290
     0
 63
     7
421
 16777215
 40
1.0
291
     1
 91
  2455826
 92
 54000000
292
     0
 70
     2
 71
   256
280
     1
  0
DICTIONARY
  5
D
102
{ACAD_REACTORS
330
C
102
}
330
C
100
AcDbDictionary
281
     1
  0
DICTIONARY
  5
1A
102
{ACAD_REACTORS
330
C
102
}
330
C
100
AcDbDictionary
281
     1
  3
Layout1
350
1E
  3
Layout2
350
26
  3
Model
350
22
  0
DICTIONARY
  5
3B
102
{ACAD_REACTORS
330
C
102
}
330
C
100
AcDbDictionary
281
     1
  3
ByBlock
350
3D
  3
ByLayer
350
3C
  3
Global
350
3E
  0
DICTIONARY
  5
A2
102
{ACAD_REACTORS
330
C
102
}
330
C
100
AcDbDictionary
281
     1
  0
DICTIONARY
  5
17
102
{ACAD_REACTORS
330
C
102
}
330
C
100
AcDbDictionary
281
     1
  3
Standard
350
18
  0
DICTIONARY
  5
19
102
{ACAD_REACTORS
330
C
102
}
330
C
100
AcDbDictionary
281
     1
  0
ACDBDICTIONARYWDFLT
  5
E
102
{ACAD_REACTORS
330
C
102
}
330
C
100
AcDbDictionary
281
     1
  3
Normal
350
F
100
AcDbDictionaryWithDefault
340
F
  0
DICTIONARY
  5
A1
102
{ACAD_REACTORS
330
C
102
}
330
C
100
AcDbDictionary
281
     1
  0
DICTIONARY
  5
2A
102
{ACAD_REACTORS
330
C
102
}
330
C
100
AcDbDictionary
281
     1
  3
2dWireframe
350
2F
  3
3D Hidden
350
31
  3
3dWireframe
350
30
  3
Basic
350
32
  3
Brighten
350
36
  3
ColorChange
350
3A
  3
Conceptual
350
34
  3
Dim
350
35
  3
Facepattern
350
39
  3
Flat
350
2B
  3
FlatWithEdges
350
2C
  3
Gouraud
350
2D
  3
GouraudWithEdges
350
2E
  3
Linepattern
350
38
  3
Realistic
350
33
  3
Thicken
350
37
  0
LAYOUT
  5
1E
102
{ACAD_REACTORS
330
1A
102
}
330
1A
100
AcDbPlotSettings
  1

  2
none_device
  4

  6

 40
0.0
 41
0.0
 42
0.0
 43
0.0
 44
0.0
 45
0.0
 46
0.0
 47
0.0
 48
0.0
 49
0.0
140
0.0
141
0.0
142
1.0
143
1.0
 70
   688
 72
     0
 73
     0
 74
     5
  7

 75
    16
 76
     0
 77
     2
 78
   300
147
1.0
148
0.0
149
0.0
100
AcDbLayout
  1
Layout1
 70
     1
 71
     1
 10
0.0
 20
0.0
 11
12.0
 21
9.0
 12
0.0
 22
0.0
 32
0.0
 14
1.000000000000000E+20
 24
1.000000000000000E+20
 34
1.000000000000000E+20
 15
-1.000000000000000E+20
 25
-1.000000000000000E+20
 35
-1.000000000000000E+20
146
0.0
 13
0.0
 23
0.0
 33
0.0
 16
1.0
 26
0.0
 36
0.0
 17
0.0
 27
1.0
 37
0.0
 76
     0
330
1B
  0
LAYOUT
  5
26
102
{ACAD_REACTORS
330
1A
102
}
330
1A
100
AcDbPlotSettings
  1

  2
none_device
  4

  6

 40
0.0
 41
0.0
 42
0.0
 43
0.0
 44
0.0
 45
0.0
 46
0.0
 47
0.0
 48
0.0
 49
0.0
140
0.0
141
0.0
142
1.0
143
1.0
 70
   688
 72
     0
 73
     0
 74
     5
  7

 75
    16
 76
     0
 77
     2
 78
   300
147
1.0
148
0.0
149
0.0
100
AcDbLayout
  1
Layout2
 70
     1
 71
     2
 10
0.0
 20
0.0
 11
0.0
 21
0.0
 12
0.0
 22
0.0
 32
0.0
 14
0.0
 24
0.0
 34
0.0
 15
0.0
 25
0.0
 35
0.0
146
0.0
 13
0.0
 23
0.0
 33
0.0
 16
1.0
 26
0.0
 36
0.0
 17
0.0
 27
1.0
 37
0.0
 76
     0
330
23
  0
LAYOUT
  5
22
102
{ACAD_REACTORS
330
1A
102
}
330
1A
100
AcDbPlotSettings
  1

  2
none_device
  4

  6

 40
0.0
 41
0.0
 42
0.0
 43
0.0
 44
0.0
 45
0.0
 46
0.0
 47
0.0
 48
0.0
 49
0.0
140
0.0
141
0.0
142
1.0
143
1.0
 70
  1712
 72
     0
 73
     0
 74
     0
  7

 75
     0
 76
     0
 77
     2
 78
   300
147
1.0
148
0.0
149
0.0
100
AcDbLayout
  1
Model
 70
     1
 71
     0
 10
0.0
 20
0.0
 11
12.0
 21
9.0
 12
0.0
 22
0.0
 32
0.0
 14
1.000000000000000E+20
 24
1.000000000000000E+20
 34
1.000000000000000E+20
 15
-1.000000000000000E+20
 25
-1.000000000000000E+20
 35
-1.000000000000000E+20
146
0.0
 13
0.0
 23
0.0
 33
0.0
 16
1.0
 26
0.0
 36
0.0
 17
0.0
 27
1.0
 37
0.0
 76
     0
330
1F
331
29
  0
MATERIAL
  5
3D
102
{ACAD_REACTORS
330
3B
102
}
330
3B
100
AcDbMaterial
  1
ByBlock
 72
     1
 94
      127
  0
MATERIAL
  5
3C
102
{ACAD_REACTORS
330
3B
102
}
330
3B
100
AcDbMaterial
  1
ByLayer
 72
     1
 94
      127
  0
MATERIAL
  5
3E
102
{ACAD_REACTORS
330
3B
102
}
330
3B
100
AcDbMaterial
  1
Global
 72
     1
 94
      127
  0
MLINESTYLE
  5
18
102
{ACAD_REACTORS
330
17
102
}
330
17
100
AcDbMlineStyle
  2
Standard
 70
     0
  3

 62
   256
 51
90.0
 52
90.0
 71
     2
 49
0.5
 62
   256
  6
BYLAYER
 49
-0.5
 62
   256
  6
BYLAYER
  0
ACDBPLACEHOLDER
  5
F
102
{ACAD_REACTORS
330
E
102
}
330
E
  0
VISUALSTYLE
  5
2F
102
{ACAD_REACTORS
330
2A
102
}
330
2A
100
AcDbVisualStyle
  2
2dWireframe
 70
     4
177
     2
291
     0
 71
     0
176
     1
 72
     2
176
     1
 73
     0
176
     1
 90
        0
176
     1
 40
-0.6
176
     1
 41
-30.0
176
     1
 62
     5
 63
     7
421
 16777215
176
     1
 74
     1
176
     1
 91
        4
176
     1
 64
     7
176
     1
 65
   257
176
     1
 75
     1
176
     1
175
     1
176
     1
 42
1.0
176
     1
 92
        0
176
     1
 66
   257
176
     1
 43
1.0
176
     1
 76
     1
176
     1
 77
     6
176
     1
 78
     2
176
     1
 67
     7
176
     1
 79
     5
176
     1
170
     0
176
     1
171
     0
176
     1
290
     0
176
     1
 93
        1
176
     1
 44
0.0
176
     1
173
     0
176
     1
  0
VISUALSTYLE
  5
31
102
{ACAD_REACTORS
330
2A
102
}
330
2A
100
AcDbVisualStyle
  2
3D Hidden
 70
     6
177
     2
291
     0
 71
     1
176
     1
 72
     2
176
     1
 73
     2
176
     1
 90
        0
176
     1
 40
-0.6
176
     1
 41
-30.0
176
     1
 62
     5
 63
     7
421
 16777215
176
     1
 74
     2
176
     1
 91
        2
176
     1
 64
     7
176
     1
 65
   257
176
     1
 75
     2
176
     1
175
     1
176
     1
 42
40.0
176
     1
 92
        0
176
     1
 66
   257
176
     1
 43
1.0
176
     1
 76
     1
176
     1
 77
     6
176
     1
 78
     2
176
     1
 67
     7
176
     1
 79
     3
176
     1
170
     0
176
     1
171
     0
176
     1
290
     0
176
     1
 93
        1
176
     1
 44
0.0
176
     1
173
     0
176
     1
  0
VISUALSTYLE
  5
30
102
{ACAD_REACTORS
330
2A
102
}
330
2A
100
AcDbVisualStyle
  2
3dWireframe
 70
     5
177
     2
291
     0
 71
     0
176
     1
 72
     2
176
     1
 73
     0
176
     1
 90
        0
176
     1
 40
-0.6
176
     1
 41
-30.0
176
     1
 62
     5
 63
     7
421
 16777215
176
     1
 74
     1
176
     1
 91
        4
176
     1
 64
     7
176
     1
 65
   257
176
     1
 75
     1
176
     1
175
     1
176
     1
 42
1.0
176
     1
 92
        0
176
     1
 66
   257
176
     1
 43
1.0
176
     1
 76
     1
176
     1
 77
     6
176
     1
 78
     2
176
     1
 67
     7
176
     1
 79
     5
176
     1
170
     0
176
     1
171
     0
176
     1
290
     0
176
     1
 93
        1
176
     1
 44
0.0
176
     1
173
     0
176
     1
  0
VISUALSTYLE
  5
32
102
{ACAD_REACTORS
330
2A
102
}
330
2A
100
AcDbVisualStyle
  2
Basic
 70
     7
177
     2
291
     1
 71
     1
176
     1
 72
     0
176
     1
 73
     1
176
     1
 90
        0
176
     1
 40
-0.6
176
     1
 41
-30.0
176
     1
 62
     5
 63
     7
421
 16777215
176
     1
 74
     0
176
     1
 91
        4
176
     1
 64
     7
176
     1
 65
   257
176
     1
 75
     1
176
     1
175
     1
176
     1
 42
1.0
176
     1
 92
        8
176
     1
 66
     7
176
     1
 43
1.0
176
     1
 76
     1
176
     1
 77
     6
176
     1
 78
     2
176
     1
 67
     7
176
     1
 79
     5
176
     1
170
     0
176
     1
171
     0
176
     1
290
     0
176
     1
 93
        1
176
     1
 44
0.0
176
     1
173
     0
176
     1
  0
VISUALSTYLE
  5
36
102
{ACAD_REACTORS
330
2A
102
}
330
2A
100
AcDbVisualStyle
  2
Brighten
 70
    12
177
     2
291
     1
 71
     2
176
     1
 72
     2
176
     1
 73
     0
176
     1
 90
        0
176
     1
 40
-0.6
176
     1
 41
-30.0
176
     1
 62
     5
 63
     7
421
 16777215
176
     1
 74
     1
176
     1
 91
        4
176
     1
 64
     7
176
     1
 65
   257
176
     1
 75
     1
176
     1
175
     1
176
     1
 42
1.0
176
     1
 92
        8
176
     1
 66
     7
176
     1
 43
1.0
176
     1
 76
     1
176
     1
 77
     6
176
     1
 78
     2
176
     1
 67
     7
176
     1
 79
     5
176
     1
170
     0
176
     1
171
     0
176
     1
290
     0
176
     1
 93
        1
176
     1
 44
50.0
176
     1
173
     0
176
     1
  0
VISUALSTYLE
  5
3A
102
{ACAD_REACTORS
330
2A
102
}
330
2A
100
AcDbVisualStyle
  2
ColorChange
 70
    16
177
     2
291
     1
 71
     2
176
     1
 72
     2
176
     1
 73
     3
176
     1
 90
        0
176
     1
 40
-0.6
176
     1
 41
-30.0
176
     1
 62
     5
 63
     8
421
  8421504
176
     1
 74
     1
176
     1
 91
        4
176
     1
 64
     7
176
     1
 65
   257
176
     1
 75
     1
176
     1
175
     1
176
     1
 42
1.0
176
     1
 92
        8
176
     1
 66
     8
424
  8421504
176
     1
 43
1.0
176
     1
 76
     1
176
     1
 77
     6
176
     1
 78
     2
176
     1
 67
     7
176
     1
 79
     5
176
     1
170
     0
176
     1
171
     0
176
     1
290
     0
176
     1
 93
        1
176
     1
 44
0.0
176
     1
173
     0
176
     1
  0
VISUALSTYLE
  5
34
102
{ACAD_REACTORS
330
2A
102
}
330
2A
100
AcDbVisualStyle
  2
Conceptual
 70
     9
177
     2
291
     0
 71
     3
176
     1
 72
     2
176
     1
 73
     0
176
     1
 90
        0
176
     1
 40
-0.6
176
     1
 41
-30.0
176
     1
 62
     5
 63
     7
421
 16777215
176
     1
 74
     2
176
     1
 91
        2
176
     1
 64
     7
176
     1
 65
   257
176
     1
 75
     1
176
     1
175
     1
176
     1
 42
40.0
176
     1
 92
        8
176
     1
 66
     7
176
     1
 43
1.0
176
     1
 76
     1
176
     1
 77
     6
176
     1
 78
     2
176
     1
 67
     7
176
     1
 79
     3
176
     1
170
     0
176
     1
171
     0
176
     1
290
     0
176
     1
 93
        1
176
     1
 44
0.0
176
     1
173
     0
176
     1
  0
VISUALSTYLE
  5
35
102
{ACAD_REACTORS
330
2A
102
}
330
2A
100
AcDbVisualStyle
  2
Dim
 70
    11
177
     2
291
     1
 71
     2
176
     1
 72
     2
176
     1
 73
     0
176
     1
 90
        0
176
     1
 40
-0.6
176
     1
 41
-30.0
176
     1
 62
     5
 63
     7
421
 16777215
176
     1
 74
     1
176
     1
 91
        4
176
     1
 64
     7
176
     1
 65
   257
176
     1
 75
     1
176
     1
175
     1
176
     1
 42
1.0
176
     1
 92
        8
176
     1
 66
     7
176
     1
 43
1.0
176
     1
 76
     1
176
     1
 77
     6
176
     1
 78
     2
176
     1
 67
     7
176
     1
 79
     5
176
     1
170
     0
176
     1
171
     0
176
     1
290
     0
176
     1
 93
        1
176
     1
 44
-50.0
176
     1
173
     0
176
     1
  0
VISUALSTYLE
  5
39
102
{ACAD_REACTORS
330
2A
102
}
330
2A
100
AcDbVisualStyle
  2
Facepattern
 70
    15
177
     2
291
     1
 71
     2
176
     1
 72
     2
176
     1
 73
     0
176
     1
 90
        0
176
     1
 40
-0.6
176
     1
 41
-30.0
176
     1
 62
     5
 63
     7
421
 16777215
176
     1
 74
     1
176
     1
 91
        4
176
     1
 64
     7
176
     1
 65
   257
176
     1
 75
     1
176
     1
175
     1
176
     1
 42
1.0
176
     1
 92
        8
176
     1
 66
     7
176
     1
 43
1.0
176
     1
 76
     1
176
     1
 77
     6
176
     1
 78
     2
176
     1
 67
     7
176
     1
 79
     5
176
     1
170
     0
176
     1
171
     0
176
     1
290
     0
176
     1
 93
        1
176
     1
 44
0.0
176
     1
173
     0
176
     1
  0
VISUALSTYLE
  5
2B
102
{ACAD_REACTORS
330
2A
102
}
330
2A
100
AcDbVisualStyle
  2
Flat
 70
     0
177
     2
291
     1
 71
     2
176
     1
 72
     1
176
     1
 73
     1
176
     1
 90
        2
176
     1
 40
-0.6
176
     1
 41
30.0
176
     1
 62
     5
 63
     7
421
 16777215
176
     1
 74
     0
176
     1
 91
        4
176
     1
 64
     7
176
     1
 65
   257
176
     1
 75
     1
176
     1
175
     1
176
     1
 42
1.0
176
     1
 92
        8
176
     1
 66
     7
176
     1
 43
1.0
176
     1
 76
     1
176
     1
 77
     6
176
     1
 78
     2
176
     1
 67
     7
176
     1
 79
     5
176
     1
170
     0
176
     1
171
     0
176
     1
290
     0
176
     1
 93
       13
176
     1
 44
0.0
176
     1
173
     0
176
     1
  0
VISUALSTYLE
  5
2C
102
{ACAD_REACTORS
330
2A
102
}
330
2A
100
AcDbVisualStyle
  2
FlatWithEdges
 70
     1
177
     2
291
     1
 71
     2
176
     1
 72
     1
176
     1
 73
     1
176
     1
 90
        2
176
     1
 40
-0.6
176
     1
 41
30.0
176
     1
 62
     5
 63
     7
421
 16777215
176
     1
 74
     1
176
     1
 91
        4
176
     1
 64
     7
176
     1
 65
   257
176
     1
 75
     1
176
     1
175
     1
176
     1
 42
1.0
176
     1
 92
        0
176
     1
 66
   257
176
     1
 43
1.0
176
     1
 76
     1
176
     1
 77
     6
176
     1
 78
     2
176
     1
 67
     7
176
     1
 79
     5
176
     1
170
     0
176
     1
171
     0
176
     1
290
     0
176
     1
 93
       13
176
     1
 44
0.0
176
     1
173
     0
176
     1
  0
VISUALSTYLE
  5
2D
102
{ACAD_REACTORS
330
2A
102
}
330
2A
100
AcDbVisualStyle
  2
Gouraud
 70
     2
177
     2
291
     1
 71
     2
176
     1
 72
     2
176
     1
 73
     1
176
     1
 90
        2
176
     1
 40
-0.6
176
     1
 41
30.0
176
     1
 62
     5
 63
     7
421
 16777215
176
     1
 74
     0
176
     1
 91
        4
176
     1
 64
     7
176
     1
 65
   257
176
     1
 75
     1
176
     1
175
     1
176
     1
 42
1.0
176
     1
 92
        0
176
     1
 66
     7
176
     1
 43
1.0
176
     1
 76
     1
176
     1
 77
     6
176
     1
 78
     2
176
     1
 67
     7
176
     1
 79
     5
176
     1
170
     0
176
     1
171
     0
176
     1
290
     0
176
     1
 93
       13
176
     1
 44
0.0
176
     1
173
     0
176
     1
  0
VISUALSTYLE
  5
2E
102
{ACAD_REACTORS
330
2A
102
}
330
2A
100
AcDbVisualStyle
  2
GouraudWithEdges
 70
     3
177
     2
291
     1
 71
     2
176
     1
 72
     2
176
     1
 73
     1
176
     1
 90
        2
176
     1
 40
-0.6
176
     1
 41
30.0
176
     1
 62
     5
 63
     7
421
 16777215
176
     1
 74
     1
176
     1
 91
        4
176
     1
 64
     7
176
     1
 65
   257
176
     1
 75
     1
176
     1
175
     1
176
     1
 42
1.0
176
     1
 92
        0
176
     1
 66
   257
176
     1
 43
1.0
176
     1
 76
     1
176
     1
 77
     6
176
     1
 78
     2
176
     1
 67
     7
176
     1
 79
     5
176
     1
170
     0
176
     1
171
     0
176
     1
290
     0
176
     1
 93
       13
176
     1
 44
0.0
176
     1
173
     0
176
     1
  0
VISUALSTYLE
  5
38
102
{ACAD_REACTORS
330
2A
102
}
330
2A
100
AcDbVisualStyle
  2
Linepattern
 70
    14
177
     2
291
     1
 71
     2
176
     1
 72
     2
176
     1
 73
     0
176
     1
 90
        0
176
     1
 40
-0.6
176
     1
 41
-30.0
176
     1
 62
     5
 63
     7
421
 16777215
176
     1
 74
     1
176
     1
 91
        4
176
     1
 64
     7
176
     1
 65
   257
176
     1
 75
     7
176
     1
175
     7
176
     1
 42
1.0
176
     1
 92
        8
176
     1
 66
     7
176
     1
 43
1.0
176
     1
 76
     1
176
     1
 77
     6
176
     1
 78
     2
176
     1
 67
     7
176
     1
 79
     5
176
     1
170
     0
176
     1
171
     0
176
     1
290
     0
176
     1
 93
        1
176
     1
 44
0.0
176
     1
173
     0
176
     1
  0
VISUALSTYLE
  5
33
102
{ACAD_REACTORS
330
2A
102
}
330
2A
100
AcDbVisualStyle
  2
Realistic
 70
     8
177
     2
291
     0
 71
     2
176
     1
 72
     2
176
     1
 73
     0
176
     1
 90
        0
176
     1
 40
-0.6
176
     1
 41
-30.0
176
     1
 62
     5
 63
     7
421
 16777215
176
     1
 74
     1
176
     1
 91
        0
176
     1
 64
     7
176
     1
 65
   257
176
     1
 75
     1
176
     1
175
     1
176
     1
 42
1.0
176
     1
 92
        8
176
     1
 66
     8
424
  7895160
176
     1
 43
1.0
176
     1
 76
     1
176
     1
 77
     6
176
     1
 78
     2
176
     1
 67
     7
176
     1
 79
     5
176
     1
170
     0
176
     1
171
     0
176
     1
290
     0
176
     1
 93
       13
176
     1
 44
0.0
176
     1
173
     0
176
     1
  0
VISUALSTYLE
  5
37
102
{ACAD_REACTORS
330
2A
102
}
330
2A
100
AcDbVisualStyle
  2
Thicken
 70
    13
177
     2
291
     1
 71
     2
176
     1
 72
     2
176
     1
 73
     0
176
     1
 90
        0
176
     1
 40
-0.6
176
     1
 41
-30.0
176
     1
 62
     5
 63
     7
421
 16777215
176
     1
 74
     1
176
     1
 91
        4
176
     1
 64
     7
176
     1
 65
   257
176
     1
 75
     1
176
     1
175
     1
176
     1
 42
1.0
176
     1
 92
       12
176
     1
 66
     7
176
     1
 43
1.0
176
     1
 76
     1
176
     1
 77
     6
176
     1
 78
     2
176
     1
 67
     7
176
     1
 79
     5
176
     1
170
     0
176
     1
171
     0
176
     1
290
     0
176
     1
 93
        1
176
     1
 44
0.0
176
     1
173
     0
176
     1
  0
ENDSEC
  0
EOF
