  0
SECTION
  2
HEADER
  9
$ACADVER
  1
AC1024
  9
$ACADMAINTVER
 70
     6
  9
$DWGCODEPAGE
  3
UNDEFINED
  9
$INSBASE
 10
0.0
 20
0.0
 30
0.0
  9
$EXTMIN
 10
1.000000000000000E+20
 20
1.000000000000000E+20
 30
1.000000000000000E+20
  9
$EXTMAX
 10
-1.000000000000000E+20
 20
-1.000000000000000E+20
 30
-1.000000000000000E+20
  9
$LIMMIN
 10
0.0
 20
0.0
  9
$LIMMAX
 10
12.0
 20
9.0
  9
$ORTHOMODE
 70
     0
  9
$REGENMODE
 70
     1
  9
$FILLMODE
 70
     1
  9
$QTEXTMODE
 70
     0
  9
$MIRRTEXT
 70
     1
  9
$LTSCALE
 40
1.0
  9
$ATTMODE
 70
     1
  9
$TEXTSIZE
 40
0.2
  9
$TRACEWID
 40
0.05
  9
$TEXTSTYLE
  7
Standard
  9
$CLAYER
  8
0
  9
$CELTYPE
  6
ByLayer
  9
$CECOLOR
 62
   256
  9
$CELTSCALE
 40
1.0
  9
$DISPSILH
 70
     0
  9
$DIMSCALE
 40
1.0
  9
$DIMASZ
 40
0.18
  9
$DIMEXO
 40
0.0625
  9
$DIMDLI
 40
0.38
  9
$DIMRND
 40
0.0
  9
$DIMDLE
 40
0.0
  9
$DIMEXE
 40
0.18
  9
$DIMTP
 40
0.0
  9
$DIMTM
 40
0.0
  9
$DIMTXT
 40
0.18
  9
$DIMCEN
 40
0.09
  9
$DIMTSZ
 40
0.0
  9
$DIMTOL
 70
     0
  9
$DIMLIM
 70
     0
  9
$DIMTIH
 70
     1
  9
$DIMTOH
 70
     1
  9
$DIMSE1
 70
     0
  9
$DIMSE2
 70
     0
  9
$DIMTAD
 70
     0
  9
$DIMZIN
 70
     0
  9
$DIMBLK
  1

  9
$DIMASO
 70
     1
  9
$DIMSHO
 70
     1
  9
$DIMPOST
  1

  9
$DIMAPOST
  1

  9
$DIMALT
 70
     0
  9
$DIMALTD
 70
     2
  9
$DIMALTF
 40
25.4
  9
$DIMLFAC
 40
1.0
  9
$DIMTOFL
 70
     0
  9
$DIMTVP
 40
0.0
  9
$DIMTIX
 70
     0
  9
$DIMSOXD
 70
     0
  9
$DIMSAH
 70
     0
  9
$DIMBLK1
  1

  9
$DIMBLK2
  1

  9
$DIMSTYLE
  2
Standard
  9
$DIMCLRD
 70
     0
  9
$DIMCLRE
 70
     0
  9
$DIMCLRT
 70
     0
  9
$DIMTFAC
 40
1.0
  9
$DIMGAP
 40
0.09
  9
$DIMJUST
 70
     0
  9
$DIMSD1
 70
     0
  9
$DIMSD2
 70
     0
  9
$DIMTOLJ
 70
     1
  9
$DIMTZIN
 70
     0
  9
$DIMALTZ
 70
     0
  9
$DIMALTTZ
 70
     0
  9
$DIMUPT
 70
     0
  9
$DIMDEC
 70
     4
  9
$DIMTDEC
 70
     4
  9
$DIMALTU
 70
     2
  9
$DIMALTTD
 70
     2
  9
$DIMTXSTY
  7
Standard
  9
$DIMAUNIT
 70
     0
  9
$DIMADEC
 70
     0
  9
$DIMALTRND
 40
0.0
  9
$DIMAZIN
 70
     0
  9
$DIMDSEP
 70
    46
  9
$DIMATFIT
 70
     3
  9
$DIMFRAC
 70
     0
  9
$DIMLDRBLK
  1

  9
$DIMLUNIT
 70
     2
  9
$DIMLWD
 70
    -2
  9
$DIMLWE
 70
    -2
  9
$DIMTMOVE
 70
     0
  9
$DIMFXL
 40
1.0
  9
$DIMFXLON
 70
     0
  9
$DIMJOGANG
 40
0.7853981633974483
  9
$DIMTFILL
 70
     0
  9
$DIMTFILLCLR
 70
     0
  9
$DIMARCSYM
 70
     0
  9
$DIMLTYPE
  6

  9
$DIMLTEX1
  6

  9
$DIMLTEX2
  6

  9
$DIMTXTDIRECTION
 70
     0
  9
$LUNITS
 70
     2
  9
$LUPREC
 70
     4
  9
$SKETCHINC
 40
0.1
  9
$FILLETRAD
 40
0.5
  9
$AUNITS
 70
     0
  9
$AUPREC
 70
     0
  9
$MENU
  1
.
  9
$ELEVATION
 40
0.0
  9
$PELEVATION
 40
0.0
  9
$THICKNESS
 40
0.0
  9
$LIMCHECK
 70
     0
  9
$CHAMFERA
 40
0.5
  9
$CHAMFERB
 40
0.5
  9
$CHAMFERC
 40
1.0
  9
$CHAMFERD
 40
0.0
  9
$SKPOLY
 70
     0
  9
$TDCREATE
 40
2457917.624641204
  9
$TDUCREATE
 40
2457917.249641204
  9
$TDUPDATE
 40
2457917.624641204
  9
$TDUUPDATE
 40
2457917.249641204
  9
$TDINDWG
 40
0.0000000116
  9
$TDUSRTIMER
 40
0.0000000116
  9
$USRTIMER
 70
     1
  9
$ANGBASE
 50
0.0
  9
$ANGDIR
 70
     0
  9
$PDMODE
 70
     0
  9
$PDSIZE
 40
0.0
  9
$PLINEWID
 40
0.0
  9
$SPLFRAME
 70
     0
  9
$SPLINETYPE
 70
     6
  9
$SPLINESEGS
 70
     8
  9
$HANDSEED
  5
B9
  9
$SURFTAB1
 70
     6
  9
$SURFTAB2
 70
     6
  9
$SURFTYPE
 70
     6
  9
$SURFU
 70
     6
  9
$SURFV
 70
     6
  9
$UCSBASE
  2

  9
$UCSNAME
  2

  9
$UCSORG
 10
0.0
 20
0.0
 30
0.0
  9
$UCSXDIR
 10
1.0
 20
0.0
 30
0.0
  9
$UCSYDIR
 10
0.0
 20
1.0
 30
0.0
  9
$UCSORTHOREF
  2

  9
$UCSORTHOVIEW
 70
     0
  9
$UCSORGTOP
 10
0.0
 20
0.0
 30
0.0
  9
$UCSORGBOTTOM
 10
0.0
 20
0.0
 30
0.0
  9
$UCSORGLEFT
 10
0.0
 20
0.0
 30
0.0
  9
$UCSORGRIGHT
 10
0.0
 20
0.0
 30
0.0
  9
$UCSORGFRONT
 10
0.0
 20
0.0
 30
0.0
  9
$UCSORGBACK
 10
0.0
 20
0.0
 30
0.0
  9
$PUCSBASE
  2

  9
$PUCSNAME
  2

  9
$PUCSORG
 10
0.0
 20
0.0
 30
0.0
  9
$PUCSXDIR
 10
1.0
 20
0.0
 30
0.0
  9
$PUCSYDIR
 10
0.0
 20
1.0
 30
0.0
  9
$PUCSORTHOREF
  2

  9
$PUCSORTHOVIEW
 70
     0
  9
$PUCSORGTOP
 10
0.0
 20
0.0
 30
0.0
  9
$PUCSORGBOTTOM
 10
0.0
 20
0.0
 30
0.0
  9
$PUCSORGLEFT
 10
0.0
 20
0.0
 30
0.0
  9
$PUCSORGRIGHT
 10
0.0
 20
0.0
 30
0.0
  9
$PUCSORGFRONT
 10
0.0
 20
0.0
 30
0.0
  9
$PUCSORGBACK
 10
0.0
 20
0.0
 30
0.0
  9
$USERI1
 70
     0
  9
$USERI2
 70
     0
  9
$USERI3
 70
     0
  9
$USERI4
 70
     0
  9
$USERI5
 70
     0
  9
$USERR1
 40
0.0
  9
$USERR2
 40
0.0
  9
$USERR3
 40
0.0
  9
$USERR4
 40
0.0
  9
$USERR5
 40
0.0
  9
$WORLDVIEW
 70
     1
  9
$SHADEDGE
 70
     3
  9
$SHADEDIF
 70
    70
  9
$TILEMODE
 70
     1
  9
$MAXACTVP
 70
    64
  9
$PINSBASE
 10
0.0
 20
0.0
 30
0.0
  9
$PLIMCHECK
 70
     0
  9
$PEXTMIN
 10
1.000000000000000E+20
 20
1.000000000000000E+20
 30
1.000000000000000E+20
  9
$PEXTMAX
 10
-1.000000000000000E+20
 20
-1.000000000000000E+20
 30
-1.000000000000000E+20
  9
$PLIMMIN
 10
0.0
 20
0.0
  9
$PLIMMAX
 10
12.0
 20
9.0
  9
$UNITMODE
 70
     0
  9
$VISRETAIN
 70
     1
  9
$PLINEGEN
 70
     0
  9
$PSLTSCALE
 70
     1
  9
$TREEDEPTH
 70
  3020
  9
$CMLSTYLE
  2
Standard
  9
$CMLJUST
 70
     0
  9
$CMLSCALE
 40
1.0
  9
$PROXYGRAPHICS
 70
     1
  9
$MEASUREMENT
 70
     0
  9
$CELWEIGHT
370
    -1
  9
$ENDCAPS
280
     0
  9
$JOINSTYLE
280
     0
  9
$LWDISPLAY
290
     1
  9
$INSUNITS
 70
     1
  9
$HYPERLINKBASE
  1

  9
$STYLESHEET
  1

  9
$XEDIT
290
     1
  9
$CEPSNTYPE
380
     0
  9
$PSTYLEMODE
290
     1
  9
$FINGERPRINTGUID
  2
{E48EC0FF-6027-8AD7-8548-2C9BFAB2D893}
  9
$VERSIONGUID
  2
{FAEB1C32-E019-11D5-929B-00C0DF256EC4}
  9
$EXTNAMES
290
     1
  9
$PSVPSCALE
 40
0.0
  9
$OLESTARTUP
290
     0
  9
$SORTENTS
280
   127
  9
$INDEXCTL
280
     0
  9
$HIDETEXT
280
     1
  9
$XCLIPFRAME
280
     2
  9
$HALOGAP
280
     0
  9
$OBSCOLOR
 70
   257
  9
$OBSLTYPE
280
     0
  9
$INTERSECTIONDISPLAY
280
     0
  9
$INTERSECTIONCOLOR
 70
   257
  9
$DIMASSOC
280
     2
  9
$PROJECTNAME
  1

  9
$CAMERADISPLAY
290
     0
  9
$LENSLENGTH
 40
50.0
  9
$CAMERAHEIGHT
 40
0.0
  9
$STEPSPERSEC
 40
2.0
  9
$STEPSIZE
 40
6.0
  9
$3DDWFPREC
 40
2.0
  9
$PSOLWIDTH
 40
0.25
  9
$PSOLHEIGHT
 40
4.0
  9
$LOFTANG1
 40
1.570796326794897
  9
$LOFTANG2
 40
1.570796326794897
  9
$LOFTMAG1
 40
0.0
  9
$LOFTMAG2
 40
0.0
  9
$LOFTPARAM
 70
     7
  9
$LOFTNORMALS
280
     1
  9
$LATITUDE
 40
37.795
  9
$LONGITUDE
 40
-122.394
  9
$NORTHDIRECTION
 40
0.0
  9
$TIMEZONE
 70
 -8000
  9
$LIGHTGLYPHDISPLAY
280
     1
  9
$TILEMODELIGHTSYNCH
280
     1
  9
$CMATERIAL
347
3C
  9
$SOLIDHIST
280
     1
  9
$SHOWHIST
280
     1
  9
$DWFFRAME
280
     2
  9
$DGNFRAME
280
     2
  9
$REALWORLDSCALE
290
     1
  9
$INTERFERECOLOR
 62
   256
  9
$CSHADOW
280
     0
  9
$SHADOWPLANELOCATION
 40
0.0
  0
ENDSEC
  0
SECTION
  2
CLASSES
  0
CLASS
  1
ACDBDICTIONARYWDFLT
  2
AcDbDictionaryWithDefault
  3
ObjectDBX Classes
 90
        0
 91
        4
280
     0
281
     0
  0
CLASS
  1
VISUALSTYLE
  2
AcDbVisualStyle
  3
ObjectDBX Classes
 90
     4095
 91
        4
280
     0
281
     0
  0
CLASS
  1
MATERIAL
  2
AcDbMaterial
  3
ObjectDBX Classes
 90
     1153
 91
        4
280
     0
281
     0
  0
CLASS
  1
SUN
  2
AcDbSun
  3
SCENEOE
 90
     1024
 91
        4
280
     0
281
     0
  0
ENDSEC
  0
SECTION
  2
TABLES
  0
TABLE
  2
VPORT
  5
8
330
0
100
AcDbSymbolTable
 70
     1
  0
VPORT
  5
29
330
8
100
AcDbSymbolTableRecord
100
AcDbViewportTableRecord
  2
*Active
 70
     0
 10
0.0
 20
0.0
 11
1.0
 21
1.0
 12
0.0
 22
0.0
 13
0.0
 23
0.0
 14
0.5
 24
0.5
 15
0.5
 25
0.5
 16
0.0
 26
0.0
 36
1.0
 17
91.00082462281999
 27
-128.4993055234307
 37
0.0
 40
256.9986110468615
 41
0.7081814508812795
 42
50.0
 43
0.0
 44
0.0
 50
0.0
 51
0.0
 71
     0
 72
   100
 73
     1
 74
     3
 75
     0
 76
     0
 77
     0
 78
     0
281
     0
 65
     1
110
0.0
120
0.0
130
0.0
111
1.0
121
0.0
131
0.0
112
0.0
122
1.0
132
0.0
 79
     0
146
0.0
 60
     3
 61
     5
292
     1
282
     1
141
0.0
142
0.0
 63
   250
361
3F
  0
ENDTAB
  0
TABLE
  2
LTYPE
  5
5
330
0
100
AcDbSymbolTable
 70
     1
  0
LTYPE
  5
14
330
5
100
AcDbSymbolTableRecord
100
AcDbLinetypeTableRecord
  2
ByBlock
 70
     0
  3

 72
    65
 73
     0
 40
0.0
  0
LTYPE
  5
15
330
5
100
AcDbSymbolTableRecord
100
AcDbLinetypeTableRecord
  2
ByLayer
 70
     0
  3

 72
    65
 73
     0
 40
0.0
  0
LTYPE
  5
16
330
5
100
AcDbSymbolTableRecord
100
AcDbLinetypeTableRecord
  2
Continuous
 70
     0
  3
Solid line
 72
    65
 73
     0
 40
0.0
  0
ENDTAB
  0
TABLE
  2
LAYER
  5
2
330
0
100
AcDbSymbolTable
 70
     2
  0
LAYER
  5
10
330
2
100
AcDbSymbolTableRecord
100
AcDbLayerTableRecord
  2
0
 70
     0
 62
     7
  6
Continuous
370
    -3
390
F
347
3E
  0
LAYER
  5
40
330
2
100
AcDbSymbolTableRecord
100
AcDbLayerTableRecord
  2
_U+30EC_U+30A4_U+30E4_U+30FC 1
 70
     0
 62
     7
  6
Continuous
370
    -3
390
F
347
3E
  0
ENDTAB
  0
TABLE
  2
STYLE
  5
3
330
0
100
AcDbSymbolTable
 70
     1
  0
STYLE
  5
11
330
3
100
AcDbSymbolTableRecord
100
AcDbTextStyleTableRecord
  2
Standard
 70
     0
 40
0.0
 41
1.0
 50
0.0
 71
     0
 42
0.2
  3
txt
  4

  0
ENDTAB
  0
TABLE
  2
VIEW
  5
6
330
0
100
AcDbSymbolTable
 70
     0
  0
ENDTAB
  0
TABLE
  2
UCS
  5
7
330
0
100
AcDbSymbolTable
 70
     0
  0
ENDTAB
  0
TABLE
  2
APPID
  5
9
330
0
100
AcDbSymbolTable
 70
     1
  0
APPID
  5
12
330
9
100
AcDbSymbolTableRecord
100
AcDbRegAppTableRecord
  2
ACAD
 70
     0
  0
ENDTAB
  0
TABLE
  2
DIMSTYLE
  5
A
330
0
100
AcDbSymbolTable
 70
     1
100
AcDbDimStyleTable
  0
DIMSTYLE
105
27
330
A
100
AcDbSymbolTableRecord
100
AcDbDimStyleTableRecord
  2
Standard
 70
     0
178
     0
340
11
  0
ENDTAB
  0
TABLE
  2
BLOCK_RECORD
  5
1
330
0
100
AcDbSymbolTable
 70
     4
  0
BLOCK_RECORD
  5
1F
330
1
100
AcDbSymbolTableRecord
100
AcDbBlockTableRecord
  2
*Model_Space
340
22
 70
     0
280
     1
281
     0
  0
BLOCK_RECORD
  5
1B
330
1
100
AcDbSymbolTableRecord
100
AcDbBlockTableRecord
  2
*Paper_Space
340
1E
 70
     0
280
     1
281
     0
  0
BLOCK_RECORD
  5
23
330
1
100
AcDbSymbolTableRecord
100
AcDbBlockTableRecord
  2
*Paper_Space0
340
26
 70
     0
280
     1
281
     0
  0
BLOCK_RECORD
  5
82
330
1
100
AcDbSymbolTableRecord
100
AcDbBlockTableRecord
  2
block 2
340
0
102
{BLKREFS
331
83
102
}
 70
     0
280
     1
281
     0
  0
BLOCK_RECORD
  5
8C
330
1
100
AcDbSymbolTableRecord
100
AcDbBlockTableRecord
  2
block 3
340
0
102
{BLKREFS
331
8D
102
}
 70
     0
280
     1
281
     0
  0
BLOCK_RECORD
  5
94
330
1
100
AcDbSymbolTableRecord
100
AcDbBlockTableRecord
  2
block 4
340
0
102
{BLKREFS
331
95
102
}
 70
     0
280
     1
281
     0
  0
ENDTAB
  0
ENDSEC
  0
SECTION
  2
BLOCKS
  0
BLOCK
  5
20
330
1F
100
AcDbEntity
  8
0
100
AcDbBlockBegin
  2
*Model_Space
 70
     0
 10
0.0
 20
0.0
 30
0.0
  3
*Model_Space
  1

  0
ENDBLK
  5
21
330
1F
100
AcDbEntity
  8
0
100
AcDbBlockEnd
  0
BLOCK
  5
1C
330
1B
100
AcDbEntity
 67
     1
  8
0
100
AcDbBlockBegin
  2
*Paper_Space
 70
     0
 10
0.0
 20
0.0
 30
0.0
  3
*Paper_Space
  1

  0
ENDBLK
  5
1D
330
1B
100
AcDbEntity
 67
     1
  8
0
100
AcDbBlockEnd
  0
BLOCK
  5
24
330
23
100
AcDbEntity
  8
0
100
AcDbBlockBegin
  2
*Paper_Space0
 70
     0
 10
0.0
 20
0.0
 30
0.0
  3
*Paper_Space0
  1

  0
ENDBLK
  5
25
330
23
100
AcDbEntity
  8
0
100
AcDbBlockEnd
  0
BLOCK
  5
84
330
82
100
AcDbEntity
  8
0
100
AcDbBlockBegin
  2
block 2
 70
     0
 10
0.0
 20
0.0
 30
0.0
  3
block 2
  1

  0
SPLINE
  5
86
330
82
100
AcDbEntity
  8
_U+30EC_U+30A4_U+30E4_U+30FC 1
370
     0
100
AcDbSpline
210
0.0
220
0.0
230
1.0
 70
    11
 71
     3
 72
    26
 73
    22
 74
     0
 42
0.0000000001
 43
0.0000000001
 12
1.0
 22
0.0
 32
0.0
 13
1.0
 23
0.0
 33
0.0
 40
0.0
 40
0.0
 40
0.0
 40
0.0
 40
1.0
 40
1.0
 40
1.0
 40
2.0
 40
2.0
 40
2.0
 40
3.0
 40
3.0
 40
3.0
 40
4.0
 40
4.0
 40
4.0
 40
5.0
 40
5.0
 40
5.0
 40
6.0
 40
6.0
 40
6.0
 40
7.0
 40
7.0
 40
7.0
 40
7.0
 10
87.2632351127328
 20
-122.5585828686659
 30
0.0
 10
87.2632351127328
 20
-122.5585828686659
 30
0.0
 10
87.2632351127328
 20
-121.4542575108691
 30
0.0
 10
87.2632351127328
 20
-121.4542575108691
 30
0.0
 10
87.2632351127328
 20
-121.4542575108691
 30
0.0
 10
86.91045733504322
 20
-121.4542575108691
 30
0.0
 10
86.91045733504322
 20
-121.4542575108691
 30
0.0
 10
86.91045733504322
 20
-121.4542575108691
 30
0.0
 10
86.91045733504322
 20
-121.3062906597776
 30
0.0
 10
86.91045733504322
 20
-121.3062906597776
 30
0.0
 10
87.26547442479821
 20
-121.291476749191
 30
0.0
 10
87.31525605456008
 20
-121.1285237327387
 30
0.0
 10
87.34695093302437
 20
-121.0143188174027
 30
0.0
 10
87.34695093302437
 20
-121.0143188174027
 30
0.0
 10
87.50284150373193
 20
-121.0143188174027
 30
0.0
 10
87.50284150373193
 20
-121.0143188174027
 30
0.0
 10
87.50284150373193
 20
-121.0143188174027
 30
0.0
 10
87.50284150373193
 20
-122.5585828686659
 30
0.0
 10
87.50284150373193
 20
-122.5585828686659
 30
0.0
 10
87.50284150373193
 20
-122.5585828686659
 30
0.0
 10
87.2632351127328
 20
-122.5585828686659
 30
0.0
 10
87.2632351127328
 20
-122.5585828686659
 30
0.0
  0
HATCH
  5
87
330
82
100
AcDbEntity
  8
_U+30EC_U+30A4_U+30E4_U+30FC 1
 62
   179
420
  2234388
100
AcDbHatch
 10
0.0
 20
0.0
 30
0.0
210
0.0
220
0.0
230
1.0
  2
SOLID
 70
     1
 71
     0
 91
        1
 92
        1
 93
        1
 72
     4
 94
        3
 73
     0
 74
     1
 95
       26
 96
       22
 40
0.0
 40
0.0
 40
0.0
 40
0.0
 40
1.0
 40
1.0
 40
1.0
 40
2.0
 40
2.0
 40
2.0
 40
3.0
 40
3.0
 40
3.0
 40
4.0
 40
4.0
 40
4.0
 40
5.0
 40
5.0
 40
5.0
 40
6.0
 40
6.0
 40
6.0
 40
7.0
 40
7.0
 40
7.0
 40
7.0
 10
87.2632351127328
 20
-122.5585828686659
 10
87.2632351127328
 20
-122.5585828686659
 10
87.2632351127328
 20
-121.4542575108691
 10
87.2632351127328
 20
-121.4542575108691
 10
87.2632351127328
 20
-121.4542575108691
 10
86.91045733504322
 20
-121.4542575108691
 10
86.91045733504322
 20
-121.4542575108691
 10
86.91045733504322
 20
-121.4542575108691
 10
86.91045733504322
 20
-121.3062906597776
 10
86.91045733504322
 20
-121.3062906597776
 10
87.26547442479821
 20
-121.291476749191
 10
87.31525605456008
 20
-121.1285237327387
 10
87.34695093302437
 20
-121.0143188174027
 10
87.34695093302437
 20
-121.0143188174027
 10
87.50284150373193
 20
-121.0143188174027
 10
87.50284150373193
 20
-121.0143188174027
 10
87.50284150373193
 20
-121.0143188174027
 10
87.50284150373193
 20
-122.5585828686659
 10
87.50284150373193
 20
-122.5585828686659
 10
87.50284150373193
 20
-122.5585828686659
 10
87.2632351127328
 20
-122.5585828686659
 10
87.2632351127328
 20
-122.5585828686659
 97
        0
 97
        0
 75
     2
 76
     1
 98
        0
  0
SPLINE
  5
88
330
82
100
AcDbEntity
  8
_U+30EC_U+30A4_U+30E4_U+30FC 1
370
     0
100
AcDbSpline
210
0.0
220
0.0
230
1.0
 70
    11
 71
     3
 72
    29
 73
    25
 74
     0
 42
0.0000000001
 43
0.0000000001
 12
1.0
 22
0.0
 32
0.0
 13
1.0
 23
0.0
 33
0.0
 40
0.0
 40
0.0
 40
0.0
 40
0.0
 40
1.0
 40
1.0
 40
1.0
 40
2.0
 40
2.0
 40
2.0
 40
3.0
 40
3.0
 40
3.0
 40
4.0
 40
4.0
 40
4.0
 40
5.0
 40
5.0
 40
5.0
 40
6.0
 40
6.0
 40
6.0
 40
7.0
 40
7.0
 40
7.0
 40
8.0
 40
8.0
 40
8.0
 40
8.0
 10
88.57271590667627
 20
-122.6093980270734
 30
0.0
 10
88.28780651004611
 20
-122.6093980270734
 30
0.0
 10
88.01667749535694
 20
-122.4717664624376
 30
0.0
 10
88.01667749535694
 20
-122.1227782897818
 30
0.0
 10
88.01667749535694
 20
-121.8668076952277
 30
0.0
 10
88.16826169670794
 20
-121.7715508050606
 30
0.0
 10
88.28126082862413
 20
-121.7102281054231
 30
0.0
 10
88.14793563334497
 20
-121.6509724630768
 30
0.0
 10
88.06628687034454
 20
-121.5367675477408
 30
0.0
 10
88.06628687034454
 20
-121.3760538433539
 30
0.0
 10
88.06628687034454
 20
-121.1009629688567
 30
0.0
 10
88.27884926178446
 20
-120.9655707162864
 30
0.0
 10
88.57271590667627
 20
-120.9655707162864
 30
0.0
 10
88.87588430937825
 20
-120.9655707162864
 30
0.0
 10
89.07914494300799
 20
-121.1094034527956
 30
0.0
 10
89.07914494300799
 20
-121.3760538433539
 30
0.0
 10
89.07914494300799
 20
-121.5367675477408
 30
0.0
 10
88.99577363226496
 20
-121.6509724630768
 30
0.0
 10
88.86210392743726
 20
-121.7102281054231
 30
0.0
 10
88.95718856283015
 20
-121.7610432638306
 30
0.0
 10
89.12668726070444
 20
-121.8563001539977
 30
0.0
 10
89.12668726070444
 20
-122.1186441751995
 30
0.0
 10
89.12668726070444
 20
-122.4929537996719
 30
0.0
 10
88.82834199168181
 20
-122.6093980270734
 30
0.0
 10
88.57271590667627
 20
-122.6093980270734
 30
0.0
  0
SPLINE
  5
89
330
82
100
AcDbEntity
  8
_U+30EC_U+30A4_U+30E4_U+30FC 1
370
     0
100
AcDbSpline
210
0.0
220
0.0
230
1.0
 70
    11
 71
     3
 72
    17
 73
    13
 74
     0
 42
0.0000000001
 43
0.0000000001
 12
1.0
 22
0.0
 32
0.0
 13
1.0
 23
0.0
 33
0.0
 40
0.0
 40
0.0
 40
0.0
 40
0.0
 40
1.0
 40
1.0
 40
1.0
 40
2.0
 40
2.0
 40
2.0
 40
3.0
 40
3.0
 40
3.0
 40
4.0
 40
4.0
 40
4.0
 40
4.0
 10
88.57271590667627
 20
-121.8182318488857
 30
0.0
 10
88.41906464803412
 20
-121.8182318488857
 30
0.0
 10
88.25645614113033
 20
-121.9048760003398
 30
0.0
 10
88.25645614113033
 20
-122.1079643791952
 30
0.0
 10
88.25645614113033
 20
-122.3131198153419
 30
0.0
 10
88.39184839370066
 20
-122.4147501321567
 30
0.0
 10
88.57271590667627
 20
-122.4147501321567
 30
0.0
 10
88.7718424257237
 20
-122.4147501321567
 30
0.0
 10
88.88932018177073
 20
-122.2921047328818
 30
0.0
 10
88.88932018177073
 20
-122.114337805843
 30
0.0
 10
88.88932018177073
 20
-121.8921291470443
 30
0.0
 10
88.71534285976561
 20
-121.8182318488857
 30
0.0
 10
88.57271590667627
 20
-121.8182318488857
 30
0.0
  0
SPLINE
  5
8A
330
82
100
AcDbEntity
  8
_U+30EC_U+30A4_U+30E4_U+30FC 1
370
     0
100
AcDbSpline
210
0.0
220
0.0
230
1.0
 70
    11
 71
     3
 72
    17
 73
    13
 74
     0
 42
0.0000000001
 43
0.0000000001
 12
1.0
 22
0.0
 32
0.0
 13
1.0
 23
0.0
 33
0.0
 40
0.0
 40
0.0
 40
0.0
 40
0.0
 40
1.0
 40
1.0
 40
1.0
 40
2.0
 40
2.0
 40
2.0
 40
3.0
 40
3.0
 40
3.0
 40
4.0
 40
4.0
 40
4.0
 40
4.0
 10
88.57271590667627
 20
-121.1581515539118
 30
0.0
 10
88.39667152738001
 20
-121.1581515539118
 30
0.0
 10
88.30606551611793
 20
-121.2532361893048
 30
0.0
 10
88.30606551611793
 20
-121.3886284418751
 30
0.0
 10
88.30606551611793
 20
-121.5114460959242
 30
0.0
 10
88.382891145439
 20
-121.6299573806168
 30
0.0
 10
88.57271590667627
 20
-121.6299573806168
 30
0.0
 10
88.76288517746207
 20
-121.6299573806168
 30
0.0
 10
88.83971080678313
 20
-121.5114460959242
 30
0.0
 10
88.83971080678313
 20
-121.3886284418751
 30
0.0
 10
88.83971080678313
 20
-121.2532361893048
 30
0.0
 10
88.7470377382299
 20
-121.1581515539118
 30
0.0
 10
88.57271590667627
 20
-121.1581515539118
 30
0.0
  0
HATCH
  5
8B
330
82
100
AcDbEntity
  8
_U+30EC_U+30A4_U+30E4_U+30FC 1
 62
   179
420
  2234388
100
AcDbHatch
 10
0.0
 20
0.0
 30
0.0
210
0.0
220
0.0
230
1.0
  2
SOLID
 70
     1
 71
     0
 91
        3
 92
        1
 93
        1
 72
     4
 94
        3
 73
     0
 74
     1
 95
       29
 96
       25
 40
0.0
 40
0.0
 40
0.0
 40
0.0
 40
1.0
 40
1.0
 40
1.0
 40
2.0
 40
2.0
 40
2.0
 40
3.0
 40
3.0
 40
3.0
 40
4.0
 40
4.0
 40
4.0
 40
5.0
 40
5.0
 40
5.0
 40
6.0
 40
6.0
 40
6.0
 40
7.0
 40
7.0
 40
7.0
 40
8.0
 40
8.0
 40
8.0
 40
8.0
 10
88.57271590667627
 20
-122.6093980270734
 10
88.28780651004611
 20
-122.6093980270734
 10
88.01667749535694
 20
-122.4717664624376
 10
88.01667749535694
 20
-122.1227782897818
 10
88.01667749535694
 20
-121.8668076952277
 10
88.16826169670794
 20
-121.7715508050606
 10
88.28126082862413
 20
-121.7102281054231
 10
88.14793563334497
 20
-121.6509724630768
 10
88.06628687034454
 20
-121.5367675477408
 10
88.06628687034454
 20
-121.3760538433539
 10
88.06628687034454
 20
-121.1009629688567
 10
88.27884926178446
 20
-120.9655707162864
 10
88.57271590667627
 20
-120.9655707162864
 10
88.87588430937825
 20
-120.9655707162864
 10
89.07914494300799
 20
-121.1094034527956
 10
89.07914494300799
 20
-121.3760538433539
 10
89.07914494300799
 20
-121.5367675477408
 10
88.99577363226496
 20
-121.6509724630768
 10
88.86210392743726
 20
-121.7102281054231
 10
88.95718856283015
 20
-121.7610432638306
 10
89.12668726070444
 20
-121.8563001539977
 10
89.12668726070444
 20
-122.1186441751995
 10
89.12668726070444
 20
-122.4929537996719
 10
88.82834199168181
 20
-122.6093980270734
 10
88.57271590667627
 20
-122.6093980270734
 97
        0
 97
        0
 92
        1
 93
        1
 72
     4
 94
        3
 73
     0
 74
     1
 95
       17
 96
       13
 40
0.0
 40
0.0
 40
0.0
 40
0.0
 40
1.0
 40
1.0
 40
1.0
 40
2.0
 40
2.0
 40
2.0
 40
3.0
 40
3.0
 40
3.0
 40
4.0
 40
4.0
 40
4.0
 40
4.0
 10
88.57271590667627
 20
-121.8182318488857
 10
88.41906464803412
 20
-121.8182318488857
 10
88.25645614113033
 20
-121.9048760003398
 10
88.25645614113033
 20
-122.1079643791952
 10
88.25645614113033
 20
-122.3131198153419
 10
88.39184839370066
 20
-122.4147501321567
 10
88.57271590667627
 20
-122.4147501321567
 10
88.7718424257237
 20
-122.4147501321567
 10
88.88932018177073
 20
-122.2921047328818
 10
88.88932018177073
 20
-122.114337805843
 10
88.88932018177073
 20
-121.8921291470443
 10
88.71534285976561
 20
-121.8182318488857
 10
88.57271590667627
 20
-121.8182318488857
 97
        0
 97
        0
 92
        1
 93
        1
 72
     4
 94
        3
 73
     0
 74
     1
 95
       17
 96
       13
 40
0.0
 40
0.0
 40
0.0
 40
0.0
 40
1.0
 40
1.0
 40
1.0
 40
2.0
 40
2.0
 40
2.0
 40
3.0
 40
3.0
 40
3.0
 40
4.0
 40
4.0
 40
4.0
 40
4.0
 10
88.57271590667627
 20
-121.1581515539118
 10
88.39667152738001
 20
-121.1581515539118
 10
88.30606551611793
 20
-121.2532361893048
 10
88.30606551611793
 20
-121.3886284418751
 10
88.30606551611793
 20
-121.5114460959242
 10
88.382891145439
 20
-121.6299573806168
 10
88.57271590667627
 20
-121.6299573806168
 10
88.76288517746207
 20
-121.6299573806168
 10
88.83971080678313
 20
-121.5114460959242
 10
88.83971080678313
 20
-121.3886284418751
 10
88.83971080678313
 20
-121.2532361893048
 10
88.7470377382299
 20
-121.1581515539118
 10
88.57271590667627
 20
-121.1581515539118
 97
        0
 97
        0
 75
     2
 76
     1
 98
        0
  0
ENDBLK
  5
85
330
82
100
AcDbEntity
  8
0
100
AcDbBlockEnd
  0
BLOCK
  5
8E
330
8C
100
AcDbEntity
  8
0
100
AcDbBlockBegin
  2
block 3
 70
     0
 10
0.0
 20
0.0
 30
0.0
  3
block 3
  1

  0
SPLINE
  5
90
330
8C
100
AcDbEntity
  8
_U+30EC_U+30A4_U+30E4_U+30FC 1
370
     0
100
AcDbSpline
210
0.0
220
0.0
230
1.0
 70
    11
 71
     3
 72
    26
 73
    22
 74
     0
 42
0.0000000001
 43
0.0000000001
 12
1.0
 22
0.0
 32
0.0
 13
1.0
 23
0.0
 33
0.0
 40
0.0
 40
0.0
 40
0.0
 40
0.0
 40
1.0
 40
1.0
 40
1.0
 40
2.0
 40
2.0
 40
2.0
 40
3.0
 40
3.0
 40
3.0
 40
4.0
 40
4.0
 40
4.0
 40
5.0
 40
5.0
 40
5.0
 40
6.0
 40
6.0
 40
6.0
 40
7.0
 40
7.0
 40
7.0
 40
7.0
 10
84.76330157386126
 20
-136.0588785467145
 30
0.0
 10
84.76330157386126
 20
-136.0588785467145
 30
0.0
 10
84.76330157386126
 20
-134.9547254436919
 30
0.0
 10
84.76330157386126
 20
-134.9547254436919
 30
0.0
 10
84.76330157386126
 20
-134.9547254436919
 30
0.0
 10
84.41052379617167
 20
-134.9547254436919
 30
0.0
 10
84.41052379617167
 20
-134.9547254436919
 30
0.0
 10
84.41052379617167
 20
-134.9547254436919
 30
0.0
 10
84.41052379617167
 20
-134.8065863378261
 30
0.0
 10
84.41052379617167
 20
-134.8065863378261
 30
0.0
 10
84.76554088592667
 20
-134.7917724272396
 30
0.0
 10
84.81532251568854
 20
-134.6288194107873
 30
0.0
 10
84.84684513937857
 20
-134.5144422406769
 30
0.0
 10
84.84684513937857
 20
-134.5144422406769
 30
0.0
 10
85.00290796486038
 20
-134.5144422406769
 30
0.0
 10
85.00290796486038
 20
-134.5144422406769
 30
0.0
 10
85.00290796486038
 20
-134.5144422406769
 30
0.0
 10
85.00290796486038
 20
-136.0588785467145
 30
0.0
 10
85.00290796486038
 20
-136.0588785467145
 30
0.0
 10
85.00290796486038
 20
-136.0588785467145
 30
0.0
 10
84.76330157386126
 20
-136.0588785467145
 30
0.0
 10
84.76330157386126
 20
-136.0588785467145
 30
0.0
  0
HATCH
  5
91
330
8C
100
AcDbEntity
  8
_U+30EC_U+30A4_U+30E4_U+30FC 1
 62
   179
420
  2234388
100
AcDbHatch
 10
0.0
 20
0.0
 30
0.0
210
0.0
220
0.0
230
1.0
  2
SOLID
 70
     1
 71
     0
 91
        1
 92
        1
 93
        1
 72
     4
 94
        3
 73
     0
 74
     1
 95
       26
 96
       22
 40
0.0
 40
0.0
 40
0.0
 40
0.0
 40
1.0
 40
1.0
 40
1.0
 40
2.0
 40
2.0
 40
2.0
 40
3.0
 40
3.0
 40
3.0
 40
4.0
 40
4.0
 40
4.0
 40
5.0
 40
5.0
 40
5.0
 40
6.0
 40
6.0
 40
6.0
 40
7.0
 40
7.0
 40
7.0
 40
7.0
 10
84.76330157386126
 20
-136.0588785467145
 10
84.76330157386126
 20
-136.0588785467145
 10
84.76330157386126
 20
-134.9547254436919
 10
84.76330157386126
 20
-134.9547254436919
 10
84.76330157386126
 20
-134.9547254436919
 10
84.41052379617167
 20
-134.9547254436919
 10
84.41052379617167
 20
-134.9547254436919
 10
84.41052379617167
 20
-134.9547254436919
 10
84.41052379617167
 20
-134.8065863378261
 10
84.41052379617167
 20
-134.8065863378261
 10
84.76554088592667
 20
-134.7917724272396
 10
84.81532251568854
 20
-134.6288194107873
 10
84.84684513937857
 20
-134.5144422406769
 10
84.84684513937857
 20
-134.5144422406769
 10
85.00290796486038
 20
-134.5144422406769
 10
85.00290796486038
 20
-134.5144422406769
 10
85.00290796486038
 20
-134.5144422406769
 10
85.00290796486038
 20
-136.0588785467145
 10
85.00290796486038
 20
-136.0588785467145
 10
85.00290796486038
 20
-136.0588785467145
 10
84.76330157386126
 20
-136.0588785467145
 10
84.76330157386126
 20
-136.0588785467145
 97
        0
 97
        0
 75
     2
 76
     1
 98
        0
  0
SPLINE
  5
92
330
8C
100
AcDbEntity
  8
_U+30EC_U+30A4_U+30E4_U+30FC 1
370
     0
100
AcDbSpline
210
0.0
220
0.0
230
1.0
 70
    11
 71
     3
 72
    62
 73
    58
 74
     0
 42
0.0000000001
 43
0.0000000001
 12
1.0
 22
0.0
 32
0.0
 13
1.0
 23
0.0
 33
0.0
 40
0.0
 40
0.0
 40
0.0
 40
0.0
 40
1.0
 40
1.0
 40
1.0
 40
2.0
 40
2.0
 40
2.0
 40
3.0
 40
3.0
 40
3.0
 40
4.0
 40
4.0
 40
4.0
 40
5.0
 40
5.0
 40
5.0
 40
6.0
 40
6.0
 40
6.0
 40
7.0
 40
7.0
 40
7.0
 40
8.0
 40
8.0
 40
8.0
 40
9.0
 40
9.0
 40
9.0
 40
10.0
 40
10.0
 40
10.0
 40
11.0
 40
11.0
 40
11.0
 40
12.0
 40
12.0
 40
12.0
 40
13.0
 40
13.0
 40
13.0
 40
14.0
 40
14.0
 40
14.0
 40
15.0
 40
15.0
 40
15.0
 40
16.0
 40
16.0
 40
16.0
 40
17.0
 40
17.0
 40
17.0
 40
18.0
 40
18.0
 40
18.0
 40
19.0
 40
19.0
 40
19.0
 40
19.0
 10
86.06399737431734
 20
-136.1095214503476
 30
0.0
 10
85.96236705750246
 20
-136.1095214503476
 30
0.0
 10
85.72947860269957
 20
-136.0885063678876
 30
0.0
 10
85.59598115264615
 20
-135.9024712116841
 30
0.0
 10
85.51691621125967
 20
-135.790161098865
 30
0.0
 10
85.51243758712884
 20
-135.6909423488898
 30
0.0
 10
85.50795896299802
 20
-135.6061929999526
 30
0.0
 10
85.50795896299802
 20
-135.6061929999526
 30
0.0
 10
85.74291447509205
 20
-135.6061929999526
 30
0.0
 10
85.74291447509205
 20
-135.6061929999526
 30
0.0
 10
85.74532604193173
 20
-135.6802625528855
 30
0.0
 10
85.75652260225878
 20
-135.914873555431
 30
0.0
 10
86.05951875018651
 20
-135.914873555431
 30
0.0
 10
86.20645207263242
 20
-135.914873555431
 30
0.0
 10
86.36923283431048
 20
-135.845282626629
 30
0.0
 10
86.36923283431048
 20
-135.6168727959569
 30
0.0
 10
86.36923283431048
 20
-135.5004285685555
 30
0.0
 10
86.32858070758452
 20
-135.4518527222134
 30
0.0
 10
86.29464651705482
 20
-135.4201578437491
 30
0.0
 10
86.21558157566832
 20
-135.3460882908163
 30
0.0
 10
86.0912136286508
 20
-135.3333414375208
 30
0.0
 10
86.03230249585305
 20
-135.3333414375208
 30
0.0
 10
86.01197643249006
 20
-135.3333414375208
 30
0.0
 10
85.97356361782953
 20
-135.335408494812
 30
0.0
 10
85.9442803062049
 20
-135.3395426093943
 30
0.0
 10
85.9442803062049
 20
-135.3395426093943
 30
0.0
 10
85.9442803062049
 20
-135.1448947144777
 30
0.0
 10
85.9442803062049
 20
-135.1448947144777
 30
0.0
 10
85.98493243293085
 20
-135.1514403958996
 30
0.0
 10
86.03006318378763
 20
-135.1535074531908
 30
0.0
 10
86.03695337475813
 20
-135.1535074531908
 30
0.0
 10
86.10706106788297
 20
-135.1535074531908
 30
0.0
 10
86.31945120454861
 20
-135.1321478611822
 30
0.0
 10
86.31945120454861
 20
-134.8954698013456
 30
0.0
 10
86.31945120454861
 20
-134.7177028743067
 30
0.0
 10
86.1794080730732
 20
-134.6625813465427
 30
0.0
 10
86.06175806225193
 20
-134.6625813465427
 30
0.0
 10
85.77908797768718
 20
-134.6625813465427
 30
0.0
 10
85.77013072942553
 20
-134.8954698013456
 30
0.0
 10
85.7656521052947
 20
-134.9671277874388
 30
0.0
 10
85.7656521052947
 20
-134.9671277874388
 30
0.0
 10
85.54861108972396
 20
-134.9671277874388
 30
0.0
 10
85.54861108972396
 20
-134.9671277874388
 30
0.0
 10
85.55756833798561
 20
-134.8424153308727
 30
0.0
 10
85.5870239043845
 20
-134.4658663943349
 30
0.0
 10
86.07536618941866
 20
-134.4658663943349
 30
0.0
 10
86.31497258041779
 20
-134.4658663943349
 30
0.0
 10
86.57266572271448
 20
-134.5929904177407
 30
0.0
 10
86.57266572271448
 20
-134.8889241199236
 30
0.0
 10
86.57266572271448
 20
-135.0753037856756
 30
0.0
 10
86.47103540589961
 20
-135.1576415677731
 30
0.0
 10
86.36475421017965
 20
-135.2189642674105
 30
0.0
 10
86.4302110243994
 20
-135.2465250312925
 30
0.0
 10
86.62468666454176
 20
-135.3267957560989
 30
0.0
 10
86.62468666454176
 20
-135.6041259426615
 30
0.0
 10
86.62468666454176
 20
-135.942434319313
 30
0.0
 10
86.36027558604883
 20
-136.1095214503476
 30
0.0
 10
86.06399737431734
 20
-136.1095214503476
 30
0.0
  0
HATCH
  5
93
330
8C
100
AcDbEntity
  8
_U+30EC_U+30A4_U+30E4_U+30FC 1
 62
   179
420
  2234388
100
AcDbHatch
 10
0.0
 20
0.0
 30
0.0
210
0.0
220
0.0
230
1.0
  2
SOLID
 70
     1
 71
     0
 91
        1
 92
        1
 93
        1
 72
     4
 94
        3
 73
     0
 74
     1
 95
       62
 96
       58
 40
0.0
 40
0.0
 40
0.0
 40
0.0
 40
1.0
 40
1.0
 40
1.0
 40
2.0
 40
2.0
 40
2.0
 40
3.0
 40
3.0
 40
3.0
 40
4.0
 40
4.0
 40
4.0
 40
5.0
 40
5.0
 40
5.0
 40
6.0
 40
6.0
 40
6.0
 40
7.0
 40
7.0
 40
7.0
 40
8.0
 40
8.0
 40
8.0
 40
9.0
 40
9.0
 40
9.0
 40
10.0
 40
10.0
 40
10.0
 40
11.0
 40
11.0
 40
11.0
 40
12.0
 40
12.0
 40
12.0
 40
13.0
 40
13.0
 40
13.0
 40
14.0
 40
14.0
 40
14.0
 40
15.0
 40
15.0
 40
15.0
 40
16.0
 40
16.0
 40
16.0
 40
17.0
 40
17.0
 40
17.0
 40
18.0
 40
18.0
 40
18.0
 40
19.0
 40
19.0
 40
19.0
 40
19.0
 10
86.06399737431734
 20
-136.1095214503476
 10
85.96236705750246
 20
-136.1095214503476
 10
85.72947860269957
 20
-136.0885063678876
 10
85.59598115264615
 20
-135.9024712116841
 10
85.51691621125967
 20
-135.790161098865
 10
85.51243758712884
 20
-135.6909423488898
 10
85.50795896299802
 20
-135.6061929999526
 10
85.50795896299802
 20
-135.6061929999526
 10
85.74291447509205
 20
-135.6061929999526
 10
85.74291447509205
 20
-135.6061929999526
 10
85.74532604193173
 20
-135.6802625528855
 10
85.75652260225878
 20
-135.914873555431
 10
86.05951875018651
 20
-135.914873555431
 10
86.20645207263242
 20
-135.914873555431
 10
86.36923283431048
 20
-135.845282626629
 10
86.36923283431048
 20
-135.6168727959569
 10
86.36923283431048
 20
-135.5004285685555
 10
86.32858070758452
 20
-135.4518527222134
 10
86.29464651705482
 20
-135.4201578437491
 10
86.21558157566832
 20
-135.3460882908163
 10
86.0912136286508
 20
-135.3333414375208
 10
86.03230249585305
 20
-135.3333414375208
 10
86.01197643249006
 20
-135.3333414375208
 10
85.97356361782953
 20
-135.335408494812
 10
85.9442803062049
 20
-135.3395426093943
 10
85.9442803062049
 20
-135.3395426093943
 10
85.9442803062049
 20
-135.1448947144777
 10
85.9442803062049
 20
-135.1448947144777
 10
85.98493243293085
 20
-135.1514403958996
 10
86.03006318378763
 20
-135.1535074531908
 10
86.03695337475813
 20
-135.1535074531908
 10
86.10706106788297
 20
-135.1535074531908
 10
86.31945120454861
 20
-135.1321478611822
 10
86.31945120454861
 20
-134.8954698013456
 10
86.31945120454861
 20
-134.7177028743067
 10
86.1794080730732
 20
-134.6625813465427
 10
86.06175806225193
 20
-134.6625813465427
 10
85.77908797768718
 20
-134.6625813465427
 10
85.77013072942553
 20
-134.8954698013456
 10
85.7656521052947
 20
-134.9671277874388
 10
85.7656521052947
 20
-134.9671277874388
 10
85.54861108972396
 20
-134.9671277874388
 10
85.54861108972396
 20
-134.9671277874388
 10
85.55756833798561
 20
-134.8424153308727
 10
85.5870239043845
 20
-134.4658663943349
 10
86.07536618941866
 20
-134.4658663943349
 10
86.31497258041779
 20
-134.4658663943349
 10
86.57266572271448
 20
-134.5929904177407
 10
86.57266572271448
 20
-134.8889241199236
 10
86.57266572271448
 20
-135.0753037856756
 10
86.47103540589961
 20
-135.1576415677731
 10
86.36475421017965
 20
-135.2189642674105
 10
86.4302110243994
 20
-135.2465250312925
 10
86.62468666454176
 20
-135.3267957560989
 10
86.62468666454176
 20
-135.6041259426615
 10
86.62468666454176
 20
-135.942434319313
 10
86.36027558604883
 20
-136.1095214503476
 10
86.06399737431734
 20
-136.1095214503476
 97
        0
 97
        0
 75
     2
 76
     1
 98
        0
  0
ENDBLK
  5
8F
330
8C
100
AcDbEntity
  8
0
100
AcDbBlockEnd
  0
BLOCK
  5
96
330
94
100
AcDbEntity
  8
0
100
AcDbBlockBegin
  2
block 4
 70
     0
 10
0.0
 20
0.0
 30
0.0
  3
block 4
  1

  0
POLYLINE
  5
98
330
94
100
AcDbEntity
  8
_U+30EC_U+30A4_U+30E4_U+30FC 1
370
     0
100
AcDb2dPolyline
 66
     1
 10
0.0
 20
0.0
 30
0.0
  0
VERTEX
  5
99
330
98
100
AcDbEntity
  8
_U+30EC_U+30A4_U+30E4_U+30FC 1
370
     0
100
AcDbVertex
100
AcDb2dVertex
 10
99.95117727535943
 20
-129.853917068231
 30
0.0
  0
VERTEX
  5
9A
330
98
100
AcDbEntity
  8
_U+30EC_U+30A4_U+30E4_U+30FC 1
370
     0
100
AcDbVertex
100
AcDb2dVertex
 10
100.2980983907241
 20
-129.853917068231
 30
0.0
  0
VERTEX
  5
9B
330
98
100
AcDbEntity
  8
_U+30EC_U+30A4_U+30E4_U+30FC 1
370
     0
100
AcDbVertex
100
AcDb2dVertex
 10
100.2980983907241
 20
-130.0868055230339
 30
0.0
  0
VERTEX
  5
9C
330
98
100
AcDbEntity
  8
_U+30EC_U+30A4_U+30E4_U+30FC 1
370
     0
100
AcDbVertex
100
AcDb2dVertex
 10
99.95117727535943
 20
-130.0868055230339
 30
0.0
  0
VERTEX
  5
9D
330
98
100
AcDbEntity
  8
_U+30EC_U+30A4_U+30E4_U+30FC 1
370
     0
100
AcDbVertex
100
AcDb2dVertex
 10
99.95117727535943
 20
-130.7878824542822
 30
0.0
  0
VERTEX
  5
9E
330
98
100
AcDbEntity
  8
_U+30EC_U+30A4_U+30E4_U+30FC 1
370
     0
100
AcDbVertex
100
AcDb2dVertex
 10
99.72690155926966
 20
-130.7878824542822
 30
0.0
  0
VERTEX
  5
9F
330
98
100
AcDbEntity
  8
_U+30EC_U+30A4_U+30E4_U+30FC 1
370
     0
100
AcDbVertex
100
AcDb2dVertex
 10
98.7536620846866
 20
-130.0620008355401
 30
0.0
  0
VERTEX
  5
A0
330
98
100
AcDbEntity
  8
_U+30EC_U+30A4_U+30E4_U+30FC 1
370
     0
100
AcDbVertex
100
AcDb2dVertex
 10
98.7536620846866
 20
-129.853917068231
 30
0.0
  0
VERTEX
  5
A1
330
98
100
AcDbEntity
  8
_U+30EC_U+30A4_U+30E4_U+30FC 1
370
     0
100
AcDbVertex
100
AcDb2dVertex
 10
99.75239526586051
 20
-129.853917068231
 30
0.0
  0
VERTEX
  5
A2
330
98
100
AcDbEntity
  8
_U+30EC_U+30A4_U+30E4_U+30FC 1
370
     0
100
AcDbVertex
100
AcDb2dVertex
 10
99.75239526586051
 20
-129.6323974285294
 30
0.0
  0
VERTEX
  5
A3
330
98
100
AcDbEntity
  8
_U+30EC_U+30A4_U+30E4_U+30FC 1
370
     0
100
AcDbVertex
100
AcDb2dVertex
 10
99.95117727535943
 20
-129.6323974285294
 30
0.0
  0
VERTEX
  5
A4
330
98
100
AcDbEntity
  8
_U+30EC_U+30A4_U+30E4_U+30FC 1
370
     0
100
AcDbVertex
100
AcDb2dVertex
 10
99.95117727535943
 20
-129.853917068231
 30
0.0
  0
SEQEND
  5
A5
330
98
100
AcDbEntity
  8
_U+30EC_U+30A4_U+30E4_U+30FC 1
370
     0
  0
POLYLINE
  5
A6
330
94
100
AcDbEntity
  8
_U+30EC_U+30A4_U+30E4_U+30FC 1
370
     0
100
AcDb2dPolyline
 66
     1
 10
0.0
 20
0.0
 30
0.0
  0
VERTEX
  5
A7
330
A6
100
AcDbEntity
  8
_U+30EC_U+30A4_U+30E4_U+30FC 1
370
     0
100
AcDbVertex
100
AcDb2dVertex
 10
99.09644908546895
 20
-130.0868055230339
 30
0.0
  0
VERTEX
  5
A8
330
A6
100
AcDbEntity
  8
_U+30EC_U+30A4_U+30E4_U+30FC 1
370
     0
100
AcDbVertex
100
AcDb2dVertex
 10
99.75239526586051
 20
-130.5753200628423
 30
0.0
  0
VERTEX
  5
A9
330
A6
100
AcDbEntity
  8
_U+30EC_U+30A4_U+30E4_U+30FC 1
370
     0
100
AcDbVertex
100
AcDb2dVertex
 10
99.75239526586051
 20
-130.0868055230339
 30
0.0
  0
VERTEX
  5
AA
330
A6
100
AcDbEntity
  8
_U+30EC_U+30A4_U+30E4_U+30FC 1
370
     0
100
AcDbVertex
100
AcDb2dVertex
 10
99.09644908546895
 20
-130.0868055230339
 30
0.0
  0
SEQEND
  5
AB
330
A6
100
AcDbEntity
  8
_U+30EC_U+30A4_U+30E4_U+30FC 1
370
     0
  0
HATCH
  5
AC
330
94
100
AcDbEntity
  8
_U+30EC_U+30A4_U+30E4_U+30FC 1
 62
   179
420
  2234388
100
AcDbHatch
 10
0.0
 20
0.0
 30
0.0
210
0.0
220
0.0
230
1.0
  2
SOLID
 70
     1
 71
     0
 91
        2
 92
        1
 93
       11
 72
     1
 10
99.95117727535943
 20
-129.853917068231
 11
100.2980983907241
 21
-129.853917068231
 72
     1
 10
100.2980983907241
 20
-129.853917068231
 11
100.2980983907241
 21
-130.0868055230339
 72
     1
 10
100.2980983907241
 20
-130.0868055230339
 11
99.95117727535943
 21
-130.0868055230339
 72
     1
 10
99.95117727535943
 20
-130.0868055230339
 11
99.95117727535943
 21
-130.7878824542822
 72
     1
 10
99.95117727535943
 20
-130.7878824542822
 11
99.72690155926966
 21
-130.7878824542822
 72
     1
 10
99.72690155926966
 20
-130.7878824542822
 11
98.7536620846866
 21
-130.0620008355401
 72
     1
 10
98.7536620846866
 20
-130.0620008355401
 11
98.7536620846866
 21
-129.853917068231
 72
     1
 10
98.7536620846866
 20
-129.853917068231
 11
99.75239526586051
 21
-129.853917068231
 72
     1
 10
99.75239526586051
 20
-129.853917068231
 11
99.75239526586051
 21
-129.6323974285294
 72
     1
 10
99.75239526586051
 20
-129.6323974285294
 11
99.95117727535943
 21
-129.6323974285294
 72
     1
 10
99.95117727535943
 20
-129.6323974285294
 11
99.95117727535943
 21
-129.853917068231
 97
        0
 92
        1
 93
        3
 72
     1
 10
99.09644908546895
 20
-130.0868055230339
 11
99.75239526586051
 21
-130.5753200628423
 72
     1
 10
99.75239526586051
 20
-130.5753200628423
 11
99.75239526586051
 21
-130.0868055230339
 72
     1
 10
99.75239526586051
 20
-130.0868055230339
 11
99.09644908546895
 21
-130.0868055230339
 97
        0
 75
     2
 76
     1
 98
        0
  0
POLYLINE
  5
AD
330
94
100
AcDbEntity
  8
_U+30EC_U+30A4_U+30E4_U+30FC 1
370
     0
100
AcDb2dPolyline
 66
     1
 10
0.0
 20
0.0
 30
0.0
  0
VERTEX
  5
AE
330
AD
100
AcDbEntity
  8
_U+30EC_U+30A4_U+30E4_U+30FC 1
370
     0
100
AcDbVertex
100
AcDb2dVertex
 10
100.2980983907241
 20
-129.4215575848321
 30
0.0
  0
VERTEX
  5
AF
330
AD
100
AcDbEntity
  8
_U+30EC_U+30A4_U+30E4_U+30FC 1
370
     0
100
AcDbVertex
100
AcDb2dVertex
 10
100.0462619107523
 20
-129.4215575848321
 30
0.0
  0
VERTEX
  5
B0
330
AD
100
AcDbEntity
  8
_U+30EC_U+30A4_U+30E4_U+30FC 1
370
     0
100
AcDbVertex
100
AcDb2dVertex
 10
100.0462619107523
 20
-129.1524956274341
 30
0.0
  0
VERTEX
  5
B1
330
AD
100
AcDbEntity
  8
_U+30EC_U+30A4_U+30E4_U+30FC 1
370
     0
100
AcDbVertex
100
AcDb2dVertex
 10
100.2980983907241
 20
-129.1524956274341
 30
0.0
  0
VERTEX
  5
B2
330
AD
100
AcDbEntity
  8
_U+30EC_U+30A4_U+30E4_U+30FC 1
370
     0
100
AcDbVertex
100
AcDb2dVertex
 10
100.2980983907241
 20
-129.4215575848321
 30
0.0
  0
SEQEND
  5
B3
330
AD
100
AcDbEntity
  8
_U+30EC_U+30A4_U+30E4_U+30FC 1
370
     0
  0
HATCH
  5
B4
330
94
100
AcDbEntity
  8
_U+30EC_U+30A4_U+30E4_U+30FC 1
 62
   179
420
  2234388
100
AcDbHatch
 10
0.0
 20
0.0
 30
0.0
210
0.0
220
0.0
230
1.0
  2
SOLID
 70
     1
 71
     0
 91
        1
 92
        1
 93
        4
 72
     1
 10
100.2980983907241
 20
-129.4215575848321
 11
100.0462619107523
 21
-129.4215575848321
 72
     1
 10
100.0462619107523
 20
-129.4215575848321
 11
100.0462619107523
 21
-129.1524956274341
 72
     1
 10
100.0462619107523
 20
-129.1524956274341
 11
100.2980983907241
 21
-129.1524956274341
 72
     1
 10
100.2980983907241
 20
-129.1524956274341
 11
100.2980983907241
 21
-129.4215575848321
 97
        0
 75
     2
 76
     1
 98
        0
  0
SPLINE
  5
B5
330
94
100
AcDbEntity
  8
_U+30EC_U+30A4_U+30E4_U+30FC 1
370
     0
100
AcDbSpline
210
0.0
220
0.0
230
1.0
 70
    11
 71
     3
 72
    53
 73
    49
 74
     0
 42
0.0000000001
 43
0.0000000001
 12
1.0
 22
0.0
 32
0.0
 13
1.0
 23
0.0
 33
0.0
 40
0.0
 40
0.0
 40
0.0
 40
0.0
 40
1.0
 40
1.0
 40
1.0
 40
2.0
 40
2.0
 40
2.0
 40
3.0
 40
3.0
 40
3.0
 40
4.0
 40
4.0
 40
4.0
 40
5.0
 40
5.0
 40
5.0
 40
6.0
 40
6.0
 40
6.0
 40
7.0
 40
7.0
 40
7.0
 40
8.0
 40
8.0
 40
8.0
 40
9.0
 40
9.0
 40
9.0
 40
10.0
 40
10.0
 40
10.0
 40
11.0
 40
11.0
 40
11.0
 40
12.0
 40
12.0
 40
12.0
 40
13.0
 40
13.0
 40
13.0
 40
14.0
 40
14.0
 40
14.0
 40
15.0
 40
15.0
 40
15.0
 40
16.0
 40
16.0
 40
16.0
 40
16.0
 10
100.3487412943573
 20
-128.3856173724175
 30
0.0
 10
100.3487412943573
 20
-128.4689886831605
 30
0.0
 10
100.3318603264795
 20
-128.5778537004944
 30
0.0
 10
100.2684705695509
 20
-128.6860296987313
 30
0.0
 10
100.1585720235715
 20
-128.8717203453863
 30
0.0
 10
100.0273138855835
 20
-128.8941134660404
 30
0.0
 10
99.91948239689513
 20
-128.9144395294034
 30
0.0
 10
99.91948239689513
 20
-128.9144395294034
 30
0.0
 10
99.91948239689513
 20
-128.6770724504696
 30
0.0
 10
99.91948239689513
 20
-128.6770724504696
 30
0.0
 10
100.118264406394
 20
-128.6185058272204
 30
0.0
 10
100.1478922275672
 20
-128.4827690651015
 30
0.0
 10
100.1478922275672
 20
-128.3832058055778
 30
0.0
 10
100.1478922275672
 20
-128.2340331710665
 30
0.0
 10
100.0483289680435
 20
-128.0714246641627
 30
0.0
 10
99.81578502278911
 20
-128.0714246641627
 30
0.0
 10
99.55981442823506
 20
-128.0714246641627
 30
0.0
 10
99.48987898988447
 20
-128.2633164826911
 30
0.0
 10
99.48987898988447
 20
-128.3921630538395
 30
0.0
 10
99.48987898988447
 20
-128.4262694991434
 30
0.0
 10
99.48987898988447
 20
-128.5778537004944
 30
0.0
 10
99.61907007058134
 20
-128.6725938263388
 30
0.0
 10
99.61907007058134
 20
-128.6725938263388
 30
0.0
 10
99.60012204541248
 20
-128.8603515302849
 30
0.0
 10
99.60012204541248
 20
-128.8603515302849
 30
0.0
 10
99.60012204541248
 20
-128.8603515302849
 30
0.0
 10
98.7536620846866
 20
-128.7315049591366
 30
0.0
 10
98.7536620846866
 20
-128.7315049591366
 30
0.0
 10
98.7536620846866
 20
-128.7315049591366
 30
0.0
 10
98.7536620846866
 20
-127.8995143994487
 30
0.0
 10
98.7536620846866
 20
-127.8995143994487
 30
0.0
 10
98.7536620846866
 20
-127.8995143994487
 30
0.0
 10
98.94830997960321
 20
-127.8995143994487
 30
0.0
 10
98.94830997960321
 20
-127.8995143994487
 30
0.0
 10
98.94830997960321
 20
-127.8995143994487
 30
0.0
 10
98.94830997960321
 20
-128.5571831275829
 30
0.0
 10
98.94830997960321
 20
-128.5571831275829
 30
0.0
 10
98.94830997960321
 20
-128.5571831275829
 30
0.0
 10
99.37136770519189
 20
-128.627463075482
 30
0.0
 10
99.37136770519189
 20
-128.627463075482
 30
0.0
 10
99.33760576943644
 20
-128.5620062612623
 30
0.0
 10
99.29729815225902
 20
-128.4738118168399
 30
0.0
 10
99.29729815225902
 20
-128.3470323029827
 30
0.0
 10
99.29729815225902
 20
-128.0759032882935
 30
0.0
 10
99.48367781801103
 20
-127.8226887701277
 30
0.0
 10
99.79683699762025
 20
-127.8226887701277
 30
0.0
 10
100.1141302918117
 20
-127.8226887701277
 30
0.0
 10
100.3487412943573
 20
-128.0621229063525
 30
0.0
 10
100.3487412943573
 20
-128.3856173724175
 30
0.0
  0
HATCH
  5
B6
330
94
100
AcDbEntity
  8
_U+30EC_U+30A4_U+30E4_U+30FC 1
 62
   179
420
  2234388
100
AcDbHatch
 10
0.0
 20
0.0
 30
0.0
210
0.0
220
0.0
230
1.0
  2
SOLID
 70
     1
 71
     0
 91
        1
 92
        1
 93
        1
 72
     4
 94
        3
 73
     0
 74
     1
 95
       53
 96
       49
 40
0.0
 40
0.0
 40
0.0
 40
0.0
 40
1.0
 40
1.0
 40
1.0
 40
2.0
 40
2.0
 40
2.0
 40
3.0
 40
3.0
 40
3.0
 40
4.0
 40
4.0
 40
4.0
 40
5.0
 40
5.0
 40
5.0
 40
6.0
 40
6.0
 40
6.0
 40
7.0
 40
7.0
 40
7.0
 40
8.0
 40
8.0
 40
8.0
 40
9.0
 40
9.0
 40
9.0
 40
10.0
 40
10.0
 40
10.0
 40
11.0
 40
11.0
 40
11.0
 40
12.0
 40
12.0
 40
12.0
 40
13.0
 40
13.0
 40
13.0
 40
14.0
 40
14.0
 40
14.0
 40
15.0
 40
15.0
 40
15.0
 40
16.0
 40
16.0
 40
16.0
 40
16.0
 10
100.3487412943573
 20
-128.3856173724175
 10
100.3487412943573
 20
-128.4689886831605
 10
100.3318603264795
 20
-128.5778537004944
 10
100.2684705695509
 20
-128.6860296987313
 10
100.1585720235715
 20
-128.8717203453863
 10
100.0273138855835
 20
-128.8941134660404
 10
99.91948239689513
 20
-128.9144395294034
 10
99.91948239689513
 20
-128.9144395294034
 10
99.91948239689513
 20
-128.6770724504696
 10
99.91948239689513
 20
-128.6770724504696
 10
100.118264406394
 20
-128.6185058272204
 10
100.1478922275672
 20
-128.4827690651015
 10
100.1478922275672
 20
-128.3832058055778
 10
100.1478922275672
 20
-128.2340331710665
 10
100.0483289680435
 20
-128.0714246641627
 10
99.81578502278911
 20
-128.0714246641627
 10
99.55981442823506
 20
-128.0714246641627
 10
99.48987898988447
 20
-128.2633164826911
 10
99.48987898988447
 20
-128.3921630538395
 10
99.48987898988447
 20
-128.4262694991434
 10
99.48987898988447
 20
-128.5778537004944
 10
99.61907007058134
 20
-128.6725938263388
 10
99.61907007058134
 20
-128.6725938263388
 10
99.60012204541248
 20
-128.8603515302849
 10
99.60012204541248
 20
-128.8603515302849
 10
99.60012204541248
 20
-128.8603515302849
 10
98.7536620846866
 20
-128.7315049591366
 10
98.7536620846866
 20
-128.7315049591366
 10
98.7536620846866
 20
-128.7315049591366
 10
98.7536620846866
 20
-127.8995143994487
 10
98.7536620846866
 20
-127.8995143994487
 10
98.7536620846866
 20
-127.8995143994487
 10
98.94830997960321
 20
-127.8995143994487
 10
98.94830997960321
 20
-127.8995143994487
 10
98.94830997960321
 20
-127.8995143994487
 10
98.94830997960321
 20
-128.5571831275829
 10
98.94830997960321
 20
-128.5571831275829
 10
98.94830997960321
 20
-128.5571831275829
 10
99.37136770519189
 20
-128.627463075482
 10
99.37136770519189
 20
-128.627463075482
 10
99.33760576943644
 20
-128.5620062612623
 10
99.29729815225902
 20
-128.4738118168399
 10
99.29729815225902
 20
-128.3470323029827
 10
99.29729815225902
 20
-128.0759032882935
 10
99.48367781801103
 20
-127.8226887701277
 10
99.79683699762025
 20
-127.8226887701277
 10
100.1141302918117
 20
-127.8226887701277
 10
100.3487412943573
 20
-128.0621229063525
 10
100.3487412943573
 20
-128.3856173724175
 97
        0
 97
        0
 75
     2
 76
     1
 98
        0
  0
ENDBLK
  5
97
330
94
100
AcDbEntity
  8
0
100
AcDbBlockEnd
  0
ENDSEC
  0
SECTION
  2
ENTITIES
  0
POLYLINE
  5
41
330
1F
100
AcDbEntity
  8
_U+30EC_U+30A4_U+30E4_U+30FC 1
 62
   179
420
  2234388
370
    25
100
AcDb2dPolyline
 66
     1
 10
0.0
 20
0.0
 30
0.0
  0
VERTEX
  5
42
330
41
100
AcDbEntity
  8
_U+30EC_U+30A4_U+30E4_U+30FC 1
 62
   179
420
  2234388
370
    25
100
AcDbVertex
100
AcDb2dVertex
 10
78.9443621526282
 20
-128.2050888568377
 30
0.0
  0
VERTEX
  5
43
330
41
100
AcDbEntity
  8
_U+30EC_U+30A4_U+30E4_U+30FC 1
 62
   179
420
  2234388
370
    25
100
AcDbVertex
100
AcDb2dVertex
 10
78.9443621526282
 20
-131.7049619115183
 30
0.0
  0
SEQEND
  5
44
330
41
100
AcDbEntity
  8
_U+30EC_U+30A4_U+30E4_U+30FC 1
 62
   179
420
  2234388
370
    25
  0
POLYLINE
  5
45
330
1F
100
AcDbEntity
  8
_U+30EC_U+30A4_U+30E4_U+30FC 1
 62
   179
420
  2234388
370
    25
100
AcDb2dPolyline
 66
     1
 10
0.0
 20
0.0
 30
0.0
  0
VERTEX
  5
46
330
45
100
AcDbEntity
  8
_U+30EC_U+30A4_U+30E4_U+30FC 1
 62
   179
420
  2234388
370
    25
100
AcDbVertex
100
AcDb2dVertex
 10
79.94448712711288
 20
-132.705086911268
 30
0.0
  0
VERTEX
  5
47
330
45
100
AcDbEntity
  8
_U+30EC_U+30A4_U+30E4_U+30FC 1
 62
   179
420
  2234388
370
    25
100
AcDbVertex
100
AcDb2dVertex
 10
91.44454850038854
 20
-132.705086911268
 30
0.0
  0
SEQEND
  5
48
330
45
100
AcDbEntity
  8
_U+30EC_U+30A4_U+30E4_U+30FC 1
 62
   179
420
  2234388
370
    25
  0
POLYLINE
  5
49
330
1F
100
AcDbEntity
  8
_U+30EC_U+30A4_U+30E4_U+30FC 1
 62
   179
420
  2234388
370
    25
100
AcDb2dPolyline
 66
     1
 10
0.0
 20
0.0
 30
0.0
  0
VERTEX
  5
4A
330
49
100
AcDbEntity
  8
_U+30EC_U+30A4_U+30E4_U+30FC 1
 62
   179
420
  2234388
370
    25
100
AcDbVertex
100
AcDb2dVertex
 10
79.94448712711288
 20
-127.2049991348655
 30
0.0
  0
VERTEX
  5
4B
330
49
100
AcDbEntity
  8
_U+30EC_U+30A4_U+30E4_U+30FC 1
 62
   179
420
  2234388
370
    25
100
AcDbVertex
100
AcDb2dVertex
 10
96.94428336007861
 20
-127.2049991348655
 30
0.0
  0
SEQEND
  5
4C
330
49
100
AcDbEntity
  8
_U+30EC_U+30A4_U+30E4_U+30FC 1
 62
   179
420
  2234388
370
    25
  0
POLYLINE
  5
4D
330
1F
100
AcDbEntity
  8
_U+30EC_U+30A4_U+30E4_U+30FC 1
 62
   179
420
  2234388
370
    25
100
AcDb2dPolyline
 66
     1
 10
0.0
 20
0.0
 30
0.0
  0
VERTEX
  5
4E
330
4D
100
AcDbEntity
  8
_U+30EC_U+30A4_U+30E4_U+30FC 1
 62
   179
420
  2234388
370
    25
100
AcDbVertex
100
AcDb2dVertex
 10
86.94437417075311
 20
-131.7049619115183
 30
0.0
  0
VERTEX
  5
4F
330
4D
100
AcDbEntity
  8
_U+30EC_U+30A4_U+30E4_U+30FC 1
 62
   179
420
  2234388
370
    25
100
AcDbVertex
100
AcDb2dVertex
 10
91.44454850038854
 20
-131.7049619115183
 30
0.0
  0
SEQEND
  5
50
330
4D
100
AcDbEntity
  8
_U+30EC_U+30A4_U+30E4_U+30FC 1
 62
   179
420
  2234388
370
    25
  0
SPLINE
  5
51
330
1F
100
AcDbEntity
  8
_U+30EC_U+30A4_U+30E4_U+30FC 1
 62
   179
420
  2234388
370
    25
100
AcDbSpline
210
0.0
220
0.0
230
1.0
 70
     8
 71
     3
 72
    11
 73
     7
 74
     0
 42
0.0000000001
 43
0.0000000001
 12
1.0
 22
0.0
 32
0.0
 13
1.0
 23
0.0
 33
0.0
 40
0.0
 40
0.0
 40
0.0
 40
0.0
 40
1.0
 40
1.0
 40
1.0
 40
2.0
 40
2.0
 40
2.0
 40
2.0
 10
91.44454850038854
 20
-132.705086911268
 30
0.0
 10
91.72049127112643
 20
-132.705086911268
 30
0.0
 10
91.9444345987465
 20
-132.4811435779907
 30
0.0
 10
91.9444345987465
 20
-132.205200800282
 30
0.0
 10
91.9444345987465
 20
-131.9289052447956
 30
0.0
 10
91.72049127112643
 20
-131.7049619115183
 30
0.0
 10
91.44454850038854
 20
-131.7049619115183
 30
0.0
  0
SPLINE
  5
52
330
1F
100
AcDbEntity
  8
_U+30EC_U+30A4_U+30E4_U+30FC 1
 62
   179
420
  2234388
370
    25
100
AcDbSpline
210
0.0
220
0.0
230
1.0
 70
     8
 71
     3
 72
     8
 73
     4
 74
     0
 42
0.0000000001
 43
0.0000000001
 12
1.0
 22
0.0
 32
0.0
 13
1.0
 23
0.0
 33
0.0
 40
0.0
 40
0.0
 40
0.0
 40
0.0
 40
1.0
 40
1.0
 40
1.0
 40
1.0
 10
78.9443621526282
 20
-131.7049619115183
 30
0.0
 10
78.9443621526282
 20
-132.2572002447134
 30
0.0
 10
79.39221353009144
 20
-132.705086911268
 30
0.0
 10
79.94448712711288
 20
-132.705086911268
 30
0.0
  0
SPLINE
  5
53
330
1F
100
AcDbEntity
  8
_U+30EC_U+30A4_U+30E4_U+30FC 1
 62
   179
420
  2234388
370
    25
100
AcDbSpline
210
0.0
220
0.0
230
1.0
 70
     8
 71
     3
 72
     8
 73
     4
 74
     0
 42
0.0000000001
 43
0.0000000001
 12
1.0
 22
0.0
 32
0.0
 13
1.0
 23
0.0
 33
0.0
 40
0.0
 40
0.0
 40
0.0
 40
0.0
 40
1.0
 40
1.0
 40
1.0
 40
1.0
 10
79.94448712711288
 20
-127.2049991348655
 30
0.0
 10
79.39221353009144
 20
-127.2049991348655
 30
0.0
 10
78.9443621526282
 20
-127.6526741347534
 30
0.0
 10
78.9443621526282
 20
-128.2050888568377
 30
0.0
  0
SPLINE
  5
54
330
1F
100
AcDbEntity
  8
_U+30EC_U+30A4_U+30E4_U+30FC 1
 62
   179
420
  2234388
370
     9
100
AcDbSpline
210
0.0
220
0.0
230
1.0
 70
    11
 71
     3
 72
    17
 73
    13
 74
     0
 42
0.0000000001
 43
0.0000000001
 12
1.0
 22
0.0
 32
0.0
 13
1.0
 23
0.0
 33
0.0
 40
0.0
 40
0.0
 40
0.0
 40
0.0
 40
1.0
 40
1.0
 40
1.0
 40
2.0
 40
2.0
 40
2.0
 40
3.0
 40
3.0
 40
3.0
 40
4.0
 40
4.0
 40
4.0
 40
4.0
 10
92.04434126286434
 20
-136.7051635769351
 30
0.0
 10
92.04434126286434
 20
-136.6497069102818
 30
0.0
 10
91.99953848622957
 20
-136.6049394102932
 30
0.0
 10
91.9444345987465
 20
-136.6049394102932
 30
0.0
 10
91.88929543348655
 20
-136.6049394102932
 30
0.0
 10
91.84452793462866
 20
-136.6497069102818
 30
0.0
 10
91.84452793462866
 20
-136.7051635769351
 30
0.0
 10
91.84452793462866
 20
-136.7603027435875
 30
0.0
 10
91.88929543348655
 20
-136.8050702435767
 30
0.0
 10
91.9444345987465
 20
-136.8050702435767
 30
0.0
 10
91.99953848622957
 20
-136.8050702435767
 30
0.0
 10
92.04434126286434
 20
-136.7603027435875
 30
0.0
 10
92.04434126286434
 20
-136.7051635769351
 30
0.0
  0
SPLINE
  5
55
330
1F
100
AcDbEntity
  8
_U+30EC_U+30A4_U+30E4_U+30FC 1
 62
   179
420
  2234388
370
     9
100
AcDbSpline
210
0.0
220
0.0
230
1.0
 70
    11
 71
     3
 72
    17
 73
    13
 74
     0
 42
0.0000000001
 43
0.0000000001
 12
1.0
 22
0.0
 32
0.0
 13
1.0
 23
0.0
 33
0.0
 40
0.0
 40
0.0
 40
0.0
 40
0.0
 40
1.0
 40
1.0
 40
1.0
 40
2.0
 40
2.0
 40
2.0
 40
3.0
 40
3.0
 40
3.0
 40
4.0
 40
4.0
 40
4.0
 40
4.0
 10
79.04444720246114
 20
-136.7051635769351
 30
0.0
 10
79.04444720246114
 20
-136.6497069102818
 30
0.0
 10
78.99964442469442
 20
-136.6049394102932
 30
0.0
 10
78.9443621526282
 20
-136.6049394102932
 30
0.0
 10
78.88922498027755
 20
-136.6049394102932
 30
0.0
 10
78.84445548851036
 20
-136.6497069102818
 30
0.0
 10
78.84445548851036
 20
-136.7051635769351
 30
0.0
 10
78.84445548851036
 20
-136.7603027435875
 30
0.0
 10
78.88922498027755
 20
-136.8050702435767
 30
0.0
 10
78.9443621526282
 20
-136.8050702435767
 30
0.0
 10
78.99964442469442
 20
-136.8050702435767
 30
0.0
 10
79.04444720246114
 20
-136.7603027435875
 30
0.0
 10
79.04444720246114
 20
-136.7051635769351
 30
0.0
  0
SPLINE
  5
56
330
1F
100
AcDbEntity
  8
_U+30EC_U+30A4_U+30E4_U+30FC 1
 62
   179
420
  2234388
370
     9
100
AcDbSpline
210
0.0
220
0.0
230
1.0
 70
    11
 71
     3
 72
    17
 73
    13
 74
     0
 42
0.0000000001
 43
0.0000000001
 12
1.0
 22
0.0
 32
0.0
 13
1.0
 23
0.0
 33
0.0
 40
0.0
 40
0.0
 40
0.0
 40
0.0
 40
1.0
 40
1.0
 40
1.0
 40
2.0
 40
2.0
 40
2.0
 40
3.0
 40
3.0
 40
3.0
 40
4.0
 40
4.0
 40
4.0
 40
4.0
 10
79.04444720246114
 20
-123.2050635803098
 30
0.0
 10
79.04444720246114
 20
-123.1497480247681
 30
0.0
 10
78.99964442469442
 20
-123.1049805247793
 30
0.0
 10
78.9443621526282
 20
-123.1049805247793
 30
0.0
 10
78.88922498027755
 20
-123.1049805247793
 30
0.0
 10
78.84445548851036
 20
-123.1497480247681
 30
0.0
 10
78.84445548851036
 20
-123.2050635803098
 30
0.0
 10
78.84445548851036
 20
-123.2603438580739
 30
0.0
 10
78.88922498027755
 20
-123.3049702469514
 30
0.0
 10
78.9443621526282
 20
-123.3049702469514
 30
0.0
 10
78.99964442469442
 20
-123.3049702469514
 30
0.0
 10
79.04444720246114
 20
-123.2603438580739
 30
0.0
 10
79.04444720246114
 20
-123.2050635803098
 30
0.0
  0
SPLINE
  5
57
330
1F
100
AcDbEntity
  8
_U+30EC_U+30A4_U+30E4_U+30FC 1
 62
   179
420
  2234388
370
     9
100
AcDbSpline
210
0.0
220
0.0
230
1.0
 70
    11
 71
     3
 72
    17
 73
    13
 74
     0
 42
0.0000000001
 43
0.0000000001
 12
1.0
 22
0.0
 32
0.0
 13
1.0
 23
0.0
 33
0.0
 40
0.0
 40
0.0
 40
0.0
 40
0.0
 40
1.0
 40
1.0
 40
1.0
 40
2.0
 40
2.0
 40
2.0
 40
3.0
 40
3.0
 40
3.0
 40
4.0
 40
4.0
 40
4.0
 40
4.0
 10
97.04454280196524
 20
-123.2050635803098
 30
0.0
 10
97.04454280196524
 20
-123.1497480247681
 30
0.0
 10
96.99977775352752
 20
-123.1049805247793
 30
0.0
 10
96.94428336007861
 20
-123.1049805247793
 30
0.0
 10
96.88917947259554
 20
-123.1049805247793
 30
0.0
 10
96.84437669596078
 20
-123.1497480247681
 30
0.0
 10
96.84437669596078
 20
-123.2050635803098
 30
0.0
 10
96.84437669596078
 20
-123.2603438580739
 30
0.0
 10
96.88917947259554
 20
-123.3049702469514
 30
0.0
 10
96.94428336007861
 20
-123.3049702469514
 30
0.0
 10
96.99977775352752
 20
-123.3049702469514
 30
0.0
 10
97.04454280196524
 20
-123.2603438580739
 30
0.0
 10
97.04454280196524
 20
-123.2050635803098
 30
0.0
  0
SPLINE
  5
58
330
1F
100
AcDbEntity
  8
_U+30EC_U+30A4_U+30E4_U+30FC 1
 62
   179
420
  2234388
370
     9
100
AcDbSpline
210
0.0
220
0.0
230
1.0
 70
    11
 71
     3
 72
    17
 73
    13
 74
     0
 42
0.0000000001
 43
0.0000000001
 12
1.0
 22
0.0
 32
0.0
 13
1.0
 23
0.0
 33
0.0
 40
0.0
 40
0.0
 40
0.0
 40
0.0
 40
1.0
 40
1.0
 40
1.0
 40
2.0
 40
2.0
 40
2.0
 40
3.0
 40
3.0
 40
3.0
 40
4.0
 40
4.0
 40
4.0
 40
4.0
 10
101.0443018665895
 20
-127.2049991348655
 30
0.0
 10
101.0443018665895
 20
-127.1498599682125
 30
0.0
 10
100.9995343677317
 20
-127.1050924682236
 30
0.0
 10
100.9443952024717
 20
-127.1050924682236
 30
0.0
 10
100.8892913149886
 20
-127.1050924682236
 30
0.0
 10
100.8444885383539
 20
-127.1498599682125
 30
0.0
 10
100.8444885383539
 20
-127.2049991348655
 30
0.0
 10
100.8444885383539
 20
-127.2602794126293
 30
0.0
 10
100.8892913149886
 20
-127.3050469126182
 30
0.0
 10
100.9443952024717
 20
-127.3050469126182
 30
0.0
 10
100.9995343677317
 20
-127.3050469126182
 30
0.0
 10
101.0443018665895
 20
-127.2602794126293
 30
0.0
 10
101.0443018665895
 20
-127.2049991348655
 30
0.0
  0
SPLINE
  5
59
330
1F
100
AcDbEntity
  8
_U+30EC_U+30A4_U+30E4_U+30FC 1
 62
   179
420
  2234388
370
     9
100
AcDbSpline
210
0.0
220
0.0
230
1.0
 70
    11
 71
     3
 72
    17
 73
    13
 74
     0
 42
0.0000000001
 43
0.0000000001
 12
1.0
 22
0.0
 32
0.0
 13
1.0
 23
0.0
 33
0.0
 40
0.0
 40
0.0
 40
0.0
 40
0.0
 40
1.0
 40
1.0
 40
1.0
 40
2.0
 40
2.0
 40
2.0
 40
3.0
 40
3.0
 40
3.0
 40
4.0
 40
4.0
 40
4.0
 40
4.0
 10
101.0443018665895
 20
-131.7049619115183
 30
0.0
 10
101.0443018665895
 20
-131.6498580226434
 30
0.0
 10
100.9995343677317
 20
-131.6050552448767
 30
0.0
 10
100.9443952024717
 20
-131.6050552448767
 30
0.0
 10
100.8892913149886
 20
-131.6050552448767
 30
0.0
 10
100.8444885383539
 20
-131.6498580226434
 30
0.0
 10
100.8444885383539
 20
-131.7049619115183
 30
0.0
 10
100.8444885383539
 20
-131.7601010781714
 30
0.0
 10
100.8892913149886
 20
-131.8048685781599
 30
0.0
 10
100.9443952024717
 20
-131.8048685781599
 30
0.0
 10
100.9995343677317
 20
-131.8048685781599
 30
0.0
 10
101.0443018665895
 20
-131.7601010781714
 30
0.0
 10
101.0443018665895
 20
-131.7049619115183
 30
0.0
  0
POLYLINE
  5
5A
330
1F
100
AcDbEntity
  8
_U+30EC_U+30A4_U+30E4_U+30FC 1
 62
   179
420
  2234388
370
     9
100
AcDb2dPolyline
 66
     1
 10
0.0
 20
0.0
 30
0.0
  0
VERTEX
  5
5B
330
5A
100
AcDbEntity
  8
_U+30EC_U+30A4_U+30E4_U+30FC 1
 62
   179
420
  2234388
370
     9
100
AcDbVertex
100
AcDb2dVertex
 10
78.9443621526282
 20
-123.2050635803098
 30
0.0
  0
VERTEX
  5
5C
330
5A
100
AcDbEntity
  8
_U+30EC_U+30A4_U+30E4_U+30FC 1
 62
   179
420
  2234388
370
     9
100
AcDbVertex
100
AcDb2dVertex
 10
96.94428336007861
 20
-123.2050635803098
 30
0.0
  0
SEQEND
  5
5D
330
5A
100
AcDbEntity
  8
_U+30EC_U+30A4_U+30E4_U+30FC 1
 62
   179
420
  2234388
370
     9
  0
POLYLINE
  5
5E
330
1F
100
AcDbEntity
  8
_U+30EC_U+30A4_U+30E4_U+30FC 1
 62
   179
420
  2234388
370
     9
100
AcDb2dPolyline
 66
     1
 10
0.0
 20
0.0
 30
0.0
  0
VERTEX
  5
5F
330
5E
100
AcDbEntity
  8
_U+30EC_U+30A4_U+30E4_U+30FC 1
 62
   179
420
  2234388
370
     9
100
AcDbVertex
100
AcDb2dVertex
 10
78.9443621526282
 20
-125.6650183019171
 30
0.0
  0
VERTEX
  5
60
330
5E
100
AcDbEntity
  8
_U+30EC_U+30A4_U+30E4_U+30FC 1
 62
   179
420
  2234388
370
     9
100
AcDbVertex
100
AcDb2dVertex
 10
78.9443621526282
 20
-122.2051149694487
 30
0.0
  0
SEQEND
  5
61
330
5E
100
AcDbEntity
  8
_U+30EC_U+30A4_U+30E4_U+30FC 1
 62
   179
420
  2234388
370
     9
  0
POLYLINE
  5
62
330
1F
100
AcDbEntity
  8
_U+30EC_U+30A4_U+30E4_U+30FC 1
 62
   179
420
  2234388
370
     9
100
AcDb2dPolyline
 66
     1
 10
0.0
 20
0.0
 30
0.0
  0
VERTEX
  5
63
330
62
100
AcDbEntity
  8
_U+30EC_U+30A4_U+30E4_U+30FC 1
 62
   179
420
  2234388
370
     9
100
AcDbVertex
100
AcDb2dVertex
 10
96.94428336007861
 20
-124.665069691056
 30
0.0
  0
VERTEX
  5
64
330
62
100
AcDbEntity
  8
_U+30EC_U+30A4_U+30E4_U+30FC 1
 62
   179
420
  2234388
370
     9
100
AcDbVertex
100
AcDb2dVertex
 10
96.94428336007861
 20
-122.2051149694487
 30
0.0
  0
SEQEND
  5
65
330
62
100
AcDbEntity
  8
_U+30EC_U+30A4_U+30E4_U+30FC 1
 62
   179
420
  2234388
370
     9
  0
POLYLINE
  5
66
330
1F
100
AcDbEntity
  8
_U+30EC_U+30A4_U+30E4_U+30FC 1
 62
   179
420
  2234388
370
     9
100
AcDb2dPolyline
 66
     1
 10
0.0
 20
0.0
 30
0.0
  0
VERTEX
  5
67
330
66
100
AcDbEntity
  8
_U+30EC_U+30A4_U+30E4_U+30FC 1
 62
   179
420
  2234388
370
     9
100
AcDbVertex
100
AcDb2dVertex
 10
78.9443621526282
 20
-136.7051635769351
 30
0.0
  0
VERTEX
  5
68
330
66
100
AcDbEntity
  8
_U+30EC_U+30A4_U+30E4_U+30FC 1
 62
   179
420
  2234388
370
     9
100
AcDbVertex
100
AcDb2dVertex
 10
91.9444345987465
 20
-136.7051635769351
 30
0.0
  0
SEQEND
  5
69
330
66
100
AcDbEntity
  8
_U+30EC_U+30A4_U+30E4_U+30FC 1
 62
   179
420
  2234388
370
     9
  0
POLYLINE
  5
6A
330
1F
100
AcDbEntity
  8
_U+30EC_U+30A4_U+30E4_U+30FC 1
 62
   179
420
  2234388
370
     9
100
AcDb2dPolyline
 66
     1
 10
0.0
 20
0.0
 30
0.0
  0
VERTEX
  5
6B
330
6A
100
AcDbEntity
  8
_U+30EC_U+30A4_U+30E4_U+30FC 1
 62
   179
420
  2234388
370
     9
100
AcDbVertex
100
AcDb2dVertex
 10
78.9443621526282
 20
-134.2450324664386
 30
0.0
  0
VERTEX
  5
6C
330
6A
100
AcDbEntity
  8
_U+30EC_U+30A4_U+30E4_U+30FC 1
 62
   179
420
  2234388
370
     9
100
AcDbVertex
100
AcDb2dVertex
 10
78.9443621526282
 20
-137.704935798907
 30
0.0
  0
SEQEND
  5
6D
330
6A
100
AcDbEntity
  8
_U+30EC_U+30A4_U+30E4_U+30FC 1
 62
   179
420
  2234388
370
     9
  0
POLYLINE
  5
6E
330
1F
100
AcDbEntity
  8
_U+30EC_U+30A4_U+30E4_U+30FC 1
 62
   179
420
  2234388
370
     9
100
AcDb2dPolyline
 66
     1
 10
0.0
 20
0.0
 30
0.0
  0
VERTEX
  5
6F
330
6E
100
AcDbEntity
  8
_U+30EC_U+30A4_U+30E4_U+30FC 1
 62
   179
420
  2234388
370
     9
100
AcDbVertex
100
AcDb2dVertex
 10
91.9444345987465
 20
-134.7449185774252
 30
0.0
  0
VERTEX
  5
70
330
6E
100
AcDbEntity
  8
_U+30EC_U+30A4_U+30E4_U+30FC 1
 62
   179
420
  2234388
370
     9
100
AcDbVertex
100
AcDb2dVertex
 10
91.9444345987465
 20
-137.704935798907
 30
0.0
  0
SEQEND
  5
71
330
6E
100
AcDbEntity
  8
_U+30EC_U+30A4_U+30E4_U+30FC 1
 62
   179
420
  2234388
370
     9
  0
POLYLINE
  5
72
330
1F
100
AcDbEntity
  8
_U+30EC_U+30A4_U+30E4_U+30FC 1
 62
   179
420
  2234388
370
     9
100
AcDb2dPolyline
 66
     1
 10
0.0
 20
0.0
 30
0.0
  0
VERTEX
  5
73
330
72
100
AcDbEntity
  8
_U+30EC_U+30A4_U+30E4_U+30FC 1
 62
   179
420
  2234388
370
     9
100
AcDbVertex
100
AcDb2dVertex
 10
100.9443952024717
 20
-131.7049619115183
 30
0.0
  0
VERTEX
  5
74
330
72
100
AcDbEntity
  8
_U+30EC_U+30A4_U+30E4_U+30FC 1
 62
   179
420
  2234388
370
     9
100
AcDbVertex
100
AcDb2dVertex
 10
100.9443952024717
 20
-132.705086911268
 30
0.0
  0
SEQEND
  5
75
330
72
100
AcDbEntity
  8
_U+30EC_U+30A4_U+30E4_U+30FC 1
 62
   179
420
  2234388
370
     9
  0
POLYLINE
  5
76
330
1F
100
AcDbEntity
  8
_U+30EC_U+30A4_U+30E4_U+30FC 1
 62
   179
420
  2234388
370
     9
100
AcDb2dPolyline
 66
     1
 10
0.0
 20
0.0
 30
0.0
  0
VERTEX
  5
77
330
76
100
AcDbEntity
  8
_U+30EC_U+30A4_U+30E4_U+30FC 1
 62
   179
420
  2234388
370
     9
100
AcDbVertex
100
AcDb2dVertex
 10
100.9443952024717
 20
-131.7049619115183
 30
0.0
  0
VERTEX
  5
78
330
76
100
AcDbEntity
  8
_U+30EC_U+30A4_U+30E4_U+30FC 1
 62
   179
420
  2234388
370
     9
100
AcDbVertex
100
AcDb2dVertex
 10
100.9443952024717
 20
-126.2050505240044
 30
0.0
  0
SEQEND
  5
79
330
76
100
AcDbEntity
  8
_U+30EC_U+30A4_U+30E4_U+30FC 1
 62
   179
420
  2234388
370
     9
  0
POLYLINE
  5
7A
330
1F
100
AcDbEntity
  8
_U+30EC_U+30A4_U+30E4_U+30FC 1
 62
   179
420
  2234388
370
     9
100
AcDb2dPolyline
 66
     1
 10
0.0
 20
0.0
 30
0.0
  0
VERTEX
  5
7B
330
7A
100
AcDbEntity
  8
_U+30EC_U+30A4_U+30E4_U+30FC 1
 62
   179
420
  2234388
370
     9
100
AcDbVertex
100
AcDb2dVertex
 10
93.9846189911415
 20
-131.7049619115183
 30
0.0
  0
VERTEX
  5
7C
330
7A
100
AcDbEntity
  8
_U+30EC_U+30A4_U+30E4_U+30FC 1
 62
   179
420
  2234388
370
     9
100
AcDbVertex
100
AcDb2dVertex
 10
101.9445201769564
 20
-131.7049619115183
 30
0.0
  0
SEQEND
  5
7D
330
7A
100
AcDbEntity
  8
_U+30EC_U+30A4_U+30E4_U+30FC 1
 62
   179
420
  2234388
370
     9
  0
POLYLINE
  5
7E
330
1F
100
AcDbEntity
  8
_U+30EC_U+30A4_U+30E4_U+30FC 1
 62
   179
420
  2234388
370
     9
100
AcDb2dPolyline
 66
     1
 10
0.0
 20
0.0
 30
0.0
  0
VERTEX
  5
7F
330
7E
100
AcDbEntity
  8
_U+30EC_U+30A4_U+30E4_U+30FC 1
 62
   179
420
  2234388
370
     9
100
AcDbVertex
100
AcDb2dVertex
 10
99.48435385083158
 20
-127.2049991348655
 30
0.0
  0
VERTEX
  5
80
330
7E
100
AcDbEntity
  8
_U+30EC_U+30A4_U+30E4_U+30FC 1
 62
   179
420
  2234388
370
     9
100
AcDbVertex
100
AcDb2dVertex
 10
101.9445201769564
 20
-127.2049991348655
 30
0.0
  0
SEQEND
  5
81
330
7E
100
AcDbEntity
  8
_U+30EC_U+30A4_U+30E4_U+30FC 1
 62
   179
420
  2234388
370
     9
  0
INSERT
  5
83
330
1F
100
AcDbEntity
  8
_U+30EC_U+30A4_U+30E4_U+30FC 1
100
AcDbBlockReference
  2
block 2
 10
0.0
 20
0.0
 30
0.0
  0
INSERT
  5
8D
330
1F
100
AcDbEntity
  8
_U+30EC_U+30A4_U+30E4_U+30FC 1
100
AcDbBlockReference
  2
block 3
 10
0.0
 20
0.0
 30
0.0
  0
INSERT
  5
95
330
1F
100
AcDbEntity
  8
_U+30EC_U+30A4_U+30E4_U+30FC 1
100
AcDbBlockReference
  2
block 4
 10
0.0
 20
0.0
 30
0.0
  0
ENDSEC
  0
SECTION
  2
OBJECTS
  0
DICTIONARY
  5
C
330
0
100
AcDbDictionary
281
     1
  3
ACAD_GROUP
350
D
  3
ACAD_LAYOUT
350
1A
  3
ACAD_MATERIAL
350
3B
  3
ACAD_MLEADERSTYLE
350
B8
  3
ACAD_MLINESTYLE
350
17
  3
ACAD_PLOTSETTINGS
350
19
  3
ACAD_PLOTSTYLENAME
350
E
  3
ACAD_TABLESTYLE
350
B7
  3
ACAD_VISUALSTYLE
350
2A
  0
SUN
  5
3F
330
29
100
AcDbSun
 90
        1
290
     0
 63
     7
421
 16777215
 40
1.0
291
     1
 91
  2455826
 92
 54000000
292
     0
 70
     2
 71
   256
280
     1
  0
DICTIONARY
  5
D
102
{ACAD_REACTORS
330
C
102
}
330
C
100
AcDbDictionary
281
     1
  0
DICTIONARY
  5
1A
102
{ACAD_REACTORS
330
C
102
}
330
C
100
AcDbDictionary
281
     1
  3
Layout1
350
1E
  3
Layout2
350
26
  3
Model
350
22
  0
DICTIONARY
  5
3B
102
{ACAD_REACTORS
330
C
102
}
330
C
100
AcDbDictionary
281
     1
  3
ByBlock
350
3D
  3
ByLayer
350
3C
  3
Global
350
3E
  0
DICTIONARY
  5
B8
102
{ACAD_REACTORS
330
C
102
}
330
C
100
AcDbDictionary
281
     1
  0
DICTIONARY
  5
17
102
{ACAD_REACTORS
330
C
102
}
330
C
100
AcDbDictionary
281
     1
  3
Standard
350
18
  0
DICTIONARY
  5
19
102
{ACAD_REACTORS
330
C
102
}
330
C
100
AcDbDictionary
281
     1
  0
ACDBDICTIONARYWDFLT
  5
E
102
{ACAD_REACTORS
330
C
102
}
330
C
100
AcDbDictionary
281
     1
  3
Normal
350
F
100
AcDbDictionaryWithDefault
340
F
  0
DICTIONARY
  5
B7
102
{ACAD_REACTORS
330
C
102
}
330
C
100
AcDbDictionary
281
     1
  0
DICTIONARY
  5
2A
102
{ACAD_REACTORS
330
C
102
}
330
C
100
AcDbDictionary
281
     1
  3
2dWireframe
350
2F
  3
3D Hidden
350
31
  3
3dWireframe
350
30
  3
Basic
350
32
  3
Brighten
350
36
  3
ColorChange
350
3A
  3
Conceptual
350
34
  3
Dim
350
35
  3
Facepattern
350
39
  3
Flat
350
2B
  3
FlatWithEdges
350
2C
  3
Gouraud
350
2D
  3
GouraudWithEdges
350
2E
  3
Linepattern
350
38
  3
Realistic
350
33
  3
Thicken
350
37
  0
LAYOUT
  5
1E
102
{ACAD_REACTORS
330
1A
102
}
330
1A
100
AcDbPlotSettings
  1

  2
none_device
  4

  6

 40
0.0
 41
0.0
 42
0.0
 43
0.0
 44
0.0
 45
0.0
 46
0.0
 47
0.0
 48
0.0
 49
0.0
140
0.0
141
0.0
142
1.0
143
1.0
 70
   688
 72
     0
 73
     0
 74
     5
  7

 75
    16
 76
     0
 77
     2
 78
   300
147
1.0
148
0.0
149
0.0
100
AcDbLayout
  1
Layout1
 70
     1
 71
     1
 10
0.0
 20
0.0
 11
12.0
 21
9.0
 12
0.0
 22
0.0
 32
0.0
 14
1.000000000000000E+20
 24
1.000000000000000E+20
 34
1.000000000000000E+20
 15
-1.000000000000000E+20
 25
-1.000000000000000E+20
 35
-1.000000000000000E+20
146
0.0
 13
0.0
 23
0.0
 33
0.0
 16
1.0
 26
0.0
 36
0.0
 17
0.0
 27
1.0
 37
0.0
 76
     0
330
1B
  0
LAYOUT
  5
26
102
{ACAD_REACTORS
330
1A
102
}
330
1A
100
AcDbPlotSettings
  1

  2
none_device
  4

  6

 40
0.0
 41
0.0
 42
0.0
 43
0.0
 44
0.0
 45
0.0
 46
0.0
 47
0.0
 48
0.0
 49
0.0
140
0.0
141
0.0
142
1.0
143
1.0
 70
   688
 72
     0
 73
     0
 74
     5
  7

 75
    16
 76
     0
 77
     2
 78
   300
147
1.0
148
0.0
149
0.0
100
AcDbLayout
  1
Layout2
 70
     1
 71
     2
 10
0.0
 20
0.0
 11
0.0
 21
0.0
 12
0.0
 22
0.0
 32
0.0
 14
0.0
 24
0.0
 34
0.0
 15
0.0
 25
0.0
 35
0.0
146
0.0
 13
0.0
 23
0.0
 33
0.0
 16
1.0
 26
0.0
 36
0.0
 17
0.0
 27
1.0
 37
0.0
 76
     0
330
23
  0
LAYOUT
  5
22
102
{ACAD_REACTORS
330
1A
102
}
330
1A
100
AcDbPlotSettings
  1

  2
none_device
  4

  6

 40
0.0
 41
0.0
 42
0.0
 43
0.0
 44
0.0
 45
0.0
 46
0.0
 47
0.0
 48
0.0
 49
0.0
140
0.0
141
0.0
142
1.0
143
1.0
 70
  1712
 72
     0
 73
     0
 74
     0
  7

 75
     0
 76
     0
 77
     2
 78
   300
147
1.0
148
0.0
149
0.0
100
AcDbLayout
  1
Model
 70
     1
 71
     0
 10
0.0
 20
0.0
 11
12.0
 21
9.0
 12
0.0
 22
0.0
 32
0.0
 14
1.000000000000000E+20
 24
1.000000000000000E+20
 34
1.000000000000000E+20
 15
-1.000000000000000E+20
 25
-1.000000000000000E+20
 35
-1.000000000000000E+20
146
0.0
 13
0.0
 23
0.0
 33
0.0
 16
1.0
 26
0.0
 36
0.0
 17
0.0
 27
1.0
 37
0.0
 76
     0
330
1F
331
29
  0
MATERIAL
  5
3D
102
{ACAD_REACTORS
330
3B
102
}
330
3B
100
AcDbMaterial
  1
ByBlock
 72
     1
 94
      127
  0
MATERIAL
  5
3C
102
{ACAD_REACTORS
330
3B
102
}
330
3B
100
AcDbMaterial
  1
ByLayer
 72
     1
 94
      127
  0
MATERIAL
  5
3E
102
{ACAD_REACTORS
330
3B
102
}
330
3B
100
AcDbMaterial
  1
Global
 72
     1
 94
      127
  0
MLINESTYLE
  5
18
102
{ACAD_REACTORS
330
17
102
}
330
17
100
AcDbMlineStyle
  2
Standard
 70
     0
  3

 62
   256
 51
90.0
 52
90.0
 71
     2
 49
0.5
 62
   256
  6
BYLAYER
 49
-0.5
 62
   256
  6
BYLAYER
  0
ACDBPLACEHOLDER
  5
F
102
{ACAD_REACTORS
330
E
102
}
330
E
  0
VISUALSTYLE
  5
2F
102
{ACAD_REACTORS
330
2A
102
}
330
2A
100
AcDbVisualStyle
  2
2dWireframe
 70
     4
177
     2
291
     0
 71
     0
176
     1
 72
     2
176
     1
 73
     0
176
     1
 90
        0
176
     1
 40
-0.6
176
     1
 41
-30.0
176
     1
 62
     5
 63
     7
421
 16777215
176
     1
 74
     1
176
     1
 91
        4
176
     1
 64
     7
176
     1
 65
   257
176
     1
 75
     1
176
     1
175
     1
176
     1
 42
1.0
176
     1
 92
        0
176
     1
 66
   257
176
     1
 43
1.0
176
     1
 76
     1
176
     1
 77
     6
176
     1
 78
     2
176
     1
 67
     7
176
     1
 79
     5
176
     1
170
     0
176
     1
171
     0
176
     1
290
     0
176
     1
 93
        1
176
     1
 44
0.0
176
     1
173
     0
176
     1
  0
VISUALSTYLE
  5
31
102
{ACAD_REACTORS
330
2A
102
}
330
2A
100
AcDbVisualStyle
  2
3D Hidden
 70
     6
177
     2
291
     0
 71
     1
176
     1
 72
     2
176
     1
 73
     2
176
     1
 90
        0
176
     1
 40
-0.6
176
     1
 41
-30.0
176
     1
 62
     5
 63
     7
421
 16777215
176
     1
 74
     2
176
     1
 91
        2
176
     1
 64
     7
176
     1
 65
   257
176
     1
 75
     2
176
     1
175
     1
176
     1
 42
40.0
176
     1
 92
        0
176
     1
 66
   257
176
     1
 43
1.0
176
     1
 76
     1
176
     1
 77
     6
176
     1
 78
     2
176
     1
 67
     7
176
     1
 79
     3
176
     1
170
     0
176
     1
171
     0
176
     1
290
     0
176
     1
 93
        1
176
     1
 44
0.0
176
     1
173
     0
176
     1
  0
VISUALSTYLE
  5
30
102
{ACAD_REACTORS
330
2A
102
}
330
2A
100
AcDbVisualStyle
  2
3dWireframe
 70
     5
177
     2
291
     0
 71
     0
176
     1
 72
     2
176
     1
 73
     0
176
     1
 90
        0
176
     1
 40
-0.6
176
     1
 41
-30.0
176
     1
 62
     5
 63
     7
421
 16777215
176
     1
 74
     1
176
     1
 91
        4
176
     1
 64
     7
176
     1
 65
   257
176
     1
 75
     1
176
     1
175
     1
176
     1
 42
1.0
176
     1
 92
        0
176
     1
 66
   257
176
     1
 43
1.0
176
     1
 76
     1
176
     1
 77
     6
176
     1
 78
     2
176
     1
 67
     7
176
     1
 79
     5
176
     1
170
     0
176
     1
171
     0
176
     1
290
     0
176
     1
 93
        1
176
     1
 44
0.0
176
     1
173
     0
176
     1
  0
VISUALSTYLE
  5
32
102
{ACAD_REACTORS
330
2A
102
}
330
2A
100
AcDbVisualStyle
  2
Basic
 70
     7
177
     2
291
     1
 71
     1
176
     1
 72
     0
176
     1
 73
     1
176
     1
 90
        0
176
     1
 40
-0.6
176
     1
 41
-30.0
176
     1
 62
     5
 63
     7
421
 16777215
176
     1
 74
     0
176
     1
 91
        4
176
     1
 64
     7
176
     1
 65
   257
176
     1
 75
     1
176
     1
175
     1
176
     1
 42
1.0
176
     1
 92
        8
176
     1
 66
     7
176
     1
 43
1.0
176
     1
 76
     1
176
     1
 77
     6
176
     1
 78
     2
176
     1
 67
     7
176
     1
 79
     5
176
     1
170
     0
176
     1
171
     0
176
     1
290
     0
176
     1
 93
        1
176
     1
 44
0.0
176
     1
173
     0
176
     1
  0
VISUALSTYLE
  5
36
102
{ACAD_REACTORS
330
2A
102
}
330
2A
100
AcDbVisualStyle
  2
Brighten
 70
    12
177
     2
291
     1
 71
     2
176
     1
 72
     2
176
     1
 73
     0
176
     1
 90
        0
176
     1
 40
-0.6
176
     1
 41
-30.0
176
     1
 62
     5
 63
     7
421
 16777215
176
     1
 74
     1
176
     1
 91
        4
176
     1
 64
     7
176
     1
 65
   257
176
     1
 75
     1
176
     1
175
     1
176
     1
 42
1.0
176
     1
 92
        8
176
     1
 66
     7
176
     1
 43
1.0
176
     1
 76
     1
176
     1
 77
     6
176
     1
 78
     2
176
     1
 67
     7
176
     1
 79
     5
176
     1
170
     0
176
     1
171
     0
176
     1
290
     0
176
     1
 93
        1
176
     1
 44
50.0
176
     1
173
     0
176
     1
  0
VISUALSTYLE
  5
3A
102
{ACAD_REACTORS
330
2A
102
}
330
2A
100
AcDbVisualStyle
  2
ColorChange
 70
    16
177
     2
291
     1
 71
     2
176
     1
 72
     2
176
     1
 73
     3
176
     1
 90
        0
176
     1
 40
-0.6
176
     1
 41
-30.0
176
     1
 62
     5
 63
     8
421
  8421504
176
     1
 74
     1
176
     1
 91
        4
176
     1
 64
     7
176
     1
 65
   257
176
     1
 75
     1
176
     1
175
     1
176
     1
 42
1.0
176
     1
 92
        8
176
     1
 66
     8
424
  8421504
176
     1
 43
1.0
176
     1
 76
     1
176
     1
 77
     6
176
     1
 78
     2
176
     1
 67
     7
176
     1
 79
     5
176
     1
170
     0
176
     1
171
     0
176
     1
290
     0
176
     1
 93
        1
176
     1
 44
0.0
176
     1
173
     0
176
     1
  0
VISUALSTYLE
  5
34
102
{ACAD_REACTORS
330
2A
102
}
330
2A
100
AcDbVisualStyle
  2
Conceptual
 70
     9
177
     2
291
     0
 71
     3
176
     1
 72
     2
176
     1
 73
     0
176
     1
 90
        0
176
     1
 40
-0.6
176
     1
 41
-30.0
176
     1
 62
     5
 63
     7
421
 16777215
176
     1
 74
     2
176
     1
 91
        2
176
     1
 64
     7
176
     1
 65
   257
176
     1
 75
     1
176
     1
175
     1
176
     1
 42
40.0
176
     1
 92
        8
176
     1
 66
     7
176
     1
 43
1.0
176
     1
 76
     1
176
     1
 77
     6
176
     1
 78
     2
176
     1
 67
     7
176
     1
 79
     3
176
     1
170
     0
176
     1
171
     0
176
     1
290
     0
176
     1
 93
        1
176
     1
 44
0.0
176
     1
173
     0
176
     1
  0
VISUALSTYLE
  5
35
102
{ACAD_REACTORS
330
2A
102
}
330
2A
100
AcDbVisualStyle
  2
Dim
 70
    11
177
     2
291
     1
 71
     2
176
     1
 72
     2
176
     1
 73
     0
176
     1
 90
        0
176
     1
 40
-0.6
176
     1
 41
-30.0
176
     1
 62
     5
 63
     7
421
 16777215
176
     1
 74
     1
176
     1
 91
        4
176
     1
 64
     7
176
     1
 65
   257
176
     1
 75
     1
176
     1
175
     1
176
     1
 42
1.0
176
     1
 92
        8
176
     1
 66
     7
176
     1
 43
1.0
176
     1
 76
     1
176
     1
 77
     6
176
     1
 78
     2
176
     1
 67
     7
176
     1
 79
     5
176
     1
170
     0
176
     1
171
     0
176
     1
290
     0
176
     1
 93
        1
176
     1
 44
-50.0
176
     1
173
     0
176
     1
  0
VISUALSTYLE
  5
39
102
{ACAD_REACTORS
330
2A
102
}
330
2A
100
AcDbVisualStyle
  2
Facepattern
 70
    15
177
     2
291
     1
 71
     2
176
     1
 72
     2
176
     1
 73
     0
176
     1
 90
        0
176
     1
 40
-0.6
176
     1
 41
-30.0
176
     1
 62
     5
 63
     7
421
 16777215
176
     1
 74
     1
176
     1
 91
        4
176
     1
 64
     7
176
     1
 65
   257
176
     1
 75
     1
176
     1
175
     1
176
     1
 42
1.0
176
     1
 92
        8
176
     1
 66
     7
176
     1
 43
1.0
176
     1
 76
     1
176
     1
 77
     6
176
     1
 78
     2
176
     1
 67
     7
176
     1
 79
     5
176
     1
170
     0
176
     1
171
     0
176
     1
290
     0
176
     1
 93
        1
176
     1
 44
0.0
176
     1
173
     0
176
     1
  0
VISUALSTYLE
  5
2B
102
{ACAD_REACTORS
330
2A
102
}
330
2A
100
AcDbVisualStyle
  2
Flat
 70
     0
177
     2
291
     1
 71
     2
176
     1
 72
     1
176
     1
 73
     1
176
     1
 90
        2
176
     1
 40
-0.6
176
     1
 41
30.0
176
     1
 62
     5
 63
     7
421
 16777215
176
     1
 74
     0
176
     1
 91
        4
176
     1
 64
     7
176
     1
 65
   257
176
     1
 75
     1
176
     1
175
     1
176
     1
 42
1.0
176
     1
 92
        8
176
     1
 66
     7
176
     1
 43
1.0
176
     1
 76
     1
176
     1
 77
     6
176
     1
 78
     2
176
     1
 67
     7
176
     1
 79
     5
176
     1
170
     0
176
     1
171
     0
176
     1
290
     0
176
     1
 93
       13
176
     1
 44
0.0
176
     1
173
     0
176
     1
  0
VISUALSTYLE
  5
2C
102
{ACAD_REACTORS
330
2A
102
}
330
2A
100
AcDbVisualStyle
  2
FlatWithEdges
 70
     1
177
     2
291
     1
 71
     2
176
     1
 72
     1
176
     1
 73
     1
176
     1
 90
        2
176
     1
 40
-0.6
176
     1
 41
30.0
176
     1
 62
     5
 63
     7
421
 16777215
176
     1
 74
     1
176
     1
 91
        4
176
     1
 64
     7
176
     1
 65
   257
176
     1
 75
     1
176
     1
175
     1
176
     1
 42
1.0
176
     1
 92
        0
176
     1
 66
   257
176
     1
 43
1.0
176
     1
 76
     1
176
     1
 77
     6
176
     1
 78
     2
176
     1
 67
     7
176
     1
 79
     5
176
     1
170
     0
176
     1
171
     0
176
     1
290
     0
176
     1
 93
       13
176
     1
 44
0.0
176
     1
173
     0
176
     1
  0
VISUALSTYLE
  5
2D
102
{ACAD_REACTORS
330
2A
102
}
330
2A
100
AcDbVisualStyle
  2
Gouraud
 70
     2
177
     2
291
     1
 71
     2
176
     1
 72
     2
176
     1
 73
     1
176
     1
 90
        2
176
     1
 40
-0.6
176
     1
 41
30.0
176
     1
 62
     5
 63
     7
421
 16777215
176
     1
 74
     0
176
     1
 91
        4
176
     1
 64
     7
176
     1
 65
   257
176
     1
 75
     1
176
     1
175
     1
176
     1
 42
1.0
176
     1
 92
        0
176
     1
 66
     7
176
     1
 43
1.0
176
     1
 76
     1
176
     1
 77
     6
176
     1
 78
     2
176
     1
 67
     7
176
     1
 79
     5
176
     1
170
     0
176
     1
171
     0
176
     1
290
     0
176
     1
 93
       13
176
     1
 44
0.0
176
     1
173
     0
176
     1
  0
VISUALSTYLE
  5
2E
102
{ACAD_REACTORS
330
2A
102
}
330
2A
100
AcDbVisualStyle
  2
GouraudWithEdges
 70
     3
177
     2
291
     1
 71
     2
176
     1
 72
     2
176
     1
 73
     1
176
     1
 90
        2
176
     1
 40
-0.6
176
     1
 41
30.0
176
     1
 62
     5
 63
     7
421
 16777215
176
     1
 74
     1
176
     1
 91
        4
176
     1
 64
     7
176
     1
 65
   257
176
     1
 75
     1
176
     1
175
     1
176
     1
 42
1.0
176
     1
 92
        0
176
     1
 66
   257
176
     1
 43
1.0
176
     1
 76
     1
176
     1
 77
     6
176
     1
 78
     2
176
     1
 67
     7
176
     1
 79
     5
176
     1
170
     0
176
     1
171
     0
176
     1
290
     0
176
     1
 93
       13
176
     1
 44
0.0
176
     1
173
     0
176
     1
  0
VISUALSTYLE
  5
38
102
{ACAD_REACTORS
330
2A
102
}
330
2A
100
AcDbVisualStyle
  2
Linepattern
 70
    14
177
     2
291
     1
 71
     2
176
     1
 72
     2
176
     1
 73
     0
176
     1
 90
        0
176
     1
 40
-0.6
176
     1
 41
-30.0
176
     1
 62
     5
 63
     7
421
 16777215
176
     1
 74
     1
176
     1
 91
        4
176
     1
 64
     7
176
     1
 65
   257
176
     1
 75
     7
176
     1
175
     7
176
     1
 42
1.0
176
     1
 92
        8
176
     1
 66
     7
176
     1
 43
1.0
176
     1
 76
     1
176
     1
 77
     6
176
     1
 78
     2
176
     1
 67
     7
176
     1
 79
     5
176
     1
170
     0
176
     1
171
     0
176
     1
290
     0
176
     1
 93
        1
176
     1
 44
0.0
176
     1
173
     0
176
     1
  0
VISUALSTYLE
  5
33
102
{ACAD_REACTORS
330
2A
102
}
330
2A
100
AcDbVisualStyle
  2
Realistic
 70
     8
177
     2
291
     0
 71
     2
176
     1
 72
     2
176
     1
 73
     0
176
     1
 90
        0
176
     1
 40
-0.6
176
     1
 41
-30.0
176
     1
 62
     5
 63
     7
421
 16777215
176
     1
 74
     1
176
     1
 91
        0
176
     1
 64
     7
176
     1
 65
   257
176
     1
 75
     1
176
     1
175
     1
176
     1
 42
1.0
176
     1
 92
        8
176
     1
 66
     8
424
  7895160
176
     1
 43
1.0
176
     1
 76
     1
176
     1
 77
     6
176
     1
 78
     2
176
     1
 67
     7
176
     1
 79
     5
176
     1
170
     0
176
     1
171
     0
176
     1
290
     0
176
     1
 93
       13
176
     1
 44
0.0
176
     1
173
     0
176
     1
  0
VISUALSTYLE
  5
37
102
{ACAD_REACTORS
330
2A
102
}
330
2A
100
AcDbVisualStyle
  2
Thicken
 70
    13
177
     2
291
     1
 71
     2
176
     1
 72
     2
176
     1
 73
     0
176
     1
 90
        0
176
     1
 40
-0.6
176
     1
 41
-30.0
176
     1
 62
     5
 63
     7
421
 16777215
176
     1
 74
     1
176
     1
 91
        4
176
     1
 64
     7
176
     1
 65
   257
176
     1
 75
     1
176
     1
175
     1
176
     1
 42
1.0
176
     1
 92
       12
176
     1
 66
     7
176
     1
 43
1.0
176
     1
 76
     1
176
     1
 77
     6
176
     1
 78
     2
176
     1
 67
     7
176
     1
 79
     5
176
     1
170
     0
176
     1
171
     0
176
     1
290
     0
176
     1
 93
        1
176
     1
 44
0.0
176
     1
173
     0
176
     1
  0
ENDSEC
  0
EOF
