  0
SECTION
  2
HEADER
  9
$ACADVER
  1
AC1024
  9
$ACADMAINTVER
 70
     6
  9
$DWGCODEPAGE
  3
UNDEFINED
  9
$INSBASE
 10
0.0
 20
0.0
 30
0.0
  9
$EXTMIN
 10
1.000000000000000E+20
 20
1.000000000000000E+20
 30
1.000000000000000E+20
  9
$EXTMAX
 10
-1.000000000000000E+20
 20
-1.000000000000000E+20
 30
-1.000000000000000E+20
  9
$LIMMIN
 10
0.0
 20
0.0
  9
$LIMMAX
 10
12.0
 20
9.0
  9
$ORTHOMODE
 70
     0
  9
$REGENMODE
 70
     1
  9
$FILLMODE
 70
     1
  9
$QTEXTMODE
 70
     0
  9
$MIRRTEXT
 70
     1
  9
$LTSCALE
 40
1.0
  9
$ATTMODE
 70
     1
  9
$TEXTSIZE
 40
0.2
  9
$TRACEWID
 40
0.05
  9
$TEXTSTYLE
  7
Standard
  9
$CLAYER
  8
0
  9
$CELTYPE
  6
ByLayer
  9
$CECOLOR
 62
   256
  9
$CELTSCALE
 40
1.0
  9
$DISPSILH
 70
     0
  9
$DIMSCALE
 40
1.0
  9
$DIMASZ
 40
0.18
  9
$DIMEXO
 40
0.0625
  9
$DIMDLI
 40
0.38
  9
$DIMRND
 40
0.0
  9
$DIMDLE
 40
0.0
  9
$DIMEXE
 40
0.18
  9
$DIMTP
 40
0.0
  9
$DIMTM
 40
0.0
  9
$DIMTXT
 40
0.18
  9
$DIMCEN
 40
0.09
  9
$DIMTSZ
 40
0.0
  9
$DIMTOL
 70
     0
  9
$DIMLIM
 70
     0
  9
$DIMTIH
 70
     1
  9
$DIMTOH
 70
     1
  9
$DIMSE1
 70
     0
  9
$DIMSE2
 70
     0
  9
$DIMTAD
 70
     0
  9
$DIMZIN
 70
     0
  9
$DIMBLK
  1

  9
$DIMASO
 70
     1
  9
$DIMSHO
 70
     1
  9
$DIMPOST
  1

  9
$DIMAPOST
  1

  9
$DIMALT
 70
     0
  9
$DIMALTD
 70
     2
  9
$DIMALTF
 40
25.4
  9
$DIMLFAC
 40
1.0
  9
$DIMTOFL
 70
     0
  9
$DIMTVP
 40
0.0
  9
$DIMTIX
 70
     0
  9
$DIMSOXD
 70
     0
  9
$DIMSAH
 70
     0
  9
$DIMBLK1
  1

  9
$DIMBLK2
  1

  9
$DIMSTYLE
  2
Standard
  9
$DIMCLRD
 70
     0
  9
$DIMCLRE
 70
     0
  9
$DIMCLRT
 70
     0
  9
$DIMTFAC
 40
1.0
  9
$DIMGAP
 40
0.09
  9
$DIMJUST
 70
     0
  9
$DIMSD1
 70
     0
  9
$DIMSD2
 70
     0
  9
$DIMTOLJ
 70
     1
  9
$DIMTZIN
 70
     0
  9
$DIMALTZ
 70
     0
  9
$DIMALTTZ
 70
     0
  9
$DIMUPT
 70
     0
  9
$DIMDEC
 70
     4
  9
$DIMTDEC
 70
     4
  9
$DIMALTU
 70
     2
  9
$DIMALTTD
 70
     2
  9
$DIMTXSTY
  7
Standard
  9
$DIMAUNIT
 70
     0
  9
$DIMADEC
 70
     0
  9
$DIMALTRND
 40
0.0
  9
$DIMAZIN
 70
     0
  9
$DIMDSEP
 70
    46
  9
$DIMATFIT
 70
     3
  9
$DIMFRAC
 70
     0
  9
$DIMLDRBLK
  1

  9
$DIMLUNIT
 70
     2
  9
$DIMLWD
 70
    -2
  9
$DIMLWE
 70
    -2
  9
$DIMTMOVE
 70
     0
  9
$DIMFXL
 40
1.0
  9
$DIMFXLON
 70
     0
  9
$DIMJOGANG
 40
0.7853981633974483
  9
$DIMTFILL
 70
     0
  9
$DIMTFILLCLR
 70
     0
  9
$DIMARCSYM
 70
     0
  9
$DIMLTYPE
  6

  9
$DIMLTEX1
  6

  9
$DIMLTEX2
  6

  9
$DIMTXTDIRECTION
 70
     0
  9
$LUNITS
 70
     2
  9
$LUPREC
 70
     4
  9
$SKETCHINC
 40
0.1
  9
$FILLETRAD
 40
0.5
  9
$AUNITS
 70
     0
  9
$AUPREC
 70
     0
  9
$MENU
  1
.
  9
$ELEVATION
 40
0.0
  9
$PELEVATION
 40
0.0
  9
$THICKNESS
 40
0.0
  9
$LIMCHECK
 70
     0
  9
$CHAMFERA
 40
0.5
  9
$CHAMFERB
 40
0.5
  9
$CHAMFERC
 40
1.0
  9
$CHAMFERD
 40
0.0
  9
$SKPOLY
 70
     0
  9
$TDCREATE
 40
2457917.624421285
  9
$TDUCREATE
 40
2457917.249421296
  9
$TDUPDATE
 40
2457917.624421285
  9
$TDUUPDATE
 40
2457917.249421296
  9
$TDINDWG
 40
0.0000000116
  9
$TDUSRTIMER
 40
0.0000000116
  9
$USRTIMER
 70
     1
  9
$ANGBASE
 50
0.0
  9
$ANGDIR
 70
     0
  9
$PDMODE
 70
     0
  9
$PDSIZE
 40
0.0
  9
$PLINEWID
 40
0.0
  9
$SPLFRAME
 70
     0
  9
$SPLINETYPE
 70
     6
  9
$SPLINESEGS
 70
     8
  9
$HANDSEED
  5
AF
  9
$SURFTAB1
 70
     6
  9
$SURFTAB2
 70
     6
  9
$SURFTYPE
 70
     6
  9
$SURFU
 70
     6
  9
$SURFV
 70
     6
  9
$UCSBASE
  2

  9
$UCSNAME
  2

  9
$UCSORG
 10
0.0
 20
0.0
 30
0.0
  9
$UCSXDIR
 10
1.0
 20
0.0
 30
0.0
  9
$UCSYDIR
 10
0.0
 20
1.0
 30
0.0
  9
$UCSORTHOREF
  2

  9
$UCSORTHOVIEW
 70
     0
  9
$UCSORGTOP
 10
0.0
 20
0.0
 30
0.0
  9
$UCSORGBOTTOM
 10
0.0
 20
0.0
 30
0.0
  9
$UCSORGLEFT
 10
0.0
 20
0.0
 30
0.0
  9
$UCSORGRIGHT
 10
0.0
 20
0.0
 30
0.0
  9
$UCSORGFRONT
 10
0.0
 20
0.0
 30
0.0
  9
$UCSORGBACK
 10
0.0
 20
0.0
 30
0.0
  9
$PUCSBASE
  2

  9
$PUCSNAME
  2

  9
$PUCSORG
 10
0.0
 20
0.0
 30
0.0
  9
$PUCSXDIR
 10
1.0
 20
0.0
 30
0.0
  9
$PUCSYDIR
 10
0.0
 20
1.0
 30
0.0
  9
$PUCSORTHOREF
  2

  9
$PUCSORTHOVIEW
 70
     0
  9
$PUCSORGTOP
 10
0.0
 20
0.0
 30
0.0
  9
$PUCSORGBOTTOM
 10
0.0
 20
0.0
 30
0.0
  9
$PUCSORGLEFT
 10
0.0
 20
0.0
 30
0.0
  9
$PUCSORGRIGHT
 10
0.0
 20
0.0
 30
0.0
  9
$PUCSORGFRONT
 10
0.0
 20
0.0
 30
0.0
  9
$PUCSORGBACK
 10
0.0
 20
0.0
 30
0.0
  9
$USERI1
 70
     0
  9
$USERI2
 70
     0
  9
$USERI3
 70
     0
  9
$USERI4
 70
     0
  9
$USERI5
 70
     0
  9
$USERR1
 40
0.0
  9
$USERR2
 40
0.0
  9
$USERR3
 40
0.0
  9
$USERR4
 40
0.0
  9
$USERR5
 40
0.0
  9
$WORLDVIEW
 70
     1
  9
$SHADEDGE
 70
     3
  9
$SHADEDIF
 70
    70
  9
$TILEMODE
 70
     1
  9
$MAXACTVP
 70
    64
  9
$PINSBASE
 10
0.0
 20
0.0
 30
0.0
  9
$PLIMCHECK
 70
     0
  9
$PEXTMIN
 10
1.000000000000000E+20
 20
1.000000000000000E+20
 30
1.000000000000000E+20
  9
$PEXTMAX
 10
-1.000000000000000E+20
 20
-1.000000000000000E+20
 30
-1.000000000000000E+20
  9
$PLIMMIN
 10
0.0
 20
0.0
  9
$PLIMMAX
 10
12.0
 20
9.0
  9
$UNITMODE
 70
     0
  9
$VISRETAIN
 70
     1
  9
$PLINEGEN
 70
     0
  9
$PSLTSCALE
 70
     1
  9
$TREEDEPTH
 70
  3020
  9
$CMLSTYLE
  2
Standard
  9
$CMLJUST
 70
     0
  9
$CMLSCALE
 40
1.0
  9
$PROXYGRAPHICS
 70
     1
  9
$MEASUREMENT
 70
     0
  9
$CELWEIGHT
370
    -1
  9
$ENDCAPS
280
     0
  9
$JOINSTYLE
280
     0
  9
$LWDISPLAY
290
     1
  9
$INSUNITS
 70
     1
  9
$HYPERLINKBASE
  1

  9
$STYLESHEET
  1

  9
$XEDIT
290
     1
  9
$CEPSNTYPE
380
     0
  9
$PSTYLEMODE
290
     1
  9
$FINGERPRINTGUID
  2
{8E70A694-45CC-83F8-988D-93B54276D372}
  9
$VERSIONGUID
  2
{FAEB1C32-E019-11D5-929B-00C0DF256EC4}
  9
$EXTNAMES
290
     1
  9
$PSVPSCALE
 40
0.0
  9
$OLESTARTUP
290
     0
  9
$SORTENTS
280
   127
  9
$INDEXCTL
280
     0
  9
$HIDETEXT
280
     1
  9
$XCLIPFRAME
280
     2
  9
$HALOGAP
280
     0
  9
$OBSCOLOR
 70
   257
  9
$OBSLTYPE
280
     0
  9
$INTERSECTIONDISPLAY
280
     0
  9
$INTERSECTIONCOLOR
 70
   257
  9
$DIMASSOC
280
     2
  9
$PROJECTNAME
  1

  9
$CAMERADISPLAY
290
     0
  9
$LENSLENGTH
 40
50.0
  9
$CAMERAHEIGHT
 40
0.0
  9
$STEPSPERSEC
 40
2.0
  9
$STEPSIZE
 40
6.0
  9
$3DDWFPREC
 40
2.0
  9
$PSOLWIDTH
 40
0.25
  9
$PSOLHEIGHT
 40
4.0
  9
$LOFTANG1
 40
1.570796326794897
  9
$LOFTANG2
 40
1.570796326794897
  9
$LOFTMAG1
 40
0.0
  9
$LOFTMAG2
 40
0.0
  9
$LOFTPARAM
 70
     7
  9
$LOFTNORMALS
280
     1
  9
$LATITUDE
 40
37.795
  9
$LONGITUDE
 40
-122.394
  9
$NORTHDIRECTION
 40
0.0
  9
$TIMEZONE
 70
 -8000
  9
$LIGHTGLYPHDISPLAY
280
     1
  9
$TILEMODELIGHTSYNCH
280
     1
  9
$CMATERIAL
347
3C
  9
$SOLIDHIST
280
     1
  9
$SHOWHIST
280
     1
  9
$DWFFRAME
280
     2
  9
$DGNFRAME
280
     2
  9
$REALWORLDSCALE
290
     1
  9
$INTERFERECOLOR
 62
   256
  9
$CSHADOW
280
     0
  9
$SHADOWPLANELOCATION
 40
0.0
  0
ENDSEC
  0
SECTION
  2
CLASSES
  0
CLASS
  1
ACDBDICTIONARYWDFLT
  2
AcDbDictionaryWithDefault
  3
ObjectDBX Classes
 90
        0
 91
        4
280
     0
281
     0
  0
CLASS
  1
VISUALSTYLE
  2
AcDbVisualStyle
  3
ObjectDBX Classes
 90
     4095
 91
        4
280
     0
281
     0
  0
CLASS
  1
MATERIAL
  2
AcDbMaterial
  3
ObjectDBX Classes
 90
     1153
 91
        4
280
     0
281
     0
  0
CLASS
  1
SUN
  2
AcDbSun
  3
SCENEOE
 90
     1024
 91
        4
280
     0
281
     0
  0
ENDSEC
  0
SECTION
  2
TABLES
  0
TABLE
  2
VPORT
  5
8
330
0
100
AcDbSymbolTable
 70
     1
  0
VPORT
  5
29
330
8
100
AcDbSymbolTableRecord
100
AcDbViewportTableRecord
  2
*Active
 70
     0
 10
0.0
 20
0.0
 11
1.0
 21
1.0
 12
0.0
 22
0.0
 13
0.0
 23
0.0
 14
0.5
 24
0.5
 15
0.5
 25
0.5
 16
0.0
 26
0.0
 36
1.0
 17
91.00082462281999
 27
-128.4993055234307
 37
0.0
 40
256.9986110468615
 41
0.7081814508812795
 42
50.0
 43
0.0
 44
0.0
 50
0.0
 51
0.0
 71
     0
 72
   100
 73
     1
 74
     3
 75
     0
 76
     0
 77
     0
 78
     0
281
     0
 65
     1
110
0.0
120
0.0
130
0.0
111
1.0
121
0.0
131
0.0
112
0.0
122
1.0
132
0.0
 79
     0
146
0.0
 60
     3
 61
     5
292
     1
282
     1
141
0.0
142
0.0
 63
   250
361
3F
  0
ENDTAB
  0
TABLE
  2
LTYPE
  5
5
330
0
100
AcDbSymbolTable
 70
     1
  0
LTYPE
  5
14
330
5
100
AcDbSymbolTableRecord
100
AcDbLinetypeTableRecord
  2
ByBlock
 70
     0
  3

 72
    65
 73
     0
 40
0.0
  0
LTYPE
  5
15
330
5
100
AcDbSymbolTableRecord
100
AcDbLinetypeTableRecord
  2
ByLayer
 70
     0
  3

 72
    65
 73
     0
 40
0.0
  0
LTYPE
  5
16
330
5
100
AcDbSymbolTableRecord
100
AcDbLinetypeTableRecord
  2
Continuous
 70
     0
  3
Solid line
 72
    65
 73
     0
 40
0.0
  0
ENDTAB
  0
TABLE
  2
LAYER
  5
2
330
0
100
AcDbSymbolTable
 70
     2
  0
LAYER
  5
10
330
2
100
AcDbSymbolTableRecord
100
AcDbLayerTableRecord
  2
0
 70
     0
 62
     7
  6
Continuous
370
    -3
390
F
347
3E
  0
LAYER
  5
40
330
2
100
AcDbSymbolTableRecord
100
AcDbLayerTableRecord
  2
_U+30EC_U+30A4_U+30E4_U+30FC 1
 70
     0
 62
     7
  6
Continuous
370
    -3
390
F
347
3E
  0
ENDTAB
  0
TABLE
  2
STYLE
  5
3
330
0
100
AcDbSymbolTable
 70
     1
  0
STYLE
  5
11
330
3
100
AcDbSymbolTableRecord
100
AcDbTextStyleTableRecord
  2
Standard
 70
     0
 40
0.0
 41
1.0
 50
0.0
 71
     0
 42
0.2
  3
txt
  4

  0
ENDTAB
  0
TABLE
  2
VIEW
  5
6
330
0
100
AcDbSymbolTable
 70
     0
  0
ENDTAB
  0
TABLE
  2
UCS
  5
7
330
0
100
AcDbSymbolTable
 70
     0
  0
ENDTAB
  0
TABLE
  2
APPID
  5
9
330
0
100
AcDbSymbolTable
 70
     1
  0
APPID
  5
12
330
9
100
AcDbSymbolTableRecord
100
AcDbRegAppTableRecord
  2
ACAD
 70
     0
  0
ENDTAB
  0
TABLE
  2
DIMSTYLE
  5
A
330
0
100
AcDbSymbolTable
 70
     1
100
AcDbDimStyleTable
  0
DIMSTYLE
105
27
330
A
100
AcDbSymbolTableRecord
100
AcDbDimStyleTableRecord
  2
Standard
 70
     0
178
     0
340
11
  0
ENDTAB
  0
TABLE
  2
BLOCK_RECORD
  5
1
330
0
100
AcDbSymbolTable
 70
     4
  0
BLOCK_RECORD
  5
1F
330
1
100
AcDbSymbolTableRecord
100
AcDbBlockTableRecord
  2
*Model_Space
340
22
 70
     0
280
     1
281
     0
  0
BLOCK_RECORD
  5
1B
330
1
100
AcDbSymbolTableRecord
100
AcDbBlockTableRecord
  2
*Paper_Space
340
1E
 70
     0
280
     1
281
     0
  0
BLOCK_RECORD
  5
23
330
1
100
AcDbSymbolTableRecord
100
AcDbBlockTableRecord
  2
*Paper_Space0
340
26
 70
     0
280
     1
281
     0
  0
BLOCK_RECORD
  5
7F
330
1
100
AcDbSymbolTableRecord
100
AcDbBlockTableRecord
  2
block 2
340
0
102
{BLKREFS
331
80
102
}
 70
     0
280
     1
281
     0
  0
BLOCK_RECORD
  5
91
330
1
100
AcDbSymbolTableRecord
100
AcDbBlockTableRecord
  2
block 3
340
0
102
{BLKREFS
331
92
102
}
 70
     0
280
     1
281
     0
  0
BLOCK_RECORD
  5
A5
330
1
100
AcDbSymbolTableRecord
100
AcDbBlockTableRecord
  2
block 4
340
0
102
{BLKREFS
331
A6
102
}
 70
     0
280
     1
281
     0
  0
ENDTAB
  0
ENDSEC
  0
SECTION
  2
BLOCKS
  0
BLOCK
  5
20
330
1F
100
AcDbEntity
  8
0
100
AcDbBlockBegin
  2
*Model_Space
 70
     0
 10
0.0
 20
0.0
 30
0.0
  3
*Model_Space
  1

  0
ENDBLK
  5
21
330
1F
100
AcDbEntity
  8
0
100
AcDbBlockEnd
  0
BLOCK
  5
1C
330
1B
100
AcDbEntity
 67
     1
  8
0
100
AcDbBlockBegin
  2
*Paper_Space
 70
     0
 10
0.0
 20
0.0
 30
0.0
  3
*Paper_Space
  1

  0
ENDBLK
  5
1D
330
1B
100
AcDbEntity
 67
     1
  8
0
100
AcDbBlockEnd
  0
BLOCK
  5
24
330
23
100
AcDbEntity
  8
0
100
AcDbBlockBegin
  2
*Paper_Space0
 70
     0
 10
0.0
 20
0.0
 30
0.0
  3
*Paper_Space0
  1

  0
ENDBLK
  5
25
330
23
100
AcDbEntity
  8
0
100
AcDbBlockEnd
  0
BLOCK
  5
81
330
7F
100
AcDbEntity
  8
0
100
AcDbBlockBegin
  2
block 2
 70
     0
 10
0.0
 20
0.0
 30
0.0
  3
block 2
  1

  0
SPLINE
  5
83
330
7F
100
AcDbEntity
  8
_U+30EC_U+30A4_U+30E4_U+30FC 1
370
     0
100
AcDbSpline
210
0.0
220
0.0
230
1.0
 70
    11
 71
     3
 72
    44
 73
    40
 74
     0
 42
0.0000000001
 43
0.0000000001
 12
1.0
 22
0.0
 32
0.0
 13
1.0
 23
0.0
 33
0.0
 40
0.0
 40
0.0
 40
0.0
 40
0.0
 40
1.0
 40
1.0
 40
1.0
 40
2.0
 40
2.0
 40
2.0
 40
3.0
 40
3.0
 40
3.0
 40
4.0
 40
4.0
 40
4.0
 40
5.0
 40
5.0
 40
5.0
 40
6.0
 40
6.0
 40
6.0
 40
7.0
 40
7.0
 40
7.0
 40
8.0
 40
8.0
 40
8.0
 40
9.0
 40
9.0
 40
9.0
 40
10.0
 40
10.0
 40
10.0
 40
11.0
 40
11.0
 40
11.0
 40
12.0
 40
12.0
 40
12.0
 40
13.0
 40
13.0
 40
13.0
 40
13.0
 10
99.72655704972114
 20
-112.2434502215051
 30
0.0
 10
99.50882701505336
 20
-112.4020968686009
 30
0.0
 10
99.4158094369516
 20
-112.4761664215337
 30
0.0
 10
99.36688908106106
 20
-112.6199991580429
 30
0.0
 10
99.36688908106106
 20
-112.6199991580429
 30
0.0
 10
100.1454806607275
 20
-112.6199991580429
 30
0.0
 10
100.1454806607275
 20
-112.6199991580429
 30
0.0
 10
100.1454806607275
 20
-112.6199991580429
 30
0.0
 10
100.1454806607275
 20
-112.8251545941896
 30
0.0
 10
100.1454806607275
 20
-112.8251545941896
 30
0.0
 10
100.1454806607275
 20
-112.8251545941896
 30
0.0
 10
99.11746416792897
 20
-112.8251545941896
 30
0.0
 10
99.11746416792897
 20
-112.8251545941896
 30
0.0
 10
99.14915904639327
 20
-112.4675536828206
 30
0.0
 10
99.21461586061302
 20
-112.3893500153054
 30
0.0
 10
99.59977753586395
 20
-112.0910047462828
 30
0.0
 10
99.85574813041801
 20
-111.8922227367839
 30
0.0
 10
99.92120494463776
 20
-111.8245266104987
 30
0.0
 10
99.92120494463776
 20
-111.6870673006373
 30
0.0
 10
99.92120494463776
 20
-111.5685560159447
 30
0.0
 10
99.84920244899604
 20
-111.4374701327309
 30
0.0
 10
99.65248749678827
 20
-111.4374701327309
 30
0.0
 10
99.39238278765191
 20
-111.4374701327309
 30
0.0
 10
99.38377004893879
 20
-111.6679470206941
 30
0.0
 10
99.37963593435649
 20
-111.7843912480956
 30
0.0
 10
99.37963593435649
 20
-111.7843912480956
 30
0.0
 10
99.15536021826672
 20
-111.7843912480956
 30
0.0
 10
99.15536021826672
 20
-111.7843912480956
 30
0.0
 10
99.16397295697985
 20
-111.6574394794641
 30
0.0
 10
99.17465275298412
 20
-111.5453016214192
 30
0.0
 10
99.25492347779044
 20
-111.4267903367266
 30
0.0
 10
99.3648220237699
 20
-111.2660766323397
 30
0.0
 10
99.55120168952193
 20
-111.23214244181
 30
0.0
 10
99.66730140737485
 20
-111.23214244181
 30
0.0
 10
99.94463159393746
 20
-111.23214244181
 30
0.0
 10
100.1520263421495
 20
-111.4162827954966
 30
0.0
 10
100.1520263421495
 20
-111.6891343579284
 30
0.0
 10
100.1520263421495
 20
-111.9175441886005
 30
0.0
 10
100.0355821147481
 20
-112.0171074481242
 30
0.0
 10
99.72655704972114
 20
-112.2434502215051
 30
0.0
  0
HATCH
  5
84
330
7F
100
AcDbEntity
  8
_U+30EC_U+30A4_U+30E4_U+30FC 1
 62
   179
420
  2234388
100
AcDbHatch
 10
0.0
 20
0.0
 30
0.0
210
0.0
220
0.0
230
1.0
  2
SOLID
 70
     1
 71
     0
 91
        1
 92
        1
 93
        1
 72
     4
 94
        3
 73
     0
 74
     1
 95
       44
 96
       40
 40
0.0
 40
0.0
 40
0.0
 40
0.0
 40
1.0
 40
1.0
 40
1.0
 40
2.0
 40
2.0
 40
2.0
 40
3.0
 40
3.0
 40
3.0
 40
4.0
 40
4.0
 40
4.0
 40
5.0
 40
5.0
 40
5.0
 40
6.0
 40
6.0
 40
6.0
 40
7.0
 40
7.0
 40
7.0
 40
8.0
 40
8.0
 40
8.0
 40
9.0
 40
9.0
 40
9.0
 40
10.0
 40
10.0
 40
10.0
 40
11.0
 40
11.0
 40
11.0
 40
12.0
 40
12.0
 40
12.0
 40
13.0
 40
13.0
 40
13.0
 40
13.0
 10
99.72655704972114
 20
-112.2434502215051
 10
99.50882701505336
 20
-112.4020968686009
 10
99.4158094369516
 20
-112.4761664215337
 10
99.36688908106106
 20
-112.6199991580429
 10
99.36688908106106
 20
-112.6199991580429
 10
100.1454806607275
 20
-112.6199991580429
 10
100.1454806607275
 20
-112.6199991580429
 10
100.1454806607275
 20
-112.6199991580429
 10
100.1454806607275
 20
-112.8251545941896
 10
100.1454806607275
 20
-112.8251545941896
 10
100.1454806607275
 20
-112.8251545941896
 10
99.11746416792897
 20
-112.8251545941896
 10
99.11746416792897
 20
-112.8251545941896
 10
99.14915904639327
 20
-112.4675536828206
 10
99.21461586061302
 20
-112.3893500153054
 10
99.59977753586395
 20
-112.0910047462828
 10
99.85574813041801
 20
-111.8922227367839
 10
99.92120494463776
 20
-111.8245266104987
 10
99.92120494463776
 20
-111.6870673006373
 10
99.92120494463776
 20
-111.5685560159447
 10
99.84920244899604
 20
-111.4374701327309
 10
99.65248749678827
 20
-111.4374701327309
 10
99.39238278765191
 20
-111.4374701327309
 10
99.38377004893879
 20
-111.6679470206941
 10
99.37963593435649
 20
-111.7843912480956
 10
99.37963593435649
 20
-111.7843912480956
 10
99.15536021826672
 20
-111.7843912480956
 10
99.15536021826672
 20
-111.7843912480956
 10
99.16397295697985
 20
-111.6574394794641
 10
99.17465275298412
 20
-111.5453016214192
 10
99.25492347779044
 20
-111.4267903367266
 10
99.3648220237699
 20
-111.2660766323397
 10
99.55120168952193
 20
-111.23214244181
 10
99.66730140737485
 20
-111.23214244181
 10
99.94463159393746
 20
-111.23214244181
 10
100.1520263421495
 20
-111.4162827954966
 10
100.1520263421495
 20
-111.6891343579284
 10
100.1520263421495
 20
-111.9175441886005
 10
100.0355821147481
 20
-112.0171074481242
 10
99.72655704972114
 20
-112.2434502215051
 97
        0
 97
        0
 75
     2
 76
     1
 98
        0
  0
ENDBLK
  5
82
330
7F
100
AcDbEntity
  8
0
100
AcDbBlockEnd
  0
BLOCK
  5
93
330
91
100
AcDbEntity
  8
0
100
AcDbBlockBegin
  2
block 3
 70
     0
 10
0.0
 20
0.0
 30
0.0
  3
block 3
  1

  0
SPLINE
  5
95
330
91
100
AcDbEntity
  8
_U+30EC_U+30A4_U+30E4_U+30FC 1
370
     0
100
AcDbSpline
210
0.0
220
0.0
230
1.0
 70
    11
 71
     3
 72
    44
 73
    40
 74
     0
 42
0.0000000001
 43
0.0000000001
 12
1.0
 22
0.0
 32
0.0
 13
1.0
 23
0.0
 33
0.0
 40
0.0
 40
0.0
 40
0.0
 40
0.0
 40
1.0
 40
1.0
 40
1.0
 40
2.0
 40
2.0
 40
2.0
 40
3.0
 40
3.0
 40
3.0
 40
4.0
 40
4.0
 40
4.0
 40
5.0
 40
5.0
 40
5.0
 40
6.0
 40
6.0
 40
6.0
 40
7.0
 40
7.0
 40
7.0
 40
8.0
 40
8.0
 40
8.0
 40
9.0
 40
9.0
 40
9.0
 40
10.0
 40
10.0
 40
10.0
 40
11.0
 40
11.0
 40
11.0
 40
12.0
 40
12.0
 40
12.0
 40
13.0
 40
13.0
 40
13.0
 40
13.0
 10
103.4062635375165
 20
-130.4685221027995
 30
0.0
 10
103.5650824393865
 20
-130.6862521374673
 30
0.0
 10
103.6391519923194
 20
-130.7792697155691
 30
0.0
 10
103.7828124740543
 20
-130.8281900714596
 30
0.0
 10
103.7828124740543
 20
-130.8281900714596
 30
0.0
 10
103.7828124740543
 20
-130.0495984917931
 30
0.0
 10
103.7828124740543
 20
-130.0495984917931
 30
0.0
 10
103.7828124740543
 20
-130.0495984917931
 30
0.0
 10
103.9881401649752
 20
-130.0495984917931
 30
0.0
 10
103.9881401649752
 20
-130.0495984917931
 30
0.0
 10
103.9881401649752
 20
-130.0495984917931
 30
0.0
 10
103.9881401649752
 20
-131.0776149845917
 30
0.0
 10
103.9881401649752
 20
-131.0776149845917
 30
0.0
 10
103.6305392536063
 20
-131.0459201061274
 30
0.0
 10
103.5523355860911
 20
-130.9804632919077
 30
0.0
 10
103.2539903170685
 20
-130.5953016166567
 30
0.0
 10
103.0552083075695
 20
-130.3393310221027
 30
0.0
 10
102.9873399265101
 20
-130.2738742078829
 30
0.0
 10
102.8498806166486
 20
-130.2738742078829
 30
0.0
 10
102.731369331956
 20
-130.2738742078829
 30
0.0
 10
102.6004557035166
 20
-130.3458767035247
 30
0.0
 10
102.6004557035166
 20
-130.5425916557324
 30
0.0
 10
102.6004557035166
 20
-130.8026963648688
 30
0.0
 10
102.8309325914798
 20
-130.8109645940334
 30
0.0
 10
102.9473768188812
 20
-130.8154432181642
 30
0.0
 10
102.9473768188812
 20
-130.8154432181642
 30
0.0
 10
102.9473768188812
 20
-131.039718934254
 30
0.0
 10
102.9473768188812
 20
-131.039718934254
 30
0.0
 10
102.8202527954755
 20
-131.0311061955408
 30
0.0
 10
102.7082871922049
 20
-131.0204263995366
 30
0.0
 10
102.5897759075123
 20
-130.9401556747302
 30
0.0
 10
102.4288899483511
 20
-130.8302571287508
 30
0.0
 10
102.3951280125957
 20
-130.6438774629987
 30
0.0
 10
102.3951280125957
 20
-130.5277777451458
 30
0.0
 10
102.3951280125957
 20
-130.2504475585832
 30
0.0
 10
102.579096111508
 20
-130.0430528103712
 30
0.0
 10
102.8519476739398
 20
-130.0430528103712
 30
0.0
 10
103.0807020141604
 20
-130.0430528103712
 30
0.0
 10
103.1799207641356
 20
-130.1594970377726
 30
0.0
 10
103.4062635375165
 20
-130.4685221027995
 30
0.0
  0
HATCH
  5
96
330
91
100
AcDbEntity
  8
_U+30EC_U+30A4_U+30E4_U+30FC 1
 62
   179
420
  2234388
100
AcDbHatch
 10
0.0
 20
0.0
 30
0.0
210
0.0
220
0.0
230
1.0
  2
SOLID
 70
     1
 71
     0
 91
        1
 92
        1
 93
        1
 72
     4
 94
        3
 73
     0
 74
     1
 95
       44
 96
       40
 40
0.0
 40
0.0
 40
0.0
 40
0.0
 40
1.0
 40
1.0
 40
1.0
 40
2.0
 40
2.0
 40
2.0
 40
3.0
 40
3.0
 40
3.0
 40
4.0
 40
4.0
 40
4.0
 40
5.0
 40
5.0
 40
5.0
 40
6.0
 40
6.0
 40
6.0
 40
7.0
 40
7.0
 40
7.0
 40
8.0
 40
8.0
 40
8.0
 40
9.0
 40
9.0
 40
9.0
 40
10.0
 40
10.0
 40
10.0
 40
11.0
 40
11.0
 40
11.0
 40
12.0
 40
12.0
 40
12.0
 40
13.0
 40
13.0
 40
13.0
 40
13.0
 10
103.4062635375165
 20
-130.4685221027995
 10
103.5650824393865
 20
-130.6862521374673
 10
103.6391519923194
 20
-130.7792697155691
 10
103.7828124740543
 20
-130.8281900714596
 10
103.7828124740543
 20
-130.8281900714596
 10
103.7828124740543
 20
-130.0495984917931
 10
103.7828124740543
 20
-130.0495984917931
 10
103.7828124740543
 20
-130.0495984917931
 10
103.9881401649752
 20
-130.0495984917931
 10
103.9881401649752
 20
-130.0495984917931
 10
103.9881401649752
 20
-130.0495984917931
 10
103.9881401649752
 20
-131.0776149845917
 10
103.9881401649752
 20
-131.0776149845917
 10
103.6305392536063
 20
-131.0459201061274
 10
103.5523355860911
 20
-130.9804632919077
 10
103.2539903170685
 20
-130.5953016166567
 10
103.0552083075695
 20
-130.3393310221027
 10
102.9873399265101
 20
-130.2738742078829
 10
102.8498806166486
 20
-130.2738742078829
 10
102.731369331956
 20
-130.2738742078829
 10
102.6004557035166
 20
-130.3458767035247
 10
102.6004557035166
 20
-130.5425916557324
 10
102.6004557035166
 20
-130.8026963648688
 10
102.8309325914798
 20
-130.8109645940334
 10
102.9473768188812
 20
-130.8154432181642
 10
102.9473768188812
 20
-130.8154432181642
 10
102.9473768188812
 20
-131.039718934254
 10
102.9473768188812
 20
-131.039718934254
 10
102.8202527954755
 20
-131.0311061955408
 10
102.7082871922049
 20
-131.0204263995366
 10
102.5897759075123
 20
-130.9401556747302
 10
102.4288899483511
 20
-130.8302571287508
 10
102.3951280125957
 20
-130.6438774629987
 10
102.3951280125957
 20
-130.5277777451458
 10
102.3951280125957
 20
-130.2504475585832
 10
102.579096111508
 20
-130.0430528103712
 10
102.8519476739398
 20
-130.0430528103712
 10
103.0807020141604
 20
-130.0430528103712
 10
103.1799207641356
 20
-130.1594970377726
 10
103.4062635375165
 20
-130.4685221027995
 97
        0
 97
        0
 75
     2
 76
     1
 98
        0
  0
SPLINE
  5
97
330
91
100
AcDbEntity
  8
_U+30EC_U+30A4_U+30E4_U+30FC 1
370
     0
100
AcDbSpline
210
0.0
220
0.0
230
1.0
 70
    11
 71
     3
 72
    53
 73
    49
 74
     0
 42
0.0000000001
 43
0.0000000001
 12
1.0
 22
0.0
 32
0.0
 13
1.0
 23
0.0
 33
0.0
 40
0.0
 40
0.0
 40
0.0
 40
0.0
 40
1.0
 40
1.0
 40
1.0
 40
2.0
 40
2.0
 40
2.0
 40
3.0
 40
3.0
 40
3.0
 40
4.0
 40
4.0
 40
4.0
 40
5.0
 40
5.0
 40
5.0
 40
6.0
 40
6.0
 40
6.0
 40
7.0
 40
7.0
 40
7.0
 40
8.0
 40
8.0
 40
8.0
 40
9.0
 40
9.0
 40
9.0
 40
10.0
 40
10.0
 40
10.0
 40
11.0
 40
11.0
 40
11.0
 40
12.0
 40
12.0
 40
12.0
 40
13.0
 40
13.0
 40
13.0
 40
14.0
 40
14.0
 40
14.0
 40
15.0
 40
15.0
 40
15.0
 40
16.0
 40
16.0
 40
16.0
 40
16.0
 10
104.0387830686084
 20
-129.4036430883088
 30
0.0
 10
104.0387830686084
 20
-129.481846755824
 30
0.0
 10
104.0219021007306
 20
-129.5834770726389
 30
0.0
 10
103.958512343802
 20
-129.6851073894537
 30
0.0
 10
103.8486137978226
 20
-129.8583956923618
 30
0.0
 10
103.7173556598346
 20
-129.8797552843703
 30
0.0
 10
103.6095241711462
 20
-129.8987033095392
 30
0.0
 10
103.6095241711462
 20
-129.8987033095392
 30
0.0
 10
103.6095241711462
 20
-129.6764946507406
 30
0.0
 10
103.6095241711462
 20
-129.6764946507406
 30
0.0
 10
103.8083061806451
 20
-129.6217176325251
 30
0.0
 10
103.8379340018183
 20
-129.4945936091194
 30
0.0
 10
103.8379340018183
 20
-129.4015760310177
 30
0.0
 10
103.8379340018183
 20
-129.262049663865
 30
0.0
 10
103.7383707422946
 20
-129.109776443417
 30
0.0
 10
103.5058267970402
 20
-129.109776443417
 30
0.0
 10
103.2498562024862
 20
-129.109776443417
 30
0.0
 10
103.1799207641356
 20
-129.289610427747
 30
0.0
 10
103.1799207641356
 20
-129.4101887697308
 30
0.0
 10
103.1799207641356
 20
-129.4418836481951
 30
0.0
 10
103.1799207641356
 20
-129.5834770726389
 30
0.0
 10
103.3091118448324
 20
-129.6723605361583
 30
0.0
 10
103.3091118448324
 20
-129.6723605361583
 30
0.0
 10
103.2901638196636
 20
-129.848060405906
 30
0.0
 10
103.2901638196636
 20
-129.848060405906
 30
0.0
 10
103.2901638196636
 20
-129.848060405906
 30
0.0
 10
102.4437038589377
 20
-129.7274820639223
 30
0.0
 10
102.4437038589377
 20
-129.7274820639223
 30
0.0
 10
102.4437038589377
 20
-129.7274820639223
 30
0.0
 10
102.4437038589377
 20
-128.9488904842558
 30
0.0
 10
102.4437038589377
 20
-128.9488904842558
 30
0.0
 10
102.4437038589377
 20
-128.9488904842558
 30
0.0
 10
102.6383517538543
 20
-128.9488904842558
 30
0.0
 10
102.6383517538543
 20
-128.9488904842558
 30
0.0
 10
102.6383517538543
 20
-128.9488904842558
 30
0.0
 10
102.6383517538543
 20
-129.56452904747
 30
0.0
 10
102.6383517538543
 20
-129.56452904747
 30
0.0
 10
102.6383517538543
 20
-129.56452904747
 30
0.0
 10
103.061409479443
 20
-129.6299858616897
 30
0.0
 10
103.061409479443
 20
-129.6299858616897
 30
0.0
 10
103.0276475436875
 20
-129.5686631620523
 30
0.0
 10
102.9873399265101
 20
-129.4863253799548
 30
0.0
 10
102.9873399265101
 20
-129.3678140952622
 30
0.0
 10
102.9873399265101
 20
-129.1139105579993
 30
0.0
 10
103.1737195922621
 20
-128.8768879886141
 30
0.0
 10
103.4868787718713
 20
-128.8768879886141
 30
0.0
 10
103.8041720660628
 20
-128.8768879886141
 30
0.0
 10
104.0387830686084
 20
-129.1011637047039
 30
0.0
 10
104.0387830686084
 20
-129.4036430883088
 30
0.0
  0
HATCH
  5
98
330
91
100
AcDbEntity
  8
_U+30EC_U+30A4_U+30E4_U+30FC 1
 62
   179
420
  2234388
100
AcDbHatch
 10
0.0
 20
0.0
 30
0.0
210
0.0
220
0.0
230
1.0
  2
SOLID
 70
     1
 71
     0
 91
        1
 92
        1
 93
        1
 72
     4
 94
        3
 73
     0
 74
     1
 95
       53
 96
       49
 40
0.0
 40
0.0
 40
0.0
 40
0.0
 40
1.0
 40
1.0
 40
1.0
 40
2.0
 40
2.0
 40
2.0
 40
3.0
 40
3.0
 40
3.0
 40
4.0
 40
4.0
 40
4.0
 40
5.0
 40
5.0
 40
5.0
 40
6.0
 40
6.0
 40
6.0
 40
7.0
 40
7.0
 40
7.0
 40
8.0
 40
8.0
 40
8.0
 40
9.0
 40
9.0
 40
9.0
 40
10.0
 40
10.0
 40
10.0
 40
11.0
 40
11.0
 40
11.0
 40
12.0
 40
12.0
 40
12.0
 40
13.0
 40
13.0
 40
13.0
 40
14.0
 40
14.0
 40
14.0
 40
15.0
 40
15.0
 40
15.0
 40
16.0
 40
16.0
 40
16.0
 40
16.0
 10
104.0387830686084
 20
-129.4036430883088
 10
104.0387830686084
 20
-129.481846755824
 10
104.0219021007306
 20
-129.5834770726389
 10
103.958512343802
 20
-129.6851073894537
 10
103.8486137978226
 20
-129.8583956923618
 10
103.7173556598346
 20
-129.8797552843703
 10
103.6095241711462
 20
-129.8987033095392
 10
103.6095241711462
 20
-129.8987033095392
 10
103.6095241711462
 20
-129.6764946507406
 10
103.6095241711462
 20
-129.6764946507406
 10
103.8083061806451
 20
-129.6217176325251
 10
103.8379340018183
 20
-129.4945936091194
 10
103.8379340018183
 20
-129.4015760310177
 10
103.8379340018183
 20
-129.262049663865
 10
103.7383707422946
 20
-129.109776443417
 10
103.5058267970402
 20
-129.109776443417
 10
103.2498562024862
 20
-129.109776443417
 10
103.1799207641356
 20
-129.289610427747
 10
103.1799207641356
 20
-129.4101887697308
 10
103.1799207641356
 20
-129.4418836481951
 10
103.1799207641356
 20
-129.5834770726389
 10
103.3091118448324
 20
-129.6723605361583
 10
103.3091118448324
 20
-129.6723605361583
 10
103.2901638196636
 20
-129.848060405906
 10
103.2901638196636
 20
-129.848060405906
 10
103.2901638196636
 20
-129.848060405906
 10
102.4437038589377
 20
-129.7274820639223
 10
102.4437038589377
 20
-129.7274820639223
 10
102.4437038589377
 20
-129.7274820639223
 10
102.4437038589377
 20
-128.9488904842558
 10
102.4437038589377
 20
-128.9488904842558
 10
102.4437038589377
 20
-128.9488904842558
 10
102.6383517538543
 20
-128.9488904842558
 10
102.6383517538543
 20
-128.9488904842558
 10
102.6383517538543
 20
-128.9488904842558
 10
102.6383517538543
 20
-129.56452904747
 10
102.6383517538543
 20
-129.56452904747
 10
102.6383517538543
 20
-129.56452904747
 10
103.061409479443
 20
-129.6299858616897
 10
103.061409479443
 20
-129.6299858616897
 10
103.0276475436875
 20
-129.5686631620523
 10
102.9873399265101
 20
-129.4863253799548
 10
102.9873399265101
 20
-129.3678140952622
 10
102.9873399265101
 20
-129.1139105579993
 10
103.1737195922621
 20
-128.8768879886141
 10
103.4868787718713
 20
-128.8768879886141
 10
103.8041720660628
 20
-128.8768879886141
 10
104.0387830686084
 20
-129.1011637047039
 10
104.0387830686084
 20
-129.4036430883088
 97
        0
 97
        0
 75
     2
 76
     1
 98
        0
  0
ENDBLK
  5
94
330
91
100
AcDbEntity
  8
0
100
AcDbBlockEnd
  0
BLOCK
  5
A7
330
A5
100
AcDbEntity
  8
0
100
AcDbBlockBegin
  2
block 4
 70
     0
 10
0.0
 20
0.0
 30
0.0
  3
block 4
  1

  0
SPLINE
  5
A9
330
A5
100
AcDbEntity
  8
_U+30EC_U+30A4_U+30E4_U+30FC 1
370
     0
100
AcDbSpline
210
0.0
220
0.0
230
1.0
 70
    11
 71
     3
 72
    44
 73
    40
 74
     0
 42
0.0000000001
 43
0.0000000001
 12
1.0
 22
0.0
 32
0.0
 13
1.0
 23
0.0
 33
0.0
 40
0.0
 40
0.0
 40
0.0
 40
0.0
 40
1.0
 40
1.0
 40
1.0
 40
2.0
 40
2.0
 40
2.0
 40
3.0
 40
3.0
 40
3.0
 40
4.0
 40
4.0
 40
4.0
 40
5.0
 40
5.0
 40
5.0
 40
6.0
 40
6.0
 40
6.0
 40
7.0
 40
7.0
 40
7.0
 40
8.0
 40
8.0
 40
8.0
 40
9.0
 40
9.0
 40
9.0
 40
10.0
 40
10.0
 40
10.0
 40
11.0
 40
11.0
 40
11.0
 40
12.0
 40
12.0
 40
12.0
 40
13.0
 40
13.0
 40
13.0
 40
13.0
 10
87.63823375630226
 20
-145.2435031103905
 30
0.0
 10
87.42050372163446
 20
-145.4023220122605
 30
0.0
 10
87.32748614353271
 20
-145.4763915651934
 30
0.0
 10
87.27856578764217
 20
-145.6200520469283
 30
0.0
 10
87.27856578764217
 20
-145.6200520469283
 30
0.0
 10
88.05715736730863
 20
-145.6200520469283
 30
0.0
 10
88.05715736730863
 20
-145.6200520469283
 30
0.0
 10
88.05715736730863
 20
-145.6200520469283
 30
0.0
 10
88.05715736730863
 20
-145.8253797378492
 30
0.0
 10
88.05715736730863
 20
-145.8253797378492
 30
0.0
 10
88.05715736730863
 20
-145.8253797378492
 30
0.0
 10
87.02914087451008
 20
-145.8253797378492
 30
0.0
 10
87.02914087451008
 20
-145.8253797378492
 30
0.0
 10
87.06083575297438
 20
-145.4677788264803
 30
0.0
 10
87.12629256719413
 20
-145.3895751589651
 30
0.0
 10
87.51145424244505
 20
-145.0912298899425
 30
0.0
 10
87.76742483699913
 20
-144.8924478804436
 30
0.0
 10
87.83288165121887
 20
-144.8245794993841
 30
0.0
 10
87.83288165121887
 20
-144.6871201895227
 30
0.0
 10
87.83288165121887
 20
-144.5686089048301
 30
0.0
 10
87.76087915557714
 20
-144.4376952763906
 30
0.0
 10
87.56416420336937
 20
-144.4376952763906
 30
0.0
 10
87.30405949423302
 20
-144.4376952763906
 30
0.0
 10
87.29544675551989
 20
-144.6681721643538
 30
0.0
 10
87.29131264093759
 20
-144.7846163917552
 30
0.0
 10
87.29131264093759
 20
-144.7846163917552
 30
0.0
 10
87.06703692484783
 20
-144.7846163917552
 30
0.0
 10
87.06703692484783
 20
-144.7846163917552
 30
0.0
 10
87.07564966356095
 20
-144.6574923683495
 30
0.0
 10
87.08632945956522
 20
-144.5455267650789
 30
0.0
 10
87.16660018437155
 20
-144.4270154803863
 30
0.0
 10
87.27649873035102
 20
-144.2661295212251
 30
0.0
 10
87.46287839610304
 20
-144.2323675854697
 30
0.0
 10
87.57897811395596
 20
-144.2323675854697
 30
0.0
 10
87.85630830051856
 20
-144.2323675854697
 30
0.0
 10
88.0637030487306
 20
-144.416335684382
 30
0.0
 10
88.0637030487306
 20
-144.6891872468138
 30
0.0
 10
88.0637030487306
 20
-144.9179415870344
 30
0.0
 10
87.94725882132916
 20
-145.0171603370096
 30
0.0
 10
87.63823375630226
 20
-145.2435031103905
 30
0.0
  0
HATCH
  5
AA
330
A5
100
AcDbEntity
  8
_U+30EC_U+30A4_U+30E4_U+30FC 1
 62
   179
420
  2234388
100
AcDbHatch
 10
0.0
 20
0.0
 30
0.0
210
0.0
220
0.0
230
1.0
  2
SOLID
 70
     1
 71
     0
 91
        1
 92
        1
 93
        1
 72
     4
 94
        3
 73
     0
 74
     1
 95
       44
 96
       40
 40
0.0
 40
0.0
 40
0.0
 40
0.0
 40
1.0
 40
1.0
 40
1.0
 40
2.0
 40
2.0
 40
2.0
 40
3.0
 40
3.0
 40
3.0
 40
4.0
 40
4.0
 40
4.0
 40
5.0
 40
5.0
 40
5.0
 40
6.0
 40
6.0
 40
6.0
 40
7.0
 40
7.0
 40
7.0
 40
8.0
 40
8.0
 40
8.0
 40
9.0
 40
9.0
 40
9.0
 40
10.0
 40
10.0
 40
10.0
 40
11.0
 40
11.0
 40
11.0
 40
12.0
 40
12.0
 40
12.0
 40
13.0
 40
13.0
 40
13.0
 40
13.0
 10
87.63823375630226
 20
-145.2435031103905
 10
87.42050372163446
 20
-145.4023220122605
 10
87.32748614353271
 20
-145.4763915651934
 10
87.27856578764217
 20
-145.6200520469283
 10
87.27856578764217
 20
-145.6200520469283
 10
88.05715736730863
 20
-145.6200520469283
 10
88.05715736730863
 20
-145.6200520469283
 10
88.05715736730863
 20
-145.6200520469283
 10
88.05715736730863
 20
-145.8253797378492
 10
88.05715736730863
 20
-145.8253797378492
 10
88.05715736730863
 20
-145.8253797378492
 10
87.02914087451008
 20
-145.8253797378492
 10
87.02914087451008
 20
-145.8253797378492
 10
87.06083575297438
 20
-145.4677788264803
 10
87.12629256719413
 20
-145.3895751589651
 10
87.51145424244505
 20
-145.0912298899425
 10
87.76742483699913
 20
-144.8924478804436
 10
87.83288165121887
 20
-144.8245794993841
 10
87.83288165121887
 20
-144.6871201895227
 10
87.83288165121887
 20
-144.5686089048301
 10
87.76087915557714
 20
-144.4376952763906
 10
87.56416420336937
 20
-144.4376952763906
 10
87.30405949423302
 20
-144.4376952763906
 10
87.29544675551989
 20
-144.6681721643538
 10
87.29131264093759
 20
-144.7846163917552
 10
87.29131264093759
 20
-144.7846163917552
 10
87.06703692484783
 20
-144.7846163917552
 10
87.06703692484783
 20
-144.7846163917552
 10
87.07564966356095
 20
-144.6574923683495
 10
87.08632945956522
 20
-144.5455267650789
 10
87.16660018437155
 20
-144.4270154803863
 10
87.27649873035102
 20
-144.2661295212251
 10
87.46287839610304
 20
-144.2323675854697
 10
87.57897811395596
 20
-144.2323675854697
 10
87.85630830051856
 20
-144.2323675854697
 10
88.0637030487306
 20
-144.416335684382
 10
88.0637030487306
 20
-144.6891872468138
 10
88.0637030487306
 20
-144.9179415870344
 10
87.94725882132916
 20
-145.0171603370096
 10
87.63823375630226
 20
-145.2435031103905
 97
        0
 97
        0
 75
     2
 76
     1
 98
        0
  0
SPLINE
  5
AB
330
A5
100
AcDbEntity
  8
_U+30EC_U+30A4_U+30E4_U+30FC 1
370
     0
100
AcDbSpline
210
0.0
220
0.0
230
1.0
 70
    11
 71
     3
 72
    53
 73
    49
 74
     0
 42
0.0000000001
 43
0.0000000001
 12
1.0
 22
0.0
 32
0.0
 13
1.0
 23
0.0
 33
0.0
 40
0.0
 40
0.0
 40
0.0
 40
0.0
 40
1.0
 40
1.0
 40
1.0
 40
2.0
 40
2.0
 40
2.0
 40
3.0
 40
3.0
 40
3.0
 40
4.0
 40
4.0
 40
4.0
 40
5.0
 40
5.0
 40
5.0
 40
6.0
 40
6.0
 40
6.0
 40
7.0
 40
7.0
 40
7.0
 40
8.0
 40
8.0
 40
8.0
 40
9.0
 40
9.0
 40
9.0
 40
10.0
 40
10.0
 40
10.0
 40
11.0
 40
11.0
 40
11.0
 40
12.0
 40
12.0
 40
12.0
 40
13.0
 40
13.0
 40
13.0
 40
14.0
 40
14.0
 40
14.0
 40
15.0
 40
15.0
 40
15.0
 40
16.0
 40
16.0
 40
16.0
 40
16.0
 10
88.70311277079297
 20
-145.8760226414824
 30
0.0
 10
88.6249091032778
 20
-145.8760226414824
 30
0.0
 10
88.52327878646294
 20
-145.8591416736047
 30
0.0
 10
88.42164846964806
 20
-145.7957519166761
 30
0.0
 10
88.24836016674
 20
-145.6858533706966
 30
0.0
 10
88.22700057473145
 20
-145.5545952327086
 30
0.0
 10
88.20805254956258
 20
-145.4467637440203
 30
0.0
 10
88.20805254956258
 20
-145.4467637440203
 30
0.0
 10
88.43026120836119
 20
-145.4467637440203
 30
0.0
 10
88.43026120836119
 20
-145.4467637440203
 30
0.0
 10
88.48503822657666
 20
-145.6455457535192
 30
0.0
 10
88.61216224998238
 20
-145.6751735746923
 30
0.0
 10
88.70517982808413
 20
-145.6751735746923
 30
0.0
 10
88.84470619523674
 20
-145.6751735746923
 30
0.0
 10
88.99697941568479
 20
-145.5756103151686
 30
0.0
 10
88.99697941568479
 20
-145.3430663699143
 30
0.0
 10
88.99697941568479
 20
-145.0870957753602
 30
0.0
 10
88.81714543135475
 20
-145.0171603370096
 30
0.0
 10
88.696567089371
 20
-145.0171603370096
 30
0.0
 10
88.66487221090671
 20
-145.0171603370096
 30
0.0
 10
88.52327878646294
 20
-145.0171603370096
 30
0.0
 10
88.43439532294349
 20
-145.1463514177065
 30
0.0
 10
88.43439532294349
 20
-145.1463514177065
 30
0.0
 10
88.25869545319574
 20
-145.1274033925376
 30
0.0
 10
88.25869545319574
 20
-145.1274033925376
 30
0.0
 10
88.25869545319574
 20
-145.1274033925376
 30
0.0
 10
88.37927379517949
 20
-144.2809434318117
 30
0.0
 10
88.37927379517949
 20
-144.2809434318117
 30
0.0
 10
88.37927379517949
 20
-144.2809434318117
 30
0.0
 10
89.15786537484595
 20
-144.2809434318117
 30
0.0
 10
89.15786537484595
 20
-144.2809434318117
 30
0.0
 10
89.15786537484595
 20
-144.2809434318117
 30
0.0
 10
89.15786537484595
 20
-144.4755913267283
 30
0.0
 10
89.15786537484595
 20
-144.4755913267283
 30
0.0
 10
89.15786537484595
 20
-144.4755913267283
 30
0.0
 10
88.5422268116318
 20
-144.4755913267283
 30
0.0
 10
88.5422268116318
 20
-144.4755913267283
 30
0.0
 10
88.5422268116318
 20
-144.4755913267283
 30
0.0
 10
88.47676999741206
 20
-144.898649052317
 30
0.0
 10
88.47676999741206
 20
-144.898649052317
 30
0.0
 10
88.5380926970495
 20
-144.8648871165616
 30
0.0
 10
88.62043047914698
 20
-144.8245794993841
 30
0.0
 10
88.73894176383958
 20
-144.8245794993841
 30
0.0
 10
88.99284530110249
 20
-144.8245794993841
 30
0.0
 10
89.22986787048768
 20
-145.0109591651361
 30
0.0
 10
89.22986787048768
 20
-145.3241183447454
 30
0.0
 10
89.22986787048768
 20
-145.6414116389369
 30
0.0
 10
89.00559215439792
 20
-145.8760226414824
 30
0.0
 10
88.70311277079297
 20
-145.8760226414824
 30
0.0
  0
HATCH
  5
AC
330
A5
100
AcDbEntity
  8
_U+30EC_U+30A4_U+30E4_U+30FC 1
 62
   179
420
  2234388
100
AcDbHatch
 10
0.0
 20
0.0
 30
0.0
210
0.0
220
0.0
230
1.0
  2
SOLID
 70
     1
 71
     0
 91
        1
 92
        1
 93
        1
 72
     4
 94
        3
 73
     0
 74
     1
 95
       53
 96
       49
 40
0.0
 40
0.0
 40
0.0
 40
0.0
 40
1.0
 40
1.0
 40
1.0
 40
2.0
 40
2.0
 40
2.0
 40
3.0
 40
3.0
 40
3.0
 40
4.0
 40
4.0
 40
4.0
 40
5.0
 40
5.0
 40
5.0
 40
6.0
 40
6.0
 40
6.0
 40
7.0
 40
7.0
 40
7.0
 40
8.0
 40
8.0
 40
8.0
 40
9.0
 40
9.0
 40
9.0
 40
10.0
 40
10.0
 40
10.0
 40
11.0
 40
11.0
 40
11.0
 40
12.0
 40
12.0
 40
12.0
 40
13.0
 40
13.0
 40
13.0
 40
14.0
 40
14.0
 40
14.0
 40
15.0
 40
15.0
 40
15.0
 40
16.0
 40
16.0
 40
16.0
 40
16.0
 10
88.70311277079297
 20
-145.8760226414824
 10
88.6249091032778
 20
-145.8760226414824
 10
88.52327878646294
 20
-145.8591416736047
 10
88.42164846964806
 20
-145.7957519166761
 10
88.24836016674
 20
-145.6858533706966
 10
88.22700057473145
 20
-145.5545952327086
 10
88.20805254956258
 20
-145.4467637440203
 10
88.20805254956258
 20
-145.4467637440203
 10
88.43026120836119
 20
-145.4467637440203
 10
88.43026120836119
 20
-145.4467637440203
 10
88.48503822657666
 20
-145.6455457535192
 10
88.61216224998238
 20
-145.6751735746923
 10
88.70517982808413
 20
-145.6751735746923
 10
88.84470619523674
 20
-145.6751735746923
 10
88.99697941568479
 20
-145.5756103151686
 10
88.99697941568479
 20
-145.3430663699143
 10
88.99697941568479
 20
-145.0870957753602
 10
88.81714543135475
 20
-145.0171603370096
 10
88.696567089371
 20
-145.0171603370096
 10
88.66487221090671
 20
-145.0171603370096
 10
88.52327878646294
 20
-145.0171603370096
 10
88.43439532294349
 20
-145.1463514177065
 10
88.43439532294349
 20
-145.1463514177065
 10
88.25869545319574
 20
-145.1274033925376
 10
88.25869545319574
 20
-145.1274033925376
 10
88.25869545319574
 20
-145.1274033925376
 10
88.37927379517949
 20
-144.2809434318117
 10
88.37927379517949
 20
-144.2809434318117
 10
88.37927379517949
 20
-144.2809434318117
 10
89.15786537484595
 20
-144.2809434318117
 10
89.15786537484595
 20
-144.2809434318117
 10
89.15786537484595
 20
-144.2809434318117
 10
89.15786537484595
 20
-144.4755913267283
 10
89.15786537484595
 20
-144.4755913267283
 10
89.15786537484595
 20
-144.4755913267283
 10
88.5422268116318
 20
-144.4755913267283
 10
88.5422268116318
 20
-144.4755913267283
 10
88.5422268116318
 20
-144.4755913267283
 10
88.47676999741206
 20
-144.898649052317
 10
88.47676999741206
 20
-144.898649052317
 10
88.5380926970495
 20
-144.8648871165616
 10
88.62043047914698
 20
-144.8245794993841
 10
88.73894176383958
 20
-144.8245794993841
 10
88.99284530110249
 20
-144.8245794993841
 10
89.22986787048768
 20
-145.0109591651361
 10
89.22986787048768
 20
-145.3241183447454
 10
89.22986787048768
 20
-145.6414116389369
 10
89.00559215439792
 20
-145.8760226414824
 10
88.70311277079297
 20
-145.8760226414824
 97
        0
 97
        0
 75
     2
 76
     1
 98
        0
  0
ENDBLK
  5
A8
330
A5
100
AcDbEntity
  8
0
100
AcDbBlockEnd
  0
ENDSEC
  0
SECTION
  2
ENTITIES
  0
POLYLINE
  5
41
330
1F
100
AcDbEntity
  8
_U+30EC_U+30A4_U+30E4_U+30FC 1
370
     0
100
AcDb2dPolyline
 66
     1
 10
0.0
 20
0.0
 30
0.0
  0
VERTEX
  5
42
330
41
100
AcDbEntity
  8
_U+30EC_U+30A4_U+30E4_U+30FC 1
370
     0
100
AcDbVertex
100
AcDb2dVertex
 10
98.63377137253174
 20
-140.4713485759932
 30
0.0
  0
VERTEX
  5
43
330
41
100
AcDbEntity
  8
_U+30EC_U+30A4_U+30E4_U+30FC 1
370
     0
100
AcDbVertex
100
AcDb2dVertex
 10
77.63368886948058
 20
-140.4713485759932
 30
0.0
  0
VERTEX
  5
44
330
41
100
AcDbEntity
  8
_U+30EC_U+30A4_U+30E4_U+30FC 1
370
     0
100
AcDbVertex
100
AcDb2dVertex
 10
77.63368886948058
 20
-117.47122524841
 30
0.0
  0
VERTEX
  5
45
330
41
100
AcDbEntity
  8
_U+30EC_U+30A4_U+30E4_U+30FC 1
370
     0
100
AcDbVertex
100
AcDb2dVertex
 10
75.63414442553582
 20
-117.47122524841
 30
0.0
  0
VERTEX
  5
46
330
41
100
AcDbEntity
  8
_U+30EC_U+30A4_U+30E4_U+30FC 1
370
     0
100
AcDbVertex
100
AcDb2dVertex
 10
75.63414442553582
 20
-142.4715632977156
 30
0.0
  0
VERTEX
  5
47
330
41
100
AcDbEntity
  8
_U+30EC_U+30A4_U+30E4_U+30FC 1
370
     0
100
AcDbVertex
100
AcDb2dVertex
 10
100.6339860437242
 20
-142.4715632977156
 30
0.0
  0
VERTEX
  5
48
330
41
100
AcDbEntity
  8
_U+30EC_U+30A4_U+30E4_U+30FC 1
370
     0
100
AcDbVertex
100
AcDb2dVertex
 10
100.6339860437242
 20
-117.47122524841
 30
0.0
  0
VERTEX
  5
49
330
41
100
AcDbEntity
  8
_U+30EC_U+30A4_U+30E4_U+30FC 1
370
     0
100
AcDbVertex
100
AcDb2dVertex
 10
98.63377137253174
 20
-117.47122524841
 30
0.0
  0
VERTEX
  5
4A
330
41
100
AcDbEntity
  8
_U+30EC_U+30A4_U+30E4_U+30FC 1
370
     0
100
AcDbVertex
100
AcDb2dVertex
 10
98.63377137253174
 20
-140.4713485759932
 30
0.0
  0
SEQEND
  5
4C
330
41
100
AcDbEntity
  8
_U+30EC_U+30A4_U+30E4_U+30FC 1
370
     0
  0
HATCH
  5
4B
330
1F
100
AcDbEntity
  8
_U+30EC_U+30A4_U+30E4_U+30FC 1
 62
   253
420
 11711154
100
AcDbHatch
 10
0.0
 20
0.0
 30
0.0
210
0.0
220
0.0
230
1.0
  2
SOLID
 70
     1
 71
     0
 91
        1
 92
        1
 93
        8
 72
     1
 10
98.63377137253174
 20
-140.4713485759932
 11
77.63368886948058
 21
-140.4713485759932
 72
     1
 10
77.63368886948058
 20
-140.4713485759932
 11
77.63368886948058
 21
-117.47122524841
 72
     1
 10
77.63368886948058
 20
-117.47122524841
 11
75.63414442553582
 21
-117.47122524841
 72
     1
 10
75.63414442553582
 20
-117.47122524841
 11
75.63414442553582
 21
-142.4715632977156
 72
     1
 10
75.63414442553582
 20
-142.4715632977156
 11
100.6339860437242
 21
-142.4715632977156
 72
     1
 10
100.6339860437242
 20
-142.4715632977156
 11
100.6339860437242
 21
-117.47122524841
 72
     1
 10
100.6339860437242
 20
-117.47122524841
 11
98.63377137253174
 21
-117.47122524841
 72
     1
 10
98.63377137253174
 20
-117.47122524841
 11
98.63377137253174
 21
-140.4713485759932
 97
        0
 75
     2
 76
     1
 98
        0
  0
POLYLINE
  5
4D
330
1F
100
AcDbEntity
  8
_U+30EC_U+30A4_U+30E4_U+30FC 1
 62
   179
420
  2234388
370
    25
100
AcDb2dPolyline
 66
     1
 10
0.0
 20
0.0
 30
0.0
  0
VERTEX
  5
4E
330
4D
100
AcDbEntity
  8
_U+30EC_U+30A4_U+30E4_U+30FC 1
 62
   179
420
  2234388
370
    25
100
AcDbVertex
100
AcDb2dVertex
 10
100.6339860437242
 20
-117.47122524841
 30
0.0
  0
VERTEX
  5
4F
330
4D
100
AcDbEntity
  8
_U+30EC_U+30A4_U+30E4_U+30FC 1
 62
   179
420
  2234388
370
    25
100
AcDbVertex
100
AcDb2dVertex
 10
100.6339860437242
 20
-142.4715632977156
 30
0.0
  0
SEQEND
  5
50
330
4D
100
AcDbEntity
  8
_U+30EC_U+30A4_U+30E4_U+30FC 1
 62
   179
420
  2234388
370
    25
  0
POLYLINE
  5
51
330
1F
100
AcDbEntity
  8
_U+30EC_U+30A4_U+30E4_U+30FC 1
 62
   179
420
  2234388
370
    25
100
AcDb2dPolyline
 66
     1
 10
0.0
 20
0.0
 30
0.0
  0
VERTEX
  5
52
330
51
100
AcDbEntity
  8
_U+30EC_U+30A4_U+30E4_U+30FC 1
 62
   179
420
  2234388
370
    25
100
AcDbVertex
100
AcDb2dVertex
 10
75.63414442553582
 20
-117.47122524841
 30
0.0
  0
VERTEX
  5
53
330
51
100
AcDbEntity
  8
_U+30EC_U+30A4_U+30E4_U+30FC 1
 62
   179
420
  2234388
370
    25
100
AcDbVertex
100
AcDb2dVertex
 10
75.63414442553582
 20
-142.4715632977156
 30
0.0
  0
SEQEND
  5
54
330
51
100
AcDbEntity
  8
_U+30EC_U+30A4_U+30E4_U+30FC 1
 62
   179
420
  2234388
370
    25
  0
POLYLINE
  5
55
330
1F
100
AcDbEntity
  8
_U+30EC_U+30A4_U+30E4_U+30FC 1
 62
   179
420
  2234388
370
    25
100
AcDb2dPolyline
 66
     1
 10
0.0
 20
0.0
 30
0.0
  0
VERTEX
  5
56
330
55
100
AcDbEntity
  8
_U+30EC_U+30A4_U+30E4_U+30FC 1
 62
   179
420
  2234388
370
    25
100
AcDbVertex
100
AcDb2dVertex
 10
98.63377137253174
 20
-117.47122524841
 30
0.0
  0
VERTEX
  5
57
330
55
100
AcDbEntity
  8
_U+30EC_U+30A4_U+30E4_U+30FC 1
 62
   179
420
  2234388
370
    25
100
AcDbVertex
100
AcDb2dVertex
 10
100.6339860437242
 20
-117.47122524841
 30
0.0
  0
SEQEND
  5
58
330
55
100
AcDbEntity
  8
_U+30EC_U+30A4_U+30E4_U+30FC 1
 62
   179
420
  2234388
370
    25
  0
POLYLINE
  5
59
330
1F
100
AcDbEntity
  8
_U+30EC_U+30A4_U+30E4_U+30FC 1
 62
   179
420
  2234388
370
    25
100
AcDb2dPolyline
 66
     1
 10
0.0
 20
0.0
 30
0.0
  0
VERTEX
  5
5A
330
59
100
AcDbEntity
  8
_U+30EC_U+30A4_U+30E4_U+30FC 1
 62
   179
420
  2234388
370
    25
100
AcDbVertex
100
AcDb2dVertex
 10
75.63414442553582
 20
-142.4715632977156
 30
0.0
  0
VERTEX
  5
5B
330
59
100
AcDbEntity
  8
_U+30EC_U+30A4_U+30E4_U+30FC 1
 62
   179
420
  2234388
370
    25
100
AcDbVertex
100
AcDb2dVertex
 10
100.6339860437242
 20
-142.4715632977156
 30
0.0
  0
SEQEND
  5
5C
330
59
100
AcDbEntity
  8
_U+30EC_U+30A4_U+30E4_U+30FC 1
 62
   179
420
  2234388
370
    25
  0
POLYLINE
  5
5D
330
1F
100
AcDbEntity
  8
_U+30EC_U+30A4_U+30E4_U+30FC 1
 62
   179
420
  2234388
370
    25
100
AcDb2dPolyline
 66
     1
 10
0.0
 20
0.0
 30
0.0
  0
VERTEX
  5
5E
330
5D
100
AcDbEntity
  8
_U+30EC_U+30A4_U+30E4_U+30FC 1
 62
   179
420
  2234388
370
    25
100
AcDbVertex
100
AcDb2dVertex
 10
75.63414442553582
 20
-117.47122524841
 30
0.0
  0
VERTEX
  5
5F
330
5D
100
AcDbEntity
  8
_U+30EC_U+30A4_U+30E4_U+30FC 1
 62
   179
420
  2234388
370
    25
100
AcDbVertex
100
AcDb2dVertex
 10
77.63368886948058
 20
-117.47122524841
 30
0.0
  0
SEQEND
  5
60
330
5D
100
AcDbEntity
  8
_U+30EC_U+30A4_U+30E4_U+30FC 1
 62
   179
420
  2234388
370
    25
  0
POLYLINE
  5
61
330
1F
100
AcDbEntity
  8
_U+30EC_U+30A4_U+30E4_U+30FC 1
 62
   179
420
  2234388
370
    25
100
AcDb2dPolyline
 66
     1
 10
0.0
 20
0.0
 30
0.0
  0
VERTEX
  5
62
330
61
100
AcDbEntity
  8
_U+30EC_U+30A4_U+30E4_U+30FC 1
 62
   179
420
  2234388
370
    25
100
AcDbVertex
100
AcDb2dVertex
 10
77.63368886948058
 20
-117.47122524841
 30
0.0
  0
VERTEX
  5
63
330
61
100
AcDbEntity
  8
_U+30EC_U+30A4_U+30E4_U+30FC 1
 62
   179
420
  2234388
370
    25
100
AcDbVertex
100
AcDb2dVertex
 10
77.63368886948058
 20
-140.4713485759932
 30
0.0
  0
SEQEND
  5
64
330
61
100
AcDbEntity
  8
_U+30EC_U+30A4_U+30E4_U+30FC 1
 62
   179
420
  2234388
370
    25
  0
POLYLINE
  5
65
330
1F
100
AcDbEntity
  8
_U+30EC_U+30A4_U+30E4_U+30FC 1
 62
   179
420
  2234388
370
    25
100
AcDb2dPolyline
 66
     1
 10
0.0
 20
0.0
 30
0.0
  0
VERTEX
  5
66
330
65
100
AcDbEntity
  8
_U+30EC_U+30A4_U+30E4_U+30FC 1
 62
   179
420
  2234388
370
    25
100
AcDbVertex
100
AcDb2dVertex
 10
98.63377137253174
 20
-117.47122524841
 30
0.0
  0
VERTEX
  5
67
330
65
100
AcDbEntity
  8
_U+30EC_U+30A4_U+30E4_U+30FC 1
 62
   179
420
  2234388
370
    25
100
AcDbVertex
100
AcDb2dVertex
 10
98.63377137253174
 20
-140.4713485759932
 30
0.0
  0
SEQEND
  5
68
330
65
100
AcDbEntity
  8
_U+30EC_U+30A4_U+30E4_U+30FC 1
 62
   179
420
  2234388
370
    25
  0
POLYLINE
  5
69
330
1F
100
AcDbEntity
  8
_U+30EC_U+30A4_U+30E4_U+30FC 1
 62
   179
420
  2234388
370
    25
100
AcDb2dPolyline
 66
     1
 10
0.0
 20
0.0
 30
0.0
  0
VERTEX
  5
6A
330
69
100
AcDbEntity
  8
_U+30EC_U+30A4_U+30E4_U+30FC 1
 62
   179
420
  2234388
370
    25
100
AcDbVertex
100
AcDb2dVertex
 10
77.63368886948058
 20
-140.4713485759932
 30
0.0
  0
VERTEX
  5
6B
330
69
100
AcDbEntity
  8
_U+30EC_U+30A4_U+30E4_U+30FC 1
 62
   179
420
  2234388
370
    25
100
AcDbVertex
100
AcDb2dVertex
 10
98.63377137253174
 20
-140.4713485759932
 30
0.0
  0
SEQEND
  5
6C
330
69
100
AcDbEntity
  8
_U+30EC_U+30A4_U+30E4_U+30FC 1
 62
   179
420
  2234388
370
    25
  0
SPLINE
  5
6D
330
1F
100
AcDbEntity
  8
_U+30EC_U+30A4_U+30E4_U+30FC 1
 62
   179
420
  2234388
370
     9
100
AcDbSpline
210
0.0
220
0.0
230
1.0
 70
    11
 71
     3
 72
    17
 73
    13
 74
     0
 42
0.0000000001
 43
0.0000000001
 12
1.0
 22
0.0
 32
0.0
 13
1.0
 23
0.0
 33
0.0
 40
0.0
 40
0.0
 40
0.0
 40
0.0
 40
1.0
 40
1.0
 40
1.0
 40
2.0
 40
2.0
 40
2.0
 40
3.0
 40
3.0
 40
3.0
 40
4.0
 40
4.0
 40
4.0
 40
4.0
 10
75.73404917897454
 20
-146.4713224633819
 30
0.0
 10
75.73404917897454
 20
-146.416218574507
 30
0.0
 10
75.68924640233979
 20
-146.3714157967403
 30
0.0
 10
75.63414442553582
 20
-146.3714157967403
 30
0.0
 10
75.57833307183608
 20
-146.3714157967403
 30
0.0
 10
75.53353029520132
 20
-146.416218574507
 30
0.0
 10
75.53353029520132
 20
-146.4713224633819
 30
0.0
 10
75.53353029520132
 20
-146.526461630035
 30
0.0
 10
75.57833307183608
 20
-146.5712291300242
 30
0.0
 10
75.63414442553582
 20
-146.5712291300242
 30
0.0
 10
75.68924640233979
 20
-146.5712291300242
 30
0.0
 10
75.73404917897454
 20
-146.526461630035
 30
0.0
 10
75.73404917897454
 20
-146.4713224633819
 30
0.0
  0
SPLINE
  5
6E
330
1F
100
AcDbEntity
  8
_U+30EC_U+30A4_U+30E4_U+30FC 1
 62
   179
420
  2234388
370
     9
100
AcDbSpline
210
0.0
220
0.0
230
1.0
 70
    11
 71
     3
 72
    17
 73
    13
 74
     0
 42
0.0000000001
 43
0.0000000001
 12
1.0
 22
0.0
 32
0.0
 13
1.0
 23
0.0
 33
0.0
 40
0.0
 40
0.0
 40
0.0
 40
0.0
 40
1.0
 40
1.0
 40
1.0
 40
2.0
 40
2.0
 40
2.0
 40
3.0
 40
3.0
 40
3.0
 40
4.0
 40
4.0
 40
4.0
 40
4.0
 10
100.7338927078421
 20
-146.4713224633819
 30
0.0
 10
100.7338927078421
 20
-146.416218574507
 30
0.0
 10
100.6891277526054
 20
-146.3714157967403
 30
0.0
 10
100.6339860437242
 20
-146.3714157967403
 30
0.0
 10
100.5788821562412
 20
-146.3714157967403
 30
0.0
 10
100.5340793796064
 20
-146.416218574507
 30
0.0
 10
100.5340793796064
 20
-146.4713224633819
 30
0.0
 10
100.5340793796064
 20
-146.526461630035
 30
0.0
 10
100.5788821562412
 20
-146.5712291300242
 30
0.0
 10
100.6339860437242
 20
-146.5712291300242
 30
0.0
 10
100.6891277526054
 20
-146.5712291300242
 30
0.0
 10
100.7338927078421
 20
-146.526461630035
 30
0.0
 10
100.7338927078421
 20
-146.4713224633819
 30
0.0
  0
SPLINE
  5
6F
330
1F
100
AcDbEntity
  8
_U+30EC_U+30A4_U+30E4_U+30FC 1
 62
   179
420
  2234388
370
     9
100
AcDbSpline
210
0.0
220
0.0
230
1.0
 70
    11
 71
     3
 72
    17
 73
    13
 74
     0
 42
0.0000000001
 43
0.0000000001
 12
1.0
 22
0.0
 32
0.0
 13
1.0
 23
0.0
 33
0.0
 40
0.0
 40
0.0
 40
0.0
 40
0.0
 40
1.0
 40
1.0
 40
1.0
 40
2.0
 40
2.0
 40
2.0
 40
3.0
 40
3.0
 40
3.0
 40
4.0
 40
4.0
 40
4.0
 40
4.0
 10
104.7336517724664
 20
-142.4715632977156
 30
0.0
 10
104.7336517724664
 20
-142.4157538532852
 30
0.0
 10
104.6888842736085
 20
-142.371656631074
 30
0.0
 10
104.6337451083485
 20
-142.371656631074
 30
0.0
 10
104.5786412208655
 20
-142.371656631074
 30
0.0
 10
104.5338384442307
 20
-142.4157538532852
 30
0.0
 10
104.5338384442307
 20
-142.4715632977156
 30
0.0
 10
104.5338384442307
 20
-142.5267024643681
 30
0.0
 10
104.5786412208655
 20
-142.5714699643573
 30
0.0
 10
104.6337451083485
 20
-142.5714699643573
 30
0.0
 10
104.6888842736085
 20
-142.5714699643573
 30
0.0
 10
104.7336517724664
 20
-142.5267024643681
 30
0.0
 10
104.7336517724664
 20
-142.4715632977156
 30
0.0
  0
SPLINE
  5
70
330
1F
100
AcDbEntity
  8
_U+30EC_U+30A4_U+30E4_U+30FC 1
 62
   179
420
  2234388
370
     9
100
AcDbSpline
210
0.0
220
0.0
230
1.0
 70
    11
 71
     3
 72
    17
 73
    13
 74
     0
 42
0.0000000001
 43
0.0000000001
 12
1.0
 22
0.0
 32
0.0
 13
1.0
 23
0.0
 33
0.0
 40
0.0
 40
0.0
 40
0.0
 40
0.0
 40
1.0
 40
1.0
 40
1.0
 40
2.0
 40
2.0
 40
2.0
 40
3.0
 40
3.0
 40
3.0
 40
4.0
 40
4.0
 40
4.0
 40
4.0
 10
104.7336517724664
 20
-117.47122524841
 30
0.0
 10
104.7336517724664
 20
-117.416086081757
 30
0.0
 10
104.6888842736085
 20
-117.3713185817684
 30
0.0
 10
104.6337451083485
 20
-117.3713185817684
 30
0.0
 10
104.5786412208655
 20
-117.3713185817684
 30
0.0
 10
104.5338384442307
 20
-117.416086081757
 30
0.0
 10
104.5338384442307
 20
-117.47122524841
 30
0.0
 10
104.5338384442307
 20
-117.526329137285
 30
0.0
 10
104.5786412208655
 20
-117.5711319150517
 30
0.0
 10
104.6337451083485
 20
-117.5711319150517
 30
0.0
 10
104.6888842736085
 20
-117.5711319150517
 30
0.0
 10
104.7336517724664
 20
-117.526329137285
 30
0.0
 10
104.7336517724664
 20
-117.47122524841
 30
0.0
  0
SPLINE
  5
71
330
1F
100
AcDbEntity
  8
_U+30EC_U+30A4_U+30E4_U+30FC 1
 62
   179
420
  2234388
370
     9
100
AcDbSpline
210
0.0
220
0.0
230
1.0
 70
    11
 71
     3
 72
    17
 73
    13
 74
     0
 42
0.0000000001
 43
0.0000000001
 12
1.0
 22
0.0
 32
0.0
 13
1.0
 23
0.0
 33
0.0
 40
0.0
 40
0.0
 40
0.0
 40
0.0
 40
1.0
 40
1.0
 40
1.0
 40
2.0
 40
2.0
 40
2.0
 40
3.0
 40
3.0
 40
3.0
 40
4.0
 40
4.0
 40
4.0
 40
4.0
 10
100.7338927078421
 20
-113.4714660827432
 30
0.0
 10
100.7338927078421
 20
-113.4163269160904
 30
0.0
 10
100.6891277526054
 20
-113.3715594161015
 30
0.0
 10
100.6339860437242
 20
-113.3715594161015
 30
0.0
 10
100.5788821562412
 20
-113.3715594161015
 30
0.0
 10
100.5340793796064
 20
-113.4163269160904
 30
0.0
 10
100.5340793796064
 20
-113.4714660827432
 30
0.0
 10
100.5340793796064
 20
-113.5265699716184
 30
0.0
 10
100.5788821562412
 20
-113.5713727493848
 30
0.0
 10
100.6339860437242
 20
-113.5713727493848
 30
0.0
 10
100.6891277526054
 20
-113.5713727493848
 30
0.0
 10
100.7338927078421
 20
-113.5265699716184
 30
0.0
 10
100.7338927078421
 20
-113.4714660827432
 30
0.0
  0
SPLINE
  5
72
330
1F
100
AcDbEntity
  8
_U+30EC_U+30A4_U+30E4_U+30FC 1
 62
   179
420
  2234388
370
     9
100
AcDbSpline
210
0.0
220
0.0
230
1.0
 70
    11
 71
     3
 72
    17
 73
    13
 74
     0
 42
0.0000000001
 43
0.0000000001
 12
1.0
 22
0.0
 32
0.0
 13
1.0
 23
0.0
 33
0.0
 40
0.0
 40
0.0
 40
0.0
 40
0.0
 40
1.0
 40
1.0
 40
1.0
 40
2.0
 40
2.0
 40
2.0
 40
3.0
 40
3.0
 40
3.0
 40
4.0
 40
4.0
 40
4.0
 40
4.0
 10
98.73368053087214
 20
-113.4714660827432
 30
0.0
 10
98.73368053087214
 20
-113.4163269160904
 30
0.0
 10
98.68887775310542
 20
-113.3715594161015
 30
0.0
 10
98.63377137253174
 20
-113.3715594161015
 30
0.0
 10
98.5786322072718
 20
-113.3715594161015
 30
0.0
 10
98.5338647084139
 20
-113.4163269160904
 30
0.0
 10
98.5338647084139
 20
-113.4714660827432
 30
0.0
 10
98.5338647084139
 20
-113.5265699716184
 30
0.0
 10
98.5786322072718
 20
-113.5713727493848
 30
0.0
 10
98.63377137253174
 20
-113.5713727493848
 30
0.0
 10
98.68887775310542
 20
-113.5713727493848
 30
0.0
 10
98.73368053087214
 20
-113.5265699716184
 30
0.0
 10
98.73368053087214
 20
-113.4714660827432
 30
0.0
  0
POLYLINE
  5
73
330
1F
100
AcDbEntity
  8
_U+30EC_U+30A4_U+30E4_U+30FC 1
 62
   179
420
  2234388
370
     9
100
AcDb2dPolyline
 66
     1
 10
0.0
 20
0.0
 30
0.0
  0
VERTEX
  5
74
330
73
100
AcDbEntity
  8
_U+30EC_U+30A4_U+30E4_U+30FC 1
 62
   179
420
  2234388
370
     9
100
AcDbVertex
100
AcDb2dVertex
 10
97.63399917581583
 20
-113.4714660827432
 30
0.0
  0
VERTEX
  5
75
330
73
100
AcDbEntity
  8
_U+30EC_U+30A4_U+30E4_U+30FC 1
 62
   179
420
  2234388
370
     9
100
AcDbVertex
100
AcDb2dVertex
 10
101.6337582404401
 20
-113.4714660827432
 30
0.0
  0
SEQEND
  5
76
330
73
100
AcDbEntity
  8
_U+30EC_U+30A4_U+30E4_U+30FC 1
 62
   179
420
  2234388
370
     9
  0
POLYLINE
  5
77
330
1F
100
AcDbEntity
  8
_U+30EC_U+30A4_U+30E4_U+30FC 1
 62
   179
420
  2234388
370
     9
100
AcDb2dPolyline
 66
     1
 10
0.0
 20
0.0
 30
0.0
  0
VERTEX
  5
78
330
77
100
AcDbEntity
  8
_U+30EC_U+30A4_U+30E4_U+30FC 1
 62
   179
420
  2234388
370
     9
100
AcDbVertex
100
AcDb2dVertex
 10
98.63377137253174
 20
-114.9314721934893
 30
0.0
  0
VERTEX
  5
79
330
77
100
AcDbEntity
  8
_U+30EC_U+30A4_U+30E4_U+30FC 1
 62
   179
420
  2234388
370
     9
100
AcDbVertex
100
AcDb2dVertex
 10
98.63377137253174
 20
-112.4709883052157
 30
0.0
  0
SEQEND
  5
7A
330
77
100
AcDbEntity
  8
_U+30EC_U+30A4_U+30E4_U+30FC 1
 62
   179
420
  2234388
370
     9
  0
POLYLINE
  5
7B
330
1F
100
AcDbEntity
  8
_U+30EC_U+30A4_U+30E4_U+30FC 1
 62
   179
420
  2234388
370
     9
100
AcDb2dPolyline
 66
     1
 10
0.0
 20
0.0
 30
0.0
  0
VERTEX
  5
7C
330
7B
100
AcDbEntity
  8
_U+30EC_U+30A4_U+30E4_U+30FC 1
 62
   179
420
  2234388
370
     9
100
AcDbVertex
100
AcDb2dVertex
 10
100.6339860437242
 20
-114.9314721934893
 30
0.0
  0
VERTEX
  5
7D
330
7B
100
AcDbEntity
  8
_U+30EC_U+30A4_U+30E4_U+30FC 1
 62
   179
420
  2234388
370
     9
100
AcDbVertex
100
AcDb2dVertex
 10
100.6339860437242
 20
-112.4709883052157
 30
0.0
  0
SEQEND
  5
7E
330
7B
100
AcDbEntity
  8
_U+30EC_U+30A4_U+30E4_U+30FC 1
 62
   179
420
  2234388
370
     9
  0
INSERT
  5
80
330
1F
100
AcDbEntity
  8
_U+30EC_U+30A4_U+30E4_U+30FC 1
100
AcDbBlockReference
  2
block 2
 10
0.0
 20
0.0
 30
0.0
  0
POLYLINE
  5
85
330
1F
100
AcDbEntity
  8
_U+30EC_U+30A4_U+30E4_U+30FC 1
 62
   179
420
  2234388
370
     9
100
AcDb2dPolyline
 66
     1
 10
0.0
 20
0.0
 30
0.0
  0
VERTEX
  5
86
330
85
100
AcDbEntity
  8
_U+30EC_U+30A4_U+30E4_U+30FC 1
 62
   179
420
  2234388
370
     9
100
AcDbVertex
100
AcDb2dVertex
 10
104.6337451083485
 20
-117.47122524841
 30
0.0
  0
VERTEX
  5
87
330
85
100
AcDbEntity
  8
_U+30EC_U+30A4_U+30E4_U+30FC 1
 62
   179
420
  2234388
370
     9
100
AcDbVertex
100
AcDb2dVertex
 10
104.6337451083485
 20
-142.4715632977156
 30
0.0
  0
SEQEND
  5
88
330
85
100
AcDbEntity
  8
_U+30EC_U+30A4_U+30E4_U+30FC 1
 62
   179
420
  2234388
370
     9
  0
POLYLINE
  5
89
330
1F
100
AcDbEntity
  8
_U+30EC_U+30A4_U+30E4_U+30FC 1
 62
   179
420
  2234388
370
     9
100
AcDb2dPolyline
 66
     1
 10
0.0
 20
0.0
 30
0.0
  0
VERTEX
  5
8A
330
89
100
AcDbEntity
  8
_U+30EC_U+30A4_U+30E4_U+30FC 1
 62
   179
420
  2234388
370
     9
100
AcDbVertex
100
AcDb2dVertex
 10
103.1737037567084
 20
-117.47122524841
 30
0.0
  0
VERTEX
  5
8B
330
89
100
AcDbEntity
  8
_U+30EC_U+30A4_U+30E4_U+30FC 1
 62
   179
420
  2234388
370
     9
100
AcDbVertex
100
AcDb2dVertex
 10
105.6341875828251
 20
-117.47122524841
 30
0.0
  0
SEQEND
  5
8C
330
89
100
AcDbEntity
  8
_U+30EC_U+30A4_U+30E4_U+30FC 1
 62
   179
420
  2234388
370
     9
  0
POLYLINE
  5
8D
330
1F
100
AcDbEntity
  8
_U+30EC_U+30A4_U+30E4_U+30FC 1
 62
   179
420
  2234388
370
     9
100
AcDb2dPolyline
 66
     1
 10
0.0
 20
0.0
 30
0.0
  0
VERTEX
  5
8E
330
8D
100
AcDbEntity
  8
_U+30EC_U+30A4_U+30E4_U+30FC 1
 62
   179
420
  2234388
370
     9
100
AcDbVertex
100
AcDb2dVertex
 10
103.1737037567084
 20
-142.4715632977156
 30
0.0
  0
VERTEX
  5
8F
330
8D
100
AcDbEntity
  8
_U+30EC_U+30A4_U+30E4_U+30FC 1
 62
   179
420
  2234388
370
     9
100
AcDbVertex
100
AcDb2dVertex
 10
105.6341875828251
 20
-142.4715632977156
 30
0.0
  0
SEQEND
  5
90
330
8D
100
AcDbEntity
  8
_U+30EC_U+30A4_U+30E4_U+30FC 1
 62
   179
420
  2234388
370
     9
  0
INSERT
  5
92
330
1F
100
AcDbEntity
  8
_U+30EC_U+30A4_U+30E4_U+30FC 1
100
AcDbBlockReference
  2
block 3
 10
0.0
 20
0.0
 30
0.0
  0
POLYLINE
  5
99
330
1F
100
AcDbEntity
  8
_U+30EC_U+30A4_U+30E4_U+30FC 1
 62
   179
420
  2234388
370
     9
100
AcDb2dPolyline
 66
     1
 10
0.0
 20
0.0
 30
0.0
  0
VERTEX
  5
9A
330
99
100
AcDbEntity
  8
_U+30EC_U+30A4_U+30E4_U+30FC 1
 62
   179
420
  2234388
370
     9
100
AcDbVertex
100
AcDb2dVertex
 10
75.63414442553582
 20
-146.4713224633819
 30
0.0
  0
VERTEX
  5
9B
330
99
100
AcDbEntity
  8
_U+30EC_U+30A4_U+30E4_U+30FC 1
 62
   179
420
  2234388
370
     9
100
AcDbVertex
100
AcDb2dVertex
 10
100.6339860437242
 20
-146.4713224633819
 30
0.0
  0
SEQEND
  5
9C
330
99
100
AcDbEntity
  8
_U+30EC_U+30A4_U+30E4_U+30FC 1
 62
   179
420
  2234388
370
     9
  0
POLYLINE
  5
9D
330
1F
100
AcDbEntity
  8
_U+30EC_U+30A4_U+30E4_U+30FC 1
 62
   179
420
  2234388
370
     9
100
AcDb2dPolyline
 66
     1
 10
0.0
 20
0.0
 30
0.0
  0
VERTEX
  5
9E
330
9D
100
AcDbEntity
  8
_U+30EC_U+30A4_U+30E4_U+30FC 1
 62
   179
420
  2234388
370
     9
100
AcDbVertex
100
AcDb2dVertex
 10
75.63414442553582
 20
-145.0113163526364
 30
0.0
  0
VERTEX
  5
9F
330
9D
100
AcDbEntity
  8
_U+30EC_U+30A4_U+30E4_U+30FC 1
 62
   179
420
  2234388
370
     9
100
AcDbVertex
100
AcDb2dVertex
 10
75.63414442553582
 20
-147.4710946853544
 30
0.0
  0
SEQEND
  5
A0
330
9D
100
AcDbEntity
  8
_U+30EC_U+30A4_U+30E4_U+30FC 1
 62
   179
420
  2234388
370
     9
  0
POLYLINE
  5
A1
330
1F
100
AcDbEntity
  8
_U+30EC_U+30A4_U+30E4_U+30FC 1
 62
   179
420
  2234388
370
     9
100
AcDb2dPolyline
 66
     1
 10
0.0
 20
0.0
 30
0.0
  0
VERTEX
  5
A2
330
A1
100
AcDbEntity
  8
_U+30EC_U+30A4_U+30E4_U+30FC 1
 62
   179
420
  2234388
370
     9
100
AcDbVertex
100
AcDb2dVertex
 10
100.6339860437242
 20
-145.0113163526364
 30
0.0
  0
VERTEX
  5
A3
330
A1
100
AcDbEntity
  8
_U+30EC_U+30A4_U+30E4_U+30FC 1
 62
   179
420
  2234388
370
     9
100
AcDbVertex
100
AcDb2dVertex
 10
100.6339860437242
 20
-147.4710946853544
 30
0.0
  0
SEQEND
  5
A4
330
A1
100
AcDbEntity
  8
_U+30EC_U+30A4_U+30E4_U+30FC 1
 62
   179
420
  2234388
370
     9
  0
INSERT
  5
A6
330
1F
100
AcDbEntity
  8
_U+30EC_U+30A4_U+30E4_U+30FC 1
100
AcDbBlockReference
  2
block 4
 10
0.0
 20
0.0
 30
0.0
  0
ENDSEC
  0
SECTION
  2
OBJECTS
  0
DICTIONARY
  5
C
330
0
100
AcDbDictionary
281
     1
  3
ACAD_GROUP
350
D
  3
ACAD_LAYOUT
350
1A
  3
ACAD_MATERIAL
350
3B
  3
ACAD_MLEADERSTYLE
350
AE
  3
ACAD_MLINESTYLE
350
17
  3
ACAD_PLOTSETTINGS
350
19
  3
ACAD_PLOTSTYLENAME
350
E
  3
ACAD_TABLESTYLE
350
AD
  3
ACAD_VISUALSTYLE
350
2A
  0
SUN
  5
3F
330
29
100
AcDbSun
 90
        1
290
     0
 63
     7
421
 16777215
 40
1.0
291
     1
 91
  2455826
 92
 54000000
292
     0
 70
     2
 71
   256
280
     1
  0
DICTIONARY
  5
D
102
{ACAD_REACTORS
330
C
102
}
330
C
100
AcDbDictionary
281
     1
  0
DICTIONARY
  5
1A
102
{ACAD_REACTORS
330
C
102
}
330
C
100
AcDbDictionary
281
     1
  3
Layout1
350
1E
  3
Layout2
350
26
  3
Model
350
22
  0
DICTIONARY
  5
3B
102
{ACAD_REACTORS
330
C
102
}
330
C
100
AcDbDictionary
281
     1
  3
ByBlock
350
3D
  3
ByLayer
350
3C
  3
Global
350
3E
  0
DICTIONARY
  5
AE
102
{ACAD_REACTORS
330
C
102
}
330
C
100
AcDbDictionary
281
     1
  0
DICTIONARY
  5
17
102
{ACAD_REACTORS
330
C
102
}
330
C
100
AcDbDictionary
281
     1
  3
Standard
350
18
  0
DICTIONARY
  5
19
102
{ACAD_REACTORS
330
C
102
}
330
C
100
AcDbDictionary
281
     1
  0
ACDBDICTIONARYWDFLT
  5
E
102
{ACAD_REACTORS
330
C
102
}
330
C
100
AcDbDictionary
281
     1
  3
Normal
350
F
100
AcDbDictionaryWithDefault
340
F
  0
DICTIONARY
  5
AD
102
{ACAD_REACTORS
330
C
102
}
330
C
100
AcDbDictionary
281
     1
  0
DICTIONARY
  5
2A
102
{ACAD_REACTORS
330
C
102
}
330
C
100
AcDbDictionary
281
     1
  3
2dWireframe
350
2F
  3
3D Hidden
350
31
  3
3dWireframe
350
30
  3
Basic
350
32
  3
Brighten
350
36
  3
ColorChange
350
3A
  3
Conceptual
350
34
  3
Dim
350
35
  3
Facepattern
350
39
  3
Flat
350
2B
  3
FlatWithEdges
350
2C
  3
Gouraud
350
2D
  3
GouraudWithEdges
350
2E
  3
Linepattern
350
38
  3
Realistic
350
33
  3
Thicken
350
37
  0
LAYOUT
  5
1E
102
{ACAD_REACTORS
330
1A
102
}
330
1A
100
AcDbPlotSettings
  1

  2
none_device
  4

  6

 40
0.0
 41
0.0
 42
0.0
 43
0.0
 44
0.0
 45
0.0
 46
0.0
 47
0.0
 48
0.0
 49
0.0
140
0.0
141
0.0
142
1.0
143
1.0
 70
   688
 72
     0
 73
     0
 74
     5
  7

 75
    16
 76
     0
 77
     2
 78
   300
147
1.0
148
0.0
149
0.0
100
AcDbLayout
  1
Layout1
 70
     1
 71
     1
 10
0.0
 20
0.0
 11
12.0
 21
9.0
 12
0.0
 22
0.0
 32
0.0
 14
1.000000000000000E+20
 24
1.000000000000000E+20
 34
1.000000000000000E+20
 15
-1.000000000000000E+20
 25
-1.000000000000000E+20
 35
-1.000000000000000E+20
146
0.0
 13
0.0
 23
0.0
 33
0.0
 16
1.0
 26
0.0
 36
0.0
 17
0.0
 27
1.0
 37
0.0
 76
     0
330
1B
  0
LAYOUT
  5
26
102
{ACAD_REACTORS
330
1A
102
}
330
1A
100
AcDbPlotSettings
  1

  2
none_device
  4

  6

 40
0.0
 41
0.0
 42
0.0
 43
0.0
 44
0.0
 45
0.0
 46
0.0
 47
0.0
 48
0.0
 49
0.0
140
0.0
141
0.0
142
1.0
143
1.0
 70
   688
 72
     0
 73
     0
 74
     5
  7

 75
    16
 76
     0
 77
     2
 78
   300
147
1.0
148
0.0
149
0.0
100
AcDbLayout
  1
Layout2
 70
     1
 71
     2
 10
0.0
 20
0.0
 11
0.0
 21
0.0
 12
0.0
 22
0.0
 32
0.0
 14
0.0
 24
0.0
 34
0.0
 15
0.0
 25
0.0
 35
0.0
146
0.0
 13
0.0
 23
0.0
 33
0.0
 16
1.0
 26
0.0
 36
0.0
 17
0.0
 27
1.0
 37
0.0
 76
     0
330
23
  0
LAYOUT
  5
22
102
{ACAD_REACTORS
330
1A
102
}
330
1A
100
AcDbPlotSettings
  1

  2
none_device
  4

  6

 40
0.0
 41
0.0
 42
0.0
 43
0.0
 44
0.0
 45
0.0
 46
0.0
 47
0.0
 48
0.0
 49
0.0
140
0.0
141
0.0
142
1.0
143
1.0
 70
  1712
 72
     0
 73
     0
 74
     0
  7

 75
     0
 76
     0
 77
     2
 78
   300
147
1.0
148
0.0
149
0.0
100
AcDbLayout
  1
Model
 70
     1
 71
     0
 10
0.0
 20
0.0
 11
12.0
 21
9.0
 12
0.0
 22
0.0
 32
0.0
 14
1.000000000000000E+20
 24
1.000000000000000E+20
 34
1.000000000000000E+20
 15
-1.000000000000000E+20
 25
-1.000000000000000E+20
 35
-1.000000000000000E+20
146
0.0
 13
0.0
 23
0.0
 33
0.0
 16
1.0
 26
0.0
 36
0.0
 17
0.0
 27
1.0
 37
0.0
 76
     0
330
1F
331
29
  0
MATERIAL
  5
3D
102
{ACAD_REACTORS
330
3B
102
}
330
3B
100
AcDbMaterial
  1
ByBlock
 72
     1
 94
      127
  0
MATERIAL
  5
3C
102
{ACAD_REACTORS
330
3B
102
}
330
3B
100
AcDbMaterial
  1
ByLayer
 72
     1
 94
      127
  0
MATERIAL
  5
3E
102
{ACAD_REACTORS
330
3B
102
}
330
3B
100
AcDbMaterial
  1
Global
 72
     1
 94
      127
  0
MLINESTYLE
  5
18
102
{ACAD_REACTORS
330
17
102
}
330
17
100
AcDbMlineStyle
  2
Standard
 70
     0
  3

 62
   256
 51
90.0
 52
90.0
 71
     2
 49
0.5
 62
   256
  6
BYLAYER
 49
-0.5
 62
   256
  6
BYLAYER
  0
ACDBPLACEHOLDER
  5
F
102
{ACAD_REACTORS
330
E
102
}
330
E
  0
VISUALSTYLE
  5
2F
102
{ACAD_REACTORS
330
2A
102
}
330
2A
100
AcDbVisualStyle
  2
2dWireframe
 70
     4
177
     2
291
     0
 71
     0
176
     1
 72
     2
176
     1
 73
     0
176
     1
 90
        0
176
     1
 40
-0.6
176
     1
 41
-30.0
176
     1
 62
     5
 63
     7
421
 16777215
176
     1
 74
     1
176
     1
 91
        4
176
     1
 64
     7
176
     1
 65
   257
176
     1
 75
     1
176
     1
175
     1
176
     1
 42
1.0
176
     1
 92
        0
176
     1
 66
   257
176
     1
 43
1.0
176
     1
 76
     1
176
     1
 77
     6
176
     1
 78
     2
176
     1
 67
     7
176
     1
 79
     5
176
     1
170
     0
176
     1
171
     0
176
     1
290
     0
176
     1
 93
        1
176
     1
 44
0.0
176
     1
173
     0
176
     1
  0
VISUALSTYLE
  5
31
102
{ACAD_REACTORS
330
2A
102
}
330
2A
100
AcDbVisualStyle
  2
3D Hidden
 70
     6
177
     2
291
     0
 71
     1
176
     1
 72
     2
176
     1
 73
     2
176
     1
 90
        0
176
     1
 40
-0.6
176
     1
 41
-30.0
176
     1
 62
     5
 63
     7
421
 16777215
176
     1
 74
     2
176
     1
 91
        2
176
     1
 64
     7
176
     1
 65
   257
176
     1
 75
     2
176
     1
175
     1
176
     1
 42
40.0
176
     1
 92
        0
176
     1
 66
   257
176
     1
 43
1.0
176
     1
 76
     1
176
     1
 77
     6
176
     1
 78
     2
176
     1
 67
     7
176
     1
 79
     3
176
     1
170
     0
176
     1
171
     0
176
     1
290
     0
176
     1
 93
        1
176
     1
 44
0.0
176
     1
173
     0
176
     1
  0
VISUALSTYLE
  5
30
102
{ACAD_REACTORS
330
2A
102
}
330
2A
100
AcDbVisualStyle
  2
3dWireframe
 70
     5
177
     2
291
     0
 71
     0
176
     1
 72
     2
176
     1
 73
     0
176
     1
 90
        0
176
     1
 40
-0.6
176
     1
 41
-30.0
176
     1
 62
     5
 63
     7
421
 16777215
176
     1
 74
     1
176
     1
 91
        4
176
     1
 64
     7
176
     1
 65
   257
176
     1
 75
     1
176
     1
175
     1
176
     1
 42
1.0
176
     1
 92
        0
176
     1
 66
   257
176
     1
 43
1.0
176
     1
 76
     1
176
     1
 77
     6
176
     1
 78
     2
176
     1
 67
     7
176
     1
 79
     5
176
     1
170
     0
176
     1
171
     0
176
     1
290
     0
176
     1
 93
        1
176
     1
 44
0.0
176
     1
173
     0
176
     1
  0
VISUALSTYLE
  5
32
102
{ACAD_REACTORS
330
2A
102
}
330
2A
100
AcDbVisualStyle
  2
Basic
 70
     7
177
     2
291
     1
 71
     1
176
     1
 72
     0
176
     1
 73
     1
176
     1
 90
        0
176
     1
 40
-0.6
176
     1
 41
-30.0
176
     1
 62
     5
 63
     7
421
 16777215
176
     1
 74
     0
176
     1
 91
        4
176
     1
 64
     7
176
     1
 65
   257
176
     1
 75
     1
176
     1
175
     1
176
     1
 42
1.0
176
     1
 92
        8
176
     1
 66
     7
176
     1
 43
1.0
176
     1
 76
     1
176
     1
 77
     6
176
     1
 78
     2
176
     1
 67
     7
176
     1
 79
     5
176
     1
170
     0
176
     1
171
     0
176
     1
290
     0
176
     1
 93
        1
176
     1
 44
0.0
176
     1
173
     0
176
     1
  0
VISUALSTYLE
  5
36
102
{ACAD_REACTORS
330
2A
102
}
330
2A
100
AcDbVisualStyle
  2
Brighten
 70
    12
177
     2
291
     1
 71
     2
176
     1
 72
     2
176
     1
 73
     0
176
     1
 90
        0
176
     1
 40
-0.6
176
     1
 41
-30.0
176
     1
 62
     5
 63
     7
421
 16777215
176
     1
 74
     1
176
     1
 91
        4
176
     1
 64
     7
176
     1
 65
   257
176
     1
 75
     1
176
     1
175
     1
176
     1
 42
1.0
176
     1
 92
        8
176
     1
 66
     7
176
     1
 43
1.0
176
     1
 76
     1
176
     1
 77
     6
176
     1
 78
     2
176
     1
 67
     7
176
     1
 79
     5
176
     1
170
     0
176
     1
171
     0
176
     1
290
     0
176
     1
 93
        1
176
     1
 44
50.0
176
     1
173
     0
176
     1
  0
VISUALSTYLE
  5
3A
102
{ACAD_REACTORS
330
2A
102
}
330
2A
100
AcDbVisualStyle
  2
ColorChange
 70
    16
177
     2
291
     1
 71
     2
176
     1
 72
     2
176
     1
 73
     3
176
     1
 90
        0
176
     1
 40
-0.6
176
     1
 41
-30.0
176
     1
 62
     5
 63
     8
421
  8421504
176
     1
 74
     1
176
     1
 91
        4
176
     1
 64
     7
176
     1
 65
   257
176
     1
 75
     1
176
     1
175
     1
176
     1
 42
1.0
176
     1
 92
        8
176
     1
 66
     8
424
  8421504
176
     1
 43
1.0
176
     1
 76
     1
176
     1
 77
     6
176
     1
 78
     2
176
     1
 67
     7
176
     1
 79
     5
176
     1
170
     0
176
     1
171
     0
176
     1
290
     0
176
     1
 93
        1
176
     1
 44
0.0
176
     1
173
     0
176
     1
  0
VISUALSTYLE
  5
34
102
{ACAD_REACTORS
330
2A
102
}
330
2A
100
AcDbVisualStyle
  2
Conceptual
 70
     9
177
     2
291
     0
 71
     3
176
     1
 72
     2
176
     1
 73
     0
176
     1
 90
        0
176
     1
 40
-0.6
176
     1
 41
-30.0
176
     1
 62
     5
 63
     7
421
 16777215
176
     1
 74
     2
176
     1
 91
        2
176
     1
 64
     7
176
     1
 65
   257
176
     1
 75
     1
176
     1
175
     1
176
     1
 42
40.0
176
     1
 92
        8
176
     1
 66
     7
176
     1
 43
1.0
176
     1
 76
     1
176
     1
 77
     6
176
     1
 78
     2
176
     1
 67
     7
176
     1
 79
     3
176
     1
170
     0
176
     1
171
     0
176
     1
290
     0
176
     1
 93
        1
176
     1
 44
0.0
176
     1
173
     0
176
     1
  0
VISUALSTYLE
  5
35
102
{ACAD_REACTORS
330
2A
102
}
330
2A
100
AcDbVisualStyle
  2
Dim
 70
    11
177
     2
291
     1
 71
     2
176
     1
 72
     2
176
     1
 73
     0
176
     1
 90
        0
176
     1
 40
-0.6
176
     1
 41
-30.0
176
     1
 62
     5
 63
     7
421
 16777215
176
     1
 74
     1
176
     1
 91
        4
176
     1
 64
     7
176
     1
 65
   257
176
     1
 75
     1
176
     1
175
     1
176
     1
 42
1.0
176
     1
 92
        8
176
     1
 66
     7
176
     1
 43
1.0
176
     1
 76
     1
176
     1
 77
     6
176
     1
 78
     2
176
     1
 67
     7
176
     1
 79
     5
176
     1
170
     0
176
     1
171
     0
176
     1
290
     0
176
     1
 93
        1
176
     1
 44
-50.0
176
     1
173
     0
176
     1
  0
VISUALSTYLE
  5
39
102
{ACAD_REACTORS
330
2A
102
}
330
2A
100
AcDbVisualStyle
  2
Facepattern
 70
    15
177
     2
291
     1
 71
     2
176
     1
 72
     2
176
     1
 73
     0
176
     1
 90
        0
176
     1
 40
-0.6
176
     1
 41
-30.0
176
     1
 62
     5
 63
     7
421
 16777215
176
     1
 74
     1
176
     1
 91
        4
176
     1
 64
     7
176
     1
 65
   257
176
     1
 75
     1
176
     1
175
     1
176
     1
 42
1.0
176
     1
 92
        8
176
     1
 66
     7
176
     1
 43
1.0
176
     1
 76
     1
176
     1
 77
     6
176
     1
 78
     2
176
     1
 67
     7
176
     1
 79
     5
176
     1
170
     0
176
     1
171
     0
176
     1
290
     0
176
     1
 93
        1
176
     1
 44
0.0
176
     1
173
     0
176
     1
  0
VISUALSTYLE
  5
2B
102
{ACAD_REACTORS
330
2A
102
}
330
2A
100
AcDbVisualStyle
  2
Flat
 70
     0
177
     2
291
     1
 71
     2
176
     1
 72
     1
176
     1
 73
     1
176
     1
 90
        2
176
     1
 40
-0.6
176
     1
 41
30.0
176
     1
 62
     5
 63
     7
421
 16777215
176
     1
 74
     0
176
     1
 91
        4
176
     1
 64
     7
176
     1
 65
   257
176
     1
 75
     1
176
     1
175
     1
176
     1
 42
1.0
176
     1
 92
        8
176
     1
 66
     7
176
     1
 43
1.0
176
     1
 76
     1
176
     1
 77
     6
176
     1
 78
     2
176
     1
 67
     7
176
     1
 79
     5
176
     1
170
     0
176
     1
171
     0
176
     1
290
     0
176
     1
 93
       13
176
     1
 44
0.0
176
     1
173
     0
176
     1
  0
VISUALSTYLE
  5
2C
102
{ACAD_REACTORS
330
2A
102
}
330
2A
100
AcDbVisualStyle
  2
FlatWithEdges
 70
     1
177
     2
291
     1
 71
     2
176
     1
 72
     1
176
     1
 73
     1
176
     1
 90
        2
176
     1
 40
-0.6
176
     1
 41
30.0
176
     1
 62
     5
 63
     7
421
 16777215
176
     1
 74
     1
176
     1
 91
        4
176
     1
 64
     7
176
     1
 65
   257
176
     1
 75
     1
176
     1
175
     1
176
     1
 42
1.0
176
     1
 92
        0
176
     1
 66
   257
176
     1
 43
1.0
176
     1
 76
     1
176
     1
 77
     6
176
     1
 78
     2
176
     1
 67
     7
176
     1
 79
     5
176
     1
170
     0
176
     1
171
     0
176
     1
290
     0
176
     1
 93
       13
176
     1
 44
0.0
176
     1
173
     0
176
     1
  0
VISUALSTYLE
  5
2D
102
{ACAD_REACTORS
330
2A
102
}
330
2A
100
AcDbVisualStyle
  2
Gouraud
 70
     2
177
     2
291
     1
 71
     2
176
     1
 72
     2
176
     1
 73
     1
176
     1
 90
        2
176
     1
 40
-0.6
176
     1
 41
30.0
176
     1
 62
     5
 63
     7
421
 16777215
176
     1
 74
     0
176
     1
 91
        4
176
     1
 64
     7
176
     1
 65
   257
176
     1
 75
     1
176
     1
175
     1
176
     1
 42
1.0
176
     1
 92
        0
176
     1
 66
     7
176
     1
 43
1.0
176
     1
 76
     1
176
     1
 77
     6
176
     1
 78
     2
176
     1
 67
     7
176
     1
 79
     5
176
     1
170
     0
176
     1
171
     0
176
     1
290
     0
176
     1
 93
       13
176
     1
 44
0.0
176
     1
173
     0
176
     1
  0
VISUALSTYLE
  5
2E
102
{ACAD_REACTORS
330
2A
102
}
330
2A
100
AcDbVisualStyle
  2
GouraudWithEdges
 70
     3
177
     2
291
     1
 71
     2
176
     1
 72
     2
176
     1
 73
     1
176
     1
 90
        2
176
     1
 40
-0.6
176
     1
 41
30.0
176
     1
 62
     5
 63
     7
421
 16777215
176
     1
 74
     1
176
     1
 91
        4
176
     1
 64
     7
176
     1
 65
   257
176
     1
 75
     1
176
     1
175
     1
176
     1
 42
1.0
176
     1
 92
        0
176
     1
 66
   257
176
     1
 43
1.0
176
     1
 76
     1
176
     1
 77
     6
176
     1
 78
     2
176
     1
 67
     7
176
     1
 79
     5
176
     1
170
     0
176
     1
171
     0
176
     1
290
     0
176
     1
 93
       13
176
     1
 44
0.0
176
     1
173
     0
176
     1
  0
VISUALSTYLE
  5
38
102
{ACAD_REACTORS
330
2A
102
}
330
2A
100
AcDbVisualStyle
  2
Linepattern
 70
    14
177
     2
291
     1
 71
     2
176
     1
 72
     2
176
     1
 73
     0
176
     1
 90
        0
176
     1
 40
-0.6
176
     1
 41
-30.0
176
     1
 62
     5
 63
     7
421
 16777215
176
     1
 74
     1
176
     1
 91
        4
176
     1
 64
     7
176
     1
 65
   257
176
     1
 75
     7
176
     1
175
     7
176
     1
 42
1.0
176
     1
 92
        8
176
     1
 66
     7
176
     1
 43
1.0
176
     1
 76
     1
176
     1
 77
     6
176
     1
 78
     2
176
     1
 67
     7
176
     1
 79
     5
176
     1
170
     0
176
     1
171
     0
176
     1
290
     0
176
     1
 93
        1
176
     1
 44
0.0
176
     1
173
     0
176
     1
  0
VISUALSTYLE
  5
33
102
{ACAD_REACTORS
330
2A
102
}
330
2A
100
AcDbVisualStyle
  2
Realistic
 70
     8
177
     2
291
     0
 71
     2
176
     1
 72
     2
176
     1
 73
     0
176
     1
 90
        0
176
     1
 40
-0.6
176
     1
 41
-30.0
176
     1
 62
     5
 63
     7
421
 16777215
176
     1
 74
     1
176
     1
 91
        0
176
     1
 64
     7
176
     1
 65
   257
176
     1
 75
     1
176
     1
175
     1
176
     1
 42
1.0
176
     1
 92
        8
176
     1
 66
     8
424
  7895160
176
     1
 43
1.0
176
     1
 76
     1
176
     1
 77
     6
176
     1
 78
     2
176
     1
 67
     7
176
     1
 79
     5
176
     1
170
     0
176
     1
171
     0
176
     1
290
     0
176
     1
 93
       13
176
     1
 44
0.0
176
     1
173
     0
176
     1
  0
VISUALSTYLE
  5
37
102
{ACAD_REACTORS
330
2A
102
}
330
2A
100
AcDbVisualStyle
  2
Thicken
 70
    13
177
     2
291
     1
 71
     2
176
     1
 72
     2
176
     1
 73
     0
176
     1
 90
        0
176
     1
 40
-0.6
176
     1
 41
-30.0
176
     1
 62
     5
 63
     7
421
 16777215
176
     1
 74
     1
176
     1
 91
        4
176
     1
 64
     7
176
     1
 65
   257
176
     1
 75
     1
176
     1
175
     1
176
     1
 42
1.0
176
     1
 92
       12
176
     1
 66
     7
176
     1
 43
1.0
176
     1
 76
     1
176
     1
 77
     6
176
     1
 78
     2
176
     1
 67
     7
176
     1
 79
     5
176
     1
170
     0
176
     1
171
     0
176
     1
290
     0
176
     1
 93
        1
176
     1
 44
0.0
176
     1
173
     0
176
     1
  0
ENDSEC
  0
EOF
