  0
SECTION
  2
HEADER
  9
$ACADVER
  1
AC1024
  9
$ACADMAINTVER
 70
     6
  9
$DWGCODEPAGE
  3
UNDEFINED
  9
$INSBASE
 10
0.0
 20
0.0
 30
0.0
  9
$EXTMIN
 10
1.000000000000000E+20
 20
1.000000000000000E+20
 30
1.000000000000000E+20
  9
$EXTMAX
 10
-1.000000000000000E+20
 20
-1.000000000000000E+20
 30
-1.000000000000000E+20
  9
$LIMMIN
 10
0.0
 20
0.0
  9
$LIMMAX
 10
12.0
 20
9.0
  9
$ORTHOMODE
 70
     0
  9
$REGENMODE
 70
     1
  9
$FILLMODE
 70
     1
  9
$QTEXTMODE
 70
     0
  9
$MIRRTEXT
 70
     1
  9
$LTSCALE
 40
1.0
  9
$ATTMODE
 70
     1
  9
$TEXTSIZE
 40
0.2
  9
$TRACEWID
 40
0.05
  9
$TEXTSTYLE
  7
Standard
  9
$CLAYER
  8
0
  9
$CELTYPE
  6
ByLayer
  9
$CECOLOR
 62
   256
  9
$CELTSCALE
 40
1.0
  9
$DISPSILH
 70
     0
  9
$DIMSCALE
 40
1.0
  9
$DIMASZ
 40
0.18
  9
$DIMEXO
 40
0.0625
  9
$DIMDLI
 40
0.38
  9
$DIMRND
 40
0.0
  9
$DIMDLE
 40
0.0
  9
$DIMEXE
 40
0.18
  9
$DIMTP
 40
0.0
  9
$DIMTM
 40
0.0
  9
$DIMTXT
 40
0.18
  9
$DIMCEN
 40
0.09
  9
$DIMTSZ
 40
0.0
  9
$DIMTOL
 70
     0
  9
$DIMLIM
 70
     0
  9
$DIMTIH
 70
     1
  9
$DIMTOH
 70
     1
  9
$DIMSE1
 70
     0
  9
$DIMSE2
 70
     0
  9
$DIMTAD
 70
     0
  9
$DIMZIN
 70
     0
  9
$DIMBLK
  1

  9
$DIMASO
 70
     1
  9
$DIMSHO
 70
     1
  9
$DIMPOST
  1

  9
$DIMAPOST
  1

  9
$DIMALT
 70
     0
  9
$DIMALTD
 70
     2
  9
$DIMALTF
 40
25.4
  9
$DIMLFAC
 40
1.0
  9
$DIMTOFL
 70
     0
  9
$DIMTVP
 40
0.0
  9
$DIMTIX
 70
     0
  9
$DIMSOXD
 70
     0
  9
$DIMSAH
 70
     0
  9
$DIMBLK1
  1

  9
$DIMBLK2
  1

  9
$DIMSTYLE
  2
Standard
  9
$DIMCLRD
 70
     0
  9
$DIMCLRE
 70
     0
  9
$DIMCLRT
 70
     0
  9
$DIMTFAC
 40
1.0
  9
$DIMGAP
 40
0.09
  9
$DIMJUST
 70
     0
  9
$DIMSD1
 70
     0
  9
$DIMSD2
 70
     0
  9
$DIMTOLJ
 70
     1
  9
$DIMTZIN
 70
     0
  9
$DIMALTZ
 70
     0
  9
$DIMALTTZ
 70
     0
  9
$DIMUPT
 70
     0
  9
$DIMDEC
 70
     4
  9
$DIMTDEC
 70
     4
  9
$DIMALTU
 70
     2
  9
$DIMALTTD
 70
     2
  9
$DIMTXSTY
  7
Standard
  9
$DIMAUNIT
 70
     0
  9
$DIMADEC
 70
     0
  9
$DIMALTRND
 40
0.0
  9
$DIMAZIN
 70
     0
  9
$DIMDSEP
 70
    46
  9
$DIMATFIT
 70
     3
  9
$DIMFRAC
 70
     0
  9
$DIMLDRBLK
  1

  9
$DIMLUNIT
 70
     2
  9
$DIMLWD
 70
    -2
  9
$DIMLWE
 70
    -2
  9
$DIMTMOVE
 70
     0
  9
$DIMFXL
 40
1.0
  9
$DIMFXLON
 70
     0
  9
$DIMJOGANG
 40
0.7853981633974483
  9
$DIMTFILL
 70
     0
  9
$DIMTFILLCLR
 70
     0
  9
$DIMARCSYM
 70
     0
  9
$DIMLTYPE
  6

  9
$DIMLTEX1
  6

  9
$DIMLTEX2
  6

  9
$DIMTXTDIRECTION
 70
     0
  9
$LUNITS
 70
     2
  9
$LUPREC
 70
     4
  9
$SKETCHINC
 40
0.1
  9
$FILLETRAD
 40
0.5
  9
$AUNITS
 70
     0
  9
$AUPREC
 70
     0
  9
$MENU
  1
.
  9
$ELEVATION
 40
0.0
  9
$PELEVATION
 40
0.0
  9
$THICKNESS
 40
0.0
  9
$LIMCHECK
 70
     0
  9
$CHAMFERA
 40
0.5
  9
$CHAMFERB
 40
0.5
  9
$CHAMFERC
 40
1.0
  9
$CHAMFERD
 40
0.0
  9
$SKPOLY
 70
     0
  9
$TDCREATE
 40
2457917.624224537
  9
$TDUCREATE
 40
2457917.249224537
  9
$TDUPDATE
 40
2457917.624224537
  9
$TDUUPDATE
 40
2457917.249224537
  9
$TDINDWG
 40
0.0000000116
  9
$TDUSRTIMER
 40
0.0000000116
  9
$USRTIMER
 70
     1
  9
$ANGBASE
 50
0.0
  9
$ANGDIR
 70
     0
  9
$PDMODE
 70
     0
  9
$PDSIZE
 40
0.0
  9
$PLINEWID
 40
0.0
  9
$SPLFRAME
 70
     0
  9
$SPLINETYPE
 70
     6
  9
$SPLINESEGS
 70
     8
  9
$HANDSEED
  5
C2
  9
$SURFTAB1
 70
     6
  9
$SURFTAB2
 70
     6
  9
$SURFTYPE
 70
     6
  9
$SURFU
 70
     6
  9
$SURFV
 70
     6
  9
$UCSBASE
  2

  9
$UCSNAME
  2

  9
$UCSORG
 10
0.0
 20
0.0
 30
0.0
  9
$UCSXDIR
 10
1.0
 20
0.0
 30
0.0
  9
$UCSYDIR
 10
0.0
 20
1.0
 30
0.0
  9
$UCSORTHOREF
  2

  9
$UCSORTHOVIEW
 70
     0
  9
$UCSORGTOP
 10
0.0
 20
0.0
 30
0.0
  9
$UCSORGBOTTOM
 10
0.0
 20
0.0
 30
0.0
  9
$UCSORGLEFT
 10
0.0
 20
0.0
 30
0.0
  9
$UCSORGRIGHT
 10
0.0
 20
0.0
 30
0.0
  9
$UCSORGFRONT
 10
0.0
 20
0.0
 30
0.0
  9
$UCSORGBACK
 10
0.0
 20
0.0
 30
0.0
  9
$PUCSBASE
  2

  9
$PUCSNAME
  2

  9
$PUCSORG
 10
0.0
 20
0.0
 30
0.0
  9
$PUCSXDIR
 10
1.0
 20
0.0
 30
0.0
  9
$PUCSYDIR
 10
0.0
 20
1.0
 30
0.0
  9
$PUCSORTHOREF
  2

  9
$PUCSORTHOVIEW
 70
     0
  9
$PUCSORGTOP
 10
0.0
 20
0.0
 30
0.0
  9
$PUCSORGBOTTOM
 10
0.0
 20
0.0
 30
0.0
  9
$PUCSORGLEFT
 10
0.0
 20
0.0
 30
0.0
  9
$PUCSORGRIGHT
 10
0.0
 20
0.0
 30
0.0
  9
$PUCSORGFRONT
 10
0.0
 20
0.0
 30
0.0
  9
$PUCSORGBACK
 10
0.0
 20
0.0
 30
0.0
  9
$USERI1
 70
     0
  9
$USERI2
 70
     0
  9
$USERI3
 70
     0
  9
$USERI4
 70
     0
  9
$USERI5
 70
     0
  9
$USERR1
 40
0.0
  9
$USERR2
 40
0.0
  9
$USERR3
 40
0.0
  9
$USERR4
 40
0.0
  9
$USERR5
 40
0.0
  9
$WORLDVIEW
 70
     1
  9
$SHADEDGE
 70
     3
  9
$SHADEDIF
 70
    70
  9
$TILEMODE
 70
     1
  9
$MAXACTVP
 70
    64
  9
$PINSBASE
 10
0.0
 20
0.0
 30
0.0
  9
$PLIMCHECK
 70
     0
  9
$PEXTMIN
 10
1.000000000000000E+20
 20
1.000000000000000E+20
 30
1.000000000000000E+20
  9
$PEXTMAX
 10
-1.000000000000000E+20
 20
-1.000000000000000E+20
 30
-1.000000000000000E+20
  9
$PLIMMIN
 10
0.0
 20
0.0
  9
$PLIMMAX
 10
12.0
 20
9.0
  9
$UNITMODE
 70
     0
  9
$VISRETAIN
 70
     1
  9
$PLINEGEN
 70
     0
  9
$PSLTSCALE
 70
     1
  9
$TREEDEPTH
 70
  3020
  9
$CMLSTYLE
  2
Standard
  9
$CMLJUST
 70
     0
  9
$CMLSCALE
 40
1.0
  9
$PROXYGRAPHICS
 70
     1
  9
$MEASUREMENT
 70
     0
  9
$CELWEIGHT
370
    -1
  9
$ENDCAPS
280
     0
  9
$JOINSTYLE
280
     0
  9
$LWDISPLAY
290
     1
  9
$INSUNITS
 70
     1
  9
$HYPERLINKBASE
  1

  9
$STYLESHEET
  1

  9
$XEDIT
290
     1
  9
$CEPSNTYPE
380
     0
  9
$PSTYLEMODE
290
     1
  9
$FINGERPRINTGUID
  2
{410BE7C8-C2DE-6138-86C2-51250AC2136F}
  9
$VERSIONGUID
  2
{FAEB1C32-E019-11D5-929B-00C0DF256EC4}
  9
$EXTNAMES
290
     1
  9
$PSVPSCALE
 40
0.0
  9
$OLESTARTUP
290
     0
  9
$SORTENTS
280
   127
  9
$INDEXCTL
280
     0
  9
$HIDETEXT
280
     1
  9
$XCLIPFRAME
280
     2
  9
$HALOGAP
280
     0
  9
$OBSCOLOR
 70
   257
  9
$OBSLTYPE
280
     0
  9
$INTERSECTIONDISPLAY
280
     0
  9
$INTERSECTIONCOLOR
 70
   257
  9
$DIMASSOC
280
     2
  9
$PROJECTNAME
  1

  9
$CAMERADISPLAY
290
     0
  9
$LENSLENGTH
 40
50.0
  9
$CAMERAHEIGHT
 40
0.0
  9
$STEPSPERSEC
 40
2.0
  9
$STEPSIZE
 40
6.0
  9
$3DDWFPREC
 40
2.0
  9
$PSOLWIDTH
 40
0.25
  9
$PSOLHEIGHT
 40
4.0
  9
$LOFTANG1
 40
1.570796326794897
  9
$LOFTANG2
 40
1.570796326794897
  9
$LOFTMAG1
 40
0.0
  9
$LOFTMAG2
 40
0.0
  9
$LOFTPARAM
 70
     7
  9
$LOFTNORMALS
280
     1
  9
$LATITUDE
 40
37.795
  9
$LONGITUDE
 40
-122.394
  9
$NORTHDIRECTION
 40
0.0
  9
$TIMEZONE
 70
 -8000
  9
$LIGHTGLYPHDISPLAY
280
     1
  9
$TILEMODELIGHTSYNCH
280
     1
  9
$CMATERIAL
347
3C
  9
$SOLIDHIST
280
     1
  9
$SHOWHIST
280
     1
  9
$DWFFRAME
280
     2
  9
$DGNFRAME
280
     2
  9
$REALWORLDSCALE
290
     1
  9
$INTERFERECOLOR
 62
   256
  9
$CSHADOW
280
     0
  9
$SHADOWPLANELOCATION
 40
0.0
  0
ENDSEC
  0
SECTION
  2
CLASSES
  0
CLASS
  1
ACDBDICTIONARYWDFLT
  2
AcDbDictionaryWithDefault
  3
ObjectDBX Classes
 90
        0
 91
        4
280
     0
281
     0
  0
CLASS
  1
VISUALSTYLE
  2
AcDbVisualStyle
  3
ObjectDBX Classes
 90
     4095
 91
        4
280
     0
281
     0
  0
CLASS
  1
MATERIAL
  2
AcDbMaterial
  3
ObjectDBX Classes
 90
     1153
 91
        4
280
     0
281
     0
  0
CLASS
  1
SUN
  2
AcDbSun
  3
SCENEOE
 90
     1024
 91
        4
280
     0
281
     0
  0
ENDSEC
  0
SECTION
  2
TABLES
  0
TABLE
  2
VPORT
  5
8
330
0
100
AcDbSymbolTable
 70
     1
  0
VPORT
  5
29
330
8
100
AcDbSymbolTableRecord
100
AcDbViewportTableRecord
  2
*Active
 70
     0
 10
0.0
 20
0.0
 11
1.0
 21
1.0
 12
0.0
 22
0.0
 13
0.0
 23
0.0
 14
0.5
 24
0.5
 15
0.5
 25
0.5
 16
0.0
 26
0.0
 36
1.0
 17
91.00082462281999
 27
-128.4993055234307
 37
0.0
 40
256.9986110468615
 41
0.7081814508812795
 42
50.0
 43
0.0
 44
0.0
 50
0.0
 51
0.0
 71
     0
 72
   100
 73
     1
 74
     3
 75
     0
 76
     0
 77
     0
 78
     0
281
     0
 65
     1
110
0.0
120
0.0
130
0.0
111
1.0
121
0.0
131
0.0
112
0.0
122
1.0
132
0.0
 79
     0
146
0.0
 60
     3
 61
     5
292
     1
282
     1
141
0.0
142
0.0
 63
   250
361
3F
  0
ENDTAB
  0
TABLE
  2
LTYPE
  5
5
330
0
100
AcDbSymbolTable
 70
     1
  0
LTYPE
  5
14
330
5
100
AcDbSymbolTableRecord
100
AcDbLinetypeTableRecord
  2
ByBlock
 70
     0
  3

 72
    65
 73
     0
 40
0.0
  0
LTYPE
  5
15
330
5
100
AcDbSymbolTableRecord
100
AcDbLinetypeTableRecord
  2
ByLayer
 70
     0
  3

 72
    65
 73
     0
 40
0.0
  0
LTYPE
  5
16
330
5
100
AcDbSymbolTableRecord
100
AcDbLinetypeTableRecord
  2
Continuous
 70
     0
  3
Solid line
 72
    65
 73
     0
 40
0.0
  0
ENDTAB
  0
TABLE
  2
LAYER
  5
2
330
0
100
AcDbSymbolTable
 70
     2
  0
LAYER
  5
10
330
2
100
AcDbSymbolTableRecord
100
AcDbLayerTableRecord
  2
0
 70
     0
 62
     7
  6
Continuous
370
    -3
390
F
347
3E
  0
LAYER
  5
40
330
2
100
AcDbSymbolTableRecord
100
AcDbLayerTableRecord
  2
_U+30EC_U+30A4_U+30E4_U+30FC 1
 70
     0
 62
     7
  6
Continuous
370
    -3
390
F
347
3E
  0
ENDTAB
  0
TABLE
  2
STYLE
  5
3
330
0
100
AcDbSymbolTable
 70
     1
  0
STYLE
  5
11
330
3
100
AcDbSymbolTableRecord
100
AcDbTextStyleTableRecord
  2
Standard
 70
     0
 40
0.0
 41
1.0
 50
0.0
 71
     0
 42
0.2
  3
txt
  4

  0
ENDTAB
  0
TABLE
  2
VIEW
  5
6
330
0
100
AcDbSymbolTable
 70
     0
  0
ENDTAB
  0
TABLE
  2
UCS
  5
7
330
0
100
AcDbSymbolTable
 70
     0
  0
ENDTAB
  0
TABLE
  2
APPID
  5
9
330
0
100
AcDbSymbolTable
 70
     1
  0
APPID
  5
12
330
9
100
AcDbSymbolTableRecord
100
AcDbRegAppTableRecord
  2
ACAD
 70
     0
  0
ENDTAB
  0
TABLE
  2
DIMSTYLE
  5
A
330
0
100
AcDbSymbolTable
 70
     1
100
AcDbDimStyleTable
  0
DIMSTYLE
105
27
330
A
100
AcDbSymbolTableRecord
100
AcDbDimStyleTableRecord
  2
Standard
 70
     0
178
     0
340
11
  0
ENDTAB
  0
TABLE
  2
BLOCK_RECORD
  5
1
330
0
100
AcDbSymbolTable
 70
     7
  0
BLOCK_RECORD
  5
1F
330
1
100
AcDbSymbolTableRecord
100
AcDbBlockTableRecord
  2
*Model_Space
340
22
 70
     0
280
     1
281
     0
  0
BLOCK_RECORD
  5
1B
330
1
100
AcDbSymbolTableRecord
100
AcDbBlockTableRecord
  2
*Paper_Space
340
1E
 70
     0
280
     1
281
     0
  0
BLOCK_RECORD
  5
23
330
1
100
AcDbSymbolTableRecord
100
AcDbBlockTableRecord
  2
*Paper_Space0
340
26
 70
     0
280
     1
281
     0
  0
BLOCK_RECORD
  5
4F
330
1
100
AcDbSymbolTableRecord
100
AcDbBlockTableRecord
  2
block 2
340
0
102
{BLKREFS
331
50
102
}
 70
     0
280
     1
281
     0
  0
BLOCK_RECORD
  5
64
330
1
100
AcDbSymbolTableRecord
100
AcDbBlockTableRecord
  2
block 3
340
0
102
{BLKREFS
331
65
102
}
 70
     0
280
     1
281
     0
  0
BLOCK_RECORD
  5
82
330
1
100
AcDbSymbolTableRecord
100
AcDbBlockTableRecord
  2
block 4
340
0
102
{BLKREFS
331
83
102
}
 70
     0
280
     1
281
     0
  0
BLOCK_RECORD
  5
8A
330
1
100
AcDbSymbolTableRecord
100
AcDbBlockTableRecord
  2
block 5
340
0
102
{BLKREFS
331
8B
102
}
 70
     0
280
     1
281
     0
  0
BLOCK_RECORD
  5
A4
330
1
100
AcDbSymbolTableRecord
100
AcDbBlockTableRecord
  2
block 6
340
0
102
{BLKREFS
331
A5
102
}
 70
     0
280
     1
281
     0
  0
BLOCK_RECORD
  5
AA
330
1
100
AcDbSymbolTableRecord
100
AcDbBlockTableRecord
  2
block 7
340
0
102
{BLKREFS
331
AB
102
}
 70
     0
280
     1
281
     0
  0
ENDTAB
  0
ENDSEC
  0
SECTION
  2
BLOCKS
  0
BLOCK
  5
20
330
1F
100
AcDbEntity
  8
0
100
AcDbBlockBegin
  2
*Model_Space
 70
     0
 10
0.0
 20
0.0
 30
0.0
  3
*Model_Space
  1

  0
ENDBLK
  5
21
330
1F
100
AcDbEntity
  8
0
100
AcDbBlockEnd
  0
BLOCK
  5
1C
330
1B
100
AcDbEntity
 67
     1
  8
0
100
AcDbBlockBegin
  2
*Paper_Space
 70
     0
 10
0.0
 20
0.0
 30
0.0
  3
*Paper_Space
  1

  0
ENDBLK
  5
1D
330
1B
100
AcDbEntity
 67
     1
  8
0
100
AcDbBlockEnd
  0
BLOCK
  5
24
330
23
100
AcDbEntity
  8
0
100
AcDbBlockBegin
  2
*Paper_Space0
 70
     0
 10
0.0
 20
0.0
 30
0.0
  3
*Paper_Space0
  1

  0
ENDBLK
  5
25
330
23
100
AcDbEntity
  8
0
100
AcDbBlockEnd
  0
BLOCK
  5
51
330
4F
100
AcDbEntity
  8
0
100
AcDbBlockBegin
  2
block 2
 70
     0
 10
0.0
 20
0.0
 30
0.0
  3
block 2
  1

  0
SPLINE
  5
53
330
4F
100
AcDbEntity
  8
_U+30EC_U+30A4_U+30E4_U+30FC 1
370
     0
100
AcDbSpline
210
0.0
220
0.0
230
1.0
 70
    11
 71
     3
 72
    44
 73
    40
 74
     0
 42
0.0000000001
 43
0.0000000001
 12
1.0
 22
0.0
 32
0.0
 13
1.0
 23
0.0
 33
0.0
 40
0.0
 40
0.0
 40
0.0
 40
0.0
 40
1.0
 40
1.0
 40
1.0
 40
2.0
 40
2.0
 40
2.0
 40
3.0
 40
3.0
 40
3.0
 40
4.0
 40
4.0
 40
4.0
 40
5.0
 40
5.0
 40
5.0
 40
6.0
 40
6.0
 40
6.0
 40
7.0
 40
7.0
 40
7.0
 40
8.0
 40
8.0
 40
8.0
 40
9.0
 40
9.0
 40
9.0
 40
10.0
 40
10.0
 40
10.0
 40
11.0
 40
11.0
 40
11.0
 40
12.0
 40
12.0
 40
12.0
 40
13.0
 40
13.0
 40
13.0
 40
13.0
 10
105.2194172914035
 20
-137.8093315627699
 30
0.0
 10
105.1959906421038
 20
-137.7645453214616
 30
0.0
 10
105.1746310500952
 20
-137.7118353605373
 30
0.0
 10
105.1725639928041
 20
-137.4813584725741
 30
0.0
 10
105.1684298782218
 20
-137.2381347313155
 30
0.0
 10
105.1091742358755
 20
-137.1681992929649
 30
0.0
 10
104.9314073088366
 20
-137.1681992929649
 30
0.0
 10
104.9314073088366
 20
-137.1681992929649
 30
0.0
 10
104.5231634938345
 20
-137.1681992929649
 30
0.0
 10
104.5231634938345
 20
-137.1681992929649
 30
0.0
 10
104.5231634938345
 20
-137.1681992929649
 30
0.0
 10
104.5231634938345
 20
-137.8093315627699
 30
0.0
 10
104.5231634938345
 20
-137.8093315627699
 30
0.0
 10
104.5231634938345
 20
-137.8093315627699
 30
0.0
 10
104.288552491289
 20
-137.8093315627699
 30
0.0
 10
104.288552491289
 20
-137.8093315627699
 30
0.0
 10
104.288552491289
 20
-137.8093315627699
 30
0.0
 10
104.288552491289
 20
-136.2648952567324
 30
0.0
 10
104.288552491289
 20
-136.2648952567324
 30
0.0
 10
104.288552491289
 20
-136.2648952567324
 30
0.0
 10
104.9631021873009
 20
-136.2648952567324
 30
0.0
 10
104.9631021873009
 20
-136.2648952567324
 30
0.0
 10
105.2697156854881
 20
-136.2648952567324
 30
0.0
 10
105.4371473260713
 20
-136.4361165023493
 30
0.0
 10
105.4371473260713
 20
-136.6924316064519
 30
0.0
 10
105.4371473260713
 20
-136.7427300005365
 30
0.0
 10
105.4285345873581
 20
-136.8254122921825
 30
0.0
 10
105.3840928555984
 20
-136.9060275265374
 30
0.0
 10
105.3248372132521
 20
-137.0093803910949
 30
0.0
 10
105.2593803990324
 20
-137.0286729258123
 30
0.0
 10
105.1980576993949
 20
-137.0452093841415
 30
0.0
 10
105.3355170092564
 20
-137.0879285681586
 30
0.0
 10
105.4033853903158
 20
-137.1365044145006
 30
0.0
 10
105.4075195048981
 20
-137.451730651401
 30
0.0
 10
105.4116536194804
 20
-137.7225151565416
 30
0.0
 10
105.447482612527
 20
-137.7542100350059
 30
0.0
 10
105.5153509935864
 20
-137.8093315627699
 30
0.0
 10
105.5153509935864
 20
-137.8093315627699
 30
0.0
 10
105.2194172914035
 20
-137.8093315627699
 30
0.0
 10
105.2194172914035
 20
-137.8093315627699
 30
0.0
  0
SPLINE
  5
54
330
4F
100
AcDbEntity
  8
_U+30EC_U+30A4_U+30E4_U+30FC 1
370
     0
100
AcDbSpline
210
0.0
220
0.0
230
1.0
 70
    11
 71
     3
 72
    20
 73
    16
 74
     0
 42
0.0000000001
 43
0.0000000001
 12
1.0
 22
0.0
 32
0.0
 13
1.0
 23
0.0
 33
0.0
 40
0.0
 40
0.0
 40
0.0
 40
0.0
 40
1.0
 40
1.0
 40
1.0
 40
2.0
 40
2.0
 40
2.0
 40
3.0
 40
3.0
 40
3.0
 40
4.0
 40
4.0
 40
4.0
 40
5.0
 40
5.0
 40
5.0
 40
5.0
 10
104.9672363018832
 20
-136.4764241195267
 30
0.0
 10
104.9672363018832
 20
-136.4764241195267
 30
0.0
 10
104.5231634938345
 20
-136.4764241195267
 30
0.0
 10
104.5231634938345
 20
-136.4764241195267
 30
0.0
 10
104.5231634938345
 20
-136.4764241195267
 30
0.0
 10
104.5231634938345
 20
-136.9566704301706
 30
0.0
 10
104.5231634938345
 20
-136.9566704301706
 30
0.0
 10
104.5231634938345
 20
-136.9566704301706
 30
0.0
 10
104.965169244592
 20
-136.9566704301706
 30
0.0
 10
104.965169244592
 20
-136.9566704301706
 30
0.0
 10
105.0647325041158
 20
-136.9566704301706
 30
0.0
 10
105.2001247566861
 20
-136.8805338199465
 30
0.0
 10
105.2001247566861
 20
-136.7089680647811
 30
0.0
 10
105.2001247566861
 20
-136.6307643972659
 30
0.0
 10
105.1663628209306
 20
-136.4764241195267
 30
0.0
 10
104.9672363018832
 20
-136.4764241195267
 30
0.0
  0
HATCH
  5
55
330
4F
100
AcDbEntity
  8
_U+30EC_U+30A4_U+30E4_U+30FC 1
 62
   179
420
  2234388
100
AcDbHatch
 10
0.0
 20
0.0
 30
0.0
210
0.0
220
0.0
230
1.0
  2
SOLID
 70
     1
 71
     0
 91
        2
 92
        1
 93
        1
 72
     4
 94
        3
 73
     0
 74
     1
 95
       44
 96
       40
 40
0.0
 40
0.0
 40
0.0
 40
0.0
 40
1.0
 40
1.0
 40
1.0
 40
2.0
 40
2.0
 40
2.0
 40
3.0
 40
3.0
 40
3.0
 40
4.0
 40
4.0
 40
4.0
 40
5.0
 40
5.0
 40
5.0
 40
6.0
 40
6.0
 40
6.0
 40
7.0
 40
7.0
 40
7.0
 40
8.0
 40
8.0
 40
8.0
 40
9.0
 40
9.0
 40
9.0
 40
10.0
 40
10.0
 40
10.0
 40
11.0
 40
11.0
 40
11.0
 40
12.0
 40
12.0
 40
12.0
 40
13.0
 40
13.0
 40
13.0
 40
13.0
 10
105.2194172914035
 20
-137.8093315627699
 10
105.1959906421038
 20
-137.7645453214616
 10
105.1746310500952
 20
-137.7118353605373
 10
105.1725639928041
 20
-137.4813584725741
 10
105.1684298782218
 20
-137.2381347313155
 10
105.1091742358755
 20
-137.1681992929649
 10
104.9314073088366
 20
-137.1681992929649
 10
104.9314073088366
 20
-137.1681992929649
 10
104.5231634938345
 20
-137.1681992929649
 10
104.5231634938345
 20
-137.1681992929649
 10
104.5231634938345
 20
-137.1681992929649
 10
104.5231634938345
 20
-137.8093315627699
 10
104.5231634938345
 20
-137.8093315627699
 10
104.5231634938345
 20
-137.8093315627699
 10
104.288552491289
 20
-137.8093315627699
 10
104.288552491289
 20
-137.8093315627699
 10
104.288552491289
 20
-137.8093315627699
 10
104.288552491289
 20
-136.2648952567324
 10
104.288552491289
 20
-136.2648952567324
 10
104.288552491289
 20
-136.2648952567324
 10
104.9631021873009
 20
-136.2648952567324
 10
104.9631021873009
 20
-136.2648952567324
 10
105.2697156854881
 20
-136.2648952567324
 10
105.4371473260713
 20
-136.4361165023493
 10
105.4371473260713
 20
-136.6924316064519
 10
105.4371473260713
 20
-136.7427300005365
 10
105.4285345873581
 20
-136.8254122921825
 10
105.3840928555984
 20
-136.9060275265374
 10
105.3248372132521
 20
-137.0093803910949
 10
105.2593803990324
 20
-137.0286729258123
 10
105.1980576993949
 20
-137.0452093841415
 10
105.3355170092564
 20
-137.0879285681586
 10
105.4033853903158
 20
-137.1365044145006
 10
105.4075195048981
 20
-137.451730651401
 10
105.4116536194804
 20
-137.7225151565416
 10
105.447482612527
 20
-137.7542100350059
 10
105.5153509935864
 20
-137.8093315627699
 10
105.5153509935864
 20
-137.8093315627699
 10
105.2194172914035
 20
-137.8093315627699
 10
105.2194172914035
 20
-137.8093315627699
 97
        0
 97
        0
 92
        1
 93
        1
 72
     4
 94
        3
 73
     0
 74
     1
 95
       20
 96
       16
 40
0.0
 40
0.0
 40
0.0
 40
0.0
 40
1.0
 40
1.0
 40
1.0
 40
2.0
 40
2.0
 40
2.0
 40
3.0
 40
3.0
 40
3.0
 40
4.0
 40
4.0
 40
4.0
 40
5.0
 40
5.0
 40
5.0
 40
5.0
 10
104.9672363018832
 20
-136.4764241195267
 10
104.9672363018832
 20
-136.4764241195267
 10
104.5231634938345
 20
-136.4764241195267
 10
104.5231634938345
 20
-136.4764241195267
 10
104.5231634938345
 20
-136.4764241195267
 10
104.5231634938345
 20
-136.9566704301706
 10
104.5231634938345
 20
-136.9566704301706
 10
104.5231634938345
 20
-136.9566704301706
 10
104.965169244592
 20
-136.9566704301706
 10
104.965169244592
 20
-136.9566704301706
 10
105.0647325041158
 20
-136.9566704301706
 10
105.2001247566861
 20
-136.8805338199465
 10
105.2001247566861
 20
-136.7089680647811
 10
105.2001247566861
 20
-136.6307643972659
 10
105.1663628209306
 20
-136.4764241195267
 10
104.9672363018832
 20
-136.4764241195267
 97
        0
 97
        0
 75
     2
 76
     1
 98
        0
  0
SPLINE
  5
56
330
4F
100
AcDbEntity
  8
_U+30EC_U+30A4_U+30E4_U+30FC 1
370
     0
100
AcDbSpline
210
0.0
220
0.0
230
1.0
 70
    11
 71
     3
 72
    26
 73
    22
 74
     0
 42
0.0000000001
 43
0.0000000001
 12
1.0
 22
0.0
 32
0.0
 13
1.0
 23
0.0
 33
0.0
 40
0.0
 40
0.0
 40
0.0
 40
0.0
 40
1.0
 40
1.0
 40
1.0
 40
2.0
 40
2.0
 40
2.0
 40
3.0
 40
3.0
 40
3.0
 40
4.0
 40
4.0
 40
4.0
 40
5.0
 40
5.0
 40
5.0
 40
6.0
 40
6.0
 40
6.0
 40
7.0
 40
7.0
 40
7.0
 40
7.0
 10
106.1061848693068
 20
-137.8093315627699
 30
0.0
 10
106.1061848693068
 20
-137.8093315627699
 30
0.0
 10
106.1061848693068
 20
-136.7048339501988
 30
0.0
 10
106.1061848693068
 20
-136.7048339501988
 30
0.0
 10
106.1061848693068
 20
-136.7048339501988
 30
0.0
 10
105.7761447218199
 20
-136.7048339501988
 30
0.0
 10
105.7761447218199
 20
-136.7048339501988
 30
0.0
 10
105.7761447218199
 20
-136.7048339501988
 30
0.0
 10
105.7761447218199
 20
-136.5566948443331
 30
0.0
 10
105.7761447218199
 20
-136.5566948443331
 30
0.0
 10
106.1082519265979
 20
-136.542225443295
 30
0.0
 10
106.1551052251973
 20
-136.3789279172942
 30
0.0
 10
106.1847330463705
 20
-136.2648952567324
 30
0.0
 10
106.1847330463705
 20
-136.2648952567324
 30
0.0
 10
106.3308050949451
 20
-136.2648952567324
 30
0.0
 10
106.3308050949451
 20
-136.2648952567324
 30
0.0
 10
106.3308050949451
 20
-136.2648952567324
 30
0.0
 10
106.3308050949451
 20
-137.8093315627699
 30
0.0
 10
106.3308050949451
 20
-137.8093315627699
 30
0.0
 10
106.3308050949451
 20
-137.8093315627699
 30
0.0
 10
106.1061848693068
 20
-137.8093315627699
 30
0.0
 10
106.1061848693068
 20
-137.8093315627699
 30
0.0
  0
HATCH
  5
57
330
4F
100
AcDbEntity
  8
_U+30EC_U+30A4_U+30E4_U+30FC 1
 62
   179
420
  2234388
100
AcDbHatch
 10
0.0
 20
0.0
 30
0.0
210
0.0
220
0.0
230
1.0
  2
SOLID
 70
     1
 71
     0
 91
        1
 92
        1
 93
        1
 72
     4
 94
        3
 73
     0
 74
     1
 95
       26
 96
       22
 40
0.0
 40
0.0
 40
0.0
 40
0.0
 40
1.0
 40
1.0
 40
1.0
 40
2.0
 40
2.0
 40
2.0
 40
3.0
 40
3.0
 40
3.0
 40
4.0
 40
4.0
 40
4.0
 40
5.0
 40
5.0
 40
5.0
 40
6.0
 40
6.0
 40
6.0
 40
7.0
 40
7.0
 40
7.0
 40
7.0
 10
106.1061848693068
 20
-137.8093315627699
 10
106.1061848693068
 20
-137.8093315627699
 10
106.1061848693068
 20
-136.7048339501988
 10
106.1061848693068
 20
-136.7048339501988
 10
106.1061848693068
 20
-136.7048339501988
 10
105.7761447218199
 20
-136.7048339501988
 10
105.7761447218199
 20
-136.7048339501988
 10
105.7761447218199
 20
-136.7048339501988
 10
105.7761447218199
 20
-136.5566948443331
 10
105.7761447218199
 20
-136.5566948443331
 10
106.1082519265979
 20
-136.542225443295
 10
106.1551052251973
 20
-136.3789279172942
 10
106.1847330463705
 20
-136.2648952567324
 10
106.1847330463705
 20
-136.2648952567324
 10
106.3308050949451
 20
-136.2648952567324
 10
106.3308050949451
 20
-136.2648952567324
 10
106.3308050949451
 20
-136.2648952567324
 10
106.3308050949451
 20
-137.8093315627699
 10
106.3308050949451
 20
-137.8093315627699
 10
106.3308050949451
 20
-137.8093315627699
 10
106.1061848693068
 20
-137.8093315627699
 10
106.1061848693068
 20
-137.8093315627699
 97
        0
 97
        0
 75
     2
 76
     1
 98
        0
  0
ENDBLK
  5
52
330
4F
100
AcDbEntity
  8
0
100
AcDbBlockEnd
  0
BLOCK
  5
66
330
64
100
AcDbEntity
  8
0
100
AcDbBlockBegin
  2
block 3
 70
     0
 10
0.0
 20
0.0
 30
0.0
  3
block 3
  1

  0
SPLINE
  5
68
330
64
100
AcDbEntity
  8
_U+30EC_U+30A4_U+30E4_U+30FC 1
370
     0
100
AcDbSpline
210
0.0
220
0.0
230
1.0
 70
    11
 71
     3
 72
    44
 73
    40
 74
     0
 42
0.0000000001
 43
0.0000000001
 12
1.0
 22
0.0
 32
0.0
 13
1.0
 23
0.0
 33
0.0
 40
0.0
 40
0.0
 40
0.0
 40
0.0
 40
1.0
 40
1.0
 40
1.0
 40
2.0
 40
2.0
 40
2.0
 40
3.0
 40
3.0
 40
3.0
 40
4.0
 40
4.0
 40
4.0
 40
5.0
 40
5.0
 40
5.0
 40
6.0
 40
6.0
 40
6.0
 40
7.0
 40
7.0
 40
7.0
 40
8.0
 40
8.0
 40
8.0
 40
9.0
 40
9.0
 40
9.0
 40
10.0
 40
10.0
 40
10.0
 40
11.0
 40
11.0
 40
11.0
 40
12.0
 40
12.0
 40
12.0
 40
13.0
 40
13.0
 40
13.0
 40
13.0
 10
74.95787080374318
 20
-119.3458590738962
 30
0.0
 10
74.93444415444347
 20
-119.3014173421365
 30
0.0
 10
74.91342907198346
 20
-119.2485351264379
 30
0.0
 10
74.91118975991805
 20
-119.0178859837004
 30
0.0
 10
74.90705564533575
 20
-118.7746622424417
 30
0.0
 10
74.84780000298944
 20
-118.7048990588655
 30
0.0
 10
74.67003307595056
 20
-118.7048990588655
 30
0.0
 10
74.67003307595056
 20
-118.7048990588655
 30
0.0
 10
74.26178926094845
 20
-118.7048990588655
 30
0.0
 10
74.26178926094845
 20
-118.7048990588655
 30
0.0
 10
74.26178926094845
 20
-118.7048990588655
 30
0.0
 10
74.26178926094845
 20
-119.3458590738962
 30
0.0
 10
74.26178926094845
 20
-119.3458590738962
 30
0.0
 10
74.26178926094845
 20
-119.3458590738962
 30
0.0
 10
74.02700600362867
 20
-119.3458590738962
 30
0.0
 10
74.02700600362867
 20
-119.3458590738962
 30
0.0
 10
74.02700600362867
 20
-119.3458590738962
 30
0.0
 10
74.02700600362867
 20
-117.8015950226329
 30
0.0
 10
74.02700600362867
 20
-117.8015950226329
 30
0.0
 10
74.02700600362867
 20
-117.8015950226329
 30
0.0
 10
74.7019002091891
 20
-117.8015950226329
 30
0.0
 10
74.7019002091891
 20
-117.8015950226329
 30
0.0
 10
75.00851370737635
 20
-117.8015950226329
 30
0.0
 10
75.17560083841096
 20
-117.9728162682499
 30
0.0
 10
75.17560083841096
 20
-118.2289591175782
 30
0.0
 10
75.17560083841096
 20
-118.2796020212114
 30
0.0
 10
75.1671603544721
 20
-118.3621120580831
 30
0.0
 10
75.12271862271238
 20
-118.4425550376637
 30
0.0
 10
75.06363523514034
 20
-118.5462524117697
 30
0.0
 10
74.99800616614634
 20
-118.5652004369386
 30
0.0
 10
74.93668346650888
 20
-118.5820814048163
 30
0.0
 10
75.07414277637035
 20
-118.6244560792849
 30
0.0
 10
75.14183890265552
 20
-118.6732041804011
 30
0.0
 10
75.14614527201208
 20
-118.9882581625272
 30
0.0
 10
75.15027938659438
 20
-119.2590426676679
 30
0.0
 10
75.18628063441524
 20
-119.2909098009064
 30
0.0
 10
75.2539767607004
 20
-119.3458590738962
 30
0.0
 10
75.2539767607004
 20
-119.3458590738962
 30
0.0
 10
74.95787080374318
 20
-119.3458590738962
 30
0.0
 10
74.95787080374318
 20
-119.3458590738962
 30
0.0
  0
SPLINE
  5
69
330
64
100
AcDbEntity
  8
_U+30EC_U+30A4_U+30E4_U+30FC 1
370
     0
100
AcDbSpline
210
0.0
220
0.0
230
1.0
 70
    11
 71
     3
 72
    20
 73
    16
 74
     0
 42
0.0000000001
 43
0.0000000001
 12
1.0
 22
0.0
 32
0.0
 13
1.0
 23
0.0
 33
0.0
 40
0.0
 40
0.0
 40
0.0
 40
0.0
 40
1.0
 40
1.0
 40
1.0
 40
2.0
 40
2.0
 40
2.0
 40
3.0
 40
3.0
 40
3.0
 40
4.0
 40
4.0
 40
4.0
 40
5.0
 40
5.0
 40
5.0
 40
5.0
 10
74.7060343237714
 20
-118.0131238854273
 30
0.0
 10
74.7060343237714
 20
-118.0131238854273
 30
0.0
 10
74.26178926094845
 20
-118.0131238854273
 30
0.0
 10
74.26178926094845
 20
-118.0131238854273
 30
0.0
 10
74.26178926094845
 20
-118.0131238854273
 30
0.0
 10
74.26178926094845
 20
-118.4933701960711
 30
0.0
 10
74.26178926094845
 20
-118.4933701960711
 30
0.0
 10
74.26178926094845
 20
-118.4933701960711
 30
0.0
 10
74.70396726648026
 20
-118.4933701960711
 30
0.0
 10
74.70396726648026
 20
-118.4933701960711
 30
0.0
 10
74.80335827122973
 20
-118.4933701960711
 30
0.0
 10
74.93875052380004
 20
-118.4172335858471
 30
0.0
 10
74.93875052380004
 20
-118.2458400854559
 30
0.0
 10
74.93875052380004
 20
-118.1674641631665
 30
0.0
 10
74.90481633327033
 20
-118.0131238854273
 30
0.0
 10
74.7060343237714
 20
-118.0131238854273
 30
0.0
  0
HATCH
  5
6A
330
64
100
AcDbEntity
  8
_U+30EC_U+30A4_U+30E4_U+30FC 1
 62
   179
420
  2234388
100
AcDbHatch
 10
0.0
 20
0.0
 30
0.0
210
0.0
220
0.0
230
1.0
  2
SOLID
 70
     1
 71
     0
 91
        2
 92
        1
 93
        1
 72
     4
 94
        3
 73
     0
 74
     1
 95
       44
 96
       40
 40
0.0
 40
0.0
 40
0.0
 40
0.0
 40
1.0
 40
1.0
 40
1.0
 40
2.0
 40
2.0
 40
2.0
 40
3.0
 40
3.0
 40
3.0
 40
4.0
 40
4.0
 40
4.0
 40
5.0
 40
5.0
 40
5.0
 40
6.0
 40
6.0
 40
6.0
 40
7.0
 40
7.0
 40
7.0
 40
8.0
 40
8.0
 40
8.0
 40
9.0
 40
9.0
 40
9.0
 40
10.0
 40
10.0
 40
10.0
 40
11.0
 40
11.0
 40
11.0
 40
12.0
 40
12.0
 40
12.0
 40
13.0
 40
13.0
 40
13.0
 40
13.0
 10
74.95787080374318
 20
-119.3458590738962
 10
74.93444415444347
 20
-119.3014173421365
 10
74.91342907198346
 20
-119.2485351264379
 10
74.91118975991805
 20
-119.0178859837004
 10
74.90705564533575
 20
-118.7746622424417
 10
74.84780000298944
 20
-118.7048990588655
 10
74.67003307595056
 20
-118.7048990588655
 10
74.67003307595056
 20
-118.7048990588655
 10
74.26178926094845
 20
-118.7048990588655
 10
74.26178926094845
 20
-118.7048990588655
 10
74.26178926094845
 20
-118.7048990588655
 10
74.26178926094845
 20
-119.3458590738962
 10
74.26178926094845
 20
-119.3458590738962
 10
74.26178926094845
 20
-119.3458590738962
 10
74.02700600362867
 20
-119.3458590738962
 10
74.02700600362867
 20
-119.3458590738962
 10
74.02700600362867
 20
-119.3458590738962
 10
74.02700600362867
 20
-117.8015950226329
 10
74.02700600362867
 20
-117.8015950226329
 10
74.02700600362867
 20
-117.8015950226329
 10
74.7019002091891
 20
-117.8015950226329
 10
74.7019002091891
 20
-117.8015950226329
 10
75.00851370737635
 20
-117.8015950226329
 10
75.17560083841096
 20
-117.9728162682499
 10
75.17560083841096
 20
-118.2289591175782
 10
75.17560083841096
 20
-118.2796020212114
 10
75.1671603544721
 20
-118.3621120580831
 10
75.12271862271238
 20
-118.4425550376637
 10
75.06363523514034
 20
-118.5462524117697
 10
74.99800616614634
 20
-118.5652004369386
 10
74.93668346650888
 20
-118.5820814048163
 10
75.07414277637035
 20
-118.6244560792849
 10
75.14183890265552
 20
-118.6732041804011
 10
75.14614527201208
 20
-118.9882581625272
 10
75.15027938659438
 20
-119.2590426676679
 10
75.18628063441524
 20
-119.2909098009064
 10
75.2539767607004
 20
-119.3458590738962
 10
75.2539767607004
 20
-119.3458590738962
 10
74.95787080374318
 20
-119.3458590738962
 10
74.95787080374318
 20
-119.3458590738962
 97
        0
 97
        0
 92
        1
 93
        1
 72
     4
 94
        3
 73
     0
 74
     1
 95
       20
 96
       16
 40
0.0
 40
0.0
 40
0.0
 40
0.0
 40
1.0
 40
1.0
 40
1.0
 40
2.0
 40
2.0
 40
2.0
 40
3.0
 40
3.0
 40
3.0
 40
4.0
 40
4.0
 40
4.0
 40
5.0
 40
5.0
 40
5.0
 40
5.0
 10
74.7060343237714
 20
-118.0131238854273
 10
74.7060343237714
 20
-118.0131238854273
 10
74.26178926094845
 20
-118.0131238854273
 10
74.26178926094845
 20
-118.0131238854273
 10
74.26178926094845
 20
-118.0131238854273
 10
74.26178926094845
 20
-118.4933701960711
 10
74.26178926094845
 20
-118.4933701960711
 10
74.26178926094845
 20
-118.4933701960711
 10
74.70396726648026
 20
-118.4933701960711
 10
74.70396726648026
 20
-118.4933701960711
 10
74.80335827122973
 20
-118.4933701960711
 10
74.93875052380004
 20
-118.4172335858471
 10
74.93875052380004
 20
-118.2458400854559
 10
74.93875052380004
 20
-118.1674641631665
 10
74.90481633327033
 20
-118.0131238854273
 10
74.7060343237714
 20
-118.0131238854273
 97
        0
 97
        0
 75
     2
 76
     1
 98
        0
  0
SPLINE
  5
6B
330
64
100
AcDbEntity
  8
_U+30EC_U+30A4_U+30E4_U+30FC 1
370
     0
100
AcDbSpline
210
0.0
220
0.0
230
1.0
 70
    11
 71
     3
 72
    26
 73
    22
 74
     0
 42
0.0000000001
 43
0.0000000001
 12
1.0
 22
0.0
 32
0.0
 13
1.0
 23
0.0
 33
0.0
 40
0.0
 40
0.0
 40
0.0
 40
0.0
 40
1.0
 40
1.0
 40
1.0
 40
2.0
 40
2.0
 40
2.0
 40
3.0
 40
3.0
 40
3.0
 40
4.0
 40
4.0
 40
4.0
 40
5.0
 40
5.0
 40
5.0
 40
6.0
 40
6.0
 40
6.0
 40
7.0
 40
7.0
 40
7.0
 40
7.0
 10
75.844982891195
 20
-119.3458590738962
 30
0.0
 10
75.844982891195
 20
-119.3458590738962
 30
0.0
 10
75.844982891195
 20
-118.2415337160993
 30
0.0
 10
75.844982891195
 20
-118.2415337160993
 30
0.0
 10
75.844982891195
 20
-118.2415337160993
 30
0.0
 10
75.51494274370808
 20
-118.2415337160993
 30
0.0
 10
75.51494274370808
 20
-118.2415337160993
 30
0.0
 10
75.51494274370808
 20
-118.2415337160993
 30
0.0
 10
75.51494274370808
 20
-118.0935668650079
 30
0.0
 10
75.51494274370808
 20
-118.0935668650079
 30
0.0
 10
75.84704994848616
 20
-118.0787529544213
 30
0.0
 10
75.89355873753703
 20
-117.915799937969
 30
0.0
 10
75.92318655871019
 20
-117.8015950226329
 30
0.0
 10
75.92318655871019
 20
-117.8015950226329
 30
0.0
 10
76.06925860728477
 20
-117.8015950226329
 30
0.0
 10
76.06925860728477
 20
-117.8015950226329
 30
0.0
 10
76.06925860728477
 20
-117.8015950226329
 30
0.0
 10
76.06925860728477
 20
-119.3458590738962
 30
0.0
 10
76.06925860728477
 20
-119.3458590738962
 30
0.0
 10
76.06925860728477
 20
-119.3458590738962
 30
0.0
 10
75.844982891195
 20
-119.3458590738962
 30
0.0
 10
75.844982891195
 20
-119.3458590738962
 30
0.0
  0
HATCH
  5
6C
330
64
100
AcDbEntity
  8
_U+30EC_U+30A4_U+30E4_U+30FC 1
 62
   179
420
  2234388
100
AcDbHatch
 10
0.0
 20
0.0
 30
0.0
210
0.0
220
0.0
230
1.0
  2
SOLID
 70
     1
 71
     0
 91
        1
 92
        1
 93
        1
 72
     4
 94
        3
 73
     0
 74
     1
 95
       26
 96
       22
 40
0.0
 40
0.0
 40
0.0
 40
0.0
 40
1.0
 40
1.0
 40
1.0
 40
2.0
 40
2.0
 40
2.0
 40
3.0
 40
3.0
 40
3.0
 40
4.0
 40
4.0
 40
4.0
 40
5.0
 40
5.0
 40
5.0
 40
6.0
 40
6.0
 40
6.0
 40
7.0
 40
7.0
 40
7.0
 40
7.0
 10
75.844982891195
 20
-119.3458590738962
 10
75.844982891195
 20
-119.3458590738962
 10
75.844982891195
 20
-118.2415337160993
 10
75.844982891195
 20
-118.2415337160993
 10
75.844982891195
 20
-118.2415337160993
 10
75.51494274370808
 20
-118.2415337160993
 10
75.51494274370808
 20
-118.2415337160993
 10
75.51494274370808
 20
-118.2415337160993
 10
75.51494274370808
 20
-118.0935668650079
 10
75.51494274370808
 20
-118.0935668650079
 10
75.84704994848616
 20
-118.0787529544213
 10
75.89355873753703
 20
-117.915799937969
 10
75.92318655871019
 20
-117.8015950226329
 10
75.92318655871019
 20
-117.8015950226329
 10
76.06925860728477
 20
-117.8015950226329
 10
76.06925860728477
 20
-117.8015950226329
 10
76.06925860728477
 20
-117.8015950226329
 10
76.06925860728477
 20
-119.3458590738962
 10
76.06925860728477
 20
-119.3458590738962
 10
76.06925860728477
 20
-119.3458590738962
 10
75.844982891195
 20
-119.3458590738962
 10
75.844982891195
 20
-119.3458590738962
 97
        0
 97
        0
 75
     2
 76
     1
 98
        0
  0
ENDBLK
  5
67
330
64
100
AcDbEntity
  8
0
100
AcDbBlockEnd
  0
BLOCK
  5
84
330
82
100
AcDbEntity
  8
0
100
AcDbBlockBegin
  2
block 4
 70
     0
 10
0.0
 20
0.0
 30
0.0
  3
block 4
  1

  0
SPLINE
  5
86
330
82
100
AcDbEntity
  8
_U+30EC_U+30A4_U+30E4_U+30FC 1
370
     0
100
AcDbSpline
210
0.0
220
0.0
230
1.0
 70
    11
 71
     3
 72
    26
 73
    22
 74
     0
 42
0.0000000001
 43
0.0000000001
 12
1.0
 22
0.0
 32
0.0
 13
1.0
 23
0.0
 33
0.0
 40
0.0
 40
0.0
 40
0.0
 40
0.0
 40
1.0
 40
1.0
 40
1.0
 40
2.0
 40
2.0
 40
2.0
 40
3.0
 40
3.0
 40
3.0
 40
4.0
 40
4.0
 40
4.0
 40
5.0
 40
5.0
 40
5.0
 40
6.0
 40
6.0
 40
6.0
 40
7.0
 40
7.0
 40
7.0
 40
7.0
 10
84.45410425406008
 20
-137.9230197137831
 30
0.0
 10
84.45410425406008
 20
-137.9230197137831
 30
0.0
 10
84.45410425406008
 20
-136.818522101212
 30
0.0
 10
84.45410425406008
 20
-136.818522101212
 30
0.0
 10
84.45410425406008
 20
-136.818522101212
 30
0.0
 10
84.12406410657316
 20
-136.818522101212
 30
0.0
 10
84.12406410657316
 20
-136.818522101212
 30
0.0
 10
84.12406410657316
 20
-136.818522101212
 30
0.0
 10
84.12406410657316
 20
-136.6703829953463
 30
0.0
 10
84.12406410657316
 20
-136.6703829953463
 30
0.0
 10
84.45617131135124
 20
-136.6559135943083
 30
0.0
 10
84.50268010040212
 20
-136.4926160683074
 30
0.0
 10
84.53230792157527
 20
-136.3785834077457
 30
0.0
 10
84.53230792157527
 20
-136.3785834077457
 30
0.0
 10
84.67837997014985
 20
-136.3785834077457
 30
0.0
 10
84.67837997014985
 20
-136.3785834077457
 30
0.0
 10
84.67837997014985
 20
-136.3785834077457
 30
0.0
 10
84.67837997014985
 20
-137.9230197137831
 30
0.0
 10
84.67837997014985
 20
-137.9230197137831
 30
0.0
 10
84.67837997014985
 20
-137.9230197137831
 30
0.0
 10
84.45410425406008
 20
-137.9230197137831
 30
0.0
 10
84.45410425406008
 20
-137.9230197137831
 30
0.0
  0
HATCH
  5
87
330
82
100
AcDbEntity
  8
_U+30EC_U+30A4_U+30E4_U+30FC 1
 62
   179
420
  2234388
100
AcDbHatch
 10
0.0
 20
0.0
 30
0.0
210
0.0
220
0.0
230
1.0
  2
SOLID
 70
     1
 71
     0
 91
        1
 92
        1
 93
        1
 72
     4
 94
        3
 73
     0
 74
     1
 95
       26
 96
       22
 40
0.0
 40
0.0
 40
0.0
 40
0.0
 40
1.0
 40
1.0
 40
1.0
 40
2.0
 40
2.0
 40
2.0
 40
3.0
 40
3.0
 40
3.0
 40
4.0
 40
4.0
 40
4.0
 40
5.0
 40
5.0
 40
5.0
 40
6.0
 40
6.0
 40
6.0
 40
7.0
 40
7.0
 40
7.0
 40
7.0
 10
84.45410425406008
 20
-137.9230197137831
 10
84.45410425406008
 20
-137.9230197137831
 10
84.45410425406008
 20
-136.818522101212
 10
84.45410425406008
 20
-136.818522101212
 10
84.45410425406008
 20
-136.818522101212
 10
84.12406410657316
 20
-136.818522101212
 10
84.12406410657316
 20
-136.818522101212
 10
84.12406410657316
 20
-136.818522101212
 10
84.12406410657316
 20
-136.6703829953463
 10
84.12406410657316
 20
-136.6703829953463
 10
84.45617131135124
 20
-136.6559135943083
 10
84.50268010040212
 20
-136.4926160683074
 10
84.53230792157527
 20
-136.3785834077457
 10
84.53230792157527
 20
-136.3785834077457
 10
84.67837997014985
 20
-136.3785834077457
 10
84.67837997014985
 20
-136.3785834077457
 10
84.67837997014985
 20
-136.3785834077457
 10
84.67837997014985
 20
-137.9230197137831
 10
84.67837997014985
 20
-137.9230197137831
 10
84.67837997014985
 20
-137.9230197137831
 10
84.45410425406008
 20
-137.9230197137831
 10
84.45410425406008
 20
-137.9230197137831
 97
        0
 97
        0
 75
     2
 76
     1
 98
        0
  0
SPLINE
  5
88
330
82
100
AcDbEntity
  8
_U+30EC_U+30A4_U+30E4_U+30FC 1
370
     0
100
AcDbSpline
210
0.0
220
0.0
230
1.0
 70
    11
 71
     3
 72
    44
 73
    40
 74
     0
 42
0.0000000001
 43
0.0000000001
 12
1.0
 22
0.0
 32
0.0
 13
1.0
 23
0.0
 33
0.0
 40
0.0
 40
0.0
 40
0.0
 40
0.0
 40
1.0
 40
1.0
 40
1.0
 40
2.0
 40
2.0
 40
2.0
 40
3.0
 40
3.0
 40
3.0
 40
4.0
 40
4.0
 40
4.0
 40
5.0
 40
5.0
 40
5.0
 40
6.0
 40
6.0
 40
6.0
 40
7.0
 40
7.0
 40
7.0
 40
8.0
 40
8.0
 40
8.0
 40
9.0
 40
9.0
 40
9.0
 40
10.0
 40
10.0
 40
10.0
 40
11.0
 40
11.0
 40
11.0
 40
12.0
 40
12.0
 40
12.0
 40
13.0
 40
13.0
 40
13.0
 40
13.0
 10
85.77271455103947
 20
-137.3411430863245
 30
0.0
 10
85.5548122615974
 20
-137.4999619881945
 30
0.0
 10
85.4616224287214
 20
-137.5736870315788
 30
0.0
 10
85.41304658237938
 20
-137.7176920228623
 30
0.0
 10
85.41304658237938
 20
-137.7176920228623
 30
0.0
 10
86.19146590727158
 20
-137.7176920228623
 30
0.0
 10
86.19146590727158
 20
-137.7176920228623
 30
0.0
 10
86.19146590727158
 20
-137.7176920228623
 30
0.0
 10
86.19146590727158
 20
-137.9230197137831
 30
0.0
 10
86.19146590727158
 20
-137.9230197137831
 30
0.0
 10
86.19146590727158
 20
-137.9230197137831
 30
0.0
 10
85.16344941447304
 20
-137.9230197137831
 30
0.0
 10
85.16344941447304
 20
-137.9230197137831
 30
0.0
 10
85.19514429293733
 20
-137.5654188024142
 30
0.0
 10
85.26077336193134
 20
-137.4868706253505
 30
0.0
 10
85.64576278240801
 20
-137.1885253563279
 30
0.0
 10
85.90173337696207
 20
-136.9900878563775
 30
0.0
 10
85.96719019118181
 20
-136.9222194753181
 30
0.0
 10
85.96719019118181
 20
-136.7847601654566
 30
0.0
 10
85.96719019118181
 20
-136.666248880764
 30
0.0
 10
85.89535995031436
 20
-136.5353352523245
 30
0.0
 10
85.69864499810659
 20
-136.5353352523245
 30
0.0
 10
85.43836803419596
 20
-136.5353352523245
 30
0.0
 10
85.4299275502571
 20
-136.7654676307392
 30
0.0
 10
85.42562118090055
 20
-136.8819118581406
 30
0.0
 10
85.42562118090055
 20
-136.8819118581406
 30
0.0
 10
85.20151771958504
 20
-136.8819118581406
 30
0.0
 10
85.20151771958504
 20
-136.8819118581406
 30
0.0
 10
85.2099582035239
 20
-136.7551323442835
 30
0.0
 10
85.22046574475391
 20
-136.6428222314643
 30
0.0
 10
85.3009087243345
 20
-136.5243109467717
 30
0.0
 10
85.41080727031397
 20
-136.3637694971591
 30
0.0
 10
85.59701468129172
 20
-136.3300075614036
 30
0.0
 10
85.71345890869317
 20
-136.3300075614036
 30
0.0
 10
85.99061684048152
 20
-136.3300075614036
 30
0.0
 10
86.19783933391929
 20
-136.513975660316
 30
0.0
 10
86.19783933391929
 20
-136.7868272227477
 30
0.0
 10
86.19783933391929
 20
-137.0152370534198
 30
0.0
 10
86.08156736129212
 20
-137.1148003129435
 30
0.0
 10
85.77271455103947
 20
-137.3411430863245
 30
0.0
  0
HATCH
  5
89
330
82
100
AcDbEntity
  8
_U+30EC_U+30A4_U+30E4_U+30FC 1
 62
   179
420
  2234388
100
AcDbHatch
 10
0.0
 20
0.0
 30
0.0
210
0.0
220
0.0
230
1.0
  2
SOLID
 70
     1
 71
     0
 91
        1
 92
        1
 93
        1
 72
     4
 94
        3
 73
     0
 74
     1
 95
       44
 96
       40
 40
0.0
 40
0.0
 40
0.0
 40
0.0
 40
1.0
 40
1.0
 40
1.0
 40
2.0
 40
2.0
 40
2.0
 40
3.0
 40
3.0
 40
3.0
 40
4.0
 40
4.0
 40
4.0
 40
5.0
 40
5.0
 40
5.0
 40
6.0
 40
6.0
 40
6.0
 40
7.0
 40
7.0
 40
7.0
 40
8.0
 40
8.0
 40
8.0
 40
9.0
 40
9.0
 40
9.0
 40
10.0
 40
10.0
 40
10.0
 40
11.0
 40
11.0
 40
11.0
 40
12.0
 40
12.0
 40
12.0
 40
13.0
 40
13.0
 40
13.0
 40
13.0
 10
85.77271455103947
 20
-137.3411430863245
 10
85.5548122615974
 20
-137.4999619881945
 10
85.4616224287214
 20
-137.5736870315788
 10
85.41304658237938
 20
-137.7176920228623
 10
85.41304658237938
 20
-137.7176920228623
 10
86.19146590727158
 20
-137.7176920228623
 10
86.19146590727158
 20
-137.7176920228623
 10
86.19146590727158
 20
-137.7176920228623
 10
86.19146590727158
 20
-137.9230197137831
 10
86.19146590727158
 20
-137.9230197137831
 10
86.19146590727158
 20
-137.9230197137831
 10
85.16344941447304
 20
-137.9230197137831
 10
85.16344941447304
 20
-137.9230197137831
 10
85.19514429293733
 20
-137.5654188024142
 10
85.26077336193134
 20
-137.4868706253505
 10
85.64576278240801
 20
-137.1885253563279
 10
85.90173337696207
 20
-136.9900878563775
 10
85.96719019118181
 20
-136.9222194753181
 10
85.96719019118181
 20
-136.7847601654566
 10
85.96719019118181
 20
-136.666248880764
 10
85.89535995031436
 20
-136.5353352523245
 10
85.69864499810659
 20
-136.5353352523245
 10
85.43836803419596
 20
-136.5353352523245
 10
85.4299275502571
 20
-136.7654676307392
 10
85.42562118090055
 20
-136.8819118581406
 10
85.42562118090055
 20
-136.8819118581406
 10
85.20151771958504
 20
-136.8819118581406
 10
85.20151771958504
 20
-136.8819118581406
 10
85.2099582035239
 20
-136.7551323442835
 10
85.22046574475391
 20
-136.6428222314643
 10
85.3009087243345
 20
-136.5243109467717
 10
85.41080727031397
 20
-136.3637694971591
 10
85.59701468129172
 20
-136.3300075614036
 10
85.71345890869317
 20
-136.3300075614036
 10
85.99061684048152
 20
-136.3300075614036
 10
86.19783933391929
 20
-136.513975660316
 10
86.19783933391929
 20
-136.7868272227477
 10
86.19783933391929
 20
-137.0152370534198
 10
86.08156736129212
 20
-137.1148003129435
 10
85.77271455103947
 20
-137.3411430863245
 97
        0
 97
        0
 75
     2
 76
     1
 98
        0
  0
ENDBLK
  5
85
330
82
100
AcDbEntity
  8
0
100
AcDbBlockEnd
  0
BLOCK
  5
8C
330
8A
100
AcDbEntity
  8
0
100
AcDbBlockBegin
  2
block 5
 70
     0
 10
0.0
 20
0.0
 30
0.0
  3
block 5
  1

  0
SPLINE
  5
8E
330
8A
100
AcDbEntity
  8
_U+30EC_U+30A4_U+30E4_U+30FC 1
370
     0
100
AcDbSpline
210
0.0
220
0.0
230
1.0
 70
    11
 71
     3
 72
    26
 73
    22
 74
     0
 42
0.0000000001
 43
0.0000000001
 12
1.0
 22
0.0
 32
0.0
 13
1.0
 23
0.0
 33
0.0
 40
0.0
 40
0.0
 40
0.0
 40
0.0
 40
1.0
 40
1.0
 40
1.0
 40
2.0
 40
2.0
 40
2.0
 40
3.0
 40
3.0
 40
3.0
 40
4.0
 40
4.0
 40
4.0
 40
5.0
 40
5.0
 40
5.0
 40
6.0
 40
6.0
 40
6.0
 40
7.0
 40
7.0
 40
7.0
 40
7.0
 10
95.4539496289143
 20
-137.9230197137831
 30
0.0
 10
95.4539496289143
 20
-137.9230197137831
 30
0.0
 10
95.4539496289143
 20
-136.818522101212
 30
0.0
 10
95.4539496289143
 20
-136.818522101212
 30
0.0
 10
95.4539496289143
 20
-136.818522101212
 30
0.0
 10
95.12390948142736
 20
-136.818522101212
 30
0.0
 10
95.12390948142736
 20
-136.818522101212
 30
0.0
 10
95.12390948142736
 20
-136.818522101212
 30
0.0
 10
95.12390948142736
 20
-136.6703829953463
 30
0.0
 10
95.12390948142736
 20
-136.6703829953463
 30
0.0
 10
95.45601668620544
 20
-136.6559135943083
 30
0.0
 10
95.50252547525632
 20
-136.4926160683074
 30
0.0
 10
95.53215329642947
 20
-136.3785834077457
 30
0.0
 10
95.53215329642947
 20
-136.3785834077457
 30
0.0
 10
95.67822534500407
 20
-136.3785834077457
 30
0.0
 10
95.67822534500407
 20
-136.3785834077457
 30
0.0
 10
95.67822534500407
 20
-136.3785834077457
 30
0.0
 10
95.67822534500407
 20
-137.9230197137831
 30
0.0
 10
95.67822534500407
 20
-137.9230197137831
 30
0.0
 10
95.67822534500407
 20
-137.9230197137831
 30
0.0
 10
95.4539496289143
 20
-137.9230197137831
 30
0.0
 10
95.4539496289143
 20
-137.9230197137831
 30
0.0
  0
HATCH
  5
8F
330
8A
100
AcDbEntity
  8
_U+30EC_U+30A4_U+30E4_U+30FC 1
 62
   179
420
  2234388
100
AcDbHatch
 10
0.0
 20
0.0
 30
0.0
210
0.0
220
0.0
230
1.0
  2
SOLID
 70
     1
 71
     0
 91
        1
 92
        1
 93
        1
 72
     4
 94
        3
 73
     0
 74
     1
 95
       26
 96
       22
 40
0.0
 40
0.0
 40
0.0
 40
0.0
 40
1.0
 40
1.0
 40
1.0
 40
2.0
 40
2.0
 40
2.0
 40
3.0
 40
3.0
 40
3.0
 40
4.0
 40
4.0
 40
4.0
 40
5.0
 40
5.0
 40
5.0
 40
6.0
 40
6.0
 40
6.0
 40
7.0
 40
7.0
 40
7.0
 40
7.0
 10
95.4539496289143
 20
-137.9230197137831
 10
95.4539496289143
 20
-137.9230197137831
 10
95.4539496289143
 20
-136.818522101212
 10
95.4539496289143
 20
-136.818522101212
 10
95.4539496289143
 20
-136.818522101212
 10
95.12390948142736
 20
-136.818522101212
 10
95.12390948142736
 20
-136.818522101212
 10
95.12390948142736
 20
-136.818522101212
 10
95.12390948142736
 20
-136.6703829953463
 10
95.12390948142736
 20
-136.6703829953463
 10
95.45601668620544
 20
-136.6559135943083
 10
95.50252547525632
 20
-136.4926160683074
 10
95.53215329642947
 20
-136.3785834077457
 10
95.53215329642947
 20
-136.3785834077457
 10
95.67822534500407
 20
-136.3785834077457
 10
95.67822534500407
 20
-136.3785834077457
 10
95.67822534500407
 20
-136.3785834077457
 10
95.67822534500407
 20
-137.9230197137831
 10
95.67822534500407
 20
-137.9230197137831
 10
95.67822534500407
 20
-137.9230197137831
 10
95.4539496289143
 20
-137.9230197137831
 10
95.4539496289143
 20
-137.9230197137831
 97
        0
 97
        0
 75
     2
 76
     1
 98
        0
  0
SPLINE
  5
90
330
8A
100
AcDbEntity
  8
_U+30EC_U+30A4_U+30E4_U+30FC 1
370
     0
100
AcDbSpline
210
0.0
220
0.0
230
1.0
 70
    11
 71
     3
 72
    29
 73
    25
 74
     0
 42
0.0000000001
 43
0.0000000001
 12
1.0
 22
0.0
 32
0.0
 13
1.0
 23
0.0
 33
0.0
 40
0.0
 40
0.0
 40
0.0
 40
0.0
 40
1.0
 40
1.0
 40
1.0
 40
2.0
 40
2.0
 40
2.0
 40
3.0
 40
3.0
 40
3.0
 40
4.0
 40
4.0
 40
4.0
 40
5.0
 40
5.0
 40
5.0
 40
6.0
 40
6.0
 40
6.0
 40
7.0
 40
7.0
 40
7.0
 40
8.0
 40
8.0
 40
8.0
 40
8.0
 10
97.07727862156402
 20
-137.7452527867443
 30
0.0
 10
96.96910262332717
 20
-137.9547145922474
 30
0.0
 10
96.79581432041911
 20
-137.9736626174163
 30
0.0
 10
96.67937009301767
 20
-137.9736626174163
 30
0.0
 10
96.51848413385649
 20
-137.9736626174163
 30
0.0
 10
96.37689070941272
 20
-137.9271538283654
 30
0.0
 10
96.2814615644713
 20
-137.7452527867443
 30
0.0
 10
96.1781086999138
 20
-137.5502603822791
 30
0.0
 10
96.15881616519641
 20
-137.3135823224424
 30
0.0
 10
96.15881616519641
 20
-137.1506293059901
 30
0.0
 10
96.15881616519641
 20
-137.0066243147067
 30
0.0
 10
96.17604164262266
 20
-136.7551323442835
 30
0.0
 10
96.2814615644713
 20
-136.556005825236
 30
0.0
 10
96.38963756270815
 20
-136.3530897011548
 30
0.0
 10
96.5501790123208
 20
-136.3300075614036
 30
0.0
 10
96.67937009301767
 20
-136.3300075614036
 30
0.0
 10
96.83818899488767
 20
-136.3300075614036
 30
0.0
 10
96.9818494766226
 20
-136.3741047836148
 30
0.0
 10
97.07727862156402
 20
-136.556005825236
 30
0.0
 10
97.17649737153921
 20
-136.74893117241
 30
0.0
 10
97.1999240208389
 20
-136.9769964935335
 30
0.0
 10
97.1999240208389
 20
-137.1506293059901
 30
0.0
 10
97.1999240208389
 20
-137.3221950611556
 30
0.0
 10
97.17856442883037
 20
-137.5526719491188
 30
0.0
 10
97.07727862156402
 20
-137.7452527867443
 30
0.0
  0
SPLINE
  5
91
330
8A
100
AcDbEntity
  8
_U+30EC_U+30A4_U+30E4_U+30FC 1
370
     0
100
AcDbSpline
210
0.0
220
0.0
230
1.0
 70
    11
 71
     3
 72
    17
 73
    13
 74
     0
 42
0.0000000001
 43
0.0000000001
 12
1.0
 22
0.0
 32
0.0
 13
1.0
 23
0.0
 33
0.0
 40
0.0
 40
0.0
 40
0.0
 40
0.0
 40
1.0
 40
1.0
 40
1.0
 40
2.0
 40
2.0
 40
2.0
 40
3.0
 40
3.0
 40
3.0
 40
4.0
 40
4.0
 40
4.0
 40
4.0
 10
96.67937009301767
 20
-136.5222438894806
 30
0.0
 10
96.42960067033705
 20
-136.5222438894806
 30
0.0
 10
96.3834363908347
 20
-136.8061197574652
 30
0.0
 10
96.3834363908347
 20
-137.1506293059901
 30
0.0
 10
96.3834363908347
 20
-137.4703341670213
 30
0.0
 10
96.4192653838813
 20
-137.7790147224997
 30
0.0
 10
96.67937009301767
 20
-137.7790147224997
 30
0.0
 10
96.92707245840712
 20
-137.7790147224997
 30
0.0
 10
96.97564830474914
 20
-137.4975504213548
 30
0.0
 10
96.97564830474914
 20
-137.1506293059901
 30
0.0
 10
96.97564830474914
 20
-136.8312689545075
 30
0.0
 10
96.93740774486288
 20
-136.5222438894806
 30
0.0
 10
96.67937009301767
 20
-136.5222438894806
 30
0.0
  0
HATCH
  5
92
330
8A
100
AcDbEntity
  8
_U+30EC_U+30A4_U+30E4_U+30FC 1
 62
   179
420
  2234388
100
AcDbHatch
 10
0.0
 20
0.0
 30
0.0
210
0.0
220
0.0
230
1.0
  2
SOLID
 70
     1
 71
     0
 91
        2
 92
        1
 93
        1
 72
     4
 94
        3
 73
     0
 74
     1
 95
       29
 96
       25
 40
0.0
 40
0.0
 40
0.0
 40
0.0
 40
1.0
 40
1.0
 40
1.0
 40
2.0
 40
2.0
 40
2.0
 40
3.0
 40
3.0
 40
3.0
 40
4.0
 40
4.0
 40
4.0
 40
5.0
 40
5.0
 40
5.0
 40
6.0
 40
6.0
 40
6.0
 40
7.0
 40
7.0
 40
7.0
 40
8.0
 40
8.0
 40
8.0
 40
8.0
 10
97.07727862156402
 20
-137.7452527867443
 10
96.96910262332717
 20
-137.9547145922474
 10
96.79581432041911
 20
-137.9736626174163
 10
96.67937009301767
 20
-137.9736626174163
 10
96.51848413385649
 20
-137.9736626174163
 10
96.37689070941272
 20
-137.9271538283654
 10
96.2814615644713
 20
-137.7452527867443
 10
96.1781086999138
 20
-137.5502603822791
 10
96.15881616519641
 20
-137.3135823224424
 10
96.15881616519641
 20
-137.1506293059901
 10
96.15881616519641
 20
-137.0066243147067
 10
96.17604164262266
 20
-136.7551323442835
 10
96.2814615644713
 20
-136.556005825236
 10
96.38963756270815
 20
-136.3530897011548
 10
96.5501790123208
 20
-136.3300075614036
 10
96.67937009301767
 20
-136.3300075614036
 10
96.83818899488767
 20
-136.3300075614036
 10
96.9818494766226
 20
-136.3741047836148
 10
97.07727862156402
 20
-136.556005825236
 10
97.17649737153921
 20
-136.74893117241
 10
97.1999240208389
 20
-136.9769964935335
 10
97.1999240208389
 20
-137.1506293059901
 10
97.1999240208389
 20
-137.3221950611556
 10
97.17856442883037
 20
-137.5526719491188
 10
97.07727862156402
 20
-137.7452527867443
 97
        0
 97
        0
 92
        1
 93
        1
 72
     4
 94
        3
 73
     0
 74
     1
 95
       17
 96
       13
 40
0.0
 40
0.0
 40
0.0
 40
0.0
 40
1.0
 40
1.0
 40
1.0
 40
2.0
 40
2.0
 40
2.0
 40
3.0
 40
3.0
 40
3.0
 40
4.0
 40
4.0
 40
4.0
 40
4.0
 10
96.67937009301767
 20
-136.5222438894806
 10
96.42960067033705
 20
-136.5222438894806
 10
96.3834363908347
 20
-136.8061197574652
 10
96.3834363908347
 20
-137.1506293059901
 10
96.3834363908347
 20
-137.4703341670213
 10
96.4192653838813
 20
-137.7790147224997
 10
96.67937009301767
 20
-137.7790147224997
 10
96.92707245840712
 20
-137.7790147224997
 10
96.97564830474914
 20
-137.4975504213548
 10
96.97564830474914
 20
-137.1506293059901
 10
96.97564830474914
 20
-136.8312689545075
 10
96.93740774486288
 20
-136.5222438894806
 10
96.67937009301767
 20
-136.5222438894806
 97
        0
 97
        0
 75
     2
 76
     1
 98
        0
  0
ENDBLK
  5
8D
330
8A
100
AcDbEntity
  8
0
100
AcDbBlockEnd
  0
BLOCK
  5
A6
330
A4
100
AcDbEntity
  8
0
100
AcDbBlockBegin
  2
block 6
 70
     0
 10
0.0
 20
0.0
 30
0.0
  3
block 6
  1

  0
SPLINE
  5
A8
330
A4
100
AcDbEntity
  8
_U+30EC_U+30A4_U+30E4_U+30FC 1
370
     0
100
AcDbSpline
210
0.0
220
0.0
230
1.0
 70
    11
 71
     3
 72
    26
 73
    22
 74
     0
 42
0.0000000001
 43
0.0000000001
 12
1.0
 22
0.0
 32
0.0
 13
1.0
 23
0.0
 33
0.0
 40
0.0
 40
0.0
 40
0.0
 40
0.0
 40
1.0
 40
1.0
 40
1.0
 40
2.0
 40
2.0
 40
2.0
 40
3.0
 40
3.0
 40
3.0
 40
4.0
 40
4.0
 40
4.0
 40
5.0
 40
5.0
 40
5.0
 40
6.0
 40
6.0
 40
6.0
 40
7.0
 40
7.0
 40
7.0
 40
7.0
 10
105.9773382981584
 20
-134.0772596235987
 30
0.0
 10
105.9773382981584
 20
-134.0772596235987
 30
0.0
 10
104.8731851951359
 20
-134.0772596235987
 30
0.0
 10
104.8731851951359
 20
-134.0772596235987
 30
0.0
 10
104.8731851951359
 20
-134.0772596235987
 30
0.0
 10
104.8731851951359
 20
-134.4072997710857
 30
0.0
 10
104.8731851951359
 20
-134.4072997710857
 30
0.0
 10
104.8731851951359
 20
-134.4072997710857
 30
0.0
 10
104.7253905988187
 20
-134.4072997710857
 30
0.0
 10
104.7253905988187
 20
-134.4072997710857
 30
0.0
 10
104.7102321786836
 20
-134.0751925663076
 30
0.0
 10
104.5476236717798
 20
-134.0286837772567
 30
0.0
 10
104.4332465016695
 20
-133.9990559560836
 30
0.0
 10
104.4332465016695
 20
-133.9990559560836
 30
0.0
 10
104.4332465016695
 20
-133.852983907509
 30
0.0
 10
104.4332465016695
 20
-133.852983907509
 30
0.0
 10
104.4332465016695
 20
-133.852983907509
 30
0.0
 10
105.9773382981584
 20
-133.852983907509
 30
0.0
 10
105.9773382981584
 20
-133.852983907509
 30
0.0
 10
105.9773382981584
 20
-133.852983907509
 30
0.0
 10
105.9773382981584
 20
-134.0772596235987
 30
0.0
 10
105.9773382981584
 20
-134.0772596235987
 30
0.0
  0
HATCH
  5
A9
330
A4
100
AcDbEntity
  8
_U+30EC_U+30A4_U+30E4_U+30FC 1
 62
   179
420
  2234388
100
AcDbHatch
 10
0.0
 20
0.0
 30
0.0
210
0.0
220
0.0
230
1.0
  2
SOLID
 70
     1
 71
     0
 91
        1
 92
        1
 93
        1
 72
     4
 94
        3
 73
     0
 74
     1
 95
       26
 96
       22
 40
0.0
 40
0.0
 40
0.0
 40
0.0
 40
1.0
 40
1.0
 40
1.0
 40
2.0
 40
2.0
 40
2.0
 40
3.0
 40
3.0
 40
3.0
 40
4.0
 40
4.0
 40
4.0
 40
5.0
 40
5.0
 40
5.0
 40
6.0
 40
6.0
 40
6.0
 40
7.0
 40
7.0
 40
7.0
 40
7.0
 10
105.9773382981584
 20
-134.0772596235987
 10
105.9773382981584
 20
-134.0772596235987
 10
104.8731851951359
 20
-134.0772596235987
 10
104.8731851951359
 20
-134.0772596235987
 10
104.8731851951359
 20
-134.0772596235987
 10
104.8731851951359
 20
-134.4072997710857
 10
104.8731851951359
 20
-134.4072997710857
 10
104.8731851951359
 20
-134.4072997710857
 10
104.7253905988187
 20
-134.4072997710857
 10
104.7253905988187
 20
-134.4072997710857
 10
104.7102321786836
 20
-134.0751925663076
 10
104.5476236717798
 20
-134.0286837772567
 10
104.4332465016695
 20
-133.9990559560836
 10
104.4332465016695
 20
-133.9990559560836
 10
104.4332465016695
 20
-133.852983907509
 10
104.4332465016695
 20
-133.852983907509
 10
104.4332465016695
 20
-133.852983907509
 10
105.9773382981584
 20
-133.852983907509
 10
105.9773382981584
 20
-133.852983907509
 10
105.9773382981584
 20
-133.852983907509
 10
105.9773382981584
 20
-134.0772596235987
 10
105.9773382981584
 20
-134.0772596235987
 97
        0
 97
        0
 75
     2
 76
     1
 98
        0
  0
ENDBLK
  5
A7
330
A4
100
AcDbEntity
  8
0
100
AcDbBlockEnd
  0
BLOCK
  5
AC
330
AA
100
AcDbEntity
  8
0
100
AcDbBlockBegin
  2
block 7
 70
     0
 10
0.0
 20
0.0
 30
0.0
  3
block 7
  1

  0
SPLINE
  5
AE
330
AA
100
AcDbEntity
  8
_U+30EC_U+30A4_U+30E4_U+30FC 1
370
     0
100
AcDbSpline
210
0.0
220
0.0
230
1.0
 70
    11
 71
     3
 72
    26
 73
    22
 74
     0
 42
0.0000000001
 43
0.0000000001
 12
1.0
 22
0.0
 32
0.0
 13
1.0
 23
0.0
 33
0.0
 40
0.0
 40
0.0
 40
0.0
 40
0.0
 40
1.0
 40
1.0
 40
1.0
 40
2.0
 40
2.0
 40
2.0
 40
3.0
 40
3.0
 40
3.0
 40
4.0
 40
4.0
 40
4.0
 40
5.0
 40
5.0
 40
5.0
 40
6.0
 40
6.0
 40
6.0
 40
7.0
 40
7.0
 40
7.0
 40
7.0
 10
105.9773382981584
 20
-128.8279676327236
 30
0.0
 10
105.9773382981584
 20
-128.8279676327236
 30
0.0
 10
104.8731851951359
 20
-128.8279676327236
 30
0.0
 10
104.8731851951359
 20
-128.8279676327236
 30
0.0
 10
104.8731851951359
 20
-128.8279676327236
 30
0.0
 10
104.8731851951359
 20
-129.1580077802105
 30
0.0
 10
104.8731851951359
 20
-129.1580077802105
 30
0.0
 10
104.8731851951359
 20
-129.1580077802105
 30
0.0
 10
104.7253905988187
 20
-129.1580077802105
 30
0.0
 10
104.7253905988187
 20
-129.1580077802105
 30
0.0
 10
104.7102321786836
 20
-128.8259005754324
 30
0.0
 10
104.5476236717798
 20
-128.7797362959301
 30
0.0
 10
104.4332465016695
 20
-128.7499362199827
 30
0.0
 10
104.4332465016695
 20
-128.7499362199827
 30
0.0
 10
104.4332465016695
 20
-128.6038641714081
 30
0.0
 10
104.4332465016695
 20
-128.6038641714081
 30
0.0
 10
104.4332465016695
 20
-128.6038641714081
 30
0.0
 10
105.9773382981584
 20
-128.6038641714081
 30
0.0
 10
105.9773382981584
 20
-128.6038641714081
 30
0.0
 10
105.9773382981584
 20
-128.6038641714081
 30
0.0
 10
105.9773382981584
 20
-128.8279676327236
 30
0.0
 10
105.9773382981584
 20
-128.8279676327236
 30
0.0
  0
HATCH
  5
AF
330
AA
100
AcDbEntity
  8
_U+30EC_U+30A4_U+30E4_U+30FC 1
 62
   179
420
  2234388
100
AcDbHatch
 10
0.0
 20
0.0
 30
0.0
210
0.0
220
0.0
230
1.0
  2
SOLID
 70
     1
 71
     0
 91
        1
 92
        1
 93
        1
 72
     4
 94
        3
 73
     0
 74
     1
 95
       26
 96
       22
 40
0.0
 40
0.0
 40
0.0
 40
0.0
 40
1.0
 40
1.0
 40
1.0
 40
2.0
 40
2.0
 40
2.0
 40
3.0
 40
3.0
 40
3.0
 40
4.0
 40
4.0
 40
4.0
 40
5.0
 40
5.0
 40
5.0
 40
6.0
 40
6.0
 40
6.0
 40
7.0
 40
7.0
 40
7.0
 40
7.0
 10
105.9773382981584
 20
-128.8279676327236
 10
105.9773382981584
 20
-128.8279676327236
 10
104.8731851951359
 20
-128.8279676327236
 10
104.8731851951359
 20
-128.8279676327236
 10
104.8731851951359
 20
-128.8279676327236
 10
104.8731851951359
 20
-129.1580077802105
 10
104.8731851951359
 20
-129.1580077802105
 10
104.8731851951359
 20
-129.1580077802105
 10
104.7253905988187
 20
-129.1580077802105
 10
104.7253905988187
 20
-129.1580077802105
 10
104.7102321786836
 20
-128.8259005754324
 10
104.5476236717798
 20
-128.7797362959301
 10
104.4332465016695
 20
-128.7499362199827
 10
104.4332465016695
 20
-128.7499362199827
 10
104.4332465016695
 20
-128.6038641714081
 10
104.4332465016695
 20
-128.6038641714081
 10
104.4332465016695
 20
-128.6038641714081
 10
105.9773382981584
 20
-128.6038641714081
 10
105.9773382981584
 20
-128.6038641714081
 10
105.9773382981584
 20
-128.6038641714081
 10
105.9773382981584
 20
-128.8279676327236
 10
105.9773382981584
 20
-128.8279676327236
 97
        0
 97
        0
 75
     2
 76
     1
 98
        0
  0
SPLINE
  5
B0
330
AA
100
AcDbEntity
  8
_U+30EC_U+30A4_U+30E4_U+30FC 1
370
     0
100
AcDbSpline
210
0.0
220
0.0
230
1.0
 70
    11
 71
     3
 72
    44
 73
    40
 74
     0
 42
0.0000000001
 43
0.0000000001
 12
1.0
 22
0.0
 32
0.0
 13
1.0
 23
0.0
 33
0.0
 40
0.0
 40
0.0
 40
0.0
 40
0.0
 40
1.0
 40
1.0
 40
1.0
 40
2.0
 40
2.0
 40
2.0
 40
3.0
 40
3.0
 40
3.0
 40
4.0
 40
4.0
 40
4.0
 40
5.0
 40
5.0
 40
5.0
 40
6.0
 40
6.0
 40
6.0
 40
7.0
 40
7.0
 40
7.0
 40
8.0
 40
8.0
 40
8.0
 40
9.0
 40
9.0
 40
9.0
 40
10.0
 40
10.0
 40
10.0
 40
11.0
 40
11.0
 40
11.0
 40
12.0
 40
12.0
 40
12.0
 40
13.0
 40
13.0
 40
13.0
 40
13.0
 10
105.3958061802483
 20
-127.5095295905185
 30
0.0
 10
105.5542805725698
 20
-127.7274318799605
 30
0.0
 10
105.6286946350512
 20
-127.8206217128365
 30
0.0
 10
105.7723551167861
 20
-127.8691975591785
 30
0.0
 10
105.7723551167861
 20
-127.8691975591785
 30
0.0
 10
105.7723551167861
 20
-127.0907782342863
 30
0.0
 10
105.7723551167861
 20
-127.0907782342863
 30
0.0
 10
105.7723551167861
 20
-127.0907782342863
 30
0.0
 10
105.9773382981584
 20
-127.0907782342863
 30
0.0
 10
105.9773382981584
 20
-127.0907782342863
 30
0.0
 10
105.9773382981584
 20
-127.0907782342863
 30
0.0
 10
105.9773382981584
 20
-128.1187947270849
 30
0.0
 10
105.9773382981584
 20
-128.1187947270849
 30
0.0
 10
105.6197373867895
 20
-128.0870998486206
 30
0.0
 10
105.5418782288229
 20
-128.0214707796266
 30
0.0
 10
105.2435329598002
 20
-127.6364813591499
 30
0.0
 10
105.0444064407528
 20
-127.3805107645959
 30
0.0
 10
104.9768825692419
 20
-127.3150539503761
 30
0.0
 10
104.8394232593804
 20
-127.3150539503761
 30
0.0
 10
104.7209119746878
 20
-127.3150539503761
 30
0.0
 10
104.5896538366998
 20
-127.3868841912436
 30
0.0
 10
104.5896538366998
 20
-127.5835991434513
 30
0.0
 10
104.5896538366998
 20
-127.843876107362
 30
0.0
 10
104.8204752342116
 20
-127.8523165913008
 30
0.0
 10
104.936919461613
 20
-127.8566229606574
 30
0.0
 10
104.936919461613
 20
-127.8566229606574
 30
0.0
 10
104.936919461613
 20
-128.0807264219729
 30
0.0
 10
104.936919461613
 20
-128.0807264219729
 30
0.0
 10
104.8097954382073
 20
-128.072285938034
 30
0.0
 10
104.6978298349367
 20
-128.061778396804
 30
0.0
 10
104.5793185502441
 20
-127.9813354172234
 30
0.0
 10
104.4184325910829
 20
-127.871436871244
 30
0.0
 10
104.3843261457789
 20
-127.6852294602662
 30
0.0
 10
104.3843261457789
 20
-127.5687852328648
 30
0.0
 10
104.3843261457789
 20
-127.2916273010764
 30
0.0
 10
104.5686387542398
 20
-127.0844048076386
 30
0.0
 10
104.8414903166716
 20
-127.0844048076386
 30
0.0
 10
105.0699001473436
 20
-127.0844048076386
 30
0.0
 10
105.1694634068674
 20
-127.2006767802658
 30
0.0
 10
105.3958061802483
 20
-127.5095295905185
 30
0.0
  0
HATCH
  5
B1
330
AA
100
AcDbEntity
  8
_U+30EC_U+30A4_U+30E4_U+30FC 1
 62
   179
420
  2234388
100
AcDbHatch
 10
0.0
 20
0.0
 30
0.0
210
0.0
220
0.0
230
1.0
  2
SOLID
 70
     1
 71
     0
 91
        1
 92
        1
 93
        1
 72
     4
 94
        3
 73
     0
 74
     1
 95
       44
 96
       40
 40
0.0
 40
0.0
 40
0.0
 40
0.0
 40
1.0
 40
1.0
 40
1.0
 40
2.0
 40
2.0
 40
2.0
 40
3.0
 40
3.0
 40
3.0
 40
4.0
 40
4.0
 40
4.0
 40
5.0
 40
5.0
 40
5.0
 40
6.0
 40
6.0
 40
6.0
 40
7.0
 40
7.0
 40
7.0
 40
8.0
 40
8.0
 40
8.0
 40
9.0
 40
9.0
 40
9.0
 40
10.0
 40
10.0
 40
10.0
 40
11.0
 40
11.0
 40
11.0
 40
12.0
 40
12.0
 40
12.0
 40
13.0
 40
13.0
 40
13.0
 40
13.0
 10
105.3958061802483
 20
-127.5095295905185
 10
105.5542805725698
 20
-127.7274318799605
 10
105.6286946350512
 20
-127.8206217128365
 10
105.7723551167861
 20
-127.8691975591785
 10
105.7723551167861
 20
-127.8691975591785
 10
105.7723551167861
 20
-127.0907782342863
 10
105.7723551167861
 20
-127.0907782342863
 10
105.7723551167861
 20
-127.0907782342863
 10
105.9773382981584
 20
-127.0907782342863
 10
105.9773382981584
 20
-127.0907782342863
 10
105.9773382981584
 20
-127.0907782342863
 10
105.9773382981584
 20
-128.1187947270849
 10
105.9773382981584
 20
-128.1187947270849
 10
105.6197373867895
 20
-128.0870998486206
 10
105.5418782288229
 20
-128.0214707796266
 10
105.2435329598002
 20
-127.6364813591499
 10
105.0444064407528
 20
-127.3805107645959
 10
104.9768825692419
 20
-127.3150539503761
 10
104.8394232593804
 20
-127.3150539503761
 10
104.7209119746878
 20
-127.3150539503761
 10
104.5896538366998
 20
-127.3868841912436
 10
104.5896538366998
 20
-127.5835991434513
 10
104.5896538366998
 20
-127.843876107362
 10
104.8204752342116
 20
-127.8523165913008
 10
104.936919461613
 20
-127.8566229606574
 10
104.936919461613
 20
-127.8566229606574
 10
104.936919461613
 20
-128.0807264219729
 10
104.936919461613
 20
-128.0807264219729
 10
104.8097954382073
 20
-128.072285938034
 10
104.6978298349367
 20
-128.061778396804
 10
104.5793185502441
 20
-127.9813354172234
 10
104.4184325910829
 20
-127.871436871244
 10
104.3843261457789
 20
-127.6852294602662
 10
104.3843261457789
 20
-127.5687852328648
 10
104.3843261457789
 20
-127.2916273010764
 10
104.5686387542398
 20
-127.0844048076386
 10
104.8414903166716
 20
-127.0844048076386
 10
105.0699001473436
 20
-127.0844048076386
 10
105.1694634068674
 20
-127.2006767802658
 10
105.3958061802483
 20
-127.5095295905185
 97
        0
 97
        0
 75
     2
 76
     1
 98
        0
  0
POLYLINE
  5
B2
330
AA
100
AcDbEntity
  8
_U+30EC_U+30A4_U+30E4_U+30FC 1
370
     0
100
AcDb2dPolyline
 66
     1
 10
0.0
 20
0.0
 30
0.0
  0
VERTEX
  5
B3
330
B2
100
AcDbEntity
  8
_U+30EC_U+30A4_U+30E4_U+30FC 1
370
     0
100
AcDbVertex
100
AcDb2dVertex
 10
105.9773382981584
 20
-126.8658134990995
 30
0.0
  0
VERTEX
  5
B4
330
B2
100
AcDbEntity
  8
_U+30EC_U+30A4_U+30E4_U+30FC 1
370
     0
100
AcDbVertex
100
AcDb2dVertex
 10
105.7258463277352
 20
-126.8658134990995
 30
0.0
  0
VERTEX
  5
B5
330
B2
100
AcDbEntity
  8
_U+30EC_U+30A4_U+30E4_U+30FC 1
370
     0
100
AcDbVertex
100
AcDb2dVertex
 10
105.7258463277352
 20
-126.614149273902
 30
0.0
  0
VERTEX
  5
B6
330
B2
100
AcDbEntity
  8
_U+30EC_U+30A4_U+30E4_U+30FC 1
370
     0
100
AcDbVertex
100
AcDb2dVertex
 10
105.9773382981584
 20
-126.614149273902
 30
0.0
  0
VERTEX
  5
B7
330
B2
100
AcDbEntity
  8
_U+30EC_U+30A4_U+30E4_U+30FC 1
370
     0
100
AcDbVertex
100
AcDb2dVertex
 10
105.9773382981584
 20
-126.8658134990995
 30
0.0
  0
SEQEND
  5
B8
330
B2
100
AcDbEntity
  8
_U+30EC_U+30A4_U+30E4_U+30FC 1
370
     0
  0
HATCH
  5
B9
330
AA
100
AcDbEntity
  8
_U+30EC_U+30A4_U+30E4_U+30FC 1
 62
   179
420
  2234388
100
AcDbHatch
 10
0.0
 20
0.0
 30
0.0
210
0.0
220
0.0
230
1.0
  2
SOLID
 70
     1
 71
     0
 91
        1
 92
        1
 93
        4
 72
     1
 10
105.9773382981584
 20
-126.8658134990995
 11
105.7258463277352
 21
-126.8658134990995
 72
     1
 10
105.7258463277352
 20
-126.8658134990995
 11
105.7258463277352
 21
-126.614149273902
 72
     1
 10
105.7258463277352
 20
-126.614149273902
 11
105.9773382981584
 21
-126.614149273902
 72
     1
 10
105.9773382981584
 20
-126.614149273902
 11
105.9773382981584
 21
-126.8658134990995
 97
        0
 75
     2
 76
     1
 98
        0
  0
SPLINE
  5
BA
330
AA
100
AcDbEntity
  8
_U+30EC_U+30A4_U+30E4_U+30FC 1
370
     0
100
AcDbSpline
210
0.0
220
0.0
230
1.0
 70
    11
 71
     3
 72
    53
 73
    49
 74
     0
 42
0.0000000001
 43
0.0000000001
 12
1.0
 22
0.0
 32
0.0
 13
1.0
 23
0.0
 33
0.0
 40
0.0
 40
0.0
 40
0.0
 40
0.0
 40
1.0
 40
1.0
 40
1.0
 40
2.0
 40
2.0
 40
2.0
 40
3.0
 40
3.0
 40
3.0
 40
4.0
 40
4.0
 40
4.0
 40
5.0
 40
5.0
 40
5.0
 40
6.0
 40
6.0
 40
6.0
 40
7.0
 40
7.0
 40
7.0
 40
8.0
 40
8.0
 40
8.0
 40
9.0
 40
9.0
 40
9.0
 40
10.0
 40
10.0
 40
10.0
 40
11.0
 40
11.0
 40
11.0
 40
12.0
 40
12.0
 40
12.0
 40
13.0
 40
13.0
 40
13.0
 40
14.0
 40
14.0
 40
14.0
 40
15.0
 40
15.0
 40
15.0
 40
16.0
 40
16.0
 40
16.0
 40
16.0
 10
106.0283257113401
 20
-125.8965358843245
 30
0.0
 10
106.0283257113401
 20
-125.9749118066139
 30
0.0
 10
106.0111002339139
 20
-126.0763698686545
 30
0.0
 10
105.9477104769853
 20
-126.1780001854694
 30
0.0
 10
105.8378119310058
 20
-126.3514607431517
 30
0.0
 10
105.7065537930178
 20
-126.372648080386
 30
0.0
 10
105.599066813878
 20
-126.3915961055549
 30
0.0
 10
105.599066813878
 20
-126.3915961055549
 30
0.0
 10
105.599066813878
 20
-126.1695597015305
 30
0.0
 10
105.599066813878
 20
-126.1695597015305
 30
0.0
 10
105.7975043138284
 20
-126.1144381737665
 30
0.0
 10
105.8271321350015
 20
-125.9874864051351
 30
0.0
 10
105.8271321350015
 20
-125.8944688270333
 30
0.0
 10
105.8271321350015
 20
-125.7549424598807
 30
0.0
 10
105.7279133850264
 20
-125.6024969846584
 30
0.0
 10
105.4950249302235
 20
-125.6024969846584
 30
0.0
 10
105.2393988452179
 20
-125.6024969846584
 30
0.0
 10
105.1694634068674
 20
-125.7823309689884
 30
0.0
 10
105.1694634068674
 20
-125.9029093109722
 30
0.0
 10
105.1694634068674
 20
-125.9346041894365
 30
0.0
 10
105.1694634068674
 20
-126.0763698686545
 30
0.0
 10
105.2986544875642
 20
-126.165253332174
 30
0.0
 10
105.2986544875642
 20
-126.165253332174
 30
0.0
 10
105.2793619528468
 20
-126.3407809471475
 30
0.0
 10
105.2793619528468
 20
-126.3407809471475
 30
0.0
 10
105.2793619528468
 20
-126.3407809471475
 30
0.0
 10
104.4332465016695
 20
-126.2202026051637
 30
0.0
 10
104.4332465016695
 20
-126.2202026051637
 30
0.0
 10
104.4332465016695
 20
-126.2202026051637
 30
0.0
 10
104.4332465016695
 20
-125.4417832802715
 30
0.0
 10
104.4332465016695
 20
-125.4417832802715
 30
0.0
 10
104.4332465016695
 20
-125.4417832802715
 30
0.0
 10
104.6278943965861
 20
-125.4417832802715
 30
0.0
 10
104.6278943965861
 20
-125.4417832802715
 30
0.0
 10
104.6278943965861
 20
-125.4417832802715
 30
0.0
 10
104.6278943965861
 20
-126.0574218434857
 30
0.0
 10
104.6278943965861
 20
-126.0574218434857
 30
0.0
 10
104.6278943965861
 20
-126.0574218434857
 30
0.0
 10
105.0509521221748
 20
-126.1228786577054
 30
0.0
 10
105.0509521221748
 20
-126.1228786577054
 30
0.0
 10
105.0168456768708
 20
-126.061555958068
 30
0.0
 10
104.9768825692419
 20
-125.9790459211962
 30
0.0
 10
104.9768825692419
 20
-125.8607068912779
 30
0.0
 10
104.9768825692419
 20
-125.606803354015
 30
0.0
 10
105.1629177254454
 20
-125.3697807846298
 30
0.0
 10
105.4760769050546
 20
-125.3697807846298
 30
0.0
 10
105.7933701992461
 20
-125.3697807846298
 30
0.0
 10
106.0283257113401
 20
-125.5940565007195
 30
0.0
 10
106.0283257113401
 20
-125.8965358843245
 30
0.0
  0
HATCH
  5
BB
330
AA
100
AcDbEntity
  8
_U+30EC_U+30A4_U+30E4_U+30FC 1
 62
   179
420
  2234388
100
AcDbHatch
 10
0.0
 20
0.0
 30
0.0
210
0.0
220
0.0
230
1.0
  2
SOLID
 70
     1
 71
     0
 91
        1
 92
        1
 93
        1
 72
     4
 94
        3
 73
     0
 74
     1
 95
       53
 96
       49
 40
0.0
 40
0.0
 40
0.0
 40
0.0
 40
1.0
 40
1.0
 40
1.0
 40
2.0
 40
2.0
 40
2.0
 40
3.0
 40
3.0
 40
3.0
 40
4.0
 40
4.0
 40
4.0
 40
5.0
 40
5.0
 40
5.0
 40
6.0
 40
6.0
 40
6.0
 40
7.0
 40
7.0
 40
7.0
 40
8.0
 40
8.0
 40
8.0
 40
9.0
 40
9.0
 40
9.0
 40
10.0
 40
10.0
 40
10.0
 40
11.0
 40
11.0
 40
11.0
 40
12.0
 40
12.0
 40
12.0
 40
13.0
 40
13.0
 40
13.0
 40
14.0
 40
14.0
 40
14.0
 40
15.0
 40
15.0
 40
15.0
 40
16.0
 40
16.0
 40
16.0
 40
16.0
 10
106.0283257113401
 20
-125.8965358843245
 10
106.0283257113401
 20
-125.9749118066139
 10
106.0111002339139
 20
-126.0763698686545
 10
105.9477104769853
 20
-126.1780001854694
 10
105.8378119310058
 20
-126.3514607431517
 10
105.7065537930178
 20
-126.372648080386
 10
105.599066813878
 20
-126.3915961055549
 10
105.599066813878
 20
-126.3915961055549
 10
105.599066813878
 20
-126.1695597015305
 10
105.599066813878
 20
-126.1695597015305
 10
105.7975043138284
 20
-126.1144381737665
 10
105.8271321350015
 20
-125.9874864051351
 10
105.8271321350015
 20
-125.8944688270333
 10
105.8271321350015
 20
-125.7549424598807
 10
105.7279133850264
 20
-125.6024969846584
 10
105.4950249302235
 20
-125.6024969846584
 10
105.2393988452179
 20
-125.6024969846584
 10
105.1694634068674
 20
-125.7823309689884
 10
105.1694634068674
 20
-125.9029093109722
 10
105.1694634068674
 20
-125.9346041894365
 10
105.1694634068674
 20
-126.0763698686545
 10
105.2986544875642
 20
-126.165253332174
 10
105.2986544875642
 20
-126.165253332174
 10
105.2793619528468
 20
-126.3407809471475
 10
105.2793619528468
 20
-126.3407809471475
 10
105.2793619528468
 20
-126.3407809471475
 10
104.4332465016695
 20
-126.2202026051637
 10
104.4332465016695
 20
-126.2202026051637
 10
104.4332465016695
 20
-126.2202026051637
 10
104.4332465016695
 20
-125.4417832802715
 10
104.4332465016695
 20
-125.4417832802715
 10
104.4332465016695
 20
-125.4417832802715
 10
104.6278943965861
 20
-125.4417832802715
 10
104.6278943965861
 20
-125.4417832802715
 10
104.6278943965861
 20
-125.4417832802715
 10
104.6278943965861
 20
-126.0574218434857
 10
104.6278943965861
 20
-126.0574218434857
 10
104.6278943965861
 20
-126.0574218434857
 10
105.0509521221748
 20
-126.1228786577054
 10
105.0509521221748
 20
-126.1228786577054
 10
105.0168456768708
 20
-126.061555958068
 10
104.9768825692419
 20
-125.9790459211962
 10
104.9768825692419
 20
-125.8607068912779
 10
104.9768825692419
 20
-125.606803354015
 10
105.1629177254454
 20
-125.3697807846298
 10
105.4760769050546
 20
-125.3697807846298
 10
105.7933701992461
 20
-125.3697807846298
 10
106.0283257113401
 20
-125.5940565007195
 10
106.0283257113401
 20
-125.8965358843245
 97
        0
 97
        0
 75
     2
 76
     1
 98
        0
  0
ENDBLK
  5
AD
330
AA
100
AcDbEntity
  8
0
100
AcDbBlockEnd
  0
ENDSEC
  0
SECTION
  2
ENTITIES
  0
SPLINE
  5
41
330
1F
100
AcDbEntity
  8
_U+30EC_U+30A4_U+30E4_U+30FC 1
 62
   179
420
  2234388
370
    25
100
AcDbSpline
210
0.0
220
0.0
230
1.0
 70
    11
 71
     3
 72
    32
 73
    28
 74
     0
 42
0.0000000001
 43
0.0000000001
 12
1.0
 22
0.0
 32
0.0
 13
1.0
 23
0.0
 33
0.0
 40
0.0
 40
0.0
 40
0.0
 40
0.0
 40
1.0
 40
1.0
 40
1.0
 40
2.0
 40
2.0
 40
2.0
 40
3.0
 40
3.0
 40
3.0
 40
4.0
 40
4.0
 40
4.0
 40
5.0
 40
5.0
 40
5.0
 40
6.0
 40
6.0
 40
6.0
 40
7.0
 40
7.0
 40
7.0
 40
8.0
 40
8.0
 40
8.0
 40
9.0
 40
9.0
 40
9.0
 40
9.0
 10
92.12734987185772
 20
-121.0692763586217
 30
0.0
 10
92.12734987185772
 20
-121.0692763586217
 30
0.0
 10
80.12687323357093
 20
-121.0692763586217
 30
0.0
 10
80.12687323357093
 20
-121.0692763586217
 30
0.0
 10
80.12687323357093
 20
-121.0692763586217
 30
0.0
 10
79.11884603706564
 20
-121.1278374697182
 30
0.0
 10
79.12713631463191
 20
-122.0697188583715
 30
0.0
 10
79.12713631463191
 20
-122.0697188583715
 30
0.0
 10
91.11399573104387
 20
-122.0652385805948
 30
0.0
 10
91.11399573104387
 20
-122.0652385805948
 30
0.0
 10
91.11399573104387
 20
-122.0652385805948
 30
0.0
 10
91.12708608832938
 20
-134.5678241330249
 30
0.0
 10
91.12708608832938
 20
-134.5678241330249
 30
0.0
 10
91.12708608832938
 20
-134.5678241330249
 30
0.0
 10
100.1268680011063
 20
-134.5678241330249
 30
0.0
 10
100.1268680011063
 20
-134.5678241330249
 30
0.0
 10
100.1268680011063
 20
-134.5678241330249
 30
0.0
 10
101.1211368646293
 20
-134.6415546885616
 30
0.0
 10
101.1266401978223
 20
-133.5677344110527
 30
0.0
 10
101.1266401978223
 20
-133.5677344110527
 30
0.0
 10
92.15423153783857
 20
-133.5535880221673
 30
0.0
 10
92.15423153783857
 20
-133.5535880221673
 30
0.0
 10
92.15423153783857
 20
-133.5535880221673
 30
0.0
 10
92.12734987185772
 20
-127.5687835792188
 30
0.0
 10
92.12734987185772
 20
-127.5687835792188
 30
0.0
 10
92.12734987185772
 20
-127.5687835792188
 30
0.0
 10
92.12734987185772
 20
-121.0692763586217
 30
0.0
 10
92.12734987185772
 20
-121.0692763586217
 30
0.0
  0
HATCH
  5
42
330
1F
100
AcDbEntity
  8
_U+30EC_U+30A4_U+30E4_U+30FC 1
 62
     9
420
 12566464
100
AcDbHatch
 10
0.0
 20
0.0
 30
0.0
210
0.0
220
0.0
230
1.0
  2
SOLID
 70
     1
 71
     0
 91
        1
 92
        1
 93
        1
 72
     4
 94
        3
 73
     0
 74
     1
 95
       32
 96
       28
 40
0.0
 40
0.0
 40
0.0
 40
0.0
 40
1.0
 40
1.0
 40
1.0
 40
2.0
 40
2.0
 40
2.0
 40
3.0
 40
3.0
 40
3.0
 40
4.0
 40
4.0
 40
4.0
 40
5.0
 40
5.0
 40
5.0
 40
6.0
 40
6.0
 40
6.0
 40
7.0
 40
7.0
 40
7.0
 40
8.0
 40
8.0
 40
8.0
 40
9.0
 40
9.0
 40
9.0
 40
9.0
 10
92.12734987185772
 20
-121.0692763586217
 10
92.12734987185772
 20
-121.0692763586217
 10
80.12687323357093
 20
-121.0692763586217
 10
80.12687323357093
 20
-121.0692763586217
 10
80.12687323357093
 20
-121.0692763586217
 10
79.11884603706564
 20
-121.1278374697182
 10
79.12713631463191
 20
-122.0697188583715
 10
79.12713631463191
 20
-122.0697188583715
 10
91.11399573104387
 20
-122.0652385805948
 10
91.11399573104387
 20
-122.0652385805948
 10
91.11399573104387
 20
-122.0652385805948
 10
91.12708608832938
 20
-134.5678241330249
 10
91.12708608832938
 20
-134.5678241330249
 10
91.12708608832938
 20
-134.5678241330249
 10
100.1268680011063
 20
-134.5678241330249
 10
100.1268680011063
 20
-134.5678241330249
 10
100.1268680011063
 20
-134.5678241330249
 10
101.1211368646293
 20
-134.6415546885616
 10
101.1266401978223
 20
-133.5677344110527
 10
101.1266401978223
 20
-133.5677344110527
 10
92.15423153783857
 20
-133.5535880221673
 10
92.15423153783857
 20
-133.5535880221673
 10
92.15423153783857
 20
-133.5535880221673
 10
92.12734987185772
 20
-127.5687835792188
 10
92.12734987185772
 20
-127.5687835792188
 10
92.12734987185772
 20
-127.5687835792188
 10
92.12734987185772
 20
-121.0692763586217
 10
92.12734987185772
 20
-121.0692763586217
 97
        0
 97
        0
 75
     2
 76
     1
 98
        0
  0
POLYLINE
  5
43
330
1F
100
AcDbEntity
  8
_U+30EC_U+30A4_U+30E4_U+30FC 1
 62
   179
420
  2234388
370
     9
100
AcDb2dPolyline
 66
     1
 10
0.0
 20
0.0
 30
0.0
  0
VERTEX
  5
44
330
43
100
AcDbEntity
  8
_U+30EC_U+30A4_U+30E4_U+30FC 1
 62
   179
420
  2234388
370
     9
100
AcDbVertex
100
AcDb2dVertex
 10
101.1989949181986
 20
-134.1999121886723
 30
0.0
  0
VERTEX
  5
45
330
43
100
AcDbEntity
  8
_U+30EC_U+30A4_U+30E4_U+30FC 1
 62
   179
420
  2234388
370
     9
100
AcDbVertex
100
AcDb2dVertex
 10
101.7205768493363
 20
-135.1031996884463
 30
0.0
  0
SEQEND
  5
46
330
43
100
AcDbEntity
  8
_U+30EC_U+30A4_U+30E4_U+30FC 1
 62
   179
420
  2234388
370
     9
  0
POLYLINE
  5
47
330
1F
100
AcDbEntity
  8
_U+30EC_U+30A4_U+30E4_U+30FC 1
 62
   179
420
  2234388
370
     9
100
AcDb2dPolyline
 66
     1
 10
0.0
 20
0.0
 30
0.0
  0
VERTEX
  5
48
330
47
100
AcDbEntity
  8
_U+30EC_U+30A4_U+30E4_U+30FC 1
 62
   179
420
  2234388
370
     9
100
AcDbVertex
100
AcDb2dVertex
 10
101.1989949181986
 20
-134.1999121886723
 30
0.0
  0
VERTEX
  5
49
330
47
100
AcDbEntity
  8
_U+30EC_U+30A4_U+30E4_U+30FC 1
 62
   179
420
  2234388
370
     9
100
AcDbVertex
100
AcDb2dVertex
 10
103.7972737407998
 20
-136.6824446880515
 30
0.0
  0
SEQEND
  5
4A
330
47
100
AcDbEntity
  8
_U+30EC_U+30A4_U+30E4_U+30FC 1
 62
   179
420
  2234388
370
     9
  0
POLYLINE
  5
4B
330
1F
100
AcDbEntity
  8
_U+30EC_U+30A4_U+30E4_U+30FC 1
 62
   179
420
  2234388
370
     9
100
AcDb2dPolyline
 66
     1
 10
0.0
 20
0.0
 30
0.0
  0
VERTEX
  5
4C
330
4B
100
AcDbEntity
  8
_U+30EC_U+30A4_U+30E4_U+30FC 1
 62
   179
420
  2234388
370
     9
100
AcDbVertex
100
AcDb2dVertex
 10
101.1989949181986
 20
-134.1999121886723
 30
0.0
  0
VERTEX
  5
4D
330
4B
100
AcDbEntity
  8
_U+30EC_U+30A4_U+30E4_U+30FC 1
 62
   179
420
  2234388
370
     9
100
AcDbVertex
100
AcDb2dVertex
 10
102.1016121173931
 20
-134.7214941329861
 30
0.0
  0
SEQEND
  5
4E
330
4B
100
AcDbEntity
  8
_U+30EC_U+30A4_U+30E4_U+30FC 1
 62
   179
420
  2234388
370
     9
  0
INSERT
  5
50
330
1F
100
AcDbEntity
  8
_U+30EC_U+30A4_U+30E4_U+30FC 1
100
AcDbBlockReference
  2
block 2
 10
0.0
 20
0.0
 30
0.0
  0
POLYLINE
  5
58
330
1F
100
AcDbEntity
  8
_U+30EC_U+30A4_U+30E4_U+30FC 1
 62
   179
420
  2234388
370
     9
100
AcDb2dPolyline
 66
     1
 10
0.0
 20
0.0
 30
0.0
  0
VERTEX
  5
59
330
58
100
AcDbEntity
  8
_U+30EC_U+30A4_U+30E4_U+30FC 1
 62
   179
420
  2234388
370
     9
100
AcDbVertex
100
AcDb2dVertex
 10
79.14675275799111
 20
-121.3214419141141
 30
0.0
  0
VERTEX
  5
5A
330
58
100
AcDbEntity
  8
_U+30EC_U+30A4_U+30E4_U+30FC 1
 62
   179
420
  2234388
370
     9
100
AcDbVertex
100
AcDb2dVertex
 10
78.62516882743816
 20
-120.41815441434
 30
0.0
  0
SEQEND
  5
5B
330
58
100
AcDbEntity
  8
_U+30EC_U+30A4_U+30E4_U+30FC 1
 62
   179
420
  2234388
370
     9
  0
POLYLINE
  5
5C
330
1F
100
AcDbEntity
  8
_U+30EC_U+30A4_U+30E4_U+30FC 1
 62
   179
420
  2234388
370
     9
100
AcDb2dPolyline
 66
     1
 10
0.0
 20
0.0
 30
0.0
  0
VERTEX
  5
5D
330
5C
100
AcDbEntity
  8
_U+30EC_U+30A4_U+30E4_U+30FC 1
 62
   179
420
  2234388
370
     9
100
AcDbVertex
100
AcDb2dVertex
 10
79.14675275799111
 20
-121.3214419141141
 30
0.0
  0
VERTEX
  5
5E
330
5C
100
AcDbEntity
  8
_U+30EC_U+30A4_U+30E4_U+30FC 1
 62
   179
420
  2234388
370
     9
100
AcDbVertex
100
AcDb2dVertex
 10
76.54811915820589
 20
-118.8389094147349
 30
0.0
  0
SEQEND
  5
5F
330
5C
100
AcDbEntity
  8
_U+30EC_U+30A4_U+30E4_U+30FC 1
 62
   179
420
  2234388
370
     9
  0
POLYLINE
  5
60
330
1F
100
AcDbEntity
  8
_U+30EC_U+30A4_U+30E4_U+30FC 1
 62
   179
420
  2234388
370
     9
100
AcDb2dPolyline
 66
     1
 10
0.0
 20
0.0
 30
0.0
  0
VERTEX
  5
61
330
60
100
AcDbEntity
  8
_U+30EC_U+30A4_U+30E4_U+30FC 1
 62
   179
420
  2234388
370
     9
100
AcDbVertex
100
AcDb2dVertex
 10
79.14675275799111
 20
-121.3214419141141
 30
0.0
  0
VERTEX
  5
62
330
60
100
AcDbEntity
  8
_U+30EC_U+30A4_U+30E4_U+30FC 1
 62
   179
420
  2234388
370
     9
100
AcDbVertex
100
AcDb2dVertex
 10
78.2438160593895
 20
-120.7998599698
 30
0.0
  0
SEQEND
  5
63
330
60
100
AcDbEntity
  8
_U+30EC_U+30A4_U+30E4_U+30FC 1
 62
   179
420
  2234388
370
     9
  0
INSERT
  5
65
330
1F
100
AcDbEntity
  8
_U+30EC_U+30A4_U+30E4_U+30FC 1
100
AcDbBlockReference
  2
block 3
 10
0.0
 20
0.0
 30
0.0
  0
SPLINE
  5
6D
330
1F
100
AcDbEntity
  8
_U+30EC_U+30A4_U+30E4_U+30FC 1
 62
   179
420
  2234388
370
     9
100
AcDbSpline
210
0.0
220
0.0
230
1.0
 70
    11
 71
     3
 72
    17
 73
    13
 74
     0
 42
0.0000000001
 43
0.0000000001
 12
1.0
 22
0.0
 32
0.0
 13
1.0
 23
0.0
 33
0.0
 40
0.0
 40
0.0
 40
0.0
 40
0.0
 40
1.0
 40
1.0
 40
1.0
 40
2.0
 40
2.0
 40
2.0
 40
3.0
 40
3.0
 40
3.0
 40
4.0
 40
4.0
 40
4.0
 40
4.0
 10
103.8365379064648
 20
-133.5680871888305
 30
0.0
 10
103.8365379064648
 20
-133.5129480221774
 30
0.0
 10
103.7917704076069
 20
-133.4681805221882
 30
0.0
 10
103.7366312423469
 20
-133.4681805221882
 30
0.0
 10
103.6815273548639
 20
-133.4681805221882
 30
0.0
 10
103.6367245782291
 20
-133.5129480221774
 30
0.0
 10
103.6367245782291
 20
-133.5680871888305
 30
0.0
 10
103.6367245782291
 20
-133.6231910777054
 30
0.0
 10
103.6815273548639
 20
-133.6679938554721
 30
0.0
 10
103.7366312423469
 20
-133.6679938554721
 30
0.0
 10
103.7917704076069
 20
-133.6679938554721
 30
0.0
 10
103.8365379064648
 20
-133.6231910777054
 30
0.0
 10
103.8365379064648
 20
-133.5680871888305
 30
0.0
  0
SPLINE
  5
6E
330
1F
100
AcDbEntity
  8
_U+30EC_U+30A4_U+30E4_U+30FC 1
 62
   179
420
  2234388
370
     9
100
AcDbSpline
210
0.0
220
0.0
230
1.0
 70
    11
 71
     3
 72
    17
 73
    13
 74
     0
 42
0.0000000001
 43
0.0000000001
 12
1.0
 22
0.0
 32
0.0
 13
1.0
 23
0.0
 33
0.0
 40
0.0
 40
0.0
 40
0.0
 40
0.0
 40
1.0
 40
1.0
 40
1.0
 40
2.0
 40
2.0
 40
2.0
 40
3.0
 40
3.0
 40
3.0
 40
4.0
 40
4.0
 40
4.0
 40
4.0
 10
103.8365379064648
 20
-134.5678241330249
 30
0.0
 10
103.8365379064648
 20
-134.5134257997048
 30
0.0
 10
103.7917704076069
 20
-134.4679174663832
 30
0.0
 10
103.7366312423469
 20
-134.4679174663832
 30
0.0
 10
103.6815273548639
 20
-134.4679174663832
 30
0.0
 10
103.6367245782291
 20
-134.5134257997048
 30
0.0
 10
103.6367245782291
 20
-134.5678241330249
 30
0.0
 10
103.6367245782291
 20
-134.6229632996773
 30
0.0
 10
103.6815273548639
 20
-134.667766077444
 30
0.0
 10
103.7366312423469
 20
-134.667766077444
 30
0.0
 10
103.7917704076069
 20
-134.667766077444
 30
0.0
 10
103.8365379064648
 20
-134.6229632996773
 30
0.0
 10
103.8365379064648
 20
-134.5678241330249
 30
0.0
  0
SPLINE
  5
6F
330
1F
100
AcDbEntity
  8
_U+30EC_U+30A4_U+30E4_U+30FC 1
 62
   179
420
  2234388
370
     9
100
AcDbSpline
210
0.0
220
0.0
230
1.0
 70
    11
 71
     3
 72
    17
 73
    13
 74
     0
 42
0.0000000001
 43
0.0000000001
 12
1.0
 22
0.0
 32
0.0
 13
1.0
 23
0.0
 33
0.0
 40
0.0
 40
0.0
 40
0.0
 40
0.0
 40
1.0
 40
1.0
 40
1.0
 40
2.0
 40
2.0
 40
2.0
 40
3.0
 40
3.0
 40
3.0
 40
4.0
 40
4.0
 40
4.0
 40
4.0
 10
91.22663767261457
 20
-138.5669130209137
 30
0.0
 10
91.22663767261457
 20
-138.5117738542607
 30
0.0
 10
91.18187017375669
 20
-138.4670063542721
 30
0.0
 10
91.12673331055161
 20
-138.4670063542721
 30
0.0
 10
91.07194462100557
 20
-138.4670063542721
 30
0.0
 10
91.02717712214768
 20
-138.5117738542607
 30
0.0
 10
91.02717712214768
 20
-138.5669130209137
 30
0.0
 10
91.02717712214768
 20
-138.6220169097887
 30
0.0
 10
91.07194462100557
 20
-138.6668196875554
 30
0.0
 10
91.12673331055161
 20
-138.6668196875554
 30
0.0
 10
91.18187017375669
 20
-138.6668196875554
 30
0.0
 10
91.22663767261457
 20
-138.6220169097887
 30
0.0
 10
91.22663767261457
 20
-138.5669130209137
 30
0.0
  0
SPLINE
  5
70
330
1F
100
AcDbEntity
  8
_U+30EC_U+30A4_U+30E4_U+30FC 1
 62
   179
420
  2234388
370
     9
100
AcDbSpline
210
0.0
220
0.0
230
1.0
 70
    11
 71
     3
 72
    17
 73
    13
 74
     0
 42
0.0000000001
 43
0.0000000001
 12
1.0
 22
0.0
 32
0.0
 13
1.0
 23
0.0
 33
0.0
 40
0.0
 40
0.0
 40
0.0
 40
0.0
 40
1.0
 40
1.0
 40
1.0
 40
2.0
 40
2.0
 40
2.0
 40
3.0
 40
3.0
 40
3.0
 40
4.0
 40
4.0
 40
4.0
 40
4.0
 10
79.22669020098097
 20
-138.5669130209137
 30
0.0
 10
79.22669020098097
 20
-138.5117738542607
 30
0.0
 10
79.1818874243462
 20
-138.4670063542721
 30
0.0
 10
79.12678353686313
 20
-138.4670063542721
 30
0.0
 10
79.07164437160318
 20
-138.4670063542721
 30
0.0
 10
79.02687687274529
 20
-138.5117738542607
 30
0.0
 10
79.02687687274529
 20
-138.5669130209137
 30
0.0
 10
79.02687687274529
 20
-138.6220169097887
 30
0.0
 10
79.07164437160318
 20
-138.6668196875554
 30
0.0
 10
79.12678353686313
 20
-138.6668196875554
 30
0.0
 10
79.1818874243462
 20
-138.6668196875554
 30
0.0
 10
79.22669020098097
 20
-138.6220169097887
 30
0.0
 10
79.22669020098097
 20
-138.5669130209137
 30
0.0
  0
POLYLINE
  5
71
330
1F
100
AcDbEntity
  8
_U+30EC_U+30A4_U+30E4_U+30FC 1
 62
   179
420
  2234388
370
     9
100
AcDb2dPolyline
 66
     1
 10
0.0
 20
0.0
 30
0.0
  0
VERTEX
  5
72
330
71
100
AcDbEntity
  8
_U+30EC_U+30A4_U+30E4_U+30FC 1
 62
   179
420
  2234388
370
     9
100
AcDbVertex
100
AcDb2dVertex
 10
79.12678353686313
 20
-138.5669130209137
 30
0.0
  0
VERTEX
  5
73
330
71
100
AcDbEntity
  8
_U+30EC_U+30A4_U+30E4_U+30FC 1
 62
   179
420
  2234388
370
     9
100
AcDbVertex
100
AcDb2dVertex
 10
101.1273457533598
 20
-138.5669130209137
 30
0.0
  0
SEQEND
  5
74
330
71
100
AcDbEntity
  8
_U+30EC_U+30A4_U+30E4_U+30FC 1
 62
   179
420
  2234388
370
     9
  0
POLYLINE
  5
75
330
1F
100
AcDbEntity
  8
_U+30EC_U+30A4_U+30E4_U+30FC 1
 62
   179
420
  2234388
370
     9
100
AcDb2dPolyline
 66
     1
 10
0.0
 20
0.0
 30
0.0
  0
VERTEX
  5
76
330
75
100
AcDbEntity
  8
_U+30EC_U+30A4_U+30E4_U+30FC 1
 62
   179
420
  2234388
370
     9
100
AcDbVertex
100
AcDb2dVertex
 10
79.12678353686313
 20
-137.10687163239
 30
0.0
  0
VERTEX
  5
77
330
75
100
AcDbEntity
  8
_U+30EC_U+30A4_U+30E4_U+30FC 1
 62
   179
420
  2234388
370
     9
100
AcDbVertex
100
AcDb2dVertex
 10
79.12678353686313
 20
-139.5666852428863
 30
0.0
  0
SEQEND
  5
78
330
75
100
AcDbEntity
  8
_U+30EC_U+30A4_U+30E4_U+30FC 1
 62
   179
420
  2234388
370
     9
  0
POLYLINE
  5
79
330
1F
100
AcDbEntity
  8
_U+30EC_U+30A4_U+30E4_U+30FC 1
 62
   179
420
  2234388
370
     9
100
AcDb2dPolyline
 66
     1
 10
0.0
 20
0.0
 30
0.0
  0
VERTEX
  5
7A
330
79
100
AcDbEntity
  8
_U+30EC_U+30A4_U+30E4_U+30FC 1
 62
   179
420
  2234388
370
     9
100
AcDbVertex
100
AcDb2dVertex
 10
91.12673331055161
 20
-137.10687163239
 30
0.0
  0
VERTEX
  5
7B
330
79
100
AcDbEntity
  8
_U+30EC_U+30A4_U+30E4_U+30FC 1
 62
   179
420
  2234388
370
     9
100
AcDbVertex
100
AcDb2dVertex
 10
91.12673331055161
 20
-139.5666852428863
 30
0.0
  0
SEQEND
  5
7C
330
79
100
AcDbEntity
  8
_U+30EC_U+30A4_U+30E4_U+30FC 1
 62
   179
420
  2234388
370
     9
  0
SPLINE
  5
7D
330
1F
100
AcDbEntity
  8
_U+30EC_U+30A4_U+30E4_U+30FC 1
 62
   179
420
  2234388
370
     9
100
AcDbSpline
210
0.0
220
0.0
230
1.0
 70
    11
 71
     3
 72
    17
 73
    13
 74
     0
 42
0.0000000001
 43
0.0000000001
 12
1.0
 22
0.0
 32
0.0
 13
1.0
 23
0.0
 33
0.0
 40
0.0
 40
0.0
 40
0.0
 40
0.0
 40
1.0
 40
1.0
 40
1.0
 40
2.0
 40
2.0
 40
2.0
 40
3.0
 40
3.0
 40
3.0
 40
4.0
 40
4.0
 40
4.0
 40
4.0
 10
101.2265468619401
 20
-138.5669130209137
 30
0.0
 10
101.2265468619401
 20
-138.5117738542607
 30
0.0
 10
101.1817793630822
 20
-138.4670063542721
 30
0.0
 10
101.1266401978223
 20
-138.4670063542721
 30
0.0
 10
101.0722065880999
 20
-138.4670063542721
 30
0.0
 10
101.02744164141
 20
-138.5117738542607
 30
0.0
 10
101.02744164141
 20
-138.5669130209137
 30
0.0
 10
101.02744164141
 20
-138.6220169097887
 30
0.0
 10
101.0722065880999
 20
-138.6668196875554
 30
0.0
 10
101.1266401978223
 20
-138.6668196875554
 30
0.0
 10
101.1817793630822
 20
-138.6668196875554
 30
0.0
 10
101.2265468619401
 20
-138.6220169097887
 30
0.0
 10
101.2265468619401
 20
-138.5669130209137
 30
0.0
  0
POLYLINE
  5
7E
330
1F
100
AcDbEntity
  8
_U+30EC_U+30A4_U+30E4_U+30FC 1
 62
   179
420
  2234388
370
     9
100
AcDb2dPolyline
 66
     1
 10
0.0
 20
0.0
 30
0.0
  0
VERTEX
  5
7F
330
7E
100
AcDbEntity
  8
_U+30EC_U+30A4_U+30E4_U+30FC 1
 62
   179
420
  2234388
370
     9
100
AcDbVertex
100
AcDb2dVertex
 10
101.1266401978223
 20
-137.10687163239
 30
0.0
  0
VERTEX
  5
80
330
7E
100
AcDbEntity
  8
_U+30EC_U+30A4_U+30E4_U+30FC 1
 62
   179
420
  2234388
370
     9
100
AcDbVertex
100
AcDb2dVertex
 10
101.1266401978223
 20
-139.5666852428863
 30
0.0
  0
SEQEND
  5
81
330
7E
100
AcDbEntity
  8
_U+30EC_U+30A4_U+30E4_U+30FC 1
 62
   179
420
  2234388
370
     9
  0
INSERT
  5
83
330
1F
100
AcDbEntity
  8
_U+30EC_U+30A4_U+30E4_U+30FC 1
100
AcDbBlockReference
  2
block 4
 10
0.0
 20
0.0
 30
0.0
  0
INSERT
  5
8B
330
1F
100
AcDbEntity
  8
_U+30EC_U+30A4_U+30E4_U+30FC 1
100
AcDbBlockReference
  2
block 5
 10
0.0
 20
0.0
 30
0.0
  0
POLYLINE
  5
93
330
1F
100
AcDbEntity
  8
_U+30EC_U+30A4_U+30E4_U+30FC 1
 62
   179
420
  2234388
370
     9
100
AcDb2dPolyline
 66
     1
 10
0.0
 20
0.0
 30
0.0
  0
VERTEX
  5
94
330
93
100
AcDbEntity
  8
_U+30EC_U+30A4_U+30E4_U+30FC 1
 62
   179
420
  2234388
370
     9
100
AcDbVertex
100
AcDb2dVertex
 10
103.7366312423469
 20
-121.0679005252884
 30
0.0
  0
VERTEX
  5
95
330
93
100
AcDbEntity
  8
_U+30EC_U+30A4_U+30E4_U+30FC 1
 62
   179
420
  2234388
370
     9
100
AcDbVertex
100
AcDb2dVertex
 10
103.7366312423469
 20
-134.5678241330249
 30
0.0
  0
SEQEND
  5
96
330
93
100
AcDbEntity
  8
_U+30EC_U+30A4_U+30E4_U+30FC 1
 62
   179
420
  2234388
370
     9
  0
POLYLINE
  5
97
330
1F
100
AcDbEntity
  8
_U+30EC_U+30A4_U+30E4_U+30FC 1
 62
   179
420
  2234388
370
     9
100
AcDb2dPolyline
 66
     1
 10
0.0
 20
0.0
 30
0.0
  0
VERTEX
  5
98
330
97
100
AcDbEntity
  8
_U+30EC_U+30A4_U+30E4_U+30FC 1
 62
   179
420
  2234388
370
     9
100
AcDbVertex
100
AcDb2dVertex
 10
102.2766277522085
 20
-133.5680871888305
 30
0.0
  0
VERTEX
  5
99
330
97
100
AcDbEntity
  8
_U+30EC_U+30A4_U+30E4_U+30FC 1
 62
   179
420
  2234388
370
     9
100
AcDbVertex
100
AcDb2dVertex
 10
104.7371089946004
 20
-133.5680871888305
 30
0.0
  0
SEQEND
  5
9A
330
97
100
AcDbEntity
  8
_U+30EC_U+30A4_U+30E4_U+30FC 1
 62
   179
420
  2234388
370
     9
  0
SPLINE
  5
9B
330
1F
100
AcDbEntity
  8
_U+30EC_U+30A4_U+30E4_U+30FC 1
 62
   179
420
  2234388
370
     9
100
AcDbSpline
210
0.0
220
0.0
230
1.0
 70
    11
 71
     3
 72
    17
 73
    13
 74
     0
 42
0.0000000001
 43
0.0000000001
 12
1.0
 22
0.0
 32
0.0
 13
1.0
 23
0.0
 33
0.0
 40
0.0
 40
0.0
 40
0.0
 40
0.0
 40
1.0
 40
1.0
 40
1.0
 40
2.0
 40
2.0
 40
2.0
 40
3.0
 40
3.0
 40
3.0
 40
4.0
 40
4.0
 40
4.0
 40
4.0
 10
103.8365379064648
 20
-121.0679005252884
 30
0.0
 10
103.8365379064648
 20
-121.0127613586357
 30
0.0
 10
103.7917704076069
 20
-120.9679938586468
 30
0.0
 10
103.7366312423469
 20
-120.9679938586468
 30
0.0
 10
103.6815273548639
 20
-120.9679938586468
 30
0.0
 10
103.6367245782291
 20
-121.0127613586357
 30
0.0
 10
103.6367245782291
 20
-121.0679005252884
 30
0.0
 10
103.6367245782291
 20
-121.1230044141637
 30
0.0
 10
103.6815273548639
 20
-121.1678071919304
 30
0.0
 10
103.7366312423469
 20
-121.1678071919304
 30
0.0
 10
103.7917704076069
 20
-121.1678071919304
 30
0.0
 10
103.8365379064648
 20
-121.1230044141637
 30
0.0
 10
103.8365379064648
 20
-121.0679005252884
 30
0.0
  0
POLYLINE
  5
9C
330
1F
100
AcDbEntity
  8
_U+30EC_U+30A4_U+30E4_U+30FC 1
 62
   179
420
  2234388
370
     9
100
AcDb2dPolyline
 66
     1
 10
0.0
 20
0.0
 30
0.0
  0
VERTEX
  5
9D
330
9C
100
AcDbEntity
  8
_U+30EC_U+30A4_U+30E4_U+30FC 1
 62
   179
420
  2234388
370
     9
100
AcDbVertex
100
AcDb2dVertex
 10
102.2766277522085
 20
-121.0679005252884
 30
0.0
  0
VERTEX
  5
9E
330
9C
100
AcDbEntity
  8
_U+30EC_U+30A4_U+30E4_U+30FC 1
 62
   179
420
  2234388
370
     9
100
AcDbVertex
100
AcDb2dVertex
 10
104.7371089946004
 20
-121.0679005252884
 30
0.0
  0
SEQEND
  5
9F
330
9C
100
AcDbEntity
  8
_U+30EC_U+30A4_U+30E4_U+30FC 1
 62
   179
420
  2234388
370
     9
  0
POLYLINE
  5
A0
330
1F
100
AcDbEntity
  8
_U+30EC_U+30A4_U+30E4_U+30FC 1
 62
   179
420
  2234388
370
     9
100
AcDb2dPolyline
 66
     1
 10
0.0
 20
0.0
 30
0.0
  0
VERTEX
  5
A1
330
A0
100
AcDbEntity
  8
_U+30EC_U+30A4_U+30E4_U+30FC 1
 62
   179
420
  2234388
370
     9
100
AcDbVertex
100
AcDb2dVertex
 10
102.2766277522085
 20
-134.5678241330249
 30
0.0
  0
VERTEX
  5
A2
330
A0
100
AcDbEntity
  8
_U+30EC_U+30A4_U+30E4_U+30FC 1
 62
   179
420
  2234388
370
     9
100
AcDbVertex
100
AcDb2dVertex
 10
104.7371089946004
 20
-134.5678241330249
 30
0.0
  0
SEQEND
  5
A3
330
A0
100
AcDbEntity
  8
_U+30EC_U+30A4_U+30E4_U+30FC 1
 62
   179
420
  2234388
370
     9
  0
INSERT
  5
A5
330
1F
100
AcDbEntity
  8
_U+30EC_U+30A4_U+30E4_U+30FC 1
100
AcDbBlockReference
  2
block 6
 10
0.0
 20
0.0
 30
0.0
  0
INSERT
  5
AB
330
1F
100
AcDbEntity
  8
_U+30EC_U+30A4_U+30E4_U+30FC 1
100
AcDbBlockReference
  2
block 7
 10
0.0
 20
0.0
 30
0.0
  0
POLYLINE
  5
BC
330
1F
100
AcDbEntity
  8
_U+30EC_U+30A4_U+30E4_U+30FC 1
 62
   179
420
  2234388
370
     9
100
AcDb2dPolyline
 66
     1
 10
0.0
 20
0.0
 30
0.0
  0
VERTEX
  5
BD
330
BC
100
AcDbEntity
  8
_U+30EC_U+30A4_U+30E4_U+30FC 1
 62
   179
420
  2234388
370
     9
100
AcDbVertex
100
AcDb2dVertex
 10
102.2766277522085
 20
-134.5678241330249
 30
0.0
  0
VERTEX
  5
BE
330
BC
100
AcDbEntity
  8
_U+30EC_U+30A4_U+30E4_U+30FC 1
 62
   179
420
  2234388
370
     9
100
AcDbVertex
100
AcDb2dVertex
 10
104.7371089946004
 20
-134.5678241330249
 30
0.0
  0
SEQEND
  5
BF
330
BC
100
AcDbEntity
  8
_U+30EC_U+30A4_U+30E4_U+30FC 1
 62
   179
420
  2234388
370
     9
  0
ENDSEC
  0
SECTION
  2
OBJECTS
  0
DICTIONARY
  5
C
330
0
100
AcDbDictionary
281
     1
  3
ACAD_GROUP
350
D
  3
ACAD_LAYOUT
350
1A
  3
ACAD_MATERIAL
350
3B
  3
ACAD_MLEADERSTYLE
350
C1
  3
ACAD_MLINESTYLE
350
17
  3
ACAD_PLOTSETTINGS
350
19
  3
ACAD_PLOTSTYLENAME
350
E
  3
ACAD_TABLESTYLE
350
C0
  3
ACAD_VISUALSTYLE
350
2A
  0
SUN
  5
3F
330
29
100
AcDbSun
 90
        1
290
     0
 63
     7
421
 16777215
 40
1.0
291
     1
 91
  2455826
 92
 54000000
292
     0
 70
     2
 71
   256
280
     1
  0
DICTIONARY
  5
D
102
{ACAD_REACTORS
330
C
102
}
330
C
100
AcDbDictionary
281
     1
  0
DICTIONARY
  5
1A
102
{ACAD_REACTORS
330
C
102
}
330
C
100
AcDbDictionary
281
     1
  3
Layout1
350
1E
  3
Layout2
350
26
  3
Model
350
22
  0
DICTIONARY
  5
3B
102
{ACAD_REACTORS
330
C
102
}
330
C
100
AcDbDictionary
281
     1
  3
ByBlock
350
3D
  3
ByLayer
350
3C
  3
Global
350
3E
  0
DICTIONARY
  5
C1
102
{ACAD_REACTORS
330
C
102
}
330
C
100
AcDbDictionary
281
     1
  0
DICTIONARY
  5
17
102
{ACAD_REACTORS
330
C
102
}
330
C
100
AcDbDictionary
281
     1
  3
Standard
350
18
  0
DICTIONARY
  5
19
102
{ACAD_REACTORS
330
C
102
}
330
C
100
AcDbDictionary
281
     1
  0
ACDBDICTIONARYWDFLT
  5
E
102
{ACAD_REACTORS
330
C
102
}
330
C
100
AcDbDictionary
281
     1
  3
Normal
350
F
100
AcDbDictionaryWithDefault
340
F
  0
DICTIONARY
  5
C0
102
{ACAD_REACTORS
330
C
102
}
330
C
100
AcDbDictionary
281
     1
  0
DICTIONARY
  5
2A
102
{ACAD_REACTORS
330
C
102
}
330
C
100
AcDbDictionary
281
     1
  3
2dWireframe
350
2F
  3
3D Hidden
350
31
  3
3dWireframe
350
30
  3
Basic
350
32
  3
Brighten
350
36
  3
ColorChange
350
3A
  3
Conceptual
350
34
  3
Dim
350
35
  3
Facepattern
350
39
  3
Flat
350
2B
  3
FlatWithEdges
350
2C
  3
Gouraud
350
2D
  3
GouraudWithEdges
350
2E
  3
Linepattern
350
38
  3
Realistic
350
33
  3
Thicken
350
37
  0
LAYOUT
  5
1E
102
{ACAD_REACTORS
330
1A
102
}
330
1A
100
AcDbPlotSettings
  1

  2
none_device
  4

  6

 40
0.0
 41
0.0
 42
0.0
 43
0.0
 44
0.0
 45
0.0
 46
0.0
 47
0.0
 48
0.0
 49
0.0
140
0.0
141
0.0
142
1.0
143
1.0
 70
   688
 72
     0
 73
     0
 74
     5
  7

 75
    16
 76
     0
 77
     2
 78
   300
147
1.0
148
0.0
149
0.0
100
AcDbLayout
  1
Layout1
 70
     1
 71
     1
 10
0.0
 20
0.0
 11
12.0
 21
9.0
 12
0.0
 22
0.0
 32
0.0
 14
1.000000000000000E+20
 24
1.000000000000000E+20
 34
1.000000000000000E+20
 15
-1.000000000000000E+20
 25
-1.000000000000000E+20
 35
-1.000000000000000E+20
146
0.0
 13
0.0
 23
0.0
 33
0.0
 16
1.0
 26
0.0
 36
0.0
 17
0.0
 27
1.0
 37
0.0
 76
     0
330
1B
  0
LAYOUT
  5
26
102
{ACAD_REACTORS
330
1A
102
}
330
1A
100
AcDbPlotSettings
  1

  2
none_device
  4

  6

 40
0.0
 41
0.0
 42
0.0
 43
0.0
 44
0.0
 45
0.0
 46
0.0
 47
0.0
 48
0.0
 49
0.0
140
0.0
141
0.0
142
1.0
143
1.0
 70
   688
 72
     0
 73
     0
 74
     5
  7

 75
    16
 76
     0
 77
     2
 78
   300
147
1.0
148
0.0
149
0.0
100
AcDbLayout
  1
Layout2
 70
     1
 71
     2
 10
0.0
 20
0.0
 11
0.0
 21
0.0
 12
0.0
 22
0.0
 32
0.0
 14
0.0
 24
0.0
 34
0.0
 15
0.0
 25
0.0
 35
0.0
146
0.0
 13
0.0
 23
0.0
 33
0.0
 16
1.0
 26
0.0
 36
0.0
 17
0.0
 27
1.0
 37
0.0
 76
     0
330
23
  0
LAYOUT
  5
22
102
{ACAD_REACTORS
330
1A
102
}
330
1A
100
AcDbPlotSettings
  1

  2
none_device
  4

  6

 40
0.0
 41
0.0
 42
0.0
 43
0.0
 44
0.0
 45
0.0
 46
0.0
 47
0.0
 48
0.0
 49
0.0
140
0.0
141
0.0
142
1.0
143
1.0
 70
  1712
 72
     0
 73
     0
 74
     0
  7

 75
     0
 76
     0
 77
     2
 78
   300
147
1.0
148
0.0
149
0.0
100
AcDbLayout
  1
Model
 70
     1
 71
     0
 10
0.0
 20
0.0
 11
12.0
 21
9.0
 12
0.0
 22
0.0
 32
0.0
 14
1.000000000000000E+20
 24
1.000000000000000E+20
 34
1.000000000000000E+20
 15
-1.000000000000000E+20
 25
-1.000000000000000E+20
 35
-1.000000000000000E+20
146
0.0
 13
0.0
 23
0.0
 33
0.0
 16
1.0
 26
0.0
 36
0.0
 17
0.0
 27
1.0
 37
0.0
 76
     0
330
1F
331
29
  0
MATERIAL
  5
3D
102
{ACAD_REACTORS
330
3B
102
}
330
3B
100
AcDbMaterial
  1
ByBlock
 72
     1
 94
      127
  0
MATERIAL
  5
3C
102
{ACAD_REACTORS
330
3B
102
}
330
3B
100
AcDbMaterial
  1
ByLayer
 72
     1
 94
      127
  0
MATERIAL
  5
3E
102
{ACAD_REACTORS
330
3B
102
}
330
3B
100
AcDbMaterial
  1
Global
 72
     1
 94
      127
  0
MLINESTYLE
  5
18
102
{ACAD_REACTORS
330
17
102
}
330
17
100
AcDbMlineStyle
  2
Standard
 70
     0
  3

 62
   256
 51
90.0
 52
90.0
 71
     2
 49
0.5
 62
   256
  6
BYLAYER
 49
-0.5
 62
   256
  6
BYLAYER
  0
ACDBPLACEHOLDER
  5
F
102
{ACAD_REACTORS
330
E
102
}
330
E
  0
VISUALSTYLE
  5
2F
102
{ACAD_REACTORS
330
2A
102
}
330
2A
100
AcDbVisualStyle
  2
2dWireframe
 70
     4
177
     2
291
     0
 71
     0
176
     1
 72
     2
176
     1
 73
     0
176
     1
 90
        0
176
     1
 40
-0.6
176
     1
 41
-30.0
176
     1
 62
     5
 63
     7
421
 16777215
176
     1
 74
     1
176
     1
 91
        4
176
     1
 64
     7
176
     1
 65
   257
176
     1
 75
     1
176
     1
175
     1
176
     1
 42
1.0
176
     1
 92
        0
176
     1
 66
   257
176
     1
 43
1.0
176
     1
 76
     1
176
     1
 77
     6
176
     1
 78
     2
176
     1
 67
     7
176
     1
 79
     5
176
     1
170
     0
176
     1
171
     0
176
     1
290
     0
176
     1
 93
        1
176
     1
 44
0.0
176
     1
173
     0
176
     1
  0
VISUALSTYLE
  5
31
102
{ACAD_REACTORS
330
2A
102
}
330
2A
100
AcDbVisualStyle
  2
3D Hidden
 70
     6
177
     2
291
     0
 71
     1
176
     1
 72
     2
176
     1
 73
     2
176
     1
 90
        0
176
     1
 40
-0.6
176
     1
 41
-30.0
176
     1
 62
     5
 63
     7
421
 16777215
176
     1
 74
     2
176
     1
 91
        2
176
     1
 64
     7
176
     1
 65
   257
176
     1
 75
     2
176
     1
175
     1
176
     1
 42
40.0
176
     1
 92
        0
176
     1
 66
   257
176
     1
 43
1.0
176
     1
 76
     1
176
     1
 77
     6
176
     1
 78
     2
176
     1
 67
     7
176
     1
 79
     3
176
     1
170
     0
176
     1
171
     0
176
     1
290
     0
176
     1
 93
        1
176
     1
 44
0.0
176
     1
173
     0
176
     1
  0
VISUALSTYLE
  5
30
102
{ACAD_REACTORS
330
2A
102
}
330
2A
100
AcDbVisualStyle
  2
3dWireframe
 70
     5
177
     2
291
     0
 71
     0
176
     1
 72
     2
176
     1
 73
     0
176
     1
 90
        0
176
     1
 40
-0.6
176
     1
 41
-30.0
176
     1
 62
     5
 63
     7
421
 16777215
176
     1
 74
     1
176
     1
 91
        4
176
     1
 64
     7
176
     1
 65
   257
176
     1
 75
     1
176
     1
175
     1
176
     1
 42
1.0
176
     1
 92
        0
176
     1
 66
   257
176
     1
 43
1.0
176
     1
 76
     1
176
     1
 77
     6
176
     1
 78
     2
176
     1
 67
     7
176
     1
 79
     5
176
     1
170
     0
176
     1
171
     0
176
     1
290
     0
176
     1
 93
        1
176
     1
 44
0.0
176
     1
173
     0
176
     1
  0
VISUALSTYLE
  5
32
102
{ACAD_REACTORS
330
2A
102
}
330
2A
100
AcDbVisualStyle
  2
Basic
 70
     7
177
     2
291
     1
 71
     1
176
     1
 72
     0
176
     1
 73
     1
176
     1
 90
        0
176
     1
 40
-0.6
176
     1
 41
-30.0
176
     1
 62
     5
 63
     7
421
 16777215
176
     1
 74
     0
176
     1
 91
        4
176
     1
 64
     7
176
     1
 65
   257
176
     1
 75
     1
176
     1
175
     1
176
     1
 42
1.0
176
     1
 92
        8
176
     1
 66
     7
176
     1
 43
1.0
176
     1
 76
     1
176
     1
 77
     6
176
     1
 78
     2
176
     1
 67
     7
176
     1
 79
     5
176
     1
170
     0
176
     1
171
     0
176
     1
290
     0
176
     1
 93
        1
176
     1
 44
0.0
176
     1
173
     0
176
     1
  0
VISUALSTYLE
  5
36
102
{ACAD_REACTORS
330
2A
102
}
330
2A
100
AcDbVisualStyle
  2
Brighten
 70
    12
177
     2
291
     1
 71
     2
176
     1
 72
     2
176
     1
 73
     0
176
     1
 90
        0
176
     1
 40
-0.6
176
     1
 41
-30.0
176
     1
 62
     5
 63
     7
421
 16777215
176
     1
 74
     1
176
     1
 91
        4
176
     1
 64
     7
176
     1
 65
   257
176
     1
 75
     1
176
     1
175
     1
176
     1
 42
1.0
176
     1
 92
        8
176
     1
 66
     7
176
     1
 43
1.0
176
     1
 76
     1
176
     1
 77
     6
176
     1
 78
     2
176
     1
 67
     7
176
     1
 79
     5
176
     1
170
     0
176
     1
171
     0
176
     1
290
     0
176
     1
 93
        1
176
     1
 44
50.0
176
     1
173
     0
176
     1
  0
VISUALSTYLE
  5
3A
102
{ACAD_REACTORS
330
2A
102
}
330
2A
100
AcDbVisualStyle
  2
ColorChange
 70
    16
177
     2
291
     1
 71
     2
176
     1
 72
     2
176
     1
 73
     3
176
     1
 90
        0
176
     1
 40
-0.6
176
     1
 41
-30.0
176
     1
 62
     5
 63
     8
421
  8421504
176
     1
 74
     1
176
     1
 91
        4
176
     1
 64
     7
176
     1
 65
   257
176
     1
 75
     1
176
     1
175
     1
176
     1
 42
1.0
176
     1
 92
        8
176
     1
 66
     8
424
  8421504
176
     1
 43
1.0
176
     1
 76
     1
176
     1
 77
     6
176
     1
 78
     2
176
     1
 67
     7
176
     1
 79
     5
176
     1
170
     0
176
     1
171
     0
176
     1
290
     0
176
     1
 93
        1
176
     1
 44
0.0
176
     1
173
     0
176
     1
  0
VISUALSTYLE
  5
34
102
{ACAD_REACTORS
330
2A
102
}
330
2A
100
AcDbVisualStyle
  2
Conceptual
 70
     9
177
     2
291
     0
 71
     3
176
     1
 72
     2
176
     1
 73
     0
176
     1
 90
        0
176
     1
 40
-0.6
176
     1
 41
-30.0
176
     1
 62
     5
 63
     7
421
 16777215
176
     1
 74
     2
176
     1
 91
        2
176
     1
 64
     7
176
     1
 65
   257
176
     1
 75
     1
176
     1
175
     1
176
     1
 42
40.0
176
     1
 92
        8
176
     1
 66
     7
176
     1
 43
1.0
176
     1
 76
     1
176
     1
 77
     6
176
     1
 78
     2
176
     1
 67
     7
176
     1
 79
     3
176
     1
170
     0
176
     1
171
     0
176
     1
290
     0
176
     1
 93
        1
176
     1
 44
0.0
176
     1
173
     0
176
     1
  0
VISUALSTYLE
  5
35
102
{ACAD_REACTORS
330
2A
102
}
330
2A
100
AcDbVisualStyle
  2
Dim
 70
    11
177
     2
291
     1
 71
     2
176
     1
 72
     2
176
     1
 73
     0
176
     1
 90
        0
176
     1
 40
-0.6
176
     1
 41
-30.0
176
     1
 62
     5
 63
     7
421
 16777215
176
     1
 74
     1
176
     1
 91
        4
176
     1
 64
     7
176
     1
 65
   257
176
     1
 75
     1
176
     1
175
     1
176
     1
 42
1.0
176
     1
 92
        8
176
     1
 66
     7
176
     1
 43
1.0
176
     1
 76
     1
176
     1
 77
     6
176
     1
 78
     2
176
     1
 67
     7
176
     1
 79
     5
176
     1
170
     0
176
     1
171
     0
176
     1
290
     0
176
     1
 93
        1
176
     1
 44
-50.0
176
     1
173
     0
176
     1
  0
VISUALSTYLE
  5
39
102
{ACAD_REACTORS
330
2A
102
}
330
2A
100
AcDbVisualStyle
  2
Facepattern
 70
    15
177
     2
291
     1
 71
     2
176
     1
 72
     2
176
     1
 73
     0
176
     1
 90
        0
176
     1
 40
-0.6
176
     1
 41
-30.0
176
     1
 62
     5
 63
     7
421
 16777215
176
     1
 74
     1
176
     1
 91
        4
176
     1
 64
     7
176
     1
 65
   257
176
     1
 75
     1
176
     1
175
     1
176
     1
 42
1.0
176
     1
 92
        8
176
     1
 66
     7
176
     1
 43
1.0
176
     1
 76
     1
176
     1
 77
     6
176
     1
 78
     2
176
     1
 67
     7
176
     1
 79
     5
176
     1
170
     0
176
     1
171
     0
176
     1
290
     0
176
     1
 93
        1
176
     1
 44
0.0
176
     1
173
     0
176
     1
  0
VISUALSTYLE
  5
2B
102
{ACAD_REACTORS
330
2A
102
}
330
2A
100
AcDbVisualStyle
  2
Flat
 70
     0
177
     2
291
     1
 71
     2
176
     1
 72
     1
176
     1
 73
     1
176
     1
 90
        2
176
     1
 40
-0.6
176
     1
 41
30.0
176
     1
 62
     5
 63
     7
421
 16777215
176
     1
 74
     0
176
     1
 91
        4
176
     1
 64
     7
176
     1
 65
   257
176
     1
 75
     1
176
     1
175
     1
176
     1
 42
1.0
176
     1
 92
        8
176
     1
 66
     7
176
     1
 43
1.0
176
     1
 76
     1
176
     1
 77
     6
176
     1
 78
     2
176
     1
 67
     7
176
     1
 79
     5
176
     1
170
     0
176
     1
171
     0
176
     1
290
     0
176
     1
 93
       13
176
     1
 44
0.0
176
     1
173
     0
176
     1
  0
VISUALSTYLE
  5
2C
102
{ACAD_REACTORS
330
2A
102
}
330
2A
100
AcDbVisualStyle
  2
FlatWithEdges
 70
     1
177
     2
291
     1
 71
     2
176
     1
 72
     1
176
     1
 73
     1
176
     1
 90
        2
176
     1
 40
-0.6
176
     1
 41
30.0
176
     1
 62
     5
 63
     7
421
 16777215
176
     1
 74
     1
176
     1
 91
        4
176
     1
 64
     7
176
     1
 65
   257
176
     1
 75
     1
176
     1
175
     1
176
     1
 42
1.0
176
     1
 92
        0
176
     1
 66
   257
176
     1
 43
1.0
176
     1
 76
     1
176
     1
 77
     6
176
     1
 78
     2
176
     1
 67
     7
176
     1
 79
     5
176
     1
170
     0
176
     1
171
     0
176
     1
290
     0
176
     1
 93
       13
176
     1
 44
0.0
176
     1
173
     0
176
     1
  0
VISUALSTYLE
  5
2D
102
{ACAD_REACTORS
330
2A
102
}
330
2A
100
AcDbVisualStyle
  2
Gouraud
 70
     2
177
     2
291
     1
 71
     2
176
     1
 72
     2
176
     1
 73
     1
176
     1
 90
        2
176
     1
 40
-0.6
176
     1
 41
30.0
176
     1
 62
     5
 63
     7
421
 16777215
176
     1
 74
     0
176
     1
 91
        4
176
     1
 64
     7
176
     1
 65
   257
176
     1
 75
     1
176
     1
175
     1
176
     1
 42
1.0
176
     1
 92
        0
176
     1
 66
     7
176
     1
 43
1.0
176
     1
 76
     1
176
     1
 77
     6
176
     1
 78
     2
176
     1
 67
     7
176
     1
 79
     5
176
     1
170
     0
176
     1
171
     0
176
     1
290
     0
176
     1
 93
       13
176
     1
 44
0.0
176
     1
173
     0
176
     1
  0
VISUALSTYLE
  5
2E
102
{ACAD_REACTORS
330
2A
102
}
330
2A
100
AcDbVisualStyle
  2
GouraudWithEdges
 70
     3
177
     2
291
     1
 71
     2
176
     1
 72
     2
176
     1
 73
     1
176
     1
 90
        2
176
     1
 40
-0.6
176
     1
 41
30.0
176
     1
 62
     5
 63
     7
421
 16777215
176
     1
 74
     1
176
     1
 91
        4
176
     1
 64
     7
176
     1
 65
   257
176
     1
 75
     1
176
     1
175
     1
176
     1
 42
1.0
176
     1
 92
        0
176
     1
 66
   257
176
     1
 43
1.0
176
     1
 76
     1
176
     1
 77
     6
176
     1
 78
     2
176
     1
 67
     7
176
     1
 79
     5
176
     1
170
     0
176
     1
171
     0
176
     1
290
     0
176
     1
 93
       13
176
     1
 44
0.0
176
     1
173
     0
176
     1
  0
VISUALSTYLE
  5
38
102
{ACAD_REACTORS
330
2A
102
}
330
2A
100
AcDbVisualStyle
  2
Linepattern
 70
    14
177
     2
291
     1
 71
     2
176
     1
 72
     2
176
     1
 73
     0
176
     1
 90
        0
176
     1
 40
-0.6
176
     1
 41
-30.0
176
     1
 62
     5
 63
     7
421
 16777215
176
     1
 74
     1
176
     1
 91
        4
176
     1
 64
     7
176
     1
 65
   257
176
     1
 75
     7
176
     1
175
     7
176
     1
 42
1.0
176
     1
 92
        8
176
     1
 66
     7
176
     1
 43
1.0
176
     1
 76
     1
176
     1
 77
     6
176
     1
 78
     2
176
     1
 67
     7
176
     1
 79
     5
176
     1
170
     0
176
     1
171
     0
176
     1
290
     0
176
     1
 93
        1
176
     1
 44
0.0
176
     1
173
     0
176
     1
  0
VISUALSTYLE
  5
33
102
{ACAD_REACTORS
330
2A
102
}
330
2A
100
AcDbVisualStyle
  2
Realistic
 70
     8
177
     2
291
     0
 71
     2
176
     1
 72
     2
176
     1
 73
     0
176
     1
 90
        0
176
     1
 40
-0.6
176
     1
 41
-30.0
176
     1
 62
     5
 63
     7
421
 16777215
176
     1
 74
     1
176
     1
 91
        0
176
     1
 64
     7
176
     1
 65
   257
176
     1
 75
     1
176
     1
175
     1
176
     1
 42
1.0
176
     1
 92
        8
176
     1
 66
     8
424
  7895160
176
     1
 43
1.0
176
     1
 76
     1
176
     1
 77
     6
176
     1
 78
     2
176
     1
 67
     7
176
     1
 79
     5
176
     1
170
     0
176
     1
171
     0
176
     1
290
     0
176
     1
 93
       13
176
     1
 44
0.0
176
     1
173
     0
176
     1
  0
VISUALSTYLE
  5
37
102
{ACAD_REACTORS
330
2A
102
}
330
2A
100
AcDbVisualStyle
  2
Thicken
 70
    13
177
     2
291
     1
 71
     2
176
     1
 72
     2
176
     1
 73
     0
176
     1
 90
        0
176
     1
 40
-0.6
176
     1
 41
-30.0
176
     1
 62
     5
 63
     7
421
 16777215
176
     1
 74
     1
176
     1
 91
        4
176
     1
 64
     7
176
     1
 65
   257
176
     1
 75
     1
176
     1
175
     1
176
     1
 42
1.0
176
     1
 92
       12
176
     1
 66
     7
176
     1
 43
1.0
176
     1
 76
     1
176
     1
 77
     6
176
     1
 78
     2
176
     1
 67
     7
176
     1
 79
     5
176
     1
170
     0
176
     1
171
     0
176
     1
290
     0
176
     1
 93
        1
176
     1
 44
0.0
176
     1
173
     0
176
     1
  0
ENDSEC
  0
EOF
