  0
SECTION
  2
HEADER
  9
$ACADVER
  1
AC1024
  9
$ACADMAINTVER
 70
     6
  9
$DWGCODEPAGE
  3
UNDEFINED
  9
$INSBASE
 10
0.0
 20
0.0
 30
0.0
  9
$EXTMIN
 10
1.000000000000000E+20
 20
1.000000000000000E+20
 30
1.000000000000000E+20
  9
$EXTMAX
 10
-1.000000000000000E+20
 20
-1.000000000000000E+20
 30
-1.000000000000000E+20
  9
$LIMMIN
 10
0.0
 20
0.0
  9
$LIMMAX
 10
12.0
 20
9.0
  9
$ORTHOMODE
 70
     0
  9
$REGENMODE
 70
     1
  9
$FILLMODE
 70
     1
  9
$QTEXTMODE
 70
     0
  9
$MIRRTEXT
 70
     1
  9
$LTSCALE
 40
1.0
  9
$ATTMODE
 70
     1
  9
$TEXTSIZE
 40
0.2
  9
$TRACEWID
 40
0.05
  9
$TEXTSTYLE
  7
Standard
  9
$CLAYER
  8
0
  9
$CELTYPE
  6
ByLayer
  9
$CECOLOR
 62
   256
  9
$CELTSCALE
 40
1.0
  9
$DISPSILH
 70
     0
  9
$DIMSCALE
 40
1.0
  9
$DIMASZ
 40
0.18
  9
$DIMEXO
 40
0.0625
  9
$DIMDLI
 40
0.38
  9
$DIMRND
 40
0.0
  9
$DIMDLE
 40
0.0
  9
$DIMEXE
 40
0.18
  9
$DIMTP
 40
0.0
  9
$DIMTM
 40
0.0
  9
$DIMTXT
 40
0.18
  9
$DIMCEN
 40
0.09
  9
$DIMTSZ
 40
0.0
  9
$DIMTOL
 70
     0
  9
$DIMLIM
 70
     0
  9
$DIMTIH
 70
     1
  9
$DIMTOH
 70
     1
  9
$DIMSE1
 70
     0
  9
$DIMSE2
 70
     0
  9
$DIMTAD
 70
     0
  9
$DIMZIN
 70
     0
  9
$DIMBLK
  1

  9
$DIMASO
 70
     1
  9
$DIMSHO
 70
     1
  9
$DIMPOST
  1

  9
$DIMAPOST
  1

  9
$DIMALT
 70
     0
  9
$DIMALTD
 70
     2
  9
$DIMALTF
 40
25.4
  9
$DIMLFAC
 40
1.0
  9
$DIMTOFL
 70
     0
  9
$DIMTVP
 40
0.0
  9
$DIMTIX
 70
     0
  9
$DIMSOXD
 70
     0
  9
$DIMSAH
 70
     0
  9
$DIMBLK1
  1

  9
$DIMBLK2
  1

  9
$DIMSTYLE
  2
Standard
  9
$DIMCLRD
 70
     0
  9
$DIMCLRE
 70
     0
  9
$DIMCLRT
 70
     0
  9
$DIMTFAC
 40
1.0
  9
$DIMGAP
 40
0.09
  9
$DIMJUST
 70
     0
  9
$DIMSD1
 70
     0
  9
$DIMSD2
 70
     0
  9
$DIMTOLJ
 70
     1
  9
$DIMTZIN
 70
     0
  9
$DIMALTZ
 70
     0
  9
$DIMALTTZ
 70
     0
  9
$DIMUPT
 70
     0
  9
$DIMDEC
 70
     4
  9
$DIMTDEC
 70
     4
  9
$DIMALTU
 70
     2
  9
$DIMALTTD
 70
     2
  9
$DIMTXSTY
  7
Standard
  9
$DIMAUNIT
 70
     0
  9
$DIMADEC
 70
     0
  9
$DIMALTRND
 40
0.0
  9
$DIMAZIN
 70
     0
  9
$DIMDSEP
 70
    46
  9
$DIMATFIT
 70
     3
  9
$DIMFRAC
 70
     0
  9
$DIMLDRBLK
  1

  9
$DIMLUNIT
 70
     2
  9
$DIMLWD
 70
    -2
  9
$DIMLWE
 70
    -2
  9
$DIMTMOVE
 70
     0
  9
$DIMFXL
 40
1.0
  9
$DIMFXLON
 70
     0
  9
$DIMJOGANG
 40
0.7853981633974483
  9
$DIMTFILL
 70
     0
  9
$DIMTFILLCLR
 70
     0
  9
$DIMARCSYM
 70
     0
  9
$DIMLTYPE
  6

  9
$DIMLTEX1
  6

  9
$DIMLTEX2
  6

  9
$DIMTXTDIRECTION
 70
     0
  9
$LUNITS
 70
     2
  9
$LUPREC
 70
     4
  9
$SKETCHINC
 40
0.1
  9
$FILLETRAD
 40
0.5
  9
$AUNITS
 70
     0
  9
$AUPREC
 70
     0
  9
$MENU
  1
.
  9
$ELEVATION
 40
0.0
  9
$PELEVATION
 40
0.0
  9
$THICKNESS
 40
0.0
  9
$LIMCHECK
 70
     0
  9
$CHAMFERA
 40
0.5
  9
$CHAMFERB
 40
0.5
  9
$CHAMFERC
 40
1.0
  9
$CHAMFERD
 40
0.0
  9
$SKPOLY
 70
     0
  9
$TDCREATE
 40
2457917.624178229
  9
$TDUCREATE
 40
2457917.249178241
  9
$TDUPDATE
 40
2457917.624178229
  9
$TDUUPDATE
 40
2457917.249178241
  9
$TDINDWG
 40
0.0000000116
  9
$TDUSRTIMER
 40
0.0000000116
  9
$USRTIMER
 70
     1
  9
$ANGBASE
 50
0.0
  9
$ANGDIR
 70
     0
  9
$PDMODE
 70
     0
  9
$PDSIZE
 40
0.0
  9
$PLINEWID
 40
0.0
  9
$SPLFRAME
 70
     0
  9
$SPLINETYPE
 70
     6
  9
$SPLINESEGS
 70
     8
  9
$HANDSEED
  5
B8
  9
$SURFTAB1
 70
     6
  9
$SURFTAB2
 70
     6
  9
$SURFTYPE
 70
     6
  9
$SURFU
 70
     6
  9
$SURFV
 70
     6
  9
$UCSBASE
  2

  9
$UCSNAME
  2

  9
$UCSORG
 10
0.0
 20
0.0
 30
0.0
  9
$UCSXDIR
 10
1.0
 20
0.0
 30
0.0
  9
$UCSYDIR
 10
0.0
 20
1.0
 30
0.0
  9
$UCSORTHOREF
  2

  9
$UCSORTHOVIEW
 70
     0
  9
$UCSORGTOP
 10
0.0
 20
0.0
 30
0.0
  9
$UCSORGBOTTOM
 10
0.0
 20
0.0
 30
0.0
  9
$UCSORGLEFT
 10
0.0
 20
0.0
 30
0.0
  9
$UCSORGRIGHT
 10
0.0
 20
0.0
 30
0.0
  9
$UCSORGFRONT
 10
0.0
 20
0.0
 30
0.0
  9
$UCSORGBACK
 10
0.0
 20
0.0
 30
0.0
  9
$PUCSBASE
  2

  9
$PUCSNAME
  2

  9
$PUCSORG
 10
0.0
 20
0.0
 30
0.0
  9
$PUCSXDIR
 10
1.0
 20
0.0
 30
0.0
  9
$PUCSYDIR
 10
0.0
 20
1.0
 30
0.0
  9
$PUCSORTHOREF
  2

  9
$PUCSORTHOVIEW
 70
     0
  9
$PUCSORGTOP
 10
0.0
 20
0.0
 30
0.0
  9
$PUCSORGBOTTOM
 10
0.0
 20
0.0
 30
0.0
  9
$PUCSORGLEFT
 10
0.0
 20
0.0
 30
0.0
  9
$PUCSORGRIGHT
 10
0.0
 20
0.0
 30
0.0
  9
$PUCSORGFRONT
 10
0.0
 20
0.0
 30
0.0
  9
$PUCSORGBACK
 10
0.0
 20
0.0
 30
0.0
  9
$USERI1
 70
     0
  9
$USERI2
 70
     0
  9
$USERI3
 70
     0
  9
$USERI4
 70
     0
  9
$USERI5
 70
     0
  9
$USERR1
 40
0.0
  9
$USERR2
 40
0.0
  9
$USERR3
 40
0.0
  9
$USERR4
 40
0.0
  9
$USERR5
 40
0.0
  9
$WORLDVIEW
 70
     1
  9
$SHADEDGE
 70
     3
  9
$SHADEDIF
 70
    70
  9
$TILEMODE
 70
     1
  9
$MAXACTVP
 70
    64
  9
$PINSBASE
 10
0.0
 20
0.0
 30
0.0
  9
$PLIMCHECK
 70
     0
  9
$PEXTMIN
 10
1.000000000000000E+20
 20
1.000000000000000E+20
 30
1.000000000000000E+20
  9
$PEXTMAX
 10
-1.000000000000000E+20
 20
-1.000000000000000E+20
 30
-1.000000000000000E+20
  9
$PLIMMIN
 10
0.0
 20
0.0
  9
$PLIMMAX
 10
12.0
 20
9.0
  9
$UNITMODE
 70
     0
  9
$VISRETAIN
 70
     1
  9
$PLINEGEN
 70
     0
  9
$PSLTSCALE
 70
     1
  9
$TREEDEPTH
 70
  3020
  9
$CMLSTYLE
  2
Standard
  9
$CMLJUST
 70
     0
  9
$CMLSCALE
 40
1.0
  9
$PROXYGRAPHICS
 70
     1
  9
$MEASUREMENT
 70
     0
  9
$CELWEIGHT
370
    -1
  9
$ENDCAPS
280
     0
  9
$JOINSTYLE
280
     0
  9
$LWDISPLAY
290
     1
  9
$INSUNITS
 70
     1
  9
$HYPERLINKBASE
  1

  9
$STYLESHEET
  1

  9
$XEDIT
290
     1
  9
$CEPSNTYPE
380
     0
  9
$PSTYLEMODE
290
     1
  9
$FINGERPRINTGUID
  2
{2CBFCCF1-C40A-0FBE-9AFB-E8BFF1C0DA9D}
  9
$VERSIONGUID
  2
{FAEB1C32-E019-11D5-929B-00C0DF256EC4}
  9
$EXTNAMES
290
     1
  9
$PSVPSCALE
 40
0.0
  9
$OLESTARTUP
290
     0
  9
$SORTENTS
280
   127
  9
$INDEXCTL
280
     0
  9
$HIDETEXT
280
     1
  9
$XCLIPFRAME
280
     2
  9
$HALOGAP
280
     0
  9
$OBSCOLOR
 70
   257
  9
$OBSLTYPE
280
     0
  9
$INTERSECTIONDISPLAY
280
     0
  9
$INTERSECTIONCOLOR
 70
   257
  9
$DIMASSOC
280
     2
  9
$PROJECTNAME
  1

  9
$CAMERADISPLAY
290
     0
  9
$LENSLENGTH
 40
50.0
  9
$CAMERAHEIGHT
 40
0.0
  9
$STEPSPERSEC
 40
2.0
  9
$STEPSIZE
 40
6.0
  9
$3DDWFPREC
 40
2.0
  9
$PSOLWIDTH
 40
0.25
  9
$PSOLHEIGHT
 40
4.0
  9
$LOFTANG1
 40
1.570796326794897
  9
$LOFTANG2
 40
1.570796326794897
  9
$LOFTMAG1
 40
0.0
  9
$LOFTMAG2
 40
0.0
  9
$LOFTPARAM
 70
     7
  9
$LOFTNORMALS
280
     1
  9
$LATITUDE
 40
37.795
  9
$LONGITUDE
 40
-122.394
  9
$NORTHDIRECTION
 40
0.0
  9
$TIMEZONE
 70
 -8000
  9
$LIGHTGLYPHDISPLAY
280
     1
  9
$TILEMODELIGHTSYNCH
280
     1
  9
$CMATERIAL
347
3C
  9
$SOLIDHIST
280
     1
  9
$SHOWHIST
280
     1
  9
$DWFFRAME
280
     2
  9
$DGNFRAME
280
     2
  9
$REALWORLDSCALE
290
     1
  9
$INTERFERECOLOR
 62
   256
  9
$CSHADOW
280
     0
  9
$SHADOWPLANELOCATION
 40
0.0
  0
ENDSEC
  0
SECTION
  2
CLASSES
  0
CLASS
  1
ACDBDICTIONARYWDFLT
  2
AcDbDictionaryWithDefault
  3
ObjectDBX Classes
 90
        0
 91
        4
280
     0
281
     0
  0
CLASS
  1
VISUALSTYLE
  2
AcDbVisualStyle
  3
ObjectDBX Classes
 90
     4095
 91
        4
280
     0
281
     0
  0
CLASS
  1
MATERIAL
  2
AcDbMaterial
  3
ObjectDBX Classes
 90
     1153
 91
        4
280
     0
281
     0
  0
CLASS
  1
SUN
  2
AcDbSun
  3
SCENEOE
 90
     1024
 91
        4
280
     0
281
     0
  0
ENDSEC
  0
SECTION
  2
TABLES
  0
TABLE
  2
VPORT
  5
8
330
0
100
AcDbSymbolTable
 70
     1
  0
VPORT
  5
29
330
8
100
AcDbSymbolTableRecord
100
AcDbViewportTableRecord
  2
*Active
 70
     0
 10
0.0
 20
0.0
 11
1.0
 21
1.0
 12
0.0
 22
0.0
 13
0.0
 23
0.0
 14
0.5
 24
0.5
 15
0.5
 25
0.5
 16
0.0
 26
0.0
 36
1.0
 17
91.00082462281999
 27
-128.4993055234307
 37
0.0
 40
256.9986110468615
 41
0.7081814508812795
 42
50.0
 43
0.0
 44
0.0
 50
0.0
 51
0.0
 71
     0
 72
   100
 73
     1
 74
     3
 75
     0
 76
     0
 77
     0
 78
     0
281
     0
 65
     1
110
0.0
120
0.0
130
0.0
111
1.0
121
0.0
131
0.0
112
0.0
122
1.0
132
0.0
 79
     0
146
0.0
 60
     3
 61
     5
292
     1
282
     1
141
0.0
142
0.0
 63
   250
361
3F
  0
ENDTAB
  0
TABLE
  2
LTYPE
  5
5
330
0
100
AcDbSymbolTable
 70
     1
  0
LTYPE
  5
14
330
5
100
AcDbSymbolTableRecord
100
AcDbLinetypeTableRecord
  2
ByBlock
 70
     0
  3

 72
    65
 73
     0
 40
0.0
  0
LTYPE
  5
15
330
5
100
AcDbSymbolTableRecord
100
AcDbLinetypeTableRecord
  2
ByLayer
 70
     0
  3

 72
    65
 73
     0
 40
0.0
  0
LTYPE
  5
16
330
5
100
AcDbSymbolTableRecord
100
AcDbLinetypeTableRecord
  2
Continuous
 70
     0
  3
Solid line
 72
    65
 73
     0
 40
0.0
  0
ENDTAB
  0
TABLE
  2
LAYER
  5
2
330
0
100
AcDbSymbolTable
 70
     2
  0
LAYER
  5
10
330
2
100
AcDbSymbolTableRecord
100
AcDbLayerTableRecord
  2
0
 70
     0
 62
     7
  6
Continuous
370
    -3
390
F
347
3E
  0
LAYER
  5
40
330
2
100
AcDbSymbolTableRecord
100
AcDbLayerTableRecord
  2
_U+30EC_U+30A4_U+30E4_U+30FC 1
 70
     0
 62
     7
  6
Continuous
370
    -3
390
F
347
3E
  0
ENDTAB
  0
TABLE
  2
STYLE
  5
3
330
0
100
AcDbSymbolTable
 70
     1
  0
STYLE
  5
11
330
3
100
AcDbSymbolTableRecord
100
AcDbTextStyleTableRecord
  2
Standard
 70
     0
 40
0.0
 41
1.0
 50
0.0
 71
     0
 42
0.2
  3
txt
  4

  0
ENDTAB
  0
TABLE
  2
VIEW
  5
6
330
0
100
AcDbSymbolTable
 70
     0
  0
ENDTAB
  0
TABLE
  2
UCS
  5
7
330
0
100
AcDbSymbolTable
 70
     0
  0
ENDTAB
  0
TABLE
  2
APPID
  5
9
330
0
100
AcDbSymbolTable
 70
     1
  0
APPID
  5
12
330
9
100
AcDbSymbolTableRecord
100
AcDbRegAppTableRecord
  2
ACAD
 70
     0
  0
ENDTAB
  0
TABLE
  2
DIMSTYLE
  5
A
330
0
100
AcDbSymbolTable
 70
     1
100
AcDbDimStyleTable
  0
DIMSTYLE
105
27
330
A
100
AcDbSymbolTableRecord
100
AcDbDimStyleTableRecord
  2
Standard
 70
     0
178
     0
340
11
  0
ENDTAB
  0
TABLE
  2
BLOCK_RECORD
  5
1
330
0
100
AcDbSymbolTable
 70
     7
  0
BLOCK_RECORD
  5
1F
330
1
100
AcDbSymbolTableRecord
100
AcDbBlockTableRecord
  2
*Model_Space
340
22
 70
     0
280
     1
281
     0
  0
BLOCK_RECORD
  5
1B
330
1
100
AcDbSymbolTableRecord
100
AcDbBlockTableRecord
  2
*Paper_Space
340
1E
 70
     0
280
     1
281
     0
  0
BLOCK_RECORD
  5
23
330
1
100
AcDbSymbolTableRecord
100
AcDbBlockTableRecord
  2
*Paper_Space0
340
26
 70
     0
280
     1
281
     0
  0
BLOCK_RECORD
  5
4F
330
1
100
AcDbSymbolTableRecord
100
AcDbBlockTableRecord
  2
block 2
340
0
102
{BLKREFS
331
50
102
}
 70
     0
280
     1
281
     0
  0
BLOCK_RECORD
  5
64
330
1
100
AcDbSymbolTableRecord
100
AcDbBlockTableRecord
  2
block 3
340
0
102
{BLKREFS
331
65
102
}
 70
     0
280
     1
281
     0
  0
BLOCK_RECORD
  5
82
330
1
100
AcDbSymbolTableRecord
100
AcDbBlockTableRecord
  2
block 4
340
0
102
{BLKREFS
331
83
102
}
 70
     0
280
     1
281
     0
  0
BLOCK_RECORD
  5
8A
330
1
100
AcDbSymbolTableRecord
100
AcDbBlockTableRecord
  2
block 5
340
0
102
{BLKREFS
331
8B
102
}
 70
     0
280
     1
281
     0
  0
BLOCK_RECORD
  5
A4
330
1
100
AcDbSymbolTableRecord
100
AcDbBlockTableRecord
  2
block 6
340
0
102
{BLKREFS
331
A5
102
}
 70
     0
280
     1
281
     0
  0
BLOCK_RECORD
  5
AA
330
1
100
AcDbSymbolTableRecord
100
AcDbBlockTableRecord
  2
block 7
340
0
102
{BLKREFS
331
AB
102
}
 70
     0
280
     1
281
     0
  0
ENDTAB
  0
ENDSEC
  0
SECTION
  2
BLOCKS
  0
BLOCK
  5
20
330
1F
100
AcDbEntity
  8
0
100
AcDbBlockBegin
  2
*Model_Space
 70
     0
 10
0.0
 20
0.0
 30
0.0
  3
*Model_Space
  1

  0
ENDBLK
  5
21
330
1F
100
AcDbEntity
  8
0
100
AcDbBlockEnd
  0
BLOCK
  5
1C
330
1B
100
AcDbEntity
 67
     1
  8
0
100
AcDbBlockBegin
  2
*Paper_Space
 70
     0
 10
0.0
 20
0.0
 30
0.0
  3
*Paper_Space
  1

  0
ENDBLK
  5
1D
330
1B
100
AcDbEntity
 67
     1
  8
0
100
AcDbBlockEnd
  0
BLOCK
  5
24
330
23
100
AcDbEntity
  8
0
100
AcDbBlockBegin
  2
*Paper_Space0
 70
     0
 10
0.0
 20
0.0
 30
0.0
  3
*Paper_Space0
  1

  0
ENDBLK
  5
25
330
23
100
AcDbEntity
  8
0
100
AcDbBlockEnd
  0
BLOCK
  5
51
330
4F
100
AcDbEntity
  8
0
100
AcDbBlockBegin
  2
block 2
 70
     0
 10
0.0
 20
0.0
 30
0.0
  3
block 2
  1

  0
SPLINE
  5
53
330
4F
100
AcDbEntity
  8
_U+30EC_U+30A4_U+30E4_U+30FC 1
370
     0
100
AcDbSpline
210
0.0
220
0.0
230
1.0
 70
    11
 71
     3
 72
    44
 73
    40
 74
     0
 42
0.0000000001
 43
0.0000000001
 12
1.0
 22
0.0
 32
0.0
 13
1.0
 23
0.0
 33
0.0
 40
0.0
 40
0.0
 40
0.0
 40
0.0
 40
1.0
 40
1.0
 40
1.0
 40
2.0
 40
2.0
 40
2.0
 40
3.0
 40
3.0
 40
3.0
 40
4.0
 40
4.0
 40
4.0
 40
5.0
 40
5.0
 40
5.0
 40
6.0
 40
6.0
 40
6.0
 40
7.0
 40
7.0
 40
7.0
 40
8.0
 40
8.0
 40
8.0
 40
9.0
 40
9.0
 40
9.0
 40
10.0
 40
10.0
 40
10.0
 40
11.0
 40
11.0
 40
11.0
 40
12.0
 40
12.0
 40
12.0
 40
13.0
 40
13.0
 40
13.0
 40
13.0
 10
105.2442219788973
 20
-135.7298719278731
 30
0.0
 10
105.2207953295976
 20
-135.6857747056619
 30
0.0
 10
105.1997802471376
 20
-135.6327202351891
 30
0.0
 10
105.1973686802979
 20
-135.4018988376773
 30
0.0
 10
105.1932345657156
 20
-135.1586750964187
 30
0.0
 10
105.1339789233693
 20
-135.0890841676166
 30
0.0
 10
104.9562119963304
 20
-135.0890841676166
 30
0.0
 10
104.9562119963304
 20
-135.0890841676166
 30
0.0
 10
104.5483126908768
 20
-135.0890841676166
 30
0.0
 10
104.5483126908768
 20
-135.0890841676166
 30
0.0
 10
104.5483126908768
 20
-135.0890841676166
 30
0.0
 10
104.5483126908768
 20
-135.7298719278731
 30
0.0
 10
104.5483126908768
 20
-135.7298719278731
 30
0.0
 10
104.5483126908768
 20
-135.7298719278731
 30
0.0
 10
104.3133571787828
 20
-135.7298719278731
 30
0.0
 10
104.3133571787828
 20
-135.7298719278731
 30
0.0
 10
104.3133571787828
 20
-135.7298719278731
 30
0.0
 10
104.3133571787828
 20
-134.1857801313841
 30
0.0
 10
104.3133571787828
 20
-134.1857801313841
 30
0.0
 10
104.3133571787828
 20
-134.1857801313841
 30
0.0
 10
104.9882513843432
 20
-134.1857801313841
 30
0.0
 10
104.9882513843432
 20
-134.1857801313841
 30
0.0
 10
105.2948648825305
 20
-134.1857801313841
 30
0.0
 10
105.4619520135651
 20
-134.357001377001
 30
0.0
 10
105.4619520135651
 20
-134.6129719715551
 30
0.0
 10
105.4619520135651
 20
-134.6639593847368
 30
0.0
 10
105.4536837844005
 20
-134.7462971668343
 30
0.0
 10
105.4088975430922
 20
-134.8265678916406
 30
0.0
 10
105.3499864102944
 20
-134.9306097752951
 30
0.0
 10
105.2841850865262
 20
-134.9492132909155
 30
0.0
 10
105.2228623868887
 20
-134.9664387683417
 30
0.0
 10
105.3606662062987
 20
-135.0084689332618
 30
0.0
 10
105.4281900778096
 20
-135.0573892891523
 30
0.0
 10
105.4323241923919
 20
-135.3722710165042
 30
0.0
 10
105.4364583069742
 20
-135.6430555216448
 30
0.0
 10
105.4726318095694
 20
-135.6750949096576
 30
0.0
 10
105.5405001906288
 20
-135.7298719278731
 30
0.0
 10
105.5405001906288
 20
-135.7298719278731
 30
0.0
 10
105.2442219788973
 20
-135.7298719278731
 30
0.0
 10
105.2442219788973
 20
-135.7298719278731
 30
0.0
  0
SPLINE
  5
54
330
4F
100
AcDbEntity
  8
_U+30EC_U+30A4_U+30E4_U+30FC 1
370
     0
100
AcDbSpline
210
0.0
220
0.0
230
1.0
 70
    11
 71
     3
 72
    20
 73
    16
 74
     0
 42
0.0000000001
 43
0.0000000001
 12
1.0
 22
0.0
 32
0.0
 13
1.0
 23
0.0
 33
0.0
 40
0.0
 40
0.0
 40
0.0
 40
0.0
 40
1.0
 40
1.0
 40
1.0
 40
2.0
 40
2.0
 40
2.0
 40
3.0
 40
3.0
 40
3.0
 40
4.0
 40
4.0
 40
4.0
 40
5.0
 40
5.0
 40
5.0
 40
5.0
 10
104.9923854989255
 20
-134.3973089941784
 30
0.0
 10
104.9923854989255
 20
-134.3973089941784
 30
0.0
 10
104.5483126908768
 20
-134.3973089941784
 30
0.0
 10
104.5483126908768
 20
-134.3973089941784
 30
0.0
 10
104.5483126908768
 20
-134.3973089941784
 30
0.0
 10
104.5483126908768
 20
-134.8775553048223
 30
0.0
 10
104.5483126908768
 20
-134.8775553048223
 30
0.0
 10
104.5483126908768
 20
-134.8775553048223
 30
0.0
 10
104.9903184416344
 20
-134.8775553048223
 30
0.0
 10
104.9903184416344
 20
-134.8775553048223
 30
0.0
 10
105.0898817011581
 20
-134.8775553048223
 30
0.0
 10
105.2249294441799
 20
-134.8014186945983
 30
0.0
 10
105.2249294441799
 20
-134.6301974489813
 30
0.0
 10
105.2249294441799
 20
-134.5516492719177
 30
0.0
 10
105.1911675084244
 20
-134.3973089941784
 30
0.0
 10
104.9923854989255
 20
-134.3973089941784
 30
0.0
  0
HATCH
  5
55
330
4F
100
AcDbEntity
  8
_U+30EC_U+30A4_U+30E4_U+30FC 1
 62
   179
420
  2234388
100
AcDbHatch
 10
0.0
 20
0.0
 30
0.0
210
0.0
220
0.0
230
1.0
  2
SOLID
 70
     1
 71
     0
 91
        2
 92
        1
 93
        1
 72
     4
 94
        3
 73
     0
 74
     1
 95
       44
 96
       40
 40
0.0
 40
0.0
 40
0.0
 40
0.0
 40
1.0
 40
1.0
 40
1.0
 40
2.0
 40
2.0
 40
2.0
 40
3.0
 40
3.0
 40
3.0
 40
4.0
 40
4.0
 40
4.0
 40
5.0
 40
5.0
 40
5.0
 40
6.0
 40
6.0
 40
6.0
 40
7.0
 40
7.0
 40
7.0
 40
8.0
 40
8.0
 40
8.0
 40
9.0
 40
9.0
 40
9.0
 40
10.0
 40
10.0
 40
10.0
 40
11.0
 40
11.0
 40
11.0
 40
12.0
 40
12.0
 40
12.0
 40
13.0
 40
13.0
 40
13.0
 40
13.0
 10
105.2442219788973
 20
-135.7298719278731
 10
105.2207953295976
 20
-135.6857747056619
 10
105.1997802471376
 20
-135.6327202351891
 10
105.1973686802979
 20
-135.4018988376773
 10
105.1932345657156
 20
-135.1586750964187
 10
105.1339789233693
 20
-135.0890841676166
 10
104.9562119963304
 20
-135.0890841676166
 10
104.9562119963304
 20
-135.0890841676166
 10
104.5483126908768
 20
-135.0890841676166
 10
104.5483126908768
 20
-135.0890841676166
 10
104.5483126908768
 20
-135.0890841676166
 10
104.5483126908768
 20
-135.7298719278731
 10
104.5483126908768
 20
-135.7298719278731
 10
104.5483126908768
 20
-135.7298719278731
 10
104.3133571787828
 20
-135.7298719278731
 10
104.3133571787828
 20
-135.7298719278731
 10
104.3133571787828
 20
-135.7298719278731
 10
104.3133571787828
 20
-134.1857801313841
 10
104.3133571787828
 20
-134.1857801313841
 10
104.3133571787828
 20
-134.1857801313841
 10
104.9882513843432
 20
-134.1857801313841
 10
104.9882513843432
 20
-134.1857801313841
 10
105.2948648825305
 20
-134.1857801313841
 10
105.4619520135651
 20
-134.357001377001
 10
105.4619520135651
 20
-134.6129719715551
 10
105.4619520135651
 20
-134.6639593847368
 10
105.4536837844005
 20
-134.7462971668343
 10
105.4088975430922
 20
-134.8265678916406
 10
105.3499864102944
 20
-134.9306097752951
 10
105.2841850865262
 20
-134.9492132909155
 10
105.2228623868887
 20
-134.9664387683417
 10
105.3606662062987
 20
-135.0084689332618
 10
105.4281900778096
 20
-135.0573892891523
 10
105.4323241923919
 20
-135.3722710165042
 10
105.4364583069742
 20
-135.6430555216448
 10
105.4726318095694
 20
-135.6750949096576
 10
105.5405001906288
 20
-135.7298719278731
 10
105.5405001906288
 20
-135.7298719278731
 10
105.2442219788973
 20
-135.7298719278731
 10
105.2442219788973
 20
-135.7298719278731
 97
        0
 97
        0
 92
        1
 93
        1
 72
     4
 94
        3
 73
     0
 74
     1
 95
       20
 96
       16
 40
0.0
 40
0.0
 40
0.0
 40
0.0
 40
1.0
 40
1.0
 40
1.0
 40
2.0
 40
2.0
 40
2.0
 40
3.0
 40
3.0
 40
3.0
 40
4.0
 40
4.0
 40
4.0
 40
5.0
 40
5.0
 40
5.0
 40
5.0
 10
104.9923854989255
 20
-134.3973089941784
 10
104.9923854989255
 20
-134.3973089941784
 10
104.5483126908768
 20
-134.3973089941784
 10
104.5483126908768
 20
-134.3973089941784
 10
104.5483126908768
 20
-134.3973089941784
 10
104.5483126908768
 20
-134.8775553048223
 10
104.5483126908768
 20
-134.8775553048223
 10
104.5483126908768
 20
-134.8775553048223
 10
104.9903184416344
 20
-134.8775553048223
 10
104.9903184416344
 20
-134.8775553048223
 10
105.0898817011581
 20
-134.8775553048223
 10
105.2249294441799
 20
-134.8014186945983
 10
105.2249294441799
 20
-134.6301974489813
 10
105.2249294441799
 20
-134.5516492719177
 10
105.1911675084244
 20
-134.3973089941784
 10
104.9923854989255
 20
-134.3973089941784
 97
        0
 97
        0
 75
     2
 76
     1
 98
        0
  0
SPLINE
  5
56
330
4F
100
AcDbEntity
  8
_U+30EC_U+30A4_U+30E4_U+30FC 1
370
     0
100
AcDbSpline
210
0.0
220
0.0
230
1.0
 70
    11
 71
     3
 72
    26
 73
    22
 74
     0
 42
0.0000000001
 43
0.0000000001
 12
1.0
 22
0.0
 32
0.0
 13
1.0
 23
0.0
 33
0.0
 40
0.0
 40
0.0
 40
0.0
 40
0.0
 40
1.0
 40
1.0
 40
1.0
 40
2.0
 40
2.0
 40
2.0
 40
3.0
 40
3.0
 40
3.0
 40
4.0
 40
4.0
 40
4.0
 40
5.0
 40
5.0
 40
5.0
 40
6.0
 40
6.0
 40
6.0
 40
7.0
 40
7.0
 40
7.0
 40
7.0
 10
106.1313340663491
 20
-135.7298719278731
 30
0.0
 10
106.1313340663491
 20
-135.7298719278731
 30
0.0
 10
106.1313340663491
 20
-134.6257188248505
 30
0.0
 10
106.1313340663491
 20
-134.6257188248505
 30
0.0
 10
106.1313340663491
 20
-134.6257188248505
 30
0.0
 10
105.8012939188622
 20
-134.6257188248505
 30
0.0
 10
105.8012939188622
 20
-134.6257188248505
 30
0.0
 10
105.8012939188622
 20
-134.6257188248505
 30
0.0
 10
105.8012939188622
 20
-134.4779242285333
 30
0.0
 10
105.8012939188622
 20
-134.4779242285333
 30
0.0
 10
106.1334011236403
 20
-134.4627658083982
 30
0.0
 10
106.1799099126911
 20
-134.3001573014944
 30
0.0
 10
106.2095377338643
 20
-134.1857801313841
 30
0.0
 10
106.2095377338643
 20
-134.1857801313841
 30
0.0
 10
106.3556097824389
 20
-134.1857801313841
 30
0.0
 10
106.3556097824389
 20
-134.1857801313841
 30
0.0
 10
106.3556097824389
 20
-134.1857801313841
 30
0.0
 10
106.3556097824389
 20
-135.7298719278731
 30
0.0
 10
106.3556097824389
 20
-135.7298719278731
 30
0.0
 10
106.3556097824389
 20
-135.7298719278731
 30
0.0
 10
106.1313340663491
 20
-135.7298719278731
 30
0.0
 10
106.1313340663491
 20
-135.7298719278731
 30
0.0
  0
HATCH
  5
57
330
4F
100
AcDbEntity
  8
_U+30EC_U+30A4_U+30E4_U+30FC 1
 62
   179
420
  2234388
100
AcDbHatch
 10
0.0
 20
0.0
 30
0.0
210
0.0
220
0.0
230
1.0
  2
SOLID
 70
     1
 71
     0
 91
        1
 92
        1
 93
        1
 72
     4
 94
        3
 73
     0
 74
     1
 95
       26
 96
       22
 40
0.0
 40
0.0
 40
0.0
 40
0.0
 40
1.0
 40
1.0
 40
1.0
 40
2.0
 40
2.0
 40
2.0
 40
3.0
 40
3.0
 40
3.0
 40
4.0
 40
4.0
 40
4.0
 40
5.0
 40
5.0
 40
5.0
 40
6.0
 40
6.0
 40
6.0
 40
7.0
 40
7.0
 40
7.0
 40
7.0
 10
106.1313340663491
 20
-135.7298719278731
 10
106.1313340663491
 20
-135.7298719278731
 10
106.1313340663491
 20
-134.6257188248505
 10
106.1313340663491
 20
-134.6257188248505
 10
106.1313340663491
 20
-134.6257188248505
 10
105.8012939188622
 20
-134.6257188248505
 10
105.8012939188622
 20
-134.6257188248505
 10
105.8012939188622
 20
-134.6257188248505
 10
105.8012939188622
 20
-134.4779242285333
 10
105.8012939188622
 20
-134.4779242285333
 10
106.1334011236403
 20
-134.4627658083982
 10
106.1799099126911
 20
-134.3001573014944
 10
106.2095377338643
 20
-134.1857801313841
 10
106.2095377338643
 20
-134.1857801313841
 10
106.3556097824389
 20
-134.1857801313841
 10
106.3556097824389
 20
-134.1857801313841
 10
106.3556097824389
 20
-134.1857801313841
 10
106.3556097824389
 20
-135.7298719278731
 10
106.3556097824389
 20
-135.7298719278731
 10
106.3556097824389
 20
-135.7298719278731
 10
106.1313340663491
 20
-135.7298719278731
 10
106.1313340663491
 20
-135.7298719278731
 97
        0
 97
        0
 75
     2
 76
     1
 98
        0
  0
ENDBLK
  5
52
330
4F
100
AcDbEntity
  8
0
100
AcDbBlockEnd
  0
BLOCK
  5
66
330
64
100
AcDbEntity
  8
0
100
AcDbBlockBegin
  2
block 3
 70
     0
 10
0.0
 20
0.0
 30
0.0
  3
block 3
  1

  0
SPLINE
  5
68
330
64
100
AcDbEntity
  8
_U+30EC_U+30A4_U+30E4_U+30FC 1
370
     0
100
AcDbSpline
210
0.0
220
0.0
230
1.0
 70
    11
 71
     3
 72
    44
 73
    40
 74
     0
 42
0.0000000001
 43
0.0000000001
 12
1.0
 22
0.0
 32
0.0
 13
1.0
 23
0.0
 33
0.0
 40
0.0
 40
0.0
 40
0.0
 40
0.0
 40
1.0
 40
1.0
 40
1.0
 40
2.0
 40
2.0
 40
2.0
 40
3.0
 40
3.0
 40
3.0
 40
4.0
 40
4.0
 40
4.0
 40
5.0
 40
5.0
 40
5.0
 40
6.0
 40
6.0
 40
6.0
 40
7.0
 40
7.0
 40
7.0
 40
8.0
 40
8.0
 40
8.0
 40
9.0
 40
9.0
 40
9.0
 40
10.0
 40
10.0
 40
10.0
 40
11.0
 40
11.0
 40
11.0
 40
12.0
 40
12.0
 40
12.0
 40
13.0
 40
13.0
 40
13.0
 40
13.0
 10
74.98284774601123
 20
-121.7667276713812
 30
0.0
 10
74.95942109671154
 20
-121.7222859396215
 30
0.0
 10
74.93840601425151
 20
-121.6694037239229
 30
0.0
 10
74.9361667021861
 20
-121.4387545811854
 30
0.0
 10
74.9320325876038
 20
-121.1955308399268
 30
0.0
 10
74.8727769452575
 20
-121.1257676563505
 30
0.0
 10
74.69501001821861
 20
-121.1257676563505
 30
0.0
 10
74.69501001821861
 20
-121.1257676563505
 30
0.0
 10
74.2867662032165
 20
-121.1257676563505
 30
0.0
 10
74.2867662032165
 20
-121.1257676563505
 30
0.0
 10
74.2867662032165
 20
-121.1257676563505
 30
0.0
 10
74.2867662032165
 20
-121.7667276713812
 30
0.0
 10
74.2867662032165
 20
-121.7667276713812
 30
0.0
 10
74.2867662032165
 20
-121.7667276713812
 30
0.0
 10
74.05198294589673
 20
-121.7667276713812
 30
0.0
 10
74.05198294589673
 20
-121.7667276713812
 30
0.0
 10
74.05198294589673
 20
-121.7667276713812
 30
0.0
 10
74.05198294589673
 20
-120.222463620118
 30
0.0
 10
74.05198294589673
 20
-120.222463620118
 30
0.0
 10
74.05198294589673
 20
-120.222463620118
 30
0.0
 10
74.72687715145717
 20
-120.222463620118
 30
0.0
 10
74.72687715145717
 20
-120.222463620118
 30
0.0
 10
75.0334906496444
 20
-120.222463620118
 30
0.0
 10
75.20057778067903
 20
-120.3936848657349
 30
0.0
 10
75.20057778067903
 20
-120.6498277150632
 30
0.0
 10
75.20057778067903
 20
-120.7004706186964
 30
0.0
 10
75.19213729674016
 20
-120.7829806555682
 30
0.0
 10
75.14769556498044
 20
-120.8634236351487
 30
0.0
 10
75.08861217740841
 20
-120.9671210092548
 30
0.0
 10
75.0229831084144
 20
-120.9860690344236
 30
0.0
 10
74.96166040877695
 20
-121.0029500023013
 30
0.0
 10
75.09911971863842
 20
-121.0453246767699
 30
0.0
 10
75.16681584492358
 20
-121.0940727778862
 30
0.0
 10
75.17112221428015
 20
-121.4091267600123
 30
0.0
 10
75.17525632886245
 20
-121.6799112651529
 30
0.0
 10
75.2112575766833
 20
-121.7117783983915
 30
0.0
 10
75.27895370296847
 20
-121.7667276713812
 30
0.0
 10
75.27895370296847
 20
-121.7667276713812
 30
0.0
 10
74.98284774601123
 20
-121.7667276713812
 30
0.0
 10
74.98284774601123
 20
-121.7667276713812
 30
0.0
  0
SPLINE
  5
69
330
64
100
AcDbEntity
  8
_U+30EC_U+30A4_U+30E4_U+30FC 1
370
     0
100
AcDbSpline
210
0.0
220
0.0
230
1.0
 70
    11
 71
     3
 72
    20
 73
    16
 74
     0
 42
0.0000000001
 43
0.0000000001
 12
1.0
 22
0.0
 32
0.0
 13
1.0
 23
0.0
 33
0.0
 40
0.0
 40
0.0
 40
0.0
 40
0.0
 40
1.0
 40
1.0
 40
1.0
 40
2.0
 40
2.0
 40
2.0
 40
3.0
 40
3.0
 40
3.0
 40
4.0
 40
4.0
 40
4.0
 40
5.0
 40
5.0
 40
5.0
 40
5.0
 10
74.73101126603947
 20
-120.4339924829123
 30
0.0
 10
74.73101126603947
 20
-120.4339924829123
 30
0.0
 10
74.2867662032165
 20
-120.4339924829123
 30
0.0
 10
74.2867662032165
 20
-120.4339924829123
 30
0.0
 10
74.2867662032165
 20
-120.4339924829123
 30
0.0
 10
74.2867662032165
 20
-120.9142387935562
 30
0.0
 10
74.2867662032165
 20
-120.9142387935562
 30
0.0
 10
74.2867662032165
 20
-120.9142387935562
 30
0.0
 10
74.72894420874832
 20
-120.9142387935562
 30
0.0
 10
74.72894420874832
 20
-120.9142387935562
 30
0.0
 10
74.82833521349778
 20
-120.9142387935562
 30
0.0
 10
74.9637274660681
 20
-120.8381021833321
 30
0.0
 10
74.9637274660681
 20
-120.666708682941
 30
0.0
 10
74.9637274660681
 20
-120.5883327606515
 30
0.0
 10
74.92979327553839
 20
-120.4339924829123
 30
0.0
 10
74.73101126603947
 20
-120.4339924829123
 30
0.0
  0
HATCH
  5
6A
330
64
100
AcDbEntity
  8
_U+30EC_U+30A4_U+30E4_U+30FC 1
 62
   179
420
  2234388
100
AcDbHatch
 10
0.0
 20
0.0
 30
0.0
210
0.0
220
0.0
230
1.0
  2
SOLID
 70
     1
 71
     0
 91
        2
 92
        1
 93
        1
 72
     4
 94
        3
 73
     0
 74
     1
 95
       44
 96
       40
 40
0.0
 40
0.0
 40
0.0
 40
0.0
 40
1.0
 40
1.0
 40
1.0
 40
2.0
 40
2.0
 40
2.0
 40
3.0
 40
3.0
 40
3.0
 40
4.0
 40
4.0
 40
4.0
 40
5.0
 40
5.0
 40
5.0
 40
6.0
 40
6.0
 40
6.0
 40
7.0
 40
7.0
 40
7.0
 40
8.0
 40
8.0
 40
8.0
 40
9.0
 40
9.0
 40
9.0
 40
10.0
 40
10.0
 40
10.0
 40
11.0
 40
11.0
 40
11.0
 40
12.0
 40
12.0
 40
12.0
 40
13.0
 40
13.0
 40
13.0
 40
13.0
 10
74.98284774601123
 20
-121.7667276713812
 10
74.95942109671154
 20
-121.7222859396215
 10
74.93840601425151
 20
-121.6694037239229
 10
74.9361667021861
 20
-121.4387545811854
 10
74.9320325876038
 20
-121.1955308399268
 10
74.8727769452575
 20
-121.1257676563505
 10
74.69501001821861
 20
-121.1257676563505
 10
74.69501001821861
 20
-121.1257676563505
 10
74.2867662032165
 20
-121.1257676563505
 10
74.2867662032165
 20
-121.1257676563505
 10
74.2867662032165
 20
-121.1257676563505
 10
74.2867662032165
 20
-121.7667276713812
 10
74.2867662032165
 20
-121.7667276713812
 10
74.2867662032165
 20
-121.7667276713812
 10
74.05198294589673
 20
-121.7667276713812
 10
74.05198294589673
 20
-121.7667276713812
 10
74.05198294589673
 20
-121.7667276713812
 10
74.05198294589673
 20
-120.222463620118
 10
74.05198294589673
 20
-120.222463620118
 10
74.05198294589673
 20
-120.222463620118
 10
74.72687715145717
 20
-120.222463620118
 10
74.72687715145717
 20
-120.222463620118
 10
75.0334906496444
 20
-120.222463620118
 10
75.20057778067903
 20
-120.3936848657349
 10
75.20057778067903
 20
-120.6498277150632
 10
75.20057778067903
 20
-120.7004706186964
 10
75.19213729674016
 20
-120.7829806555682
 10
75.14769556498044
 20
-120.8634236351487
 10
75.08861217740841
 20
-120.9671210092548
 10
75.0229831084144
 20
-120.9860690344236
 10
74.96166040877695
 20
-121.0029500023013
 10
75.09911971863842
 20
-121.0453246767699
 10
75.16681584492358
 20
-121.0940727778862
 10
75.17112221428015
 20
-121.4091267600123
 10
75.17525632886245
 20
-121.6799112651529
 10
75.2112575766833
 20
-121.7117783983915
 10
75.27895370296847
 20
-121.7667276713812
 10
75.27895370296847
 20
-121.7667276713812
 10
74.98284774601123
 20
-121.7667276713812
 10
74.98284774601123
 20
-121.7667276713812
 97
        0
 97
        0
 92
        1
 93
        1
 72
     4
 94
        3
 73
     0
 74
     1
 95
       20
 96
       16
 40
0.0
 40
0.0
 40
0.0
 40
0.0
 40
1.0
 40
1.0
 40
1.0
 40
2.0
 40
2.0
 40
2.0
 40
3.0
 40
3.0
 40
3.0
 40
4.0
 40
4.0
 40
4.0
 40
5.0
 40
5.0
 40
5.0
 40
5.0
 10
74.73101126603947
 20
-120.4339924829123
 10
74.73101126603947
 20
-120.4339924829123
 10
74.2867662032165
 20
-120.4339924829123
 10
74.2867662032165
 20
-120.4339924829123
 10
74.2867662032165
 20
-120.4339924829123
 10
74.2867662032165
 20
-120.9142387935562
 10
74.2867662032165
 20
-120.9142387935562
 10
74.2867662032165
 20
-120.9142387935562
 10
74.72894420874832
 20
-120.9142387935562
 10
74.72894420874832
 20
-120.9142387935562
 10
74.82833521349778
 20
-120.9142387935562
 10
74.9637274660681
 20
-120.8381021833321
 10
74.9637274660681
 20
-120.666708682941
 10
74.9637274660681
 20
-120.5883327606515
 10
74.92979327553839
 20
-120.4339924829123
 10
74.73101126603947
 20
-120.4339924829123
 97
        0
 97
        0
 75
     2
 76
     1
 98
        0
  0
SPLINE
  5
6B
330
64
100
AcDbEntity
  8
_U+30EC_U+30A4_U+30E4_U+30FC 1
370
     0
100
AcDbSpline
210
0.0
220
0.0
230
1.0
 70
    11
 71
     3
 72
    26
 73
    22
 74
     0
 42
0.0000000001
 43
0.0000000001
 12
1.0
 22
0.0
 32
0.0
 13
1.0
 23
0.0
 33
0.0
 40
0.0
 40
0.0
 40
0.0
 40
0.0
 40
1.0
 40
1.0
 40
1.0
 40
2.0
 40
2.0
 40
2.0
 40
3.0
 40
3.0
 40
3.0
 40
4.0
 40
4.0
 40
4.0
 40
5.0
 40
5.0
 40
5.0
 40
6.0
 40
6.0
 40
6.0
 40
7.0
 40
7.0
 40
7.0
 40
7.0
 10
75.86995983346307
 20
-121.7667276713812
 30
0.0
 10
75.86995983346307
 20
-121.7667276713812
 30
0.0
 10
75.86995983346307
 20
-120.6624023135844
 30
0.0
 10
75.86995983346307
 20
-120.6624023135844
 30
0.0
 10
75.86995983346307
 20
-120.6624023135844
 30
0.0
 10
75.53991968597613
 20
-120.6624023135844
 30
0.0
 10
75.53991968597613
 20
-120.6624023135844
 30
0.0
 10
75.53991968597613
 20
-120.6624023135844
 30
0.0
 10
75.53991968597613
 20
-120.5144354624929
 30
0.0
 10
75.53991968597613
 20
-120.5144354624929
 30
0.0
 10
75.87202689075421
 20
-120.4996215519063
 30
0.0
 10
75.91853567980509
 20
-120.336668535454
 30
0.0
 10
75.94816350097824
 20
-120.222463620118
 30
0.0
 10
75.94816350097824
 20
-120.222463620118
 30
0.0
 10
76.09423554955283
 20
-120.222463620118
 30
0.0
 10
76.09423554955283
 20
-120.222463620118
 30
0.0
 10
76.09423554955283
 20
-120.222463620118
 30
0.0
 10
76.09423554955283
 20
-121.7667276713812
 30
0.0
 10
76.09423554955283
 20
-121.7667276713812
 30
0.0
 10
76.09423554955283
 20
-121.7667276713812
 30
0.0
 10
75.86995983346307
 20
-121.7667276713812
 30
0.0
 10
75.86995983346307
 20
-121.7667276713812
 30
0.0
  0
HATCH
  5
6C
330
64
100
AcDbEntity
  8
_U+30EC_U+30A4_U+30E4_U+30FC 1
 62
   179
420
  2234388
100
AcDbHatch
 10
0.0
 20
0.0
 30
0.0
210
0.0
220
0.0
230
1.0
  2
SOLID
 70
     1
 71
     0
 91
        1
 92
        1
 93
        1
 72
     4
 94
        3
 73
     0
 74
     1
 95
       26
 96
       22
 40
0.0
 40
0.0
 40
0.0
 40
0.0
 40
1.0
 40
1.0
 40
1.0
 40
2.0
 40
2.0
 40
2.0
 40
3.0
 40
3.0
 40
3.0
 40
4.0
 40
4.0
 40
4.0
 40
5.0
 40
5.0
 40
5.0
 40
6.0
 40
6.0
 40
6.0
 40
7.0
 40
7.0
 40
7.0
 40
7.0
 10
75.86995983346307
 20
-121.7667276713812
 10
75.86995983346307
 20
-121.7667276713812
 10
75.86995983346307
 20
-120.6624023135844
 10
75.86995983346307
 20
-120.6624023135844
 10
75.86995983346307
 20
-120.6624023135844
 10
75.53991968597613
 20
-120.6624023135844
 10
75.53991968597613
 20
-120.6624023135844
 10
75.53991968597613
 20
-120.6624023135844
 10
75.53991968597613
 20
-120.5144354624929
 10
75.53991968597613
 20
-120.5144354624929
 10
75.87202689075421
 20
-120.4996215519063
 10
75.91853567980509
 20
-120.336668535454
 10
75.94816350097824
 20
-120.222463620118
 10
75.94816350097824
 20
-120.222463620118
 10
76.09423554955283
 20
-120.222463620118
 10
76.09423554955283
 20
-120.222463620118
 10
76.09423554955283
 20
-120.222463620118
 10
76.09423554955283
 20
-121.7667276713812
 10
76.09423554955283
 20
-121.7667276713812
 10
76.09423554955283
 20
-121.7667276713812
 10
75.86995983346307
 20
-121.7667276713812
 10
75.86995983346307
 20
-121.7667276713812
 97
        0
 97
        0
 75
     2
 76
     1
 98
        0
  0
ENDBLK
  5
67
330
64
100
AcDbEntity
  8
0
100
AcDbBlockEnd
  0
BLOCK
  5
84
330
82
100
AcDbEntity
  8
0
100
AcDbBlockBegin
  2
block 4
 70
     0
 10
0.0
 20
0.0
 30
0.0
  3
block 4
  1

  0
SPLINE
  5
86
330
82
100
AcDbEntity
  8
_U+30EC_U+30A4_U+30E4_U+30FC 1
370
     0
100
AcDbSpline
210
0.0
220
0.0
230
1.0
 70
    11
 71
     3
 72
    26
 73
    22
 74
     0
 42
0.0000000001
 43
0.0000000001
 12
1.0
 22
0.0
 32
0.0
 13
1.0
 23
0.0
 33
0.0
 40
0.0
 40
0.0
 40
0.0
 40
0.0
 40
1.0
 40
1.0
 40
1.0
 40
2.0
 40
2.0
 40
2.0
 40
3.0
 40
3.0
 40
3.0
 40
4.0
 40
4.0
 40
4.0
 40
5.0
 40
5.0
 40
5.0
 40
6.0
 40
6.0
 40
6.0
 40
7.0
 40
7.0
 40
7.0
 40
7.0
 10
84.47908119632815
 20
-135.8435600788863
 30
0.0
 10
84.47908119632815
 20
-135.8435600788863
 30
0.0
 10
84.47908119632815
 20
-134.7394069758638
 30
0.0
 10
84.47908119632815
 20
-134.7394069758638
 30
0.0
 10
84.47908119632815
 20
-134.7394069758638
 30
0.0
 10
84.14904104884121
 20
-134.7394069758638
 30
0.0
 10
84.14904104884121
 20
-134.7394069758638
 30
0.0
 10
84.14904104884121
 20
-134.7394069758638
 30
0.0
 10
84.14904104884121
 20
-134.5916123795465
 30
0.0
 10
84.14904104884121
 20
-134.5916123795465
 30
0.0
 10
84.4811482536193
 20
-134.5764539594115
 30
0.0
 10
84.52765704267017
 20
-134.4138454525076
 30
0.0
 10
84.55728486384332
 20
-134.2994682823974
 30
0.0
 10
84.55728486384332
 20
-134.2994682823974
 30
0.0
 10
84.70335691241792
 20
-134.2994682823974
 30
0.0
 10
84.70335691241792
 20
-134.2994682823974
 30
0.0
 10
84.70335691241792
 20
-134.2994682823974
 30
0.0
 10
84.70335691241792
 20
-135.8435600788863
 30
0.0
 10
84.70335691241792
 20
-135.8435600788863
 30
0.0
 10
84.70335691241792
 20
-135.8435600788863
 30
0.0
 10
84.47908119632815
 20
-135.8435600788863
 30
0.0
 10
84.47908119632815
 20
-135.8435600788863
 30
0.0
  0
HATCH
  5
87
330
82
100
AcDbEntity
  8
_U+30EC_U+30A4_U+30E4_U+30FC 1
 62
   179
420
  2234388
100
AcDbHatch
 10
0.0
 20
0.0
 30
0.0
210
0.0
220
0.0
230
1.0
  2
SOLID
 70
     1
 71
     0
 91
        1
 92
        1
 93
        1
 72
     4
 94
        3
 73
     0
 74
     1
 95
       26
 96
       22
 40
0.0
 40
0.0
 40
0.0
 40
0.0
 40
1.0
 40
1.0
 40
1.0
 40
2.0
 40
2.0
 40
2.0
 40
3.0
 40
3.0
 40
3.0
 40
4.0
 40
4.0
 40
4.0
 40
5.0
 40
5.0
 40
5.0
 40
6.0
 40
6.0
 40
6.0
 40
7.0
 40
7.0
 40
7.0
 40
7.0
 10
84.47908119632815
 20
-135.8435600788863
 10
84.47908119632815
 20
-135.8435600788863
 10
84.47908119632815
 20
-134.7394069758638
 10
84.47908119632815
 20
-134.7394069758638
 10
84.47908119632815
 20
-134.7394069758638
 10
84.14904104884121
 20
-134.7394069758638
 10
84.14904104884121
 20
-134.7394069758638
 10
84.14904104884121
 20
-134.7394069758638
 10
84.14904104884121
 20
-134.5916123795465
 10
84.14904104884121
 20
-134.5916123795465
 10
84.4811482536193
 20
-134.5764539594115
 10
84.52765704267017
 20
-134.4138454525076
 10
84.55728486384332
 20
-134.2994682823974
 10
84.55728486384332
 20
-134.2994682823974
 10
84.70335691241792
 20
-134.2994682823974
 10
84.70335691241792
 20
-134.2994682823974
 10
84.70335691241792
 20
-134.2994682823974
 10
84.70335691241792
 20
-135.8435600788863
 10
84.70335691241792
 20
-135.8435600788863
 10
84.70335691241792
 20
-135.8435600788863
 10
84.47908119632815
 20
-135.8435600788863
 10
84.47908119632815
 20
-135.8435600788863
 97
        0
 97
        0
 75
     2
 76
     1
 98
        0
  0
SPLINE
  5
88
330
82
100
AcDbEntity
  8
_U+30EC_U+30A4_U+30E4_U+30FC 1
370
     0
100
AcDbSpline
210
0.0
220
0.0
230
1.0
 70
    11
 71
     3
 72
    44
 73
    40
 74
     0
 42
0.0000000001
 43
0.0000000001
 12
1.0
 22
0.0
 32
0.0
 13
1.0
 23
0.0
 33
0.0
 40
0.0
 40
0.0
 40
0.0
 40
0.0
 40
1.0
 40
1.0
 40
1.0
 40
2.0
 40
2.0
 40
2.0
 40
3.0
 40
3.0
 40
3.0
 40
4.0
 40
4.0
 40
4.0
 40
5.0
 40
5.0
 40
5.0
 40
6.0
 40
6.0
 40
6.0
 40
7.0
 40
7.0
 40
7.0
 40
8.0
 40
8.0
 40
8.0
 40
9.0
 40
9.0
 40
9.0
 40
10.0
 40
10.0
 40
10.0
 40
11.0
 40
11.0
 40
11.0
 40
12.0
 40
12.0
 40
12.0
 40
13.0
 40
13.0
 40
13.0
 40
13.0
 10
85.79769149330752
 20
-135.2620279609762
 30
0.0
 10
85.57978920386547
 20
-135.4205023532976
 30
0.0
 10
85.48659937098947
 20
-135.494916415779
 30
0.0
 10
85.43802352464745
 20
-135.638576897514
 30
0.0
 10
85.43802352464745
 20
-135.638576897514
 30
0.0
 10
86.21644284953965
 20
-135.638576897514
 30
0.0
 10
86.21644284953965
 20
-135.638576897514
 30
0.0
 10
86.21644284953965
 20
-135.638576897514
 30
0.0
 10
86.21644284953965
 20
-135.8435600788863
 30
0.0
 10
86.21644284953965
 20
-135.8435600788863
 30
0.0
 10
86.21644284953965
 20
-135.8435600788863
 30
0.0
 10
85.18842635674109
 20
-135.8435600788863
 30
0.0
 10
85.18842635674109
 20
-135.8435600788863
 30
0.0
 10
85.2201212352054
 20
-135.4859591675174
 30
0.0
 10
85.2857503041994
 20
-135.4081000095508
 30
0.0
 10
85.67073972467607
 20
-135.1097547405281
 30
0.0
 10
85.92671031923012
 20
-134.9106282214807
 30
0.0
 10
85.99216713344988
 20
-134.8431043499698
 30
0.0
 10
85.99216713344988
 20
-134.7056450401083
 30
0.0
 10
85.99216713344988
 20
-134.5871337554157
 30
0.0
 10
85.92033689258243
 20
-134.4558756174277
 30
0.0
 10
85.72362194037466
 20
-134.4558756174277
 30
0.0
 10
85.46334497646403
 20
-134.4558756174277
 30
0.0
 10
85.45490449252517
 20
-134.6866970149395
 30
0.0
 10
85.4505981231686
 20
-134.8031412423409
 30
0.0
 10
85.4505981231686
 20
-134.8031412423409
 30
0.0
 10
85.2264946618531
 20
-134.8031412423409
 30
0.0
 10
85.2264946618531
 20
-134.8031412423409
 30
0.0
 10
85.23493514579197
 20
-134.6760172189352
 30
0.0
 10
85.24544268702198
 20
-134.5640516156645
 30
0.0
 10
85.32588566660256
 20
-134.445540330972
 30
0.0
 10
85.43578421258204
 20
-134.2846543718108
 30
0.0
 10
85.62199162355978
 20
-134.2505479265068
 30
0.0
 10
85.73843585096122
 20
-134.2505479265068
 30
0.0
 10
86.01559378274958
 20
-134.2505479265068
 30
0.0
 10
86.22281627618736
 20
-134.4348605349677
 30
0.0
 10
86.22281627618736
 20
-134.7077120973995
 30
0.0
 10
86.22281627618736
 20
-134.9361219280715
 30
0.0
 10
86.10654430356017
 20
-135.0356851875952
 30
0.0
 10
85.79769149330752
 20
-135.2620279609762
 30
0.0
  0
HATCH
  5
89
330
82
100
AcDbEntity
  8
_U+30EC_U+30A4_U+30E4_U+30FC 1
 62
   179
420
  2234388
100
AcDbHatch
 10
0.0
 20
0.0
 30
0.0
210
0.0
220
0.0
230
1.0
  2
SOLID
 70
     1
 71
     0
 91
        1
 92
        1
 93
        1
 72
     4
 94
        3
 73
     0
 74
     1
 95
       44
 96
       40
 40
0.0
 40
0.0
 40
0.0
 40
0.0
 40
1.0
 40
1.0
 40
1.0
 40
2.0
 40
2.0
 40
2.0
 40
3.0
 40
3.0
 40
3.0
 40
4.0
 40
4.0
 40
4.0
 40
5.0
 40
5.0
 40
5.0
 40
6.0
 40
6.0
 40
6.0
 40
7.0
 40
7.0
 40
7.0
 40
8.0
 40
8.0
 40
8.0
 40
9.0
 40
9.0
 40
9.0
 40
10.0
 40
10.0
 40
10.0
 40
11.0
 40
11.0
 40
11.0
 40
12.0
 40
12.0
 40
12.0
 40
13.0
 40
13.0
 40
13.0
 40
13.0
 10
85.79769149330752
 20
-135.2620279609762
 10
85.57978920386547
 20
-135.4205023532976
 10
85.48659937098947
 20
-135.494916415779
 10
85.43802352464745
 20
-135.638576897514
 10
85.43802352464745
 20
-135.638576897514
 10
86.21644284953965
 20
-135.638576897514
 10
86.21644284953965
 20
-135.638576897514
 10
86.21644284953965
 20
-135.638576897514
 10
86.21644284953965
 20
-135.8435600788863
 10
86.21644284953965
 20
-135.8435600788863
 10
86.21644284953965
 20
-135.8435600788863
 10
85.18842635674109
 20
-135.8435600788863
 10
85.18842635674109
 20
-135.8435600788863
 10
85.2201212352054
 20
-135.4859591675174
 10
85.2857503041994
 20
-135.4081000095508
 10
85.67073972467607
 20
-135.1097547405281
 10
85.92671031923012
 20
-134.9106282214807
 10
85.99216713344988
 20
-134.8431043499698
 10
85.99216713344988
 20
-134.7056450401083
 10
85.99216713344988
 20
-134.5871337554157
 10
85.92033689258243
 20
-134.4558756174277
 10
85.72362194037466
 20
-134.4558756174277
 10
85.46334497646403
 20
-134.4558756174277
 10
85.45490449252517
 20
-134.6866970149395
 10
85.4505981231686
 20
-134.8031412423409
 10
85.4505981231686
 20
-134.8031412423409
 10
85.2264946618531
 20
-134.8031412423409
 10
85.2264946618531
 20
-134.8031412423409
 10
85.23493514579197
 20
-134.6760172189352
 10
85.24544268702198
 20
-134.5640516156645
 10
85.32588566660256
 20
-134.445540330972
 10
85.43578421258204
 20
-134.2846543718108
 10
85.62199162355978
 20
-134.2505479265068
 10
85.73843585096122
 20
-134.2505479265068
 10
86.01559378274958
 20
-134.2505479265068
 10
86.22281627618736
 20
-134.4348605349677
 10
86.22281627618736
 20
-134.7077120973995
 10
86.22281627618736
 20
-134.9361219280715
 10
86.10654430356017
 20
-135.0356851875952
 10
85.79769149330752
 20
-135.2620279609762
 97
        0
 97
        0
 75
     2
 76
     1
 98
        0
  0
ENDBLK
  5
85
330
82
100
AcDbEntity
  8
0
100
AcDbBlockEnd
  0
BLOCK
  5
8C
330
8A
100
AcDbEntity
  8
0
100
AcDbBlockBegin
  2
block 5
 70
     0
 10
0.0
 20
0.0
 30
0.0
  3
block 5
  1

  0
SPLINE
  5
8E
330
8A
100
AcDbEntity
  8
_U+30EC_U+30A4_U+30E4_U+30FC 1
370
     0
100
AcDbSpline
210
0.0
220
0.0
230
1.0
 70
    11
 71
     3
 72
    26
 73
    22
 74
     0
 42
0.0000000001
 43
0.0000000001
 12
1.0
 22
0.0
 32
0.0
 13
1.0
 23
0.0
 33
0.0
 40
0.0
 40
0.0
 40
0.0
 40
0.0
 40
1.0
 40
1.0
 40
1.0
 40
2.0
 40
2.0
 40
2.0
 40
3.0
 40
3.0
 40
3.0
 40
4.0
 40
4.0
 40
4.0
 40
5.0
 40
5.0
 40
5.0
 40
6.0
 40
6.0
 40
6.0
 40
7.0
 40
7.0
 40
7.0
 40
7.0
 10
95.4787543164081
 20
-135.8435600788863
 30
0.0
 10
95.4787543164081
 20
-135.8435600788863
 30
0.0
 10
95.4787543164081
 20
-134.7394069758638
 30
0.0
 10
95.4787543164081
 20
-134.7394069758638
 30
0.0
 10
95.4787543164081
 20
-134.7394069758638
 30
0.0
 10
95.14871416892116
 20
-134.7394069758638
 30
0.0
 10
95.14871416892116
 20
-134.7394069758638
 30
0.0
 10
95.14871416892116
 20
-134.7394069758638
 30
0.0
 10
95.14871416892116
 20
-134.5916123795465
 30
0.0
 10
95.14871416892116
 20
-134.5916123795465
 30
0.0
 10
95.48082137369924
 20
-134.5764539594115
 30
0.0
 10
95.52767467229864
 20
-134.4138454525076
 30
0.0
 10
95.5573024934718
 20
-134.2994682823974
 30
0.0
 10
95.5573024934718
 20
-134.2994682823974
 30
0.0
 10
95.70337454204638
 20
-134.2994682823974
 30
0.0
 10
95.70337454204638
 20
-134.2994682823974
 30
0.0
 10
95.70337454204638
 20
-134.2994682823974
 30
0.0
 10
95.70337454204638
 20
-135.8435600788863
 30
0.0
 10
95.70337454204638
 20
-135.8435600788863
 30
0.0
 10
95.70337454204638
 20
-135.8435600788863
 30
0.0
 10
95.4787543164081
 20
-135.8435600788863
 30
0.0
 10
95.4787543164081
 20
-135.8435600788863
 30
0.0
  0
HATCH
  5
8F
330
8A
100
AcDbEntity
  8
_U+30EC_U+30A4_U+30E4_U+30FC 1
 62
   179
420
  2234388
100
AcDbHatch
 10
0.0
 20
0.0
 30
0.0
210
0.0
220
0.0
230
1.0
  2
SOLID
 70
     1
 71
     0
 91
        1
 92
        1
 93
        1
 72
     4
 94
        3
 73
     0
 74
     1
 95
       26
 96
       22
 40
0.0
 40
0.0
 40
0.0
 40
0.0
 40
1.0
 40
1.0
 40
1.0
 40
2.0
 40
2.0
 40
2.0
 40
3.0
 40
3.0
 40
3.0
 40
4.0
 40
4.0
 40
4.0
 40
5.0
 40
5.0
 40
5.0
 40
6.0
 40
6.0
 40
6.0
 40
7.0
 40
7.0
 40
7.0
 40
7.0
 10
95.4787543164081
 20
-135.8435600788863
 10
95.4787543164081
 20
-135.8435600788863
 10
95.4787543164081
 20
-134.7394069758638
 10
95.4787543164081
 20
-134.7394069758638
 10
95.4787543164081
 20
-134.7394069758638
 10
95.14871416892116
 20
-134.7394069758638
 10
95.14871416892116
 20
-134.7394069758638
 10
95.14871416892116
 20
-134.7394069758638
 10
95.14871416892116
 20
-134.5916123795465
 10
95.14871416892116
 20
-134.5916123795465
 10
95.48082137369924
 20
-134.5764539594115
 10
95.52767467229864
 20
-134.4138454525076
 10
95.5573024934718
 20
-134.2994682823974
 10
95.5573024934718
 20
-134.2994682823974
 10
95.70337454204638
 20
-134.2994682823974
 10
95.70337454204638
 20
-134.2994682823974
 10
95.70337454204638
 20
-134.2994682823974
 10
95.70337454204638
 20
-135.8435600788863
 10
95.70337454204638
 20
-135.8435600788863
 10
95.70337454204638
 20
-135.8435600788863
 10
95.4787543164081
 20
-135.8435600788863
 10
95.4787543164081
 20
-135.8435600788863
 97
        0
 97
        0
 75
     2
 76
     1
 98
        0
  0
SPLINE
  5
90
330
8A
100
AcDbEntity
  8
_U+30EC_U+30A4_U+30E4_U+30FC 1
370
     0
100
AcDbSpline
210
0.0
220
0.0
230
1.0
 70
    11
 71
     3
 72
    29
 73
    25
 74
     0
 42
0.0000000001
 43
0.0000000001
 12
1.0
 22
0.0
 32
0.0
 13
1.0
 23
0.0
 33
0.0
 40
0.0
 40
0.0
 40
0.0
 40
0.0
 40
1.0
 40
1.0
 40
1.0
 40
2.0
 40
2.0
 40
2.0
 40
3.0
 40
3.0
 40
3.0
 40
4.0
 40
4.0
 40
4.0
 40
5.0
 40
5.0
 40
5.0
 40
6.0
 40
6.0
 40
6.0
 40
7.0
 40
7.0
 40
7.0
 40
8.0
 40
8.0
 40
8.0
 40
8.0
 10
97.10208330905782
 20
-135.6657931518475
 30
0.0
 10
96.9942518203695
 20
-135.8752549573506
 30
0.0
 10
96.82096351746144
 20
-135.894547492068
 30
0.0
 10
96.70451929005999
 20
-135.894547492068
 30
0.0
 10
96.54363333089881
 20
-135.894547492068
 30
0.0
 10
96.40203990645504
 20
-135.8480387030172
 30
0.0
 10
96.30661076151362
 20
-135.6657931518475
 30
0.0
 10
96.2029133874076
 20
-135.4714897664794
 30
0.0
 10
96.18396536223874
 20
-135.2344671970942
 30
0.0
 10
96.18396536223874
 20
-135.0715141806419
 30
0.0
 10
96.18396536223874
 20
-134.9278536989069
 30
0.0
 10
96.20084633011646
 20
-134.6760172189352
 30
0.0
 10
96.30661076151362
 20
-134.4772352094363
 30
0.0
 10
96.41444225020194
 20
-134.2739745758065
 30
0.0
 10
96.57532820936312
 20
-134.2505479265068
 30
0.0
 10
96.70451929005999
 20
-134.2505479265068
 30
0.0
 10
96.86299368238147
 20
-134.2505479265068
 30
0.0
 10
97.00699867366492
 20
-134.2953341678151
 30
0.0
 10
97.10208330905782
 20
-134.4772352094363
 30
0.0
 10
97.20130205903301
 20
-134.6694715375132
 30
0.0
 10
97.2247287083327
 20
-134.8982258777338
 30
0.0
 10
97.2247287083327
 20
-135.0715141806419
 30
0.0
 10
97.2247287083327
 20
-135.2427354262588
 30
0.0
 10
97.20371362587268
 20
-135.4735568237705
 30
0.0
 10
97.10208330905782
 20
-135.6657931518475
 30
0.0
  0
SPLINE
  5
91
330
8A
100
AcDbEntity
  8
_U+30EC_U+30A4_U+30E4_U+30FC 1
370
     0
100
AcDbSpline
210
0.0
220
0.0
230
1.0
 70
    11
 71
     3
 72
    17
 73
    13
 74
     0
 42
0.0000000001
 43
0.0000000001
 12
1.0
 22
0.0
 32
0.0
 13
1.0
 23
0.0
 33
0.0
 40
0.0
 40
0.0
 40
0.0
 40
0.0
 40
1.0
 40
1.0
 40
1.0
 40
2.0
 40
2.0
 40
2.0
 40
3.0
 40
3.0
 40
3.0
 40
4.0
 40
4.0
 40
4.0
 40
4.0
 10
96.70451929005999
 20
-134.4434732736808
 30
0.0
 10
96.45474986737938
 20
-134.4434732736808
 30
0.0
 10
96.4082410783285
 20
-134.7266601225683
 30
0.0
 10
96.4082410783285
 20
-135.0715141806419
 30
0.0
 10
96.4082410783285
 20
-135.3908745321245
 30
0.0
 10
96.4440700713751
 20
-135.6998995971514
 30
0.0
 10
96.70451929005999
 20
-135.6998995971514
 30
0.0
 10
96.95187714590092
 20
-135.6998995971514
 30
0.0
 10
97.00079750179147
 20
-135.4184352960065
 30
0.0
 10
97.00079750179147
 20
-135.0715141806419
 30
0.0
 10
97.00079750179147
 20
-134.7521538291592
 30
0.0
 10
96.9625569419052
 20
-134.4434732736808
 30
0.0
 10
96.70451929005999
 20
-134.4434732736808
 30
0.0
  0
HATCH
  5
92
330
8A
100
AcDbEntity
  8
_U+30EC_U+30A4_U+30E4_U+30FC 1
 62
   179
420
  2234388
100
AcDbHatch
 10
0.0
 20
0.0
 30
0.0
210
0.0
220
0.0
230
1.0
  2
SOLID
 70
     1
 71
     0
 91
        2
 92
        1
 93
        1
 72
     4
 94
        3
 73
     0
 74
     1
 95
       29
 96
       25
 40
0.0
 40
0.0
 40
0.0
 40
0.0
 40
1.0
 40
1.0
 40
1.0
 40
2.0
 40
2.0
 40
2.0
 40
3.0
 40
3.0
 40
3.0
 40
4.0
 40
4.0
 40
4.0
 40
5.0
 40
5.0
 40
5.0
 40
6.0
 40
6.0
 40
6.0
 40
7.0
 40
7.0
 40
7.0
 40
8.0
 40
8.0
 40
8.0
 40
8.0
 10
97.10208330905782
 20
-135.6657931518475
 10
96.9942518203695
 20
-135.8752549573506
 10
96.82096351746144
 20
-135.894547492068
 10
96.70451929005999
 20
-135.894547492068
 10
96.54363333089881
 20
-135.894547492068
 10
96.40203990645504
 20
-135.8480387030172
 10
96.30661076151362
 20
-135.6657931518475
 10
96.2029133874076
 20
-135.4714897664794
 10
96.18396536223874
 20
-135.2344671970942
 10
96.18396536223874
 20
-135.0715141806419
 10
96.18396536223874
 20
-134.9278536989069
 10
96.20084633011646
 20
-134.6760172189352
 10
96.30661076151362
 20
-134.4772352094363
 10
96.41444225020194
 20
-134.2739745758065
 10
96.57532820936312
 20
-134.2505479265068
 10
96.70451929005999
 20
-134.2505479265068
 10
96.86299368238147
 20
-134.2505479265068
 10
97.00699867366492
 20
-134.2953341678151
 10
97.10208330905782
 20
-134.4772352094363
 10
97.20130205903301
 20
-134.6694715375132
 10
97.2247287083327
 20
-134.8982258777338
 10
97.2247287083327
 20
-135.0715141806419
 10
97.2247287083327
 20
-135.2427354262588
 10
97.20371362587268
 20
-135.4735568237705
 10
97.10208330905782
 20
-135.6657931518475
 97
        0
 97
        0
 92
        1
 93
        1
 72
     4
 94
        3
 73
     0
 74
     1
 95
       17
 96
       13
 40
0.0
 40
0.0
 40
0.0
 40
0.0
 40
1.0
 40
1.0
 40
1.0
 40
2.0
 40
2.0
 40
2.0
 40
3.0
 40
3.0
 40
3.0
 40
4.0
 40
4.0
 40
4.0
 40
4.0
 10
96.70451929005999
 20
-134.4434732736808
 10
96.45474986737938
 20
-134.4434732736808
 10
96.4082410783285
 20
-134.7266601225683
 10
96.4082410783285
 20
-135.0715141806419
 10
96.4082410783285
 20
-135.3908745321245
 10
96.4440700713751
 20
-135.6998995971514
 10
96.70451929005999
 20
-135.6998995971514
 10
96.95187714590092
 20
-135.6998995971514
 10
97.00079750179147
 20
-135.4184352960065
 10
97.00079750179147
 20
-135.0715141806419
 10
97.00079750179147
 20
-134.7521538291592
 10
96.9625569419052
 20
-134.4434732736808
 10
96.70451929005999
 20
-134.4434732736808
 97
        0
 97
        0
 75
     2
 76
     1
 98
        0
  0
ENDBLK
  5
8D
330
8A
100
AcDbEntity
  8
0
100
AcDbBlockEnd
  0
BLOCK
  5
A6
330
A4
100
AcDbEntity
  8
0
100
AcDbBlockBegin
  2
block 6
 70
     0
 10
0.0
 20
0.0
 30
0.0
  3
block 6
  1

  0
SPLINE
  5
A8
330
A4
100
AcDbEntity
  8
_U+30EC_U+30A4_U+30E4_U+30FC 1
370
     0
100
AcDbSpline
210
0.0
220
0.0
230
1.0
 70
    11
 71
     3
 72
    26
 73
    22
 74
     0
 42
0.0000000001
 43
0.0000000001
 12
1.0
 22
0.0
 32
0.0
 13
1.0
 23
0.0
 33
0.0
 40
0.0
 40
0.0
 40
0.0
 40
0.0
 40
1.0
 40
1.0
 40
1.0
 40
2.0
 40
2.0
 40
2.0
 40
3.0
 40
3.0
 40
3.0
 40
4.0
 40
4.0
 40
4.0
 40
5.0
 40
5.0
 40
5.0
 40
6.0
 40
6.0
 40
6.0
 40
7.0
 40
7.0
 40
7.0
 40
7.0
 10
105.9952527946817
 20
-132.0002115555416
 30
0.0
 10
105.9952527946817
 20
-132.0002115555416
 30
0.0
 10
104.8907551821107
 20
-132.0002115555416
 30
0.0
 10
104.8907551821107
 20
-132.0002115555416
 30
0.0
 10
104.8907551821107
 20
-132.0002115555416
 30
0.0
 10
104.8907551821107
 20
-132.3302517030286
 30
0.0
 10
104.8907551821107
 20
-132.3302517030286
 30
0.0
 10
104.8907551821107
 20
-132.3302517030286
 30
0.0
 10
104.7429605857934
 20
-132.3302517030286
 30
0.0
 10
104.7429605857934
 20
-132.3302517030286
 30
0.0
 10
104.7281466752069
 20
-131.9981444982505
 30
0.0
 10
104.5651936587545
 20
-131.9516357091996
 30
0.0
 10
104.4511609981928
 20
-131.9220078880265
 30
0.0
 10
104.4511609981928
 20
-131.9220078880265
 30
0.0
 10
104.4511609981928
 20
-131.7759358394518
 30
0.0
 10
104.4511609981928
 20
-131.7759358394518
 30
0.0
 10
104.4511609981928
 20
-131.7759358394518
 30
0.0
 10
105.9952527946817
 20
-131.7759358394518
 30
0.0
 10
105.9952527946817
 20
-131.7759358394518
 30
0.0
 10
105.9952527946817
 20
-131.7759358394518
 30
0.0
 10
105.9952527946817
 20
-132.0002115555416
 30
0.0
 10
105.9952527946817
 20
-132.0002115555416
 30
0.0
  0
HATCH
  5
A9
330
A4
100
AcDbEntity
  8
_U+30EC_U+30A4_U+30E4_U+30FC 1
 62
   179
420
  2234388
100
AcDbHatch
 10
0.0
 20
0.0
 30
0.0
210
0.0
220
0.0
230
1.0
  2
SOLID
 70
     1
 71
     0
 91
        1
 92
        1
 93
        1
 72
     4
 94
        3
 73
     0
 74
     1
 95
       26
 96
       22
 40
0.0
 40
0.0
 40
0.0
 40
0.0
 40
1.0
 40
1.0
 40
1.0
 40
2.0
 40
2.0
 40
2.0
 40
3.0
 40
3.0
 40
3.0
 40
4.0
 40
4.0
 40
4.0
 40
5.0
 40
5.0
 40
5.0
 40
6.0
 40
6.0
 40
6.0
 40
7.0
 40
7.0
 40
7.0
 40
7.0
 10
105.9952527946817
 20
-132.0002115555416
 10
105.9952527946817
 20
-132.0002115555416
 10
104.8907551821107
 20
-132.0002115555416
 10
104.8907551821107
 20
-132.0002115555416
 10
104.8907551821107
 20
-132.0002115555416
 10
104.8907551821107
 20
-132.3302517030286
 10
104.8907551821107
 20
-132.3302517030286
 10
104.8907551821107
 20
-132.3302517030286
 10
104.7429605857934
 20
-132.3302517030286
 10
104.7429605857934
 20
-132.3302517030286
 10
104.7281466752069
 20
-131.9981444982505
 10
104.5651936587545
 20
-131.9516357091996
 10
104.4511609981928
 20
-131.9220078880265
 10
104.4511609981928
 20
-131.9220078880265
 10
104.4511609981928
 20
-131.7759358394518
 10
104.4511609981928
 20
-131.7759358394518
 10
104.4511609981928
 20
-131.7759358394518
 10
105.9952527946817
 20
-131.7759358394518
 10
105.9952527946817
 20
-131.7759358394518
 10
105.9952527946817
 20
-131.7759358394518
 10
105.9952527946817
 20
-132.0002115555416
 10
105.9952527946817
 20
-132.0002115555416
 97
        0
 97
        0
 75
     2
 76
     1
 98
        0
  0
ENDBLK
  5
A7
330
A4
100
AcDbEntity
  8
0
100
AcDbBlockEnd
  0
BLOCK
  5
AC
330
AA
100
AcDbEntity
  8
0
100
AcDbBlockBegin
  2
block 7
 70
     0
 10
0.0
 20
0.0
 30
0.0
  3
block 7
  1

  0
SPLINE
  5
AE
330
AA
100
AcDbEntity
  8
_U+30EC_U+30A4_U+30E4_U+30FC 1
370
     0
100
AcDbSpline
210
0.0
220
0.0
230
1.0
 70
    11
 71
     3
 72
    29
 73
    25
 74
     0
 42
0.0000000001
 43
0.0000000001
 12
1.0
 22
0.0
 32
0.0
 13
1.0
 23
0.0
 33
0.0
 40
0.0
 40
0.0
 40
0.0
 40
0.0
 40
1.0
 40
1.0
 40
1.0
 40
2.0
 40
2.0
 40
2.0
 40
3.0
 40
3.0
 40
3.0
 40
4.0
 40
4.0
 40
4.0
 40
5.0
 40
5.0
 40
5.0
 40
6.0
 40
6.0
 40
6.0
 40
7.0
 40
7.0
 40
7.0
 40
8.0
 40
8.0
 40
8.0
 40
8.0
 10
106.0462402078634
 20
-127.4812798075394
 30
0.0
 10
106.0462402078634
 20
-127.7477579433235
 30
0.0
 10
105.9084363884535
 20
-128.0016614805864
 30
0.0
 10
105.5594482157976
 20
-128.0016614805864
 30
0.0
 10
105.3034776212436
 20
-128.0016614805864
 30
0.0
 10
105.2083929858507
 20
-127.8598958013684
 30
0.0
 10
105.1470702862132
 20
-127.7541313699712
 30
0.0
 10
105.0878146438669
 20
-127.8790160813115
 30
0.0
 10
104.9734374737566
 20
-127.9551526915355
 30
0.0
 10
104.812896024144
 20
-127.9551526915355
 30
0.0
 10
104.5376328948725
 20
-127.9551526915355
 30
0.0
 10
104.4022406423022
 20
-127.7561984272623
 30
0.0
 10
104.4022406423022
 20
-127.4812798075394
 30
0.0
 10
104.4022406423022
 20
-127.1977484491033
 30
0.0
 10
104.5462456335857
 20
-127.0074069235433
 30
0.0
 10
104.812896024144
 20
-127.0074069235433
 30
0.0
 10
104.9734374737566
 20
-127.0074069235433
 30
0.0
 10
105.0878146438669
 20
-127.0856105910585
 30
0.0
 10
105.1470702862132
 20
-127.2104953023988
 30
0.0
 10
105.1977131898464
 20
-127.1216118388793
 30
0.0
 10
105.2931423347878
 20
-126.9629651917836
 30
0.0
 10
105.5553141012153
 20
-126.9629651917836
 30
0.0
 10
105.929795980462
 20
-126.9629651917836
 30
0.0
 10
106.0462402078634
 20
-127.2421901808631
 30
0.0
 10
106.0462402078634
 20
-127.4812798075394
 30
0.0
  0
SPLINE
  5
AF
330
AA
100
AcDbEntity
  8
_U+30EC_U+30A4_U+30E4_U+30FC 1
370
     0
100
AcDbSpline
210
0.0
220
0.0
230
1.0
 70
    11
 71
     3
 72
    17
 73
    13
 74
     0
 42
0.0000000001
 43
0.0000000001
 12
1.0
 22
0.0
 32
0.0
 13
1.0
 23
0.0
 33
0.0
 40
0.0
 40
0.0
 40
0.0
 40
0.0
 40
1.0
 40
1.0
 40
1.0
 40
2.0
 40
2.0
 40
2.0
 40
3.0
 40
3.0
 40
3.0
 40
4.0
 40
4.0
 40
4.0
 40
4.0
 10
104.5948214799277
 20
-127.4812798075394
 30
0.0
 10
104.5948214799277
 20
-127.6462998812829
 30
0.0
 10
104.6899061153206
 20
-127.7308769754458
 30
0.0
 10
104.8252983678909
 20
-127.7308769754458
 30
0.0
 10
104.9479437671658
 20
-127.7308769754458
 30
0.0
 10
105.0664550518584
 20
-127.658874479804
 30
0.0
 10
105.0664550518584
 20
-127.4812798075394
 30
0.0
 10
105.0664550518584
 20
-127.3035128805005
 30
0.0
 10
104.9479437671658
 20
-127.2316826396331
 30
0.0
 10
104.8252983678909
 20
-127.2316826396331
 30
0.0
 10
104.6899061153206
 20
-127.2316826396331
 30
0.0
 10
104.5948214799277
 20
-127.3183267910871
 30
0.0
 10
104.5948214799277
 20
-127.4812798075394
 30
0.0
  0
SPLINE
  5
B0
330
AA
100
AcDbEntity
  8
_U+30EC_U+30A4_U+30E4_U+30FC 1
370
     0
100
AcDbSpline
210
0.0
220
0.0
230
1.0
 70
    11
 71
     3
 72
    17
 73
    13
 74
     0
 42
0.0000000001
 43
0.0000000001
 12
1.0
 22
0.0
 32
0.0
 13
1.0
 23
0.0
 33
0.0
 40
0.0
 40
0.0
 40
0.0
 40
0.0
 40
1.0
 40
1.0
 40
1.0
 40
2.0
 40
2.0
 40
2.0
 40
3.0
 40
3.0
 40
3.0
 40
4.0
 40
4.0
 40
4.0
 40
4.0
 10
105.2549017749016
 20
-127.4812798075394
 30
0.0
 10
105.2549017749016
 20
-127.6251125440486
 30
0.0
 10
105.3413736715813
 20
-127.7773857644966
 30
0.0
 10
105.5446343052111
 20
-127.7773857644966
 30
0.0
 10
105.749961996132
 20
-127.7773857644966
 30
0.0
 10
105.8512478033983
 20
-127.6504339958652
 30
0.0
 10
105.8512478033983
 20
-127.4812798075394
 30
0.0
 10
105.8512478033983
 20
-127.2950723965617
 30
0.0
 10
105.7286024041234
 20
-127.1850015958079
 30
0.0
 10
105.5508354770845
 20
-127.1850015958079
 30
0.0
 10
105.3289713278344
 20
-127.1850015958079
 30
0.0
 10
105.2549017749016
 20
-127.3479546122602
 30
0.0
 10
105.2549017749016
 20
-127.4812798075394
 30
0.0
  0
HATCH
  5
B1
330
AA
100
AcDbEntity
  8
_U+30EC_U+30A4_U+30E4_U+30FC 1
 62
   179
420
  2234388
100
AcDbHatch
 10
0.0
 20
0.0
 30
0.0
210
0.0
220
0.0
230
1.0
  2
SOLID
 70
     1
 71
     0
 91
        3
 92
        1
 93
        1
 72
     4
 94
        3
 73
     0
 74
     1
 95
       29
 96
       25
 40
0.0
 40
0.0
 40
0.0
 40
0.0
 40
1.0
 40
1.0
 40
1.0
 40
2.0
 40
2.0
 40
2.0
 40
3.0
 40
3.0
 40
3.0
 40
4.0
 40
4.0
 40
4.0
 40
5.0
 40
5.0
 40
5.0
 40
6.0
 40
6.0
 40
6.0
 40
7.0
 40
7.0
 40
7.0
 40
8.0
 40
8.0
 40
8.0
 40
8.0
 10
106.0462402078634
 20
-127.4812798075394
 10
106.0462402078634
 20
-127.7477579433235
 10
105.9084363884535
 20
-128.0016614805864
 10
105.5594482157976
 20
-128.0016614805864
 10
105.3034776212436
 20
-128.0016614805864
 10
105.2083929858507
 20
-127.8598958013684
 10
105.1470702862132
 20
-127.7541313699712
 10
105.0878146438669
 20
-127.8790160813115
 10
104.9734374737566
 20
-127.9551526915355
 10
104.812896024144
 20
-127.9551526915355
 10
104.5376328948725
 20
-127.9551526915355
 10
104.4022406423022
 20
-127.7561984272623
 10
104.4022406423022
 20
-127.4812798075394
 10
104.4022406423022
 20
-127.1977484491033
 10
104.5462456335857
 20
-127.0074069235433
 10
104.812896024144
 20
-127.0074069235433
 10
104.9734374737566
 20
-127.0074069235433
 10
105.0878146438669
 20
-127.0856105910585
 10
105.1470702862132
 20
-127.2104953023988
 10
105.1977131898464
 20
-127.1216118388793
 10
105.2931423347878
 20
-126.9629651917836
 10
105.5553141012153
 20
-126.9629651917836
 10
105.929795980462
 20
-126.9629651917836
 10
106.0462402078634
 20
-127.2421901808631
 10
106.0462402078634
 20
-127.4812798075394
 97
        0
 97
        0
 92
        1
 93
        1
 72
     4
 94
        3
 73
     0
 74
     1
 95
       17
 96
       13
 40
0.0
 40
0.0
 40
0.0
 40
0.0
 40
1.0
 40
1.0
 40
1.0
 40
2.0
 40
2.0
 40
2.0
 40
3.0
 40
3.0
 40
3.0
 40
4.0
 40
4.0
 40
4.0
 40
4.0
 10
104.5948214799277
 20
-127.4812798075394
 10
104.5948214799277
 20
-127.6462998812829
 10
104.6899061153206
 20
-127.7308769754458
 10
104.8252983678909
 20
-127.7308769754458
 10
104.9479437671658
 20
-127.7308769754458
 10
105.0664550518584
 20
-127.658874479804
 10
105.0664550518584
 20
-127.4812798075394
 10
105.0664550518584
 20
-127.3035128805005
 10
104.9479437671658
 20
-127.2316826396331
 10
104.8252983678909
 20
-127.2316826396331
 10
104.6899061153206
 20
-127.2316826396331
 10
104.5948214799277
 20
-127.3183267910871
 10
104.5948214799277
 20
-127.4812798075394
 97
        0
 97
        0
 92
        1
 93
        1
 72
     4
 94
        3
 73
     0
 74
     1
 95
       17
 96
       13
 40
0.0
 40
0.0
 40
0.0
 40
0.0
 40
1.0
 40
1.0
 40
1.0
 40
2.0
 40
2.0
 40
2.0
 40
3.0
 40
3.0
 40
3.0
 40
4.0
 40
4.0
 40
4.0
 40
4.0
 10
105.2549017749016
 20
-127.4812798075394
 10
105.2549017749016
 20
-127.6251125440486
 10
105.3413736715813
 20
-127.7773857644966
 10
105.5446343052111
 20
-127.7773857644966
 10
105.749961996132
 20
-127.7773857644966
 10
105.8512478033983
 20
-127.6504339958652
 10
105.8512478033983
 20
-127.4812798075394
 10
105.8512478033983
 20
-127.2950723965617
 10
105.7286024041234
 20
-127.1850015958079
 10
105.5508354770845
 20
-127.1850015958079
 10
105.3289713278344
 20
-127.1850015958079
 10
105.2549017749016
 20
-127.3479546122602
 10
105.2549017749016
 20
-127.4812798075394
 97
        0
 97
        0
 75
     2
 76
     1
 98
        0
  0
ENDBLK
  5
AD
330
AA
100
AcDbEntity
  8
0
100
AcDbBlockEnd
  0
ENDSEC
  0
SECTION
  2
ENTITIES
  0
SPLINE
  5
41
330
1F
100
AcDbEntity
  8
_U+30EC_U+30A4_U+30E4_U+30FC 1
 62
   179
420
  2234388
370
    25
100
AcDbSpline
210
0.0
220
0.0
230
1.0
 70
    11
 71
     3
 72
    32
 73
    28
 74
     0
 42
0.0000000001
 43
0.0000000001
 12
1.0
 22
0.0
 32
0.0
 13
1.0
 23
0.0
 33
0.0
 40
0.0
 40
0.0
 40
0.0
 40
0.0
 40
1.0
 40
1.0
 40
1.0
 40
2.0
 40
2.0
 40
2.0
 40
3.0
 40
3.0
 40
3.0
 40
4.0
 40
4.0
 40
4.0
 40
5.0
 40
5.0
 40
5.0
 40
6.0
 40
6.0
 40
6.0
 40
7.0
 40
7.0
 40
7.0
 40
8.0
 40
8.0
 40
8.0
 40
9.0
 40
9.0
 40
9.0
 40
9.0
 10
92.15045681571266
 20
-123.489790524683
 30
0.0
 10
92.15045681571266
 20
-123.489790524683
 30
0.0
 10
80.14980378854149
 20
-123.489790524683
 30
0.0
 10
80.14980378854149
 20
-123.489790524683
 30
0.0
 10
80.14980378854149
 20
-123.489790524683
 30
0.0
 10
79.14177659203618
 20
-123.5483516357796
 30
0.0
 10
79.15003159182558
 20
-124.4902330244329
 30
0.0
 10
79.15003159182558
 20
-124.4902330244329
 30
0.0
 10
91.13689100823754
 20
-124.486105524434
 30
0.0
 10
91.13689100823754
 20
-124.486105524434
 30
0.0
 10
91.13689100823754
 20
-124.486105524434
 30
0.0
 10
91.14997906345918
 20
-132.489081077989
 30
0.0
 10
91.14997906345918
 20
-132.489081077989
 30
0.0
 10
91.14997906345918
 20
-132.489081077989
 30
0.0
 10
100.1499396671844
 20
-132.489081077989
 30
0.0
 10
100.1499396671844
 20
-132.489081077989
 30
0.0
 10
100.1499396671844
 20
-132.489081077989
 30
0.0
 10
101.1442110858252
 20
-132.5621060779709
 30
0.0
 10
101.1504174194379
 20
-131.488603300461
 30
0.0
 10
101.1504174194379
 20
-131.488603300461
 30
0.0
 10
92.17730553251154
 20
-131.4748449671315
 30
0.0
 10
92.17730553251154
 20
-131.4748449671315
 30
0.0
 10
92.17730553251154
 20
-131.4748449671315
 30
0.0
 10
92.15045681571266
 20
-125.4900052464052
 30
0.0
 10
92.15045681571266
 20
-125.4900052464052
 30
0.0
 10
92.15045681571266
 20
-125.4900052464052
 30
0.0
 10
92.15045681571266
 20
-123.489790524683
 30
0.0
 10
92.15045681571266
 20
-123.489790524683
 30
0.0
  0
HATCH
  5
42
330
1F
100
AcDbEntity
  8
_U+30EC_U+30A4_U+30E4_U+30FC 1
 62
     9
420
 12566464
100
AcDbHatch
 10
0.0
 20
0.0
 30
0.0
210
0.0
220
0.0
230
1.0
  2
SOLID
 70
     1
 71
     0
 91
        1
 92
        1
 93
        1
 72
     4
 94
        3
 73
     0
 74
     1
 95
       32
 96
       28
 40
0.0
 40
0.0
 40
0.0
 40
0.0
 40
1.0
 40
1.0
 40
1.0
 40
2.0
 40
2.0
 40
2.0
 40
3.0
 40
3.0
 40
3.0
 40
4.0
 40
4.0
 40
4.0
 40
5.0
 40
5.0
 40
5.0
 40
6.0
 40
6.0
 40
6.0
 40
7.0
 40
7.0
 40
7.0
 40
8.0
 40
8.0
 40
8.0
 40
9.0
 40
9.0
 40
9.0
 40
9.0
 10
92.15045681571266
 20
-123.489790524683
 10
92.15045681571266
 20
-123.489790524683
 10
80.14980378854149
 20
-123.489790524683
 10
80.14980378854149
 20
-123.489790524683
 10
80.14980378854149
 20
-123.489790524683
 10
79.14177659203618
 20
-123.5483516357796
 10
79.15003159182558
 20
-124.4902330244329
 10
79.15003159182558
 20
-124.4902330244329
 10
91.13689100823754
 20
-124.486105524434
 10
91.13689100823754
 20
-124.486105524434
 10
91.13689100823754
 20
-124.486105524434
 10
91.14997906345918
 20
-132.489081077989
 10
91.14997906345918
 20
-132.489081077989
 10
91.14997906345918
 20
-132.489081077989
 10
100.1499396671844
 20
-132.489081077989
 10
100.1499396671844
 20
-132.489081077989
 10
100.1499396671844
 20
-132.489081077989
 10
101.1442110858252
 20
-132.5621060779709
 10
101.1504174194379
 20
-131.488603300461
 10
101.1504174194379
 20
-131.488603300461
 10
92.17730553251154
 20
-131.4748449671315
 10
92.17730553251154
 20
-131.4748449671315
 10
92.17730553251154
 20
-131.4748449671315
 10
92.15045681571266
 20
-125.4900052464052
 10
92.15045681571266
 20
-125.4900052464052
 10
92.15045681571266
 20
-125.4900052464052
 10
92.15045681571266
 20
-123.489790524683
 10
92.15045681571266
 20
-123.489790524683
 97
        0
 97
        0
 75
     2
 76
     1
 98
        0
  0
POLYLINE
  5
43
330
1F
100
AcDbEntity
  8
_U+30EC_U+30A4_U+30E4_U+30FC 1
 62
   179
420
  2234388
370
     9
100
AcDb2dPolyline
 66
     1
 10
0.0
 20
0.0
 30
0.0
  0
VERTEX
  5
44
330
43
100
AcDbEntity
  8
_U+30EC_U+30A4_U+30E4_U+30FC 1
 62
   179
420
  2234388
370
     9
100
AcDbVertex
100
AcDb2dVertex
 10
101.2220665842766
 20
-132.1204283003034
 30
0.0
  0
VERTEX
  5
45
330
43
100
AcDbEntity
  8
_U+30EC_U+30A4_U+30E4_U+30FC 1
 62
   179
420
  2234388
370
     9
100
AcDbVertex
100
AcDb2dVertex
 10
101.7436485154144
 20
-133.0237510778549
 30
0.0
  0
SEQEND
  5
46
330
43
100
AcDbEntity
  8
_U+30EC_U+30A4_U+30E4_U+30FC 1
 62
   179
420
  2234388
370
     9
  0
POLYLINE
  5
47
330
1F
100
AcDbEntity
  8
_U+30EC_U+30A4_U+30E4_U+30FC 1
 62
   179
420
  2234388
370
     9
100
AcDb2dPolyline
 66
     1
 10
0.0
 20
0.0
 30
0.0
  0
VERTEX
  5
48
330
47
100
AcDbEntity
  8
_U+30EC_U+30A4_U+30E4_U+30FC 1
 62
   179
420
  2234388
370
     9
100
AcDbVertex
100
AcDb2dVertex
 10
101.2220665842766
 20
-132.1204283003034
 30
0.0
  0
VERTEX
  5
49
330
47
100
AcDbEntity
  8
_U+30EC_U+30A4_U+30E4_U+30FC 1
 62
   179
420
  2234388
370
     9
100
AcDbVertex
100
AcDb2dVertex
 10
103.8203454068779
 20
-134.6036663552381
 30
0.0
  0
SEQEND
  5
4A
330
47
100
AcDbEntity
  8
_U+30EC_U+30A4_U+30E4_U+30FC 1
 62
   179
420
  2234388
370
     9
  0
POLYLINE
  5
4B
330
1F
100
AcDbEntity
  8
_U+30EC_U+30A4_U+30E4_U+30FC 1
 62
   179
420
  2234388
370
     9
100
AcDb2dPolyline
 66
     1
 10
0.0
 20
0.0
 30
0.0
  0
VERTEX
  5
4C
330
4B
100
AcDbEntity
  8
_U+30EC_U+30A4_U+30E4_U+30FC 1
 62
   179
420
  2234388
370
     9
100
AcDbVertex
100
AcDb2dVertex
 10
101.2220665842766
 20
-132.1204283003034
 30
0.0
  0
VERTEX
  5
4D
330
4B
100
AcDbEntity
  8
_U+30EC_U+30A4_U+30E4_U+30FC 1
 62
   179
420
  2234388
370
     9
100
AcDbVertex
100
AcDb2dVertex
 10
102.1246837834711
 20
-132.6420455223953
 30
0.0
  0
SEQEND
  5
4E
330
4B
100
AcDbEntity
  8
_U+30EC_U+30A4_U+30E4_U+30FC 1
 62
   179
420
  2234388
370
     9
  0
INSERT
  5
50
330
1F
100
AcDbEntity
  8
_U+30EC_U+30A4_U+30E4_U+30FC 1
100
AcDbBlockReference
  2
block 2
 10
0.0
 20
0.0
 30
0.0
  0
POLYLINE
  5
58
330
1F
100
AcDbEntity
  8
_U+30EC_U+30A4_U+30E4_U+30FC 1
 62
   179
420
  2234388
370
     9
100
AcDb2dPolyline
 66
     1
 10
0.0
 20
0.0
 30
0.0
  0
VERTEX
  5
59
330
58
100
AcDbEntity
  8
_U+30EC_U+30A4_U+30E4_U+30FC 1
 62
   179
420
  2234388
370
     9
100
AcDbVertex
100
AcDb2dVertex
 10
79.1699988135384
 20
-123.742661635731
 30
0.0
  0
VERTEX
  5
5A
330
58
100
AcDbEntity
  8
_U+30EC_U+30A4_U+30E4_U+30FC 1
 62
   179
420
  2234388
370
     9
100
AcDbVertex
100
AcDb2dVertex
 10
78.64841688240061
 20
-122.8393741359569
 30
0.0
  0
SEQEND
  5
5B
330
58
100
AcDbEntity
  8
_U+30EC_U+30A4_U+30E4_U+30FC 1
 62
   179
420
  2234388
370
     9
  0
POLYLINE
  5
5C
330
1F
100
AcDbEntity
  8
_U+30EC_U+30A4_U+30E4_U+30FC 1
 62
   179
420
  2234388
370
     9
100
AcDb2dPolyline
 66
     1
 10
0.0
 20
0.0
 30
0.0
  0
VERTEX
  5
5D
330
5C
100
AcDbEntity
  8
_U+30EC_U+30A4_U+30E4_U+30FC 1
 62
   179
420
  2234388
370
     9
100
AcDbVertex
100
AcDb2dVertex
 10
79.1699988135384
 20
-123.742661635731
 30
0.0
  0
VERTEX
  5
5E
330
5C
100
AcDbEntity
  8
_U+30EC_U+30A4_U+30E4_U+30FC 1
 62
   179
420
  2234388
370
     9
100
AcDbVertex
100
AcDb2dVertex
 10
76.57171999093713
 20
-121.2594235807963
 30
0.0
  0
SEQEND
  5
5F
330
5C
100
AcDbEntity
  8
_U+30EC_U+30A4_U+30E4_U+30FC 1
 62
   179
420
  2234388
370
     9
  0
POLYLINE
  5
60
330
1F
100
AcDbEntity
  8
_U+30EC_U+30A4_U+30E4_U+30FC 1
 62
   179
420
  2234388
370
     9
100
AcDb2dPolyline
 66
     1
 10
0.0
 20
0.0
 30
0.0
  0
VERTEX
  5
61
330
60
100
AcDbEntity
  8
_U+30EC_U+30A4_U+30E4_U+30FC 1
 62
   179
420
  2234388
370
     9
100
AcDbVertex
100
AcDb2dVertex
 10
79.1699988135384
 20
-123.742661635731
 30
0.0
  0
VERTEX
  5
62
330
60
100
AcDbEntity
  8
_U+30EC_U+30A4_U+30E4_U+30FC 1
 62
   179
420
  2234388
370
     9
100
AcDbVertex
100
AcDb2dVertex
 10
78.26741689212074
 20
-123.2210796914169
 30
0.0
  0
SEQEND
  5
63
330
60
100
AcDbEntity
  8
_U+30EC_U+30A4_U+30E4_U+30FC 1
 62
   179
420
  2234388
370
     9
  0
INSERT
  5
65
330
1F
100
AcDbEntity
  8
_U+30EC_U+30A4_U+30E4_U+30FC 1
100
AcDbBlockReference
  2
block 3
 10
0.0
 20
0.0
 30
0.0
  0
SPLINE
  5
6D
330
1F
100
AcDbEntity
  8
_U+30EC_U+30A4_U+30E4_U+30FC 1
 62
   179
420
  2234388
370
     9
100
AcDbSpline
210
0.0
220
0.0
230
1.0
 70
    11
 71
     3
 72
    17
 73
    13
 74
     0
 42
0.0000000001
 43
0.0000000001
 12
1.0
 22
0.0
 32
0.0
 13
1.0
 23
0.0
 33
0.0
 40
0.0
 40
0.0
 40
0.0
 40
0.0
 40
1.0
 40
1.0
 40
1.0
 40
2.0
 40
2.0
 40
2.0
 40
3.0
 40
3.0
 40
3.0
 40
4.0
 40
4.0
 40
4.0
 40
4.0
 10
103.8603151280804
 20
-131.488603300461
 30
0.0
 10
103.8603151280804
 20
-131.433499411586
 30
0.0
 10
103.8155476292225
 20
-131.3886966338193
 30
0.0
 10
103.7604110851709
 20
-131.3886966338193
 30
0.0
 10
103.7053045764795
 20
-131.3886966338193
 30
0.0
 10
103.6605017998447
 20
-131.433499411586
 30
0.0
 10
103.6605017998447
 20
-131.488603300461
 30
0.0
 10
103.6605017998447
 20
-131.543742467114
 30
0.0
 10
103.7053045764795
 20
-131.5885099671026
 30
0.0
 10
103.7604110851709
 20
-131.5885099671026
 30
0.0
 10
103.8155476292225
 20
-131.5885099671026
 30
0.0
 10
103.8603151280804
 20
-131.543742467114
 30
0.0
 10
103.8603151280804
 20
-131.488603300461
 30
0.0
  0
SPLINE
  5
6E
330
1F
100
AcDbEntity
  8
_U+30EC_U+30A4_U+30E4_U+30FC 1
 62
   179
420
  2234388
370
     9
100
AcDbSpline
210
0.0
220
0.0
230
1.0
 70
    11
 71
     3
 72
    17
 73
    13
 74
     0
 42
0.0000000001
 43
0.0000000001
 12
1.0
 22
0.0
 32
0.0
 13
1.0
 23
0.0
 33
0.0
 40
0.0
 40
0.0
 40
0.0
 40
0.0
 40
1.0
 40
1.0
 40
1.0
 40
2.0
 40
2.0
 40
2.0
 40
3.0
 40
3.0
 40
3.0
 40
4.0
 40
4.0
 40
4.0
 40
4.0
 10
103.8603151280804
 20
-132.4883755224335
 30
0.0
 10
103.8603151280804
 20
-132.4339419113359
 30
0.0
 10
103.8155476292225
 20
-132.3884688557919
 30
0.0
 10
103.7604110851709
 20
-132.3884688557919
 30
0.0
 10
103.7053045764795
 20
-132.3884688557919
 30
0.0
 10
103.6605017998447
 20
-132.4339419113359
 30
0.0
 10
103.6605017998447
 20
-132.4883755224335
 30
0.0
 10
103.6605017998447
 20
-132.5435146890866
 30
0.0
 10
103.7053045764795
 20
-132.5882821890751
 30
0.0
 10
103.7604110851709
 20
-132.5882821890751
 30
0.0
 10
103.8155476292225
 20
-132.5882821890751
 30
0.0
 10
103.8603151280804
 20
-132.5435146890866
 30
0.0
 10
103.8603151280804
 20
-132.4883755224335
 30
0.0
  0
SPLINE
  5
6F
330
1F
100
AcDbEntity
  8
_U+30EC_U+30A4_U+30E4_U+30FC 1
 62
   179
420
  2234388
370
     9
100
AcDbSpline
210
0.0
220
0.0
230
1.0
 70
    11
 71
     3
 72
    17
 73
    13
 74
     0
 42
0.0000000001
 43
0.0000000001
 12
1.0
 22
0.0
 32
0.0
 13
1.0
 23
0.0
 33
0.0
 40
0.0
 40
0.0
 40
0.0
 40
0.0
 40
1.0
 40
1.0
 40
1.0
 40
2.0
 40
2.0
 40
2.0
 40
3.0
 40
3.0
 40
3.0
 40
4.0
 40
4.0
 40
4.0
 40
4.0
 10
91.24988572757702
 20
-136.4888402436553
 30
0.0
 10
91.24988572757702
 20
-136.4340538547806
 30
0.0
 10
91.20511822871914
 20
-136.3889335770136
 30
0.0
 10
91.14997906345918
 20
-136.3889335770136
 30
0.0
 10
91.0952279537449
 20
-136.3889335770136
 30
0.0
 10
91.05042517711013
 20
-136.4340538547806
 30
0.0
 10
91.05042517711013
 20
-136.4888402436553
 30
0.0
 10
91.05042517711013
 20
-136.5439441325308
 30
0.0
 10
91.0952279537449
 20
-136.5887469102975
 30
0.0
 10
91.14997906345918
 20
-136.5887469102975
 30
0.0
 10
91.20511822871914
 20
-136.5887469102975
 30
0.0
 10
91.24988572757702
 20
-136.5439441325308
 30
0.0
 10
91.24988572757702
 20
-136.4888402436553
 30
0.0
  0
SPLINE
  5
70
330
1F
100
AcDbEntity
  8
_U+30EC_U+30A4_U+30E4_U+30FC 1
 62
   179
420
  2234388
370
     9
100
AcDbSpline
210
0.0
220
0.0
230
1.0
 70
    11
 71
     3
 72
    17
 73
    13
 74
     0
 42
0.0000000001
 43
0.0000000001
 12
1.0
 22
0.0
 32
0.0
 13
1.0
 23
0.0
 33
0.0
 40
0.0
 40
0.0
 40
0.0
 40
0.0
 40
1.0
 40
1.0
 40
1.0
 40
2.0
 40
2.0
 40
2.0
 40
3.0
 40
3.0
 40
3.0
 40
4.0
 40
4.0
 40
4.0
 40
4.0
 10
79.2499382559434
 20
-136.4888402436553
 30
0.0
 10
79.2499382559434
 20
-136.4340538547806
 30
0.0
 10
79.20517075708553
 20
-136.3889335770136
 30
0.0
 10
79.15003159182558
 20
-136.3889335770136
 30
0.0
 10
79.09492770434251
 20
-136.3889335770136
 30
0.0
 10
79.05012492770774
 20
-136.4340538547806
 30
0.0
 10
79.05012492770774
 20
-136.4888402436553
 30
0.0
 10
79.05012492770774
 20
-136.5439441325308
 30
0.0
 10
79.09492770434251
 20
-136.5887469102975
 30
0.0
 10
79.15003159182558
 20
-136.5887469102975
 30
0.0
 10
79.20517075708553
 20
-136.5887469102975
 30
0.0
 10
79.2499382559434
 20
-136.5439441325308
 30
0.0
 10
79.2499382559434
 20
-136.4888402436553
 30
0.0
  0
POLYLINE
  5
71
330
1F
100
AcDbEntity
  8
_U+30EC_U+30A4_U+30E4_U+30FC 1
 62
   179
420
  2234388
370
     9
100
AcDb2dPolyline
 66
     1
 10
0.0
 20
0.0
 30
0.0
  0
VERTEX
  5
72
330
71
100
AcDbEntity
  8
_U+30EC_U+30A4_U+30E4_U+30FC 1
 62
   179
420
  2234388
370
     9
100
AcDbVertex
100
AcDb2dVertex
 10
79.15003159182558
 20
-136.4888402436553
 30
0.0
  0
VERTEX
  5
73
330
71
100
AcDbEntity
  8
_U+30EC_U+30A4_U+30E4_U+30FC 1
 62
   179
420
  2234388
370
     9
100
AcDbVertex
100
AcDb2dVertex
 10
101.1504174194379
 20
-136.4888402436553
 30
0.0
  0
SEQEND
  5
74
330
71
100
AcDbEntity
  8
_U+30EC_U+30A4_U+30E4_U+30FC 1
 62
   179
420
  2234388
370
     9
  0
POLYLINE
  5
75
330
1F
100
AcDbEntity
  8
_U+30EC_U+30A4_U+30E4_U+30FC 1
 62
   179
420
  2234388
370
     9
100
AcDb2dPolyline
 66
     1
 10
0.0
 20
0.0
 30
0.0
  0
VERTEX
  5
76
330
75
100
AcDbEntity
  8
_U+30EC_U+30A4_U+30E4_U+30FC 1
 62
   179
420
  2234388
370
     9
100
AcDbVertex
100
AcDb2dVertex
 10
79.15003159182558
 20
-135.0287988551316
 30
0.0
  0
VERTEX
  5
77
330
75
100
AcDbEntity
  8
_U+30EC_U+30A4_U+30E4_U+30FC 1
 62
   179
420
  2234388
370
     9
100
AcDbVertex
100
AcDb2dVertex
 10
79.15003159182558
 20
-137.488929965628
 30
0.0
  0
SEQEND
  5
78
330
75
100
AcDbEntity
  8
_U+30EC_U+30A4_U+30E4_U+30FC 1
 62
   179
420
  2234388
370
     9
  0
POLYLINE
  5
79
330
1F
100
AcDbEntity
  8
_U+30EC_U+30A4_U+30E4_U+30FC 1
 62
   179
420
  2234388
370
     9
100
AcDb2dPolyline
 66
     1
 10
0.0
 20
0.0
 30
0.0
  0
VERTEX
  5
7A
330
79
100
AcDbEntity
  8
_U+30EC_U+30A4_U+30E4_U+30FC 1
 62
   179
420
  2234388
370
     9
100
AcDbVertex
100
AcDb2dVertex
 10
91.14997906345918
 20
-135.0287988551316
 30
0.0
  0
VERTEX
  5
7B
330
79
100
AcDbEntity
  8
_U+30EC_U+30A4_U+30E4_U+30FC 1
 62
   179
420
  2234388
370
     9
100
AcDbVertex
100
AcDb2dVertex
 10
91.14997906345918
 20
-137.488929965628
 30
0.0
  0
SEQEND
  5
7C
330
79
100
AcDbEntity
  8
_U+30EC_U+30A4_U+30E4_U+30FC 1
 62
   179
420
  2234388
370
     9
  0
SPLINE
  5
7D
330
1F
100
AcDbEntity
  8
_U+30EC_U+30A4_U+30E4_U+30FC 1
 62
   179
420
  2234388
370
     9
100
AcDbSpline
210
0.0
220
0.0
230
1.0
 70
    11
 71
     3
 72
    17
 73
    13
 74
     0
 42
0.0000000001
 43
0.0000000001
 12
1.0
 22
0.0
 32
0.0
 13
1.0
 23
0.0
 33
0.0
 40
0.0
 40
0.0
 40
0.0
 40
0.0
 40
1.0
 40
1.0
 40
1.0
 40
2.0
 40
2.0
 40
2.0
 40
3.0
 40
3.0
 40
3.0
 40
4.0
 40
4.0
 40
4.0
 40
4.0
 10
101.2503240835557
 20
-136.4888402436553
 30
0.0
 10
101.2503240835557
 20
-136.4340538547806
 30
0.0
 10
101.2055213069209
 20
-136.3889335770136
 30
0.0
 10
101.1504174194379
 20
-136.3889335770136
 30
0.0
 10
101.0952782541779
 20
-136.3889335770136
 30
0.0
 10
101.05051075532
 20
-136.4340538547806
 30
0.0
 10
101.05051075532
 20
-136.4888402436553
 30
0.0
 10
101.05051075532
 20
-136.5439441325308
 30
0.0
 10
101.0952782541779
 20
-136.5887469102975
 30
0.0
 10
101.1504174194379
 20
-136.5887469102975
 30
0.0
 10
101.2055213069209
 20
-136.5887469102975
 30
0.0
 10
101.2503240835557
 20
-136.5439441325308
 30
0.0
 10
101.2503240835557
 20
-136.4888402436553
 30
0.0
  0
POLYLINE
  5
7E
330
1F
100
AcDbEntity
  8
_U+30EC_U+30A4_U+30E4_U+30FC 1
 62
   179
420
  2234388
370
     9
100
AcDb2dPolyline
 66
     1
 10
0.0
 20
0.0
 30
0.0
  0
VERTEX
  5
7F
330
7E
100
AcDbEntity
  8
_U+30EC_U+30A4_U+30E4_U+30FC 1
 62
   179
420
  2234388
370
     9
100
AcDbVertex
100
AcDb2dVertex
 10
101.1504174194379
 20
-135.0287988551316
 30
0.0
  0
VERTEX
  5
80
330
7E
100
AcDbEntity
  8
_U+30EC_U+30A4_U+30E4_U+30FC 1
 62
   179
420
  2234388
370
     9
100
AcDbVertex
100
AcDb2dVertex
 10
101.1504174194379
 20
-137.488929965628
 30
0.0
  0
SEQEND
  5
81
330
7E
100
AcDbEntity
  8
_U+30EC_U+30A4_U+30E4_U+30FC 1
 62
   179
420
  2234388
370
     9
  0
INSERT
  5
83
330
1F
100
AcDbEntity
  8
_U+30EC_U+30A4_U+30E4_U+30FC 1
100
AcDbBlockReference
  2
block 4
 10
0.0
 20
0.0
 30
0.0
  0
INSERT
  5
8B
330
1F
100
AcDbEntity
  8
_U+30EC_U+30A4_U+30E4_U+30FC 1
100
AcDbBlockReference
  2
block 5
 10
0.0
 20
0.0
 30
0.0
  0
POLYLINE
  5
93
330
1F
100
AcDbEntity
  8
_U+30EC_U+30A4_U+30E4_U+30FC 1
 62
   179
420
  2234388
370
     9
100
AcDb2dPolyline
 66
     1
 10
0.0
 20
0.0
 30
0.0
  0
VERTEX
  5
94
330
93
100
AcDbEntity
  8
_U+30EC_U+30A4_U+30E4_U+30FC 1
 62
   179
420
  2234388
370
     9
100
AcDbVertex
100
AcDb2dVertex
 10
103.7604110851709
 20
-123.4884146913501
 30
0.0
  0
VERTEX
  5
95
330
93
100
AcDbEntity
  8
_U+30EC_U+30A4_U+30E4_U+30FC 1
 62
   179
420
  2234388
370
     9
100
AcDbVertex
100
AcDb2dVertex
 10
103.7604110851709
 20
-132.4883755224335
 30
0.0
  0
SEQEND
  5
96
330
93
100
AcDbEntity
  8
_U+30EC_U+30A4_U+30E4_U+30FC 1
 62
   179
420
  2234388
370
     9
  0
POLYLINE
  5
97
330
1F
100
AcDbEntity
  8
_U+30EC_U+30A4_U+30E4_U+30FC 1
 62
   179
420
  2234388
370
     9
100
AcDb2dPolyline
 66
     1
 10
0.0
 20
0.0
 30
0.0
  0
VERTEX
  5
98
330
97
100
AcDbEntity
  8
_U+30EC_U+30A4_U+30E4_U+30FC 1
 62
   179
420
  2234388
370
     9
100
AcDbVertex
100
AcDb2dVertex
 10
102.3004023900993
 20
-131.488603300461
 30
0.0
  0
VERTEX
  5
99
330
97
100
AcDbEntity
  8
_U+30EC_U+30A4_U+30E4_U+30FC 1
 62
   179
420
  2234388
370
     9
100
AcDbVertex
100
AcDb2dVertex
 10
104.7601833071435
 20
-131.488603300461
 30
0.0
  0
SEQEND
  5
9A
330
97
100
AcDbEntity
  8
_U+30EC_U+30A4_U+30E4_U+30FC 1
 62
   179
420
  2234388
370
     9
  0
SPLINE
  5
9B
330
1F
100
AcDbEntity
  8
_U+30EC_U+30A4_U+30E4_U+30FC 1
 62
   179
420
  2234388
370
     9
100
AcDbSpline
210
0.0
220
0.0
230
1.0
 70
    11
 71
     3
 72
    17
 73
    13
 74
     0
 42
0.0000000001
 43
0.0000000001
 12
1.0
 22
0.0
 32
0.0
 13
1.0
 23
0.0
 33
0.0
 40
0.0
 40
0.0
 40
0.0
 40
0.0
 40
1.0
 40
1.0
 40
1.0
 40
2.0
 40
2.0
 40
2.0
 40
3.0
 40
3.0
 40
3.0
 40
4.0
 40
4.0
 40
4.0
 40
4.0
 10
103.8603151280804
 20
-123.4884146913501
 30
0.0
 10
103.8603151280804
 20
-123.4332755246974
 30
0.0
 10
103.8155476292225
 20
-123.3885080247085
 30
0.0
 10
103.7604110851709
 20
-123.3885080247085
 30
0.0
 10
103.7053045764795
 20
-123.3885080247085
 30
0.0
 10
103.6605017998447
 20
-123.4332755246974
 30
0.0
 10
103.6605017998447
 20
-123.4884146913501
 30
0.0
 10
103.6605017998447
 20
-123.5435185802254
 30
0.0
 10
103.7053045764795
 20
-123.5883213579918
 30
0.0
 10
103.7604110851709
 20
-123.5883213579918
 30
0.0
 10
103.8155476292225
 20
-123.5883213579918
 30
0.0
 10
103.8603151280804
 20
-123.5435185802254
 30
0.0
 10
103.8603151280804
 20
-123.4884146913501
 30
0.0
  0
POLYLINE
  5
9C
330
1F
100
AcDbEntity
  8
_U+30EC_U+30A4_U+30E4_U+30FC 1
 62
   179
420
  2234388
370
     9
100
AcDb2dPolyline
 66
     1
 10
0.0
 20
0.0
 30
0.0
  0
VERTEX
  5
9D
330
9C
100
AcDbEntity
  8
_U+30EC_U+30A4_U+30E4_U+30FC 1
 62
   179
420
  2234388
370
     9
100
AcDbVertex
100
AcDb2dVertex
 10
102.3004023900993
 20
-123.4884146913501
 30
0.0
  0
VERTEX
  5
9E
330
9C
100
AcDbEntity
  8
_U+30EC_U+30A4_U+30E4_U+30FC 1
 62
   179
420
  2234388
370
     9
100
AcDbVertex
100
AcDb2dVertex
 10
104.7601833071435
 20
-123.4884146913501
 30
0.0
  0
SEQEND
  5
9F
330
9C
100
AcDbEntity
  8
_U+30EC_U+30A4_U+30E4_U+30FC 1
 62
   179
420
  2234388
370
     9
  0
POLYLINE
  5
A0
330
1F
100
AcDbEntity
  8
_U+30EC_U+30A4_U+30E4_U+30FC 1
 62
   179
420
  2234388
370
     9
100
AcDb2dPolyline
 66
     1
 10
0.0
 20
0.0
 30
0.0
  0
VERTEX
  5
A1
330
A0
100
AcDbEntity
  8
_U+30EC_U+30A4_U+30E4_U+30FC 1
 62
   179
420
  2234388
370
     9
100
AcDbVertex
100
AcDb2dVertex
 10
102.3004023900993
 20
-132.4883755224335
 30
0.0
  0
VERTEX
  5
A2
330
A0
100
AcDbEntity
  8
_U+30EC_U+30A4_U+30E4_U+30FC 1
 62
   179
420
  2234388
370
     9
100
AcDbVertex
100
AcDb2dVertex
 10
104.7601833071435
 20
-132.4883755224335
 30
0.0
  0
SEQEND
  5
A3
330
A0
100
AcDbEntity
  8
_U+30EC_U+30A4_U+30E4_U+30FC 1
 62
   179
420
  2234388
370
     9
  0
INSERT
  5
A5
330
1F
100
AcDbEntity
  8
_U+30EC_U+30A4_U+30E4_U+30FC 1
100
AcDbBlockReference
  2
block 6
 10
0.0
 20
0.0
 30
0.0
  0
INSERT
  5
AB
330
1F
100
AcDbEntity
  8
_U+30EC_U+30A4_U+30E4_U+30FC 1
100
AcDbBlockReference
  2
block 7
 10
0.0
 20
0.0
 30
0.0
  0
POLYLINE
  5
B2
330
1F
100
AcDbEntity
  8
_U+30EC_U+30A4_U+30E4_U+30FC 1
 62
   179
420
  2234388
370
     9
100
AcDb2dPolyline
 66
     1
 10
0.0
 20
0.0
 30
0.0
  0
VERTEX
  5
B3
330
B2
100
AcDbEntity
  8
_U+30EC_U+30A4_U+30E4_U+30FC 1
 62
   179
420
  2234388
370
     9
100
AcDbVertex
100
AcDb2dVertex
 10
102.3004023900993
 20
-132.4883755224335
 30
0.0
  0
VERTEX
  5
B4
330
B2
100
AcDbEntity
  8
_U+30EC_U+30A4_U+30E4_U+30FC 1
 62
   179
420
  2234388
370
     9
100
AcDbVertex
100
AcDb2dVertex
 10
104.7601833071435
 20
-132.4883755224335
 30
0.0
  0
SEQEND
  5
B5
330
B2
100
AcDbEntity
  8
_U+30EC_U+30A4_U+30E4_U+30FC 1
 62
   179
420
  2234388
370
     9
  0
ENDSEC
  0
SECTION
  2
OBJECTS
  0
DICTIONARY
  5
C
330
0
100
AcDbDictionary
281
     1
  3
ACAD_GROUP
350
D
  3
ACAD_LAYOUT
350
1A
  3
ACAD_MATERIAL
350
3B
  3
ACAD_MLEADERSTYLE
350
B7
  3
ACAD_MLINESTYLE
350
17
  3
ACAD_PLOTSETTINGS
350
19
  3
ACAD_PLOTSTYLENAME
350
E
  3
ACAD_TABLESTYLE
350
B6
  3
ACAD_VISUALSTYLE
350
2A
  0
SUN
  5
3F
330
29
100
AcDbSun
 90
        1
290
     0
 63
     7
421
 16777215
 40
1.0
291
     1
 91
  2455826
 92
 54000000
292
     0
 70
     2
 71
   256
280
     1
  0
DICTIONARY
  5
D
102
{ACAD_REACTORS
330
C
102
}
330
C
100
AcDbDictionary
281
     1
  0
DICTIONARY
  5
1A
102
{ACAD_REACTORS
330
C
102
}
330
C
100
AcDbDictionary
281
     1
  3
Layout1
350
1E
  3
Layout2
350
26
  3
Model
350
22
  0
DICTIONARY
  5
3B
102
{ACAD_REACTORS
330
C
102
}
330
C
100
AcDbDictionary
281
     1
  3
ByBlock
350
3D
  3
ByLayer
350
3C
  3
Global
350
3E
  0
DICTIONARY
  5
B7
102
{ACAD_REACTORS
330
C
102
}
330
C
100
AcDbDictionary
281
     1
  0
DICTIONARY
  5
17
102
{ACAD_REACTORS
330
C
102
}
330
C
100
AcDbDictionary
281
     1
  3
Standard
350
18
  0
DICTIONARY
  5
19
102
{ACAD_REACTORS
330
C
102
}
330
C
100
AcDbDictionary
281
     1
  0
ACDBDICTIONARYWDFLT
  5
E
102
{ACAD_REACTORS
330
C
102
}
330
C
100
AcDbDictionary
281
     1
  3
Normal
350
F
100
AcDbDictionaryWithDefault
340
F
  0
DICTIONARY
  5
B6
102
{ACAD_REACTORS
330
C
102
}
330
C
100
AcDbDictionary
281
     1
  0
DICTIONARY
  5
2A
102
{ACAD_REACTORS
330
C
102
}
330
C
100
AcDbDictionary
281
     1
  3
2dWireframe
350
2F
  3
3D Hidden
350
31
  3
3dWireframe
350
30
  3
Basic
350
32
  3
Brighten
350
36
  3
ColorChange
350
3A
  3
Conceptual
350
34
  3
Dim
350
35
  3
Facepattern
350
39
  3
Flat
350
2B
  3
FlatWithEdges
350
2C
  3
Gouraud
350
2D
  3
GouraudWithEdges
350
2E
  3
Linepattern
350
38
  3
Realistic
350
33
  3
Thicken
350
37
  0
LAYOUT
  5
1E
102
{ACAD_REACTORS
330
1A
102
}
330
1A
100
AcDbPlotSettings
  1

  2
none_device
  4

  6

 40
0.0
 41
0.0
 42
0.0
 43
0.0
 44
0.0
 45
0.0
 46
0.0
 47
0.0
 48
0.0
 49
0.0
140
0.0
141
0.0
142
1.0
143
1.0
 70
   688
 72
     0
 73
     0
 74
     5
  7

 75
    16
 76
     0
 77
     2
 78
   300
147
1.0
148
0.0
149
0.0
100
AcDbLayout
  1
Layout1
 70
     1
 71
     1
 10
0.0
 20
0.0
 11
12.0
 21
9.0
 12
0.0
 22
0.0
 32
0.0
 14
1.000000000000000E+20
 24
1.000000000000000E+20
 34
1.000000000000000E+20
 15
-1.000000000000000E+20
 25
-1.000000000000000E+20
 35
-1.000000000000000E+20
146
0.0
 13
0.0
 23
0.0
 33
0.0
 16
1.0
 26
0.0
 36
0.0
 17
0.0
 27
1.0
 37
0.0
 76
     0
330
1B
  0
LAYOUT
  5
26
102
{ACAD_REACTORS
330
1A
102
}
330
1A
100
AcDbPlotSettings
  1

  2
none_device
  4

  6

 40
0.0
 41
0.0
 42
0.0
 43
0.0
 44
0.0
 45
0.0
 46
0.0
 47
0.0
 48
0.0
 49
0.0
140
0.0
141
0.0
142
1.0
143
1.0
 70
   688
 72
     0
 73
     0
 74
     5
  7

 75
    16
 76
     0
 77
     2
 78
   300
147
1.0
148
0.0
149
0.0
100
AcDbLayout
  1
Layout2
 70
     1
 71
     2
 10
0.0
 20
0.0
 11
0.0
 21
0.0
 12
0.0
 22
0.0
 32
0.0
 14
0.0
 24
0.0
 34
0.0
 15
0.0
 25
0.0
 35
0.0
146
0.0
 13
0.0
 23
0.0
 33
0.0
 16
1.0
 26
0.0
 36
0.0
 17
0.0
 27
1.0
 37
0.0
 76
     0
330
23
  0
LAYOUT
  5
22
102
{ACAD_REACTORS
330
1A
102
}
330
1A
100
AcDbPlotSettings
  1

  2
none_device
  4

  6

 40
0.0
 41
0.0
 42
0.0
 43
0.0
 44
0.0
 45
0.0
 46
0.0
 47
0.0
 48
0.0
 49
0.0
140
0.0
141
0.0
142
1.0
143
1.0
 70
  1712
 72
     0
 73
     0
 74
     0
  7

 75
     0
 76
     0
 77
     2
 78
   300
147
1.0
148
0.0
149
0.0
100
AcDbLayout
  1
Model
 70
     1
 71
     0
 10
0.0
 20
0.0
 11
12.0
 21
9.0
 12
0.0
 22
0.0
 32
0.0
 14
1.000000000000000E+20
 24
1.000000000000000E+20
 34
1.000000000000000E+20
 15
-1.000000000000000E+20
 25
-1.000000000000000E+20
 35
-1.000000000000000E+20
146
0.0
 13
0.0
 23
0.0
 33
0.0
 16
1.0
 26
0.0
 36
0.0
 17
0.0
 27
1.0
 37
0.0
 76
     0
330
1F
331
29
  0
MATERIAL
  5
3D
102
{ACAD_REACTORS
330
3B
102
}
330
3B
100
AcDbMaterial
  1
ByBlock
 72
     1
 94
      127
  0
MATERIAL
  5
3C
102
{ACAD_REACTORS
330
3B
102
}
330
3B
100
AcDbMaterial
  1
ByLayer
 72
     1
 94
      127
  0
MATERIAL
  5
3E
102
{ACAD_REACTORS
330
3B
102
}
330
3B
100
AcDbMaterial
  1
Global
 72
     1
 94
      127
  0
MLINESTYLE
  5
18
102
{ACAD_REACTORS
330
17
102
}
330
17
100
AcDbMlineStyle
  2
Standard
 70
     0
  3

 62
   256
 51
90.0
 52
90.0
 71
     2
 49
0.5
 62
   256
  6
BYLAYER
 49
-0.5
 62
   256
  6
BYLAYER
  0
ACDBPLACEHOLDER
  5
F
102
{ACAD_REACTORS
330
E
102
}
330
E
  0
VISUALSTYLE
  5
2F
102
{ACAD_REACTORS
330
2A
102
}
330
2A
100
AcDbVisualStyle
  2
2dWireframe
 70
     4
177
     2
291
     0
 71
     0
176
     1
 72
     2
176
     1
 73
     0
176
     1
 90
        0
176
     1
 40
-0.6
176
     1
 41
-30.0
176
     1
 62
     5
 63
     7
421
 16777215
176
     1
 74
     1
176
     1
 91
        4
176
     1
 64
     7
176
     1
 65
   257
176
     1
 75
     1
176
     1
175
     1
176
     1
 42
1.0
176
     1
 92
        0
176
     1
 66
   257
176
     1
 43
1.0
176
     1
 76
     1
176
     1
 77
     6
176
     1
 78
     2
176
     1
 67
     7
176
     1
 79
     5
176
     1
170
     0
176
     1
171
     0
176
     1
290
     0
176
     1
 93
        1
176
     1
 44
0.0
176
     1
173
     0
176
     1
  0
VISUALSTYLE
  5
31
102
{ACAD_REACTORS
330
2A
102
}
330
2A
100
AcDbVisualStyle
  2
3D Hidden
 70
     6
177
     2
291
     0
 71
     1
176
     1
 72
     2
176
     1
 73
     2
176
     1
 90
        0
176
     1
 40
-0.6
176
     1
 41
-30.0
176
     1
 62
     5
 63
     7
421
 16777215
176
     1
 74
     2
176
     1
 91
        2
176
     1
 64
     7
176
     1
 65
   257
176
     1
 75
     2
176
     1
175
     1
176
     1
 42
40.0
176
     1
 92
        0
176
     1
 66
   257
176
     1
 43
1.0
176
     1
 76
     1
176
     1
 77
     6
176
     1
 78
     2
176
     1
 67
     7
176
     1
 79
     3
176
     1
170
     0
176
     1
171
     0
176
     1
290
     0
176
     1
 93
        1
176
     1
 44
0.0
176
     1
173
     0
176
     1
  0
VISUALSTYLE
  5
30
102
{ACAD_REACTORS
330
2A
102
}
330
2A
100
AcDbVisualStyle
  2
3dWireframe
 70
     5
177
     2
291
     0
 71
     0
176
     1
 72
     2
176
     1
 73
     0
176
     1
 90
        0
176
     1
 40
-0.6
176
     1
 41
-30.0
176
     1
 62
     5
 63
     7
421
 16777215
176
     1
 74
     1
176
     1
 91
        4
176
     1
 64
     7
176
     1
 65
   257
176
     1
 75
     1
176
     1
175
     1
176
     1
 42
1.0
176
     1
 92
        0
176
     1
 66
   257
176
     1
 43
1.0
176
     1
 76
     1
176
     1
 77
     6
176
     1
 78
     2
176
     1
 67
     7
176
     1
 79
     5
176
     1
170
     0
176
     1
171
     0
176
     1
290
     0
176
     1
 93
        1
176
     1
 44
0.0
176
     1
173
     0
176
     1
  0
VISUALSTYLE
  5
32
102
{ACAD_REACTORS
330
2A
102
}
330
2A
100
AcDbVisualStyle
  2
Basic
 70
     7
177
     2
291
     1
 71
     1
176
     1
 72
     0
176
     1
 73
     1
176
     1
 90
        0
176
     1
 40
-0.6
176
     1
 41
-30.0
176
     1
 62
     5
 63
     7
421
 16777215
176
     1
 74
     0
176
     1
 91
        4
176
     1
 64
     7
176
     1
 65
   257
176
     1
 75
     1
176
     1
175
     1
176
     1
 42
1.0
176
     1
 92
        8
176
     1
 66
     7
176
     1
 43
1.0
176
     1
 76
     1
176
     1
 77
     6
176
     1
 78
     2
176
     1
 67
     7
176
     1
 79
     5
176
     1
170
     0
176
     1
171
     0
176
     1
290
     0
176
     1
 93
        1
176
     1
 44
0.0
176
     1
173
     0
176
     1
  0
VISUALSTYLE
  5
36
102
{ACAD_REACTORS
330
2A
102
}
330
2A
100
AcDbVisualStyle
  2
Brighten
 70
    12
177
     2
291
     1
 71
     2
176
     1
 72
     2
176
     1
 73
     0
176
     1
 90
        0
176
     1
 40
-0.6
176
     1
 41
-30.0
176
     1
 62
     5
 63
     7
421
 16777215
176
     1
 74
     1
176
     1
 91
        4
176
     1
 64
     7
176
     1
 65
   257
176
     1
 75
     1
176
     1
175
     1
176
     1
 42
1.0
176
     1
 92
        8
176
     1
 66
     7
176
     1
 43
1.0
176
     1
 76
     1
176
     1
 77
     6
176
     1
 78
     2
176
     1
 67
     7
176
     1
 79
     5
176
     1
170
     0
176
     1
171
     0
176
     1
290
     0
176
     1
 93
        1
176
     1
 44
50.0
176
     1
173
     0
176
     1
  0
VISUALSTYLE
  5
3A
102
{ACAD_REACTORS
330
2A
102
}
330
2A
100
AcDbVisualStyle
  2
ColorChange
 70
    16
177
     2
291
     1
 71
     2
176
     1
 72
     2
176
     1
 73
     3
176
     1
 90
        0
176
     1
 40
-0.6
176
     1
 41
-30.0
176
     1
 62
     5
 63
     8
421
  8421504
176
     1
 74
     1
176
     1
 91
        4
176
     1
 64
     7
176
     1
 65
   257
176
     1
 75
     1
176
     1
175
     1
176
     1
 42
1.0
176
     1
 92
        8
176
     1
 66
     8
424
  8421504
176
     1
 43
1.0
176
     1
 76
     1
176
     1
 77
     6
176
     1
 78
     2
176
     1
 67
     7
176
     1
 79
     5
176
     1
170
     0
176
     1
171
     0
176
     1
290
     0
176
     1
 93
        1
176
     1
 44
0.0
176
     1
173
     0
176
     1
  0
VISUALSTYLE
  5
34
102
{ACAD_REACTORS
330
2A
102
}
330
2A
100
AcDbVisualStyle
  2
Conceptual
 70
     9
177
     2
291
     0
 71
     3
176
     1
 72
     2
176
     1
 73
     0
176
     1
 90
        0
176
     1
 40
-0.6
176
     1
 41
-30.0
176
     1
 62
     5
 63
     7
421
 16777215
176
     1
 74
     2
176
     1
 91
        2
176
     1
 64
     7
176
     1
 65
   257
176
     1
 75
     1
176
     1
175
     1
176
     1
 42
40.0
176
     1
 92
        8
176
     1
 66
     7
176
     1
 43
1.0
176
     1
 76
     1
176
     1
 77
     6
176
     1
 78
     2
176
     1
 67
     7
176
     1
 79
     3
176
     1
170
     0
176
     1
171
     0
176
     1
290
     0
176
     1
 93
        1
176
     1
 44
0.0
176
     1
173
     0
176
     1
  0
VISUALSTYLE
  5
35
102
{ACAD_REACTORS
330
2A
102
}
330
2A
100
AcDbVisualStyle
  2
Dim
 70
    11
177
     2
291
     1
 71
     2
176
     1
 72
     2
176
     1
 73
     0
176
     1
 90
        0
176
     1
 40
-0.6
176
     1
 41
-30.0
176
     1
 62
     5
 63
     7
421
 16777215
176
     1
 74
     1
176
     1
 91
        4
176
     1
 64
     7
176
     1
 65
   257
176
     1
 75
     1
176
     1
175
     1
176
     1
 42
1.0
176
     1
 92
        8
176
     1
 66
     7
176
     1
 43
1.0
176
     1
 76
     1
176
     1
 77
     6
176
     1
 78
     2
176
     1
 67
     7
176
     1
 79
     5
176
     1
170
     0
176
     1
171
     0
176
     1
290
     0
176
     1
 93
        1
176
     1
 44
-50.0
176
     1
173
     0
176
     1
  0
VISUALSTYLE
  5
39
102
{ACAD_REACTORS
330
2A
102
}
330
2A
100
AcDbVisualStyle
  2
Facepattern
 70
    15
177
     2
291
     1
 71
     2
176
     1
 72
     2
176
     1
 73
     0
176
     1
 90
        0
176
     1
 40
-0.6
176
     1
 41
-30.0
176
     1
 62
     5
 63
     7
421
 16777215
176
     1
 74
     1
176
     1
 91
        4
176
     1
 64
     7
176
     1
 65
   257
176
     1
 75
     1
176
     1
175
     1
176
     1
 42
1.0
176
     1
 92
        8
176
     1
 66
     7
176
     1
 43
1.0
176
     1
 76
     1
176
     1
 77
     6
176
     1
 78
     2
176
     1
 67
     7
176
     1
 79
     5
176
     1
170
     0
176
     1
171
     0
176
     1
290
     0
176
     1
 93
        1
176
     1
 44
0.0
176
     1
173
     0
176
     1
  0
VISUALSTYLE
  5
2B
102
{ACAD_REACTORS
330
2A
102
}
330
2A
100
AcDbVisualStyle
  2
Flat
 70
     0
177
     2
291
     1
 71
     2
176
     1
 72
     1
176
     1
 73
     1
176
     1
 90
        2
176
     1
 40
-0.6
176
     1
 41
30.0
176
     1
 62
     5
 63
     7
421
 16777215
176
     1
 74
     0
176
     1
 91
        4
176
     1
 64
     7
176
     1
 65
   257
176
     1
 75
     1
176
     1
175
     1
176
     1
 42
1.0
176
     1
 92
        8
176
     1
 66
     7
176
     1
 43
1.0
176
     1
 76
     1
176
     1
 77
     6
176
     1
 78
     2
176
     1
 67
     7
176
     1
 79
     5
176
     1
170
     0
176
     1
171
     0
176
     1
290
     0
176
     1
 93
       13
176
     1
 44
0.0
176
     1
173
     0
176
     1
  0
VISUALSTYLE
  5
2C
102
{ACAD_REACTORS
330
2A
102
}
330
2A
100
AcDbVisualStyle
  2
FlatWithEdges
 70
     1
177
     2
291
     1
 71
     2
176
     1
 72
     1
176
     1
 73
     1
176
     1
 90
        2
176
     1
 40
-0.6
176
     1
 41
30.0
176
     1
 62
     5
 63
     7
421
 16777215
176
     1
 74
     1
176
     1
 91
        4
176
     1
 64
     7
176
     1
 65
   257
176
     1
 75
     1
176
     1
175
     1
176
     1
 42
1.0
176
     1
 92
        0
176
     1
 66
   257
176
     1
 43
1.0
176
     1
 76
     1
176
     1
 77
     6
176
     1
 78
     2
176
     1
 67
     7
176
     1
 79
     5
176
     1
170
     0
176
     1
171
     0
176
     1
290
     0
176
     1
 93
       13
176
     1
 44
0.0
176
     1
173
     0
176
     1
  0
VISUALSTYLE
  5
2D
102
{ACAD_REACTORS
330
2A
102
}
330
2A
100
AcDbVisualStyle
  2
Gouraud
 70
     2
177
     2
291
     1
 71
     2
176
     1
 72
     2
176
     1
 73
     1
176
     1
 90
        2
176
     1
 40
-0.6
176
     1
 41
30.0
176
     1
 62
     5
 63
     7
421
 16777215
176
     1
 74
     0
176
     1
 91
        4
176
     1
 64
     7
176
     1
 65
   257
176
     1
 75
     1
176
     1
175
     1
176
     1
 42
1.0
176
     1
 92
        0
176
     1
 66
     7
176
     1
 43
1.0
176
     1
 76
     1
176
     1
 77
     6
176
     1
 78
     2
176
     1
 67
     7
176
     1
 79
     5
176
     1
170
     0
176
     1
171
     0
176
     1
290
     0
176
     1
 93
       13
176
     1
 44
0.0
176
     1
173
     0
176
     1
  0
VISUALSTYLE
  5
2E
102
{ACAD_REACTORS
330
2A
102
}
330
2A
100
AcDbVisualStyle
  2
GouraudWithEdges
 70
     3
177
     2
291
     1
 71
     2
176
     1
 72
     2
176
     1
 73
     1
176
     1
 90
        2
176
     1
 40
-0.6
176
     1
 41
30.0
176
     1
 62
     5
 63
     7
421
 16777215
176
     1
 74
     1
176
     1
 91
        4
176
     1
 64
     7
176
     1
 65
   257
176
     1
 75
     1
176
     1
175
     1
176
     1
 42
1.0
176
     1
 92
        0
176
     1
 66
   257
176
     1
 43
1.0
176
     1
 76
     1
176
     1
 77
     6
176
     1
 78
     2
176
     1
 67
     7
176
     1
 79
     5
176
     1
170
     0
176
     1
171
     0
176
     1
290
     0
176
     1
 93
       13
176
     1
 44
0.0
176
     1
173
     0
176
     1
  0
VISUALSTYLE
  5
38
102
{ACAD_REACTORS
330
2A
102
}
330
2A
100
AcDbVisualStyle
  2
Linepattern
 70
    14
177
     2
291
     1
 71
     2
176
     1
 72
     2
176
     1
 73
     0
176
     1
 90
        0
176
     1
 40
-0.6
176
     1
 41
-30.0
176
     1
 62
     5
 63
     7
421
 16777215
176
     1
 74
     1
176
     1
 91
        4
176
     1
 64
     7
176
     1
 65
   257
176
     1
 75
     7
176
     1
175
     7
176
     1
 42
1.0
176
     1
 92
        8
176
     1
 66
     7
176
     1
 43
1.0
176
     1
 76
     1
176
     1
 77
     6
176
     1
 78
     2
176
     1
 67
     7
176
     1
 79
     5
176
     1
170
     0
176
     1
171
     0
176
     1
290
     0
176
     1
 93
        1
176
     1
 44
0.0
176
     1
173
     0
176
     1
  0
VISUALSTYLE
  5
33
102
{ACAD_REACTORS
330
2A
102
}
330
2A
100
AcDbVisualStyle
  2
Realistic
 70
     8
177
     2
291
     0
 71
     2
176
     1
 72
     2
176
     1
 73
     0
176
     1
 90
        0
176
     1
 40
-0.6
176
     1
 41
-30.0
176
     1
 62
     5
 63
     7
421
 16777215
176
     1
 74
     1
176
     1
 91
        0
176
     1
 64
     7
176
     1
 65
   257
176
     1
 75
     1
176
     1
175
     1
176
     1
 42
1.0
176
     1
 92
        8
176
     1
 66
     8
424
  7895160
176
     1
 43
1.0
176
     1
 76
     1
176
     1
 77
     6
176
     1
 78
     2
176
     1
 67
     7
176
     1
 79
     5
176
     1
170
     0
176
     1
171
     0
176
     1
290
     0
176
     1
 93
       13
176
     1
 44
0.0
176
     1
173
     0
176
     1
  0
VISUALSTYLE
  5
37
102
{ACAD_REACTORS
330
2A
102
}
330
2A
100
AcDbVisualStyle
  2
Thicken
 70
    13
177
     2
291
     1
 71
     2
176
     1
 72
     2
176
     1
 73
     0
176
     1
 90
        0
176
     1
 40
-0.6
176
     1
 41
-30.0
176
     1
 62
     5
 63
     7
421
 16777215
176
     1
 74
     1
176
     1
 91
        4
176
     1
 64
     7
176
     1
 65
   257
176
     1
 75
     1
176
     1
175
     1
176
     1
 42
1.0
176
     1
 92
       12
176
     1
 66
     7
176
     1
 43
1.0
176
     1
 76
     1
176
     1
 77
     6
176
     1
 78
     2
176
     1
 67
     7
176
     1
 79
     5
176
     1
170
     0
176
     1
171
     0
176
     1
290
     0
176
     1
 93
        1
176
     1
 44
0.0
176
     1
173
     0
176
     1
  0
ENDSEC
  0
EOF
