  0
SECTION
  2
HEADER
  9
$ACADVER
  1
AC1024
  9
$ACADMAINTVER
 70
     6
  9
$DWGCODEPAGE
  3
UNDEFINED
  9
$INSBASE
 10
0.0
 20
0.0
 30
0.0
  9
$EXTMIN
 10
1.000000000000000E+20
 20
1.000000000000000E+20
 30
1.000000000000000E+20
  9
$EXTMAX
 10
-1.000000000000000E+20
 20
-1.000000000000000E+20
 30
-1.000000000000000E+20
  9
$LIMMIN
 10
0.0
 20
0.0
  9
$LIMMAX
 10
12.0
 20
9.0
  9
$ORTHOMODE
 70
     0
  9
$REGENMODE
 70
     1
  9
$FILLMODE
 70
     1
  9
$QTEXTMODE
 70
     0
  9
$MIRRTEXT
 70
     1
  9
$LTSCALE
 40
1.0
  9
$ATTMODE
 70
     1
  9
$TEXTSIZE
 40
0.2
  9
$TRACEWID
 40
0.05
  9
$TEXTSTYLE
  7
Standard
  9
$CLAYER
  8
0
  9
$CELTYPE
  6
ByLayer
  9
$CECOLOR
 62
   256
  9
$CELTSCALE
 40
1.0
  9
$DISPSILH
 70
     0
  9
$DIMSCALE
 40
1.0
  9
$DIMASZ
 40
0.18
  9
$DIMEXO
 40
0.0625
  9
$DIMDLI
 40
0.38
  9
$DIMRND
 40
0.0
  9
$DIMDLE
 40
0.0
  9
$DIMEXE
 40
0.18
  9
$DIMTP
 40
0.0
  9
$DIMTM
 40
0.0
  9
$DIMTXT
 40
0.18
  9
$DIMCEN
 40
0.09
  9
$DIMTSZ
 40
0.0
  9
$DIMTOL
 70
     0
  9
$DIMLIM
 70
     0
  9
$DIMTIH
 70
     1
  9
$DIMTOH
 70
     1
  9
$DIMSE1
 70
     0
  9
$DIMSE2
 70
     0
  9
$DIMTAD
 70
     0
  9
$DIMZIN
 70
     0
  9
$DIMBLK
  1

  9
$DIMASO
 70
     1
  9
$DIMSHO
 70
     1
  9
$DIMPOST
  1

  9
$DIMAPOST
  1

  9
$DIMALT
 70
     0
  9
$DIMALTD
 70
     2
  9
$DIMALTF
 40
25.4
  9
$DIMLFAC
 40
1.0
  9
$DIMTOFL
 70
     0
  9
$DIMTVP
 40
0.0
  9
$DIMTIX
 70
     0
  9
$DIMSOXD
 70
     0
  9
$DIMSAH
 70
     0
  9
$DIMBLK1
  1

  9
$DIMBLK2
  1

  9
$DIMSTYLE
  2
Standard
  9
$DIMCLRD
 70
     0
  9
$DIMCLRE
 70
     0
  9
$DIMCLRT
 70
     0
  9
$DIMTFAC
 40
1.0
  9
$DIMGAP
 40
0.09
  9
$DIMJUST
 70
     0
  9
$DIMSD1
 70
     0
  9
$DIMSD2
 70
     0
  9
$DIMTOLJ
 70
     1
  9
$DIMTZIN
 70
     0
  9
$DIMALTZ
 70
     0
  9
$DIMALTTZ
 70
     0
  9
$DIMUPT
 70
     0
  9
$DIMDEC
 70
     4
  9
$DIMTDEC
 70
     4
  9
$DIMALTU
 70
     2
  9
$DIMALTTD
 70
     2
  9
$DIMTXSTY
  7
Standard
  9
$DIMAUNIT
 70
     0
  9
$DIMADEC
 70
     0
  9
$DIMALTRND
 40
0.0
  9
$DIMAZIN
 70
     0
  9
$DIMDSEP
 70
    46
  9
$DIMATFIT
 70
     3
  9
$DIMFRAC
 70
     0
  9
$DIMLDRBLK
  1

  9
$DIMLUNIT
 70
     2
  9
$DIMLWD
 70
    -2
  9
$DIMLWE
 70
    -2
  9
$DIMTMOVE
 70
     0
  9
$DIMFXL
 40
1.0
  9
$DIMFXLON
 70
     0
  9
$DIMJOGANG
 40
0.7853981633974483
  9
$DIMTFILL
 70
     0
  9
$DIMTFILLCLR
 70
     0
  9
$DIMARCSYM
 70
     0
  9
$DIMLTYPE
  6

  9
$DIMLTEX1
  6

  9
$DIMLTEX2
  6

  9
$DIMTXTDIRECTION
 70
     0
  9
$LUNITS
 70
     2
  9
$LUPREC
 70
     4
  9
$SKETCHINC
 40
0.1
  9
$FILLETRAD
 40
0.5
  9
$AUNITS
 70
     0
  9
$AUPREC
 70
     0
  9
$MENU
  1
.
  9
$ELEVATION
 40
0.0
  9
$PELEVATION
 40
0.0
  9
$THICKNESS
 40
0.0
  9
$LIMCHECK
 70
     0
  9
$CHAMFERA
 40
0.5
  9
$CHAMFERB
 40
0.5
  9
$CHAMFERC
 40
1.0
  9
$CHAMFERD
 40
0.0
  9
$SKPOLY
 70
     0
  9
$TDCREATE
 40
2458263.583298599
  9
$TDUCREATE
 40
2458263.208298611
  9
$TDUPDATE
 40
2458263.583310174
  9
$TDUUPDATE
 40
2458263.208310185
  9
$TDINDWG
 40
0.0000000116
  9
$TDUSRTIMER
 40
0.0000000116
  9
$USRTIMER
 70
     1
  9
$ANGBASE
 50
0.0
  9
$ANGDIR
 70
     0
  9
$PDMODE
 70
     0
  9
$PDSIZE
 40
0.0
  9
$PLINEWID
 40
0.0
  9
$SPLFRAME
 70
     0
  9
$SPLINETYPE
 70
     6
  9
$SPLINESEGS
 70
     8
  9
$HANDSEED
  5
D8
  9
$SURFTAB1
 70
     6
  9
$SURFTAB2
 70
     6
  9
$SURFTYPE
 70
     6
  9
$SURFU
 70
     6
  9
$SURFV
 70
     6
  9
$UCSBASE
  2

  9
$UCSNAME
  2

  9
$UCSORG
 10
0.0
 20
0.0
 30
0.0
  9
$UCSXDIR
 10
1.0
 20
0.0
 30
0.0
  9
$UCSYDIR
 10
0.0
 20
1.0
 30
0.0
  9
$UCSORTHOREF
  2

  9
$UCSORTHOVIEW
 70
     0
  9
$UCSORGTOP
 10
0.0
 20
0.0
 30
0.0
  9
$UCSORGBOTTOM
 10
0.0
 20
0.0
 30
0.0
  9
$UCSORGLEFT
 10
0.0
 20
0.0
 30
0.0
  9
$UCSORGRIGHT
 10
0.0
 20
0.0
 30
0.0
  9
$UCSORGFRONT
 10
0.0
 20
0.0
 30
0.0
  9
$UCSORGBACK
 10
0.0
 20
0.0
 30
0.0
  9
$PUCSBASE
  2

  9
$PUCSNAME
  2

  9
$PUCSORG
 10
0.0
 20
0.0
 30
0.0
  9
$PUCSXDIR
 10
1.0
 20
0.0
 30
0.0
  9
$PUCSYDIR
 10
0.0
 20
1.0
 30
0.0
  9
$PUCSORTHOREF
  2

  9
$PUCSORTHOVIEW
 70
     0
  9
$PUCSORGTOP
 10
0.0
 20
0.0
 30
0.0
  9
$PUCSORGBOTTOM
 10
0.0
 20
0.0
 30
0.0
  9
$PUCSORGLEFT
 10
0.0
 20
0.0
 30
0.0
  9
$PUCSORGRIGHT
 10
0.0
 20
0.0
 30
0.0
  9
$PUCSORGFRONT
 10
0.0
 20
0.0
 30
0.0
  9
$PUCSORGBACK
 10
0.0
 20
0.0
 30
0.0
  9
$USERI1
 70
     0
  9
$USERI2
 70
     0
  9
$USERI3
 70
     0
  9
$USERI4
 70
     0
  9
$USERI5
 70
     0
  9
$USERR1
 40
0.0
  9
$USERR2
 40
0.0
  9
$USERR3
 40
0.0
  9
$USERR4
 40
0.0
  9
$USERR5
 40
0.0
  9
$WORLDVIEW
 70
     1
  9
$SHADEDGE
 70
     3
  9
$SHADEDIF
 70
    70
  9
$TILEMODE
 70
     1
  9
$MAXACTVP
 70
    64
  9
$PINSBASE
 10
0.0
 20
0.0
 30
0.0
  9
$PLIMCHECK
 70
     0
  9
$PEXTMIN
 10
1.000000000000000E+20
 20
1.000000000000000E+20
 30
1.000000000000000E+20
  9
$PEXTMAX
 10
-1.000000000000000E+20
 20
-1.000000000000000E+20
 30
-1.000000000000000E+20
  9
$PLIMMIN
 10
0.0
 20
0.0
  9
$PLIMMAX
 10
12.0
 20
9.0
  9
$UNITMODE
 70
     0
  9
$VISRETAIN
 70
     1
  9
$PLINEGEN
 70
     0
  9
$PSLTSCALE
 70
     1
  9
$TREEDEPTH
 70
  3020
  9
$CMLSTYLE
  2
Standard
  9
$CMLJUST
 70
     0
  9
$CMLSCALE
 40
1.0
  9
$PROXYGRAPHICS
 70
     1
  9
$MEASUREMENT
 70
     0
  9
$CELWEIGHT
370
    -1
  9
$ENDCAPS
280
     0
  9
$JOINSTYLE
280
     0
  9
$LWDISPLAY
290
     1
  9
$INSUNITS
 70
     1
  9
$HYPERLINKBASE
  1

  9
$STYLESHEET
  1

  9
$XEDIT
290
     1
  9
$CEPSNTYPE
380
     0
  9
$PSTYLEMODE
290
     1
  9
$FINGERPRINTGUID
  2
{46FD41CD-B9D4-DA47-AC01-C89FAEF2E7F8}
  9
$VERSIONGUID
  2
{FAEB1C32-E019-11D5-929B-00C0DF256EC4}
  9
$EXTNAMES
290
     1
  9
$PSVPSCALE
 40
0.0
  9
$OLESTARTUP
290
     0
  9
$SORTENTS
280
   127
  9
$INDEXCTL
280
     0
  9
$HIDETEXT
280
     1
  9
$XCLIPFRAME
280
     2
  9
$HALOGAP
280
     0
  9
$OBSCOLOR
 70
   257
  9
$OBSLTYPE
280
     0
  9
$INTERSECTIONDISPLAY
280
     0
  9
$INTERSECTIONCOLOR
 70
   257
  9
$DIMASSOC
280
     2
  9
$PROJECTNAME
  1

  9
$CAMERADISPLAY
290
     0
  9
$LENSLENGTH
 40
50.0
  9
$CAMERAHEIGHT
 40
0.0
  9
$STEPSPERSEC
 40
2.0
  9
$STEPSIZE
 40
6.0
  9
$3DDWFPREC
 40
2.0
  9
$PSOLWIDTH
 40
0.25
  9
$PSOLHEIGHT
 40
4.0
  9
$LOFTANG1
 40
1.570796326794897
  9
$LOFTANG2
 40
1.570796326794897
  9
$LOFTMAG1
 40
0.0
  9
$LOFTMAG2
 40
0.0
  9
$LOFTPARAM
 70
     7
  9
$LOFTNORMALS
280
     1
  9
$LATITUDE
 40
37.795
  9
$LONGITUDE
 40
-122.394
  9
$NORTHDIRECTION
 40
0.0
  9
$TIMEZONE
 70
 -8000
  9
$LIGHTGLYPHDISPLAY
280
     1
  9
$TILEMODELIGHTSYNCH
280
     1
  9
$CMATERIAL
347
3C
  9
$SOLIDHIST
280
     1
  9
$SHOWHIST
280
     1
  9
$DWFFRAME
280
     2
  9
$DGNFRAME
280
     2
  9
$REALWORLDSCALE
290
     1
  9
$INTERFERECOLOR
 62
   256
  9
$CSHADOW
280
     0
  9
$SHADOWPLANELOCATION
 40
0.0
  0
ENDSEC
  0
SECTION
  2
CLASSES
  0
CLASS
  1
ACDBDICTIONARYWDFLT
  2
AcDbDictionaryWithDefault
  3
ObjectDBX Classes
 90
        0
 91
        4
280
     0
281
     0
  0
CLASS
  1
VISUALSTYLE
  2
AcDbVisualStyle
  3
ObjectDBX Classes
 90
     4095
 91
        4
280
     0
281
     0
  0
CLASS
  1
MATERIAL
  2
AcDbMaterial
  3
ObjectDBX Classes
 90
     1153
 91
        4
280
     0
281
     0
  0
CLASS
  1
SUN
  2
AcDbSun
  3
SCENEOE
 90
     1024
 91
        4
280
     0
281
     0
  0
ENDSEC
  0
SECTION
  2
TABLES
  0
TABLE
  2
VPORT
  5
8
330
0
100
AcDbSymbolTable
 70
     1
  0
VPORT
  5
29
330
8
100
AcDbSymbolTableRecord
100
AcDbViewportTableRecord
  2
*Active
 70
     0
 10
0.0
 20
0.0
 11
1.0
 21
1.0
 12
0.0
 22
0.0
 13
0.0
 23
0.0
 14
0.5
 24
0.5
 15
0.5
 25
0.5
 16
0.0
 26
0.0
 36
1.0
 17
105.0007777515277
 27
-148.5000416295416
 37
0.0
 40
297.0000832590831
 41
0.7070757462376333
 42
50.0
 43
0.0
 44
0.0
 50
0.0
 51
0.0
 71
     0
 72
   100
 73
     1
 74
     3
 75
     0
 76
     0
 77
     0
 78
     0
281
     0
 65
     1
110
0.0
120
0.0
130
0.0
111
1.0
121
0.0
131
0.0
112
0.0
122
1.0
132
0.0
 79
     0
146
0.0
 60
     3
 61
     5
292
     1
282
     1
141
0.0
142
0.0
 63
   250
361
3F
  0
ENDTAB
  0
TABLE
  2
LTYPE
  5
5
330
0
100
AcDbSymbolTable
 70
     1
  0
LTYPE
  5
14
330
5
100
AcDbSymbolTableRecord
100
AcDbLinetypeTableRecord
  2
ByBlock
 70
     0
  3

 72
    65
 73
     0
 40
0.0
  0
LTYPE
  5
15
330
5
100
AcDbSymbolTableRecord
100
AcDbLinetypeTableRecord
  2
ByLayer
 70
     0
  3

 72
    65
 73
     0
 40
0.0
  0
LTYPE
  5
16
330
5
100
AcDbSymbolTableRecord
100
AcDbLinetypeTableRecord
  2
Continuous
 70
     0
  3
Solid line
 72
    65
 73
     0
 40
0.0
  0
ENDTAB
  0
TABLE
  2
LAYER
  5
2
330
0
100
AcDbSymbolTable
 70
     2
  0
LAYER
  5
10
330
2
100
AcDbSymbolTableRecord
100
AcDbLayerTableRecord
  2
0
 70
     0
 62
     7
  6
Continuous
370
    -3
390
F
347
3E
  0
LAYER
  5
40
330
2
100
AcDbSymbolTableRecord
100
AcDbLayerTableRecord
  2
_U+30EC_U+30A4_U+30E4_U+30FC 1
 70
     0
 62
     7
  6
Continuous
370
    -3
390
F
347
3E
  0
ENDTAB
  0
TABLE
  2
STYLE
  5
3
330
0
100
AcDbSymbolTable
 70
     1
  0
STYLE
  5
11
330
3
100
AcDbSymbolTableRecord
100
AcDbTextStyleTableRecord
  2
Standard
 70
     0
 40
0.0
 41
1.0
 50
0.0
 71
     0
 42
0.2
  3
txt
  4

  0
ENDTAB
  0
TABLE
  2
VIEW
  5
6
330
0
100
AcDbSymbolTable
 70
     0
  0
ENDTAB
  0
TABLE
  2
UCS
  5
7
330
0
100
AcDbSymbolTable
 70
     0
  0
ENDTAB
  0
TABLE
  2
APPID
  5
9
330
0
100
AcDbSymbolTable
 70
     1
  0
APPID
  5
12
330
9
100
AcDbSymbolTableRecord
100
AcDbRegAppTableRecord
  2
ACAD
 70
     0
  0
ENDTAB
  0
TABLE
  2
DIMSTYLE
  5
A
330
0
100
AcDbSymbolTable
 70
     1
100
AcDbDimStyleTable
  0
DIMSTYLE
105
27
330
A
100
AcDbSymbolTableRecord
100
AcDbDimStyleTableRecord
  2
Standard
 70
     0
178
     0
340
11
  0
ENDTAB
  0
TABLE
  2
BLOCK_RECORD
  5
1
330
0
100
AcDbSymbolTable
 70
     7
  0
BLOCK_RECORD
  5
1F
330
1
100
AcDbSymbolTableRecord
100
AcDbBlockTableRecord
  2
*Model_Space
340
22
 70
     0
280
     1
281
     0
  0
BLOCK_RECORD
  5
1B
330
1
100
AcDbSymbolTableRecord
100
AcDbBlockTableRecord
  2
*Paper_Space
340
1E
 70
     0
280
     1
281
     0
  0
BLOCK_RECORD
  5
23
330
1
100
AcDbSymbolTableRecord
100
AcDbBlockTableRecord
  2
*Paper_Space0
340
26
 70
     0
280
     1
281
     0
  0
BLOCK_RECORD
  5
5C
330
1
100
AcDbSymbolTableRecord
100
AcDbBlockTableRecord
  2
block 2
340
0
102
{BLKREFS
331
5D
102
}
 70
     0
280
     1
281
     0
  0
BLOCK_RECORD
  5
78
330
1
100
AcDbSymbolTableRecord
100
AcDbBlockTableRecord
  2
block 3
340
0
102
{BLKREFS
331
79
102
}
 70
     0
280
     1
281
     0
  0
BLOCK_RECORD
  5
9F
330
1
100
AcDbSymbolTableRecord
100
AcDbBlockTableRecord
  2
block 4
340
0
102
{BLKREFS
331
A0
102
}
 70
     0
280
     1
281
     0
  0
BLOCK_RECORD
  5
B1
330
1
100
AcDbSymbolTableRecord
100
AcDbBlockTableRecord
  2
block 5
340
0
102
{BLKREFS
331
B2
102
}
 70
     0
280
     1
281
     0
  0
BLOCK_RECORD
  5
C0
330
1
100
AcDbSymbolTableRecord
100
AcDbBlockTableRecord
  2
block 6
340
0
102
{BLKREFS
331
C1
102
}
 70
     0
280
     1
281
     0
  0
BLOCK_RECORD
  5
D0
330
1
100
AcDbSymbolTableRecord
100
AcDbBlockTableRecord
  2
block 7
340
0
102
{BLKREFS
331
D1
102
}
 70
     0
280
     1
281
     0
  0
ENDTAB
  0
ENDSEC
  0
SECTION
  2
BLOCKS
  0
BLOCK
  5
20
330
1F
100
AcDbEntity
  8
0
100
AcDbBlockBegin
  2
*Model_Space
 70
     0
 10
0.0
 20
0.0
 30
0.0
  3
*Model_Space
  1

  0
ENDBLK
  5
21
330
1F
100
AcDbEntity
  8
0
100
AcDbBlockEnd
  0
BLOCK
  5
1C
330
1B
100
AcDbEntity
 67
     1
  8
0
100
AcDbBlockBegin
  2
*Paper_Space
 70
     0
 10
0.0
 20
0.0
 30
0.0
  3
*Paper_Space
  1

  0
ENDBLK
  5
1D
330
1B
100
AcDbEntity
 67
     1
  8
0
100
AcDbBlockEnd
  0
BLOCK
  5
24
330
23
100
AcDbEntity
  8
0
100
AcDbBlockBegin
  2
*Paper_Space0
 70
     0
 10
0.0
 20
0.0
 30
0.0
  3
*Paper_Space0
  1

  0
ENDBLK
  5
25
330
23
100
AcDbEntity
  8
0
100
AcDbBlockEnd
  0
BLOCK
  5
5E
330
5C
100
AcDbEntity
  8
0
100
AcDbBlockBegin
  2
block 2
 70
     0
 10
0.0
 20
0.0
 30
0.0
  3
block 2
  1

  0
SPLINE
  5
60
330
5C
100
AcDbEntity
  8
_U+30EC_U+30A4_U+30E4_U+30FC 1
370
     0
100
AcDbSpline
210
0.0
220
0.0
230
1.0
 70
    11
 71
     3
 72
    62
 73
    58
 74
     0
 42
0.0000000001
 43
0.0000000001
 12
1.0
 22
0.0
 32
0.0
 13
1.0
 23
0.0
 33
0.0
 40
0.0
 40
0.0
 40
0.0
 40
0.0
 40
1.0
 40
1.0
 40
1.0
 40
2.0
 40
2.0
 40
2.0
 40
3.0
 40
3.0
 40
3.0
 40
4.0
 40
4.0
 40
4.0
 40
5.0
 40
5.0
 40
5.0
 40
6.0
 40
6.0
 40
6.0
 40
7.0
 40
7.0
 40
7.0
 40
8.0
 40
8.0
 40
8.0
 40
9.0
 40
9.0
 40
9.0
 40
10.0
 40
10.0
 40
10.0
 40
11.0
 40
11.0
 40
11.0
 40
12.0
 40
12.0
 40
12.0
 40
13.0
 40
13.0
 40
13.0
 40
14.0
 40
14.0
 40
14.0
 40
15.0
 40
15.0
 40
15.0
 40
16.0
 40
16.0
 40
16.0
 40
17.0
 40
17.0
 40
17.0
 40
18.0
 40
18.0
 40
18.0
 40
19.0
 40
19.0
 40
19.0
 40
19.0
 10
117.7468180044175
 20
-145.9953952000463
 30
0.0
 10
117.7468180044175
 20
-146.0970255168612
 30
0.0
 10
117.7258029219574
 20
-146.3299139716641
 30
0.0
 10
117.5394232562054
 20
-146.4634114217175
 30
0.0
 10
117.4274576529348
 20
-146.542476363104
 30
0.0
 10
117.3278943934111
 20
-146.5469549872348
 30
0.0
 10
117.2434895540225
 20
-146.5516058661399
 30
0.0
 10
117.2434895540225
 20
-146.5516058661399
 30
0.0
 10
117.2434895540225
 20
-146.3163058444973
 30
0.0
 10
117.2434895540225
 20
-146.3163058444973
 30
0.0
 10
117.3175591069553
 20
-146.3140665324319
 30
0.0
 10
117.5521701095008
 20
-146.3028699721048
 30
0.0
 10
117.5521701095008
 20
-145.9998738241771
 30
0.0
 10
117.5521701095008
 20
-145.8529405017312
 30
0.0
 10
117.4825791806988
 20
-145.6901597400532
 30
0.0
 10
117.2538248404782
 20
-145.6901597400532
 30
0.0
 10
117.1377251226253
 20
-145.6901597400532
 30
0.0
 10
117.0888047667348
 20
-145.7308118667791
 30
0.0
 10
117.0571098882704
 20
-145.7647460573088
 30
0.0
 10
116.9830403353376
 20
-145.8438109986953
 30
0.0
 10
116.9706379915907
 20
-145.9681789457128
 30
0.0
 10
116.9706379915907
 20
-146.0269178237363
 30
0.0
 10
116.9706379915907
 20
-146.0474161418736
 30
0.0
 10
116.9727050488818
 20
-146.0858289565341
 30
0.0
 10
116.9768391634641
 20
-146.1151122681587
 30
0.0
 10
116.9768391634641
 20
-146.1151122681587
 30
0.0
 10
116.7821912685475
 20
-146.1151122681587
 30
0.0
 10
116.7821912685475
 20
-146.1151122681587
 30
0.0
 10
116.788392440421
 20
-146.0744601414328
 30
0.0
 10
116.7908040072606
 20
-146.029329390576
 30
0.0
 10
116.7908040072606
 20
-146.0224391996055
 30
0.0
 10
116.7908040072606
 20
-145.9523315064807
 30
0.0
 10
116.7694444152521
 20
-145.739941369815
 30
0.0
 10
116.5324218458669
 20
-145.739941369815
 30
0.0
 10
116.3549994283765
 20
-145.739941369815
 30
0.0
 10
116.2998779006125
 20
-145.8799845012904
 30
0.0
 10
116.2998779006125
 20
-145.9976345121117
 30
0.0
 10
116.2998779006125
 20
-146.2801323419022
 30
0.0
 10
116.5324218458669
 20
-146.2892618449381
 30
0.0
 10
116.6044243415086
 20
-146.2937404690689
 30
0.0
 10
116.6044243415086
 20
-146.2937404690689
 30
0.0
 10
116.6044243415086
 20
-146.5107814846397
 30
0.0
 10
116.6044243415086
 20
-146.5107814846397
 30
0.0
 10
116.4797118849426
 20
-146.501824236378
 30
0.0
 10
116.1031629484048
 20
-146.4723686699791
 30
0.0
 10
116.1031629484048
 20
-145.984026384945
 30
0.0
 10
116.1031629484048
 20
-145.7444199939459
 30
0.0
 10
116.229942462262
 20
-145.4867268516492
 30
0.0
 10
116.5262206739934
 20
-145.4867268516492
 30
0.0
 10
116.7122558301969
 20
-145.4867268516492
 30
0.0
 10
116.7949381218429
 20
-145.588357168464
 30
0.0
 10
116.8562608214804
 20
-145.694638364184
 30
0.0
 10
116.8838215853624
 20
-145.62900929519
 30
0.0
 10
116.9640923101687
 20
-145.4347059098219
 30
0.0
 10
117.2414224967313
 20
-145.4347059098219
 30
0.0
 10
117.5797308733829
 20
-145.4347059098219
 30
0.0
 10
117.7468180044175
 20
-145.6991169883148
 30
0.0
 10
117.7468180044175
 20
-145.9953952000463
 30
0.0
  0
HATCH
  5
61
330
5C
100
AcDbEntity
  8
_U+30EC_U+30A4_U+30E4_U+30FC 1
 62
   179
420
  2234388
100
AcDbHatch
 10
0.0
 20
0.0
 30
0.0
210
0.0
220
0.0
230
1.0
  2
SOLID
 70
     1
 71
     0
 91
        1
 92
        1
 93
        1
 72
     4
 94
        3
 73
     0
 74
     1
 95
       62
 96
       58
 40
0.0
 40
0.0
 40
0.0
 40
0.0
 40
1.0
 40
1.0
 40
1.0
 40
2.0
 40
2.0
 40
2.0
 40
3.0
 40
3.0
 40
3.0
 40
4.0
 40
4.0
 40
4.0
 40
5.0
 40
5.0
 40
5.0
 40
6.0
 40
6.0
 40
6.0
 40
7.0
 40
7.0
 40
7.0
 40
8.0
 40
8.0
 40
8.0
 40
9.0
 40
9.0
 40
9.0
 40
10.0
 40
10.0
 40
10.0
 40
11.0
 40
11.0
 40
11.0
 40
12.0
 40
12.0
 40
12.0
 40
13.0
 40
13.0
 40
13.0
 40
14.0
 40
14.0
 40
14.0
 40
15.0
 40
15.0
 40
15.0
 40
16.0
 40
16.0
 40
16.0
 40
17.0
 40
17.0
 40
17.0
 40
18.0
 40
18.0
 40
18.0
 40
19.0
 40
19.0
 40
19.0
 40
19.0
 10
117.7468180044175
 20
-145.9953952000463
 10
117.7468180044175
 20
-146.0970255168612
 10
117.7258029219574
 20
-146.3299139716641
 10
117.5394232562054
 20
-146.4634114217175
 10
117.4274576529348
 20
-146.542476363104
 10
117.3278943934111
 20
-146.5469549872348
 10
117.2434895540225
 20
-146.5516058661399
 10
117.2434895540225
 20
-146.5516058661399
 10
117.2434895540225
 20
-146.3163058444973
 10
117.2434895540225
 20
-146.3163058444973
 10
117.3175591069553
 20
-146.3140665324319
 10
117.5521701095008
 20
-146.3028699721048
 10
117.5521701095008
 20
-145.9998738241771
 10
117.5521701095008
 20
-145.8529405017312
 10
117.4825791806988
 20
-145.6901597400532
 10
117.2538248404782
 20
-145.6901597400532
 10
117.1377251226253
 20
-145.6901597400532
 10
117.0888047667348
 20
-145.7308118667791
 10
117.0571098882704
 20
-145.7647460573088
 10
116.9830403353376
 20
-145.8438109986953
 10
116.9706379915907
 20
-145.9681789457128
 10
116.9706379915907
 20
-146.0269178237363
 10
116.9706379915907
 20
-146.0474161418736
 10
116.9727050488818
 20
-146.0858289565341
 10
116.9768391634641
 20
-146.1151122681587
 10
116.9768391634641
 20
-146.1151122681587
 10
116.7821912685475
 20
-146.1151122681587
 10
116.7821912685475
 20
-146.1151122681587
 10
116.788392440421
 20
-146.0744601414328
 10
116.7908040072606
 20
-146.029329390576
 10
116.7908040072606
 20
-146.0224391996055
 10
116.7908040072606
 20
-145.9523315064807
 10
116.7694444152521
 20
-145.739941369815
 10
116.5324218458669
 20
-145.739941369815
 10
116.3549994283765
 20
-145.739941369815
 10
116.2998779006125
 20
-145.8799845012904
 10
116.2998779006125
 20
-145.9976345121117
 10
116.2998779006125
 20
-146.2801323419022
 10
116.5324218458669
 20
-146.2892618449381
 10
116.6044243415086
 20
-146.2937404690689
 10
116.6044243415086
 20
-146.2937404690689
 10
116.6044243415086
 20
-146.5107814846397
 10
116.6044243415086
 20
-146.5107814846397
 10
116.4797118849426
 20
-146.501824236378
 10
116.1031629484048
 20
-146.4723686699791
 10
116.1031629484048
 20
-145.984026384945
 10
116.1031629484048
 20
-145.7444199939459
 10
116.229942462262
 20
-145.4867268516492
 10
116.5262206739934
 20
-145.4867268516492
 10
116.7122558301969
 20
-145.4867268516492
 10
116.7949381218429
 20
-145.588357168464
 10
116.8562608214804
 20
-145.694638364184
 10
116.8838215853624
 20
-145.62900929519
 10
116.9640923101687
 20
-145.4347059098219
 10
117.2414224967313
 20
-145.4347059098219
 10
117.5797308733829
 20
-145.4347059098219
 10
117.7468180044175
 20
-145.6991169883148
 10
117.7468180044175
 20
-145.9953952000463
 97
        0
 97
        0
 75
     2
 76
     1
 98
        0
  0
POLYLINE
  5
62
330
5C
100
AcDbEntity
  8
_U+30EC_U+30A4_U+30E4_U+30FC 1
370
     0
100
AcDb2dPolyline
 66
     1
 10
0.0
 20
0.0
 30
0.0
  0
VERTEX
  5
63
330
62
100
AcDbEntity
  8
_U+30EC_U+30A4_U+30E4_U+30FC 1
370
     0
100
AcDbVertex
100
AcDb2dVertex
 10
117.6961751007843
 20
-145.1987168690823
 30
0.0
  0
VERTEX
  5
64
330
62
100
AcDbEntity
  8
_U+30EC_U+30A4_U+30E4_U+30FC 1
370
     0
100
AcDbVertex
100
AcDb2dVertex
 10
117.4443386208125
 20
-145.1987168690823
 30
0.0
  0
VERTEX
  5
65
330
62
100
AcDbEntity
  8
_U+30EC_U+30A4_U+30E4_U+30FC 1
370
     0
100
AcDbVertex
100
AcDb2dVertex
 10
117.4443386208125
 20
-144.9296549116843
 30
0.0
  0
VERTEX
  5
66
330
62
100
AcDbEntity
  8
_U+30EC_U+30A4_U+30E4_U+30FC 1
370
     0
100
AcDbVertex
100
AcDb2dVertex
 10
117.6961751007843
 20
-144.9296549116843
 30
0.0
  0
VERTEX
  5
67
330
62
100
AcDbEntity
  8
_U+30EC_U+30A4_U+30E4_U+30FC 1
370
     0
100
AcDbVertex
100
AcDb2dVertex
 10
117.6961751007843
 20
-145.1987168690823
 30
0.0
  0
SEQEND
  5
68
330
62
100
AcDbEntity
  8
_U+30EC_U+30A4_U+30E4_U+30FC 1
370
     0
  0
HATCH
  5
69
330
5C
100
AcDbEntity
  8
_U+30EC_U+30A4_U+30E4_U+30FC 1
 62
   179
420
  2234388
100
AcDbHatch
 10
0.0
 20
0.0
 30
0.0
210
0.0
220
0.0
230
1.0
  2
SOLID
 70
     1
 71
     0
 91
        1
 92
        1
 93
        4
 72
     1
 10
117.6961751007843
 20
-145.1987168690823
 11
117.4443386208125
 21
-145.1987168690823
 72
     1
 10
117.4443386208125
 20
-145.1987168690823
 11
117.4443386208125
 21
-144.9296549116843
 72
     1
 10
117.4443386208125
 20
-144.9296549116843
 11
117.6961751007843
 21
-144.9296549116843
 72
     1
 10
117.6961751007843
 20
-144.9296549116843
 11
117.6961751007843
 21
-145.1987168690823
 97
        0
 75
     2
 76
     1
 98
        0
  0
SPLINE
  5
6A
330
5C
100
AcDbEntity
  8
_U+30EC_U+30A4_U+30E4_U+30FC 1
370
     0
100
AcDbSpline
210
0.0
220
0.0
230
1.0
 70
    11
 71
     3
 72
    53
 73
    49
 74
     0
 42
0.0000000001
 43
0.0000000001
 12
1.0
 22
0.0
 32
0.0
 13
1.0
 23
0.0
 33
0.0
 40
0.0
 40
0.0
 40
0.0
 40
0.0
 40
1.0
 40
1.0
 40
1.0
 40
2.0
 40
2.0
 40
2.0
 40
3.0
 40
3.0
 40
3.0
 40
4.0
 40
4.0
 40
4.0
 40
5.0
 40
5.0
 40
5.0
 40
6.0
 40
6.0
 40
6.0
 40
7.0
 40
7.0
 40
7.0
 40
8.0
 40
8.0
 40
8.0
 40
9.0
 40
9.0
 40
9.0
 40
10.0
 40
10.0
 40
10.0
 40
11.0
 40
11.0
 40
11.0
 40
12.0
 40
12.0
 40
12.0
 40
13.0
 40
13.0
 40
13.0
 40
14.0
 40
14.0
 40
14.0
 40
15.0
 40
15.0
 40
15.0
 40
16.0
 40
16.0
 40
16.0
 40
16.0
 10
117.7468180044175
 20
-144.1629489114419
 30
0.0
 10
117.7468180044175
 20
-144.2466647317335
 30
0.0
 10
117.7299370365397
 20
-144.3551852395188
 30
0.0
 10
117.6665472796112
 20
-144.4637057473042
 30
0.0
 10
117.5563042240831
 20
-144.6490518844107
 30
0.0
 10
117.4253905956437
 20
-144.6716172598391
 30
0.0
 10
117.3175591069553
 20
-144.6921155779763
 30
0.0
 10
117.3175591069553
 20
-144.6921155779763
 30
0.0
 10
117.3175591069553
 20
-144.4545762442683
 30
0.0
 10
117.3175591069553
 20
-144.4545762442683
 30
0.0
 10
117.5163411164543
 20
-144.3958373662448
 30
0.0
 10
117.5459689376274
 20
-144.2602728589002
 30
0.0
 10
117.5459689376274
 20
-144.1607095993765
 30
0.0
 10
117.5459689376274
 20
-144.0115369648652
 30
0.0
 10
117.4464056781037
 20
-143.8487562031871
 30
0.0
 10
117.2138617328493
 20
-143.8487562031871
 30
0.0
 10
116.9578911382953
 20
-143.8487562031871
 30
0.0
 10
116.8879556999447
 20
-144.0409925312641
 30
0.0
 10
116.8879556999447
 20
-144.1698391024124
 30
0.0
 10
116.8879556999447
 20
-144.2037732929421
 30
0.0
 10
116.8879556999447
 20
-144.3551852395188
 30
0.0
 10
117.0171467806416
 20
-144.4500976201375
 30
0.0
 10
117.0171467806416
 20
-144.4500976201375
 30
0.0
 10
116.9978542459242
 20
-144.6378553240836
 30
0.0
 10
116.9978542459242
 20
-144.6378553240836
 30
0.0
 10
116.9978542459242
 20
-144.6378553240836
 30
0.0
 10
116.1517387947468
 20
-144.5090087529352
 30
0.0
 10
116.1517387947468
 20
-144.5090087529352
 30
0.0
 10
116.1517387947468
 20
-144.5090087529352
 30
0.0
 10
116.1517387947468
 20
-143.6770181932474
 30
0.0
 10
116.1517387947468
 20
-143.6770181932474
 30
0.0
 10
116.1517387947468
 20
-143.6770181932474
 30
0.0
 10
116.3463866896634
 20
-143.6770181932474
 30
0.0
 10
116.3463866896634
 20
-143.6770181932474
 30
0.0
 10
116.3463866896634
 20
-143.6770181932474
 30
0.0
 10
116.3463866896634
 20
-144.3348591761559
 30
0.0
 10
116.3463866896634
 20
-144.3348591761559
 30
0.0
 10
116.3463866896634
 20
-144.3348591761559
 30
0.0
 10
116.7694444152521
 20
-144.4049668692807
 30
0.0
 10
116.7694444152521
 20
-144.4049668692807
 30
0.0
 10
116.7356824794966
 20
-144.3393378002867
 30
0.0
 10
116.6953748623192
 20
-144.2511433558643
 30
0.0
 10
116.6953748623192
 20
-144.1245360967814
 30
0.0
 10
116.6953748623192
 20
-143.8532348273179
 30
0.0
 10
116.8817545280712
 20
-143.6000203091521
 30
0.0
 10
117.1945691981319
 20
-143.6000203091521
 30
0.0
 10
117.512207001872
 20
-143.6000203091521
 30
0.0
 10
117.7468180044175
 20
-143.8396267001512
 30
0.0
 10
117.7468180044175
 20
-144.1629489114419
 30
0.0
  0
HATCH
  5
6B
330
5C
100
AcDbEntity
  8
_U+30EC_U+30A4_U+30E4_U+30FC 1
 62
   179
420
  2234388
100
AcDbHatch
 10
0.0
 20
0.0
 30
0.0
210
0.0
220
0.0
230
1.0
  2
SOLID
 70
     1
 71
     0
 91
        1
 92
        1
 93
        1
 72
     4
 94
        3
 73
     0
 74
     1
 95
       53
 96
       49
 40
0.0
 40
0.0
 40
0.0
 40
0.0
 40
1.0
 40
1.0
 40
1.0
 40
2.0
 40
2.0
 40
2.0
 40
3.0
 40
3.0
 40
3.0
 40
4.0
 40
4.0
 40
4.0
 40
5.0
 40
5.0
 40
5.0
 40
6.0
 40
6.0
 40
6.0
 40
7.0
 40
7.0
 40
7.0
 40
8.0
 40
8.0
 40
8.0
 40
9.0
 40
9.0
 40
9.0
 40
10.0
 40
10.0
 40
10.0
 40
11.0
 40
11.0
 40
11.0
 40
12.0
 40
12.0
 40
12.0
 40
13.0
 40
13.0
 40
13.0
 40
14.0
 40
14.0
 40
14.0
 40
15.0
 40
15.0
 40
15.0
 40
16.0
 40
16.0
 40
16.0
 40
16.0
 10
117.7468180044175
 20
-144.1629489114419
 10
117.7468180044175
 20
-144.2466647317335
 10
117.7299370365397
 20
-144.3551852395188
 10
117.6665472796112
 20
-144.4637057473042
 10
117.5563042240831
 20
-144.6490518844107
 10
117.4253905956437
 20
-144.6716172598391
 10
117.3175591069553
 20
-144.6921155779763
 10
117.3175591069553
 20
-144.6921155779763
 10
117.3175591069553
 20
-144.4545762442683
 10
117.3175591069553
 20
-144.4545762442683
 10
117.5163411164543
 20
-144.3958373662448
 10
117.5459689376274
 20
-144.2602728589002
 10
117.5459689376274
 20
-144.1607095993765
 10
117.5459689376274
 20
-144.0115369648652
 10
117.4464056781037
 20
-143.8487562031871
 10
117.2138617328493
 20
-143.8487562031871
 10
116.9578911382953
 20
-143.8487562031871
 10
116.8879556999447
 20
-144.0409925312641
 10
116.8879556999447
 20
-144.1698391024124
 10
116.8879556999447
 20
-144.2037732929421
 10
116.8879556999447
 20
-144.3551852395188
 10
117.0171467806416
 20
-144.4500976201375
 10
117.0171467806416
 20
-144.4500976201375
 10
116.9978542459242
 20
-144.6378553240836
 10
116.9978542459242
 20
-144.6378553240836
 10
116.9978542459242
 20
-144.6378553240836
 10
116.1517387947468
 20
-144.5090087529352
 10
116.1517387947468
 20
-144.5090087529352
 10
116.1517387947468
 20
-144.5090087529352
 10
116.1517387947468
 20
-143.6770181932474
 10
116.1517387947468
 20
-143.6770181932474
 10
116.1517387947468
 20
-143.6770181932474
 10
116.3463866896634
 20
-143.6770181932474
 10
116.3463866896634
 20
-143.6770181932474
 10
116.3463866896634
 20
-143.6770181932474
 10
116.3463866896634
 20
-144.3348591761559
 10
116.3463866896634
 20
-144.3348591761559
 10
116.3463866896634
 20
-144.3348591761559
 10
116.7694444152521
 20
-144.4049668692807
 10
116.7694444152521
 20
-144.4049668692807
 10
116.7356824794966
 20
-144.3393378002867
 10
116.6953748623192
 20
-144.2511433558643
 10
116.6953748623192
 20
-144.1245360967814
 10
116.6953748623192
 20
-143.8532348273179
 10
116.8817545280712
 20
-143.6000203091521
 10
117.1945691981319
 20
-143.6000203091521
 10
117.512207001872
 20
-143.6000203091521
 10
117.7468180044175
 20
-143.8396267001512
 10
117.7468180044175
 20
-144.1629489114419
 97
        0
 97
        0
 75
     2
 76
     1
 98
        0
  0
ENDBLK
  5
5F
330
5C
100
AcDbEntity
  8
0
100
AcDbBlockEnd
  0
BLOCK
  5
7A
330
78
100
AcDbEntity
  8
0
100
AcDbBlockBegin
  2
block 3
 70
     0
 10
0.0
 20
0.0
 30
0.0
  3
block 3
  1

  0
SPLINE
  5
7C
330
78
100
AcDbEntity
  8
_U+30EC_U+30A4_U+30E4_U+30FC 1
370
     0
100
AcDbSpline
210
0.0
220
0.0
230
1.0
 70
    11
 71
     3
 72
    44
 73
    40
 74
     0
 42
0.0000000001
 43
0.0000000001
 12
1.0
 22
0.0
 32
0.0
 13
1.0
 23
0.0
 33
0.0
 40
0.0
 40
0.0
 40
0.0
 40
0.0
 40
1.0
 40
1.0
 40
1.0
 40
2.0
 40
2.0
 40
2.0
 40
3.0
 40
3.0
 40
3.0
 40
4.0
 40
4.0
 40
4.0
 40
5.0
 40
5.0
 40
5.0
 40
6.0
 40
6.0
 40
6.0
 40
7.0
 40
7.0
 40
7.0
 40
8.0
 40
8.0
 40
8.0
 40
9.0
 40
9.0
 40
9.0
 40
10.0
 40
10.0
 40
10.0
 40
11.0
 40
11.0
 40
11.0
 40
12.0
 40
12.0
 40
12.0
 40
13.0
 40
13.0
 40
13.0
 40
13.0
 10
102.3117567018526
 20
-155.3369438630755
 30
0.0
 10
102.0788682470497
 20
-155.495418255397
 30
0.0
 10
101.9794772423003
 20
-155.5694878083299
 30
0.0
 10
101.927456300473
 20
-155.7134927996133
 30
0.0
 10
101.927456300473
 20
-155.7134927996133
 30
0.0
 10
102.7594468601608
 20
-155.7134927996133
 30
0.0
 10
102.7594468601608
 20
-155.7134927996133
 30
0.0
 10
102.7594468601608
 20
-155.7134927996133
 30
0.0
 10
102.7594468601608
 20
-155.9184759809857
 30
0.0
 10
102.7594468601608
 20
-155.9184759809857
 30
0.0
 10
102.7594468601608
 20
-155.9184759809857
 30
0.0
 10
101.6606336551404
 20
-155.9184759809857
 30
0.0
 10
101.6606336551404
 20
-155.9184759809857
 30
0.0
 10
101.6945678456701
 20
-155.5608750696167
 30
0.0
 10
101.7646755387949
 20
-155.4826714021016
 30
0.0
 10
102.176192194508
 20
-155.1843261330789
 30
0.0
 10
102.4497327760369
 20
-154.98554412358
 30
0.0
 10
102.5198404691617
 20
-154.9180202520691
 30
0.0
 10
102.5198404691617
 20
-154.7805609422076
 30
0.0
 10
102.5198404691617
 20
-154.662049657515
 30
0.0
 10
102.4430148398406
 20
-154.530791519527
 30
0.0
 10
102.2326917604661
 20
-154.530791519527
 30
0.0
 10
101.9545003000322
 20
-154.530791519527
 30
0.0
 10
101.9455430517706
 20
-154.7612684074902
 30
0.0
 10
101.9410644276397
 20
-154.8777126348917
 30
0.0
 10
101.9410644276397
 20
-154.8777126348917
 30
0.0
 10
101.7012857818663
 20
-154.8777126348917
 30
0.0
 10
101.7012857818663
 20
-154.8777126348917
 30
0.0
 10
101.7104152849023
 20
-154.7509331210345
 30
0.0
 10
101.7217841000036
 20
-154.6386230082153
 30
0.0
 10
101.8075669775863
 20
-154.5201117235227
 30
0.0
 10
101.9252169884076
 20
-154.3595702739101
 30
0.0
 10
102.1241712526808
 20
-154.3254638286061
 30
0.0
 10
102.2485391996983
 20
-154.3254638286061
 30
0.0
 10
102.5446451566555
 20
-154.3254638286061
 30
0.0
 10
102.7661647963571
 20
-154.509776437067
 30
0.0
 10
102.7661647963571
 20
-154.7826279994988
 30
0.0
 10
102.7661647963571
 20
-155.0110378301709
 30
0.0
 10
102.6417968493396
 20
-155.1106010896946
 30
0.0
 10
102.3117567018526
 20
-155.3369438630755
 30
0.0
  0
HATCH
  5
7D
330
78
100
AcDbEntity
  8
_U+30EC_U+30A4_U+30E4_U+30FC 1
 62
   179
420
  2234388
100
AcDbHatch
 10
0.0
 20
0.0
 30
0.0
210
0.0
220
0.0
230
1.0
  2
SOLID
 70
     1
 71
     0
 91
        1
 92
        1
 93
        1
 72
     4
 94
        3
 73
     0
 74
     1
 95
       44
 96
       40
 40
0.0
 40
0.0
 40
0.0
 40
0.0
 40
1.0
 40
1.0
 40
1.0
 40
2.0
 40
2.0
 40
2.0
 40
3.0
 40
3.0
 40
3.0
 40
4.0
 40
4.0
 40
4.0
 40
5.0
 40
5.0
 40
5.0
 40
6.0
 40
6.0
 40
6.0
 40
7.0
 40
7.0
 40
7.0
 40
8.0
 40
8.0
 40
8.0
 40
9.0
 40
9.0
 40
9.0
 40
10.0
 40
10.0
 40
10.0
 40
11.0
 40
11.0
 40
11.0
 40
12.0
 40
12.0
 40
12.0
 40
13.0
 40
13.0
 40
13.0
 40
13.0
 10
102.3117567018526
 20
-155.3369438630755
 10
102.0788682470497
 20
-155.495418255397
 10
101.9794772423003
 20
-155.5694878083299
 10
101.927456300473
 20
-155.7134927996133
 10
101.927456300473
 20
-155.7134927996133
 10
102.7594468601608
 20
-155.7134927996133
 10
102.7594468601608
 20
-155.7134927996133
 10
102.7594468601608
 20
-155.7134927996133
 10
102.7594468601608
 20
-155.9184759809857
 10
102.7594468601608
 20
-155.9184759809857
 10
102.7594468601608
 20
-155.9184759809857
 10
101.6606336551404
 20
-155.9184759809857
 10
101.6606336551404
 20
-155.9184759809857
 10
101.6945678456701
 20
-155.5608750696167
 10
101.7646755387949
 20
-155.4826714021016
 10
102.176192194508
 20
-155.1843261330789
 10
102.4497327760369
 20
-154.98554412358
 10
102.5198404691617
 20
-154.9180202520691
 10
102.5198404691617
 20
-154.7805609422076
 10
102.5198404691617
 20
-154.662049657515
 10
102.4430148398406
 20
-154.530791519527
 10
102.2326917604661
 20
-154.530791519527
 10
101.9545003000322
 20
-154.530791519527
 10
101.9455430517706
 20
-154.7612684074902
 10
101.9410644276397
 20
-154.8777126348917
 10
101.9410644276397
 20
-154.8777126348917
 10
101.7012857818663
 20
-154.8777126348917
 10
101.7012857818663
 20
-154.8777126348917
 10
101.7104152849023
 20
-154.7509331210345
 10
101.7217841000036
 20
-154.6386230082153
 10
101.8075669775863
 20
-154.5201117235227
 10
101.9252169884076
 20
-154.3595702739101
 10
102.1241712526808
 20
-154.3254638286061
 10
102.2485391996983
 20
-154.3254638286061
 10
102.5446451566555
 20
-154.3254638286061
 10
102.7661647963571
 20
-154.509776437067
 10
102.7661647963571
 20
-154.7826279994988
 10
102.7661647963571
 20
-155.0110378301709
 10
102.6417968493396
 20
-155.1106010896946
 10
102.3117567018526
 20
-155.3369438630755
 97
        0
 97
        0
 75
     2
 76
     1
 98
        0
  0
POLYLINE
  5
7E
330
78
100
AcDbEntity
  8
_U+30EC_U+30A4_U+30E4_U+30FC 1
370
     0
100
AcDb2dPolyline
 66
     1
 10
0.0
 20
0.0
 30
0.0
  0
VERTEX
  5
7F
330
7E
100
AcDbEntity
  8
_U+30EC_U+30A4_U+30E4_U+30FC 1
370
     0
100
AcDbVertex
100
AcDb2dVertex
 10
103.8250148937486
 20
-155.571554865621
 30
0.0
  0
VERTEX
  5
80
330
7E
100
AcDbEntity
  8
_U+30EC_U+30A4_U+30E4_U+30FC 1
370
     0
100
AcDbVertex
100
AcDb2dVertex
 10
103.8250148937486
 20
-155.9184759809857
 30
0.0
  0
VERTEX
  5
81
330
7E
100
AcDbEntity
  8
_U+30EC_U+30A4_U+30E4_U+30FC 1
370
     0
100
AcDbVertex
100
AcDb2dVertex
 10
103.59229869372
 20
-155.9184759809857
 30
0.0
  0
VERTEX
  5
82
330
7E
100
AcDbEntity
  8
_U+30EC_U+30A4_U+30E4_U+30FC 1
370
     0
100
AcDbVertex
100
AcDb2dVertex
 10
103.59229869372
 20
-155.571554865621
 30
0.0
  0
VERTEX
  5
83
330
7E
100
AcDbEntity
  8
_U+30EC_U+30A4_U+30E4_U+30FC 1
370
     0
100
AcDbVertex
100
AcDb2dVertex
 10
102.8913940172459
 20
-155.571554865621
 30
0.0
  0
VERTEX
  5
84
330
7E
100
AcDbEntity
  8
_U+30EC_U+30A4_U+30E4_U+30FC 1
370
     0
100
AcDbVertex
100
AcDb2dVertex
 10
102.8913940172459
 20
-155.3472791495312
 30
0.0
  0
VERTEX
  5
85
330
7E
100
AcDbEntity
  8
_U+30EC_U+30A4_U+30E4_U+30FC 1
370
     0
100
AcDbVertex
100
AcDb2dVertex
 10
103.6171033812138
 20
-154.3743841844967
 30
0.0
  0
VERTEX
  5
86
330
7E
100
AcDbEntity
  8
_U+30EC_U+30A4_U+30E4_U+30FC 1
370
     0
100
AcDbVertex
100
AcDb2dVertex
 10
103.8250148937486
 20
-154.3743841844967
 30
0.0
  0
VERTEX
  5
87
330
7E
100
AcDbEntity
  8
_U+30EC_U+30A4_U+30E4_U+30FC 1
370
     0
100
AcDbVertex
100
AcDb2dVertex
 10
103.8250148937486
 20
-155.3727728561221
 30
0.0
  0
VERTEX
  5
88
330
7E
100
AcDbEntity
  8
_U+30EC_U+30A4_U+30E4_U+30FC 1
370
     0
100
AcDbVertex
100
AcDb2dVertex
 10
104.0467067882244
 20
-155.3727728561221
 30
0.0
  0
VERTEX
  5
89
330
7E
100
AcDbEntity
  8
_U+30EC_U+30A4_U+30E4_U+30FC 1
370
     0
100
AcDbVertex
100
AcDb2dVertex
 10
104.0467067882244
 20
-155.571554865621
 30
0.0
  0
VERTEX
  5
8A
330
7E
100
AcDbEntity
  8
_U+30EC_U+30A4_U+30E4_U+30FC 1
370
     0
100
AcDbVertex
100
AcDb2dVertex
 10
103.8250148937486
 20
-155.571554865621
 30
0.0
  0
SEQEND
  5
8B
330
7E
100
AcDbEntity
  8
_U+30EC_U+30A4_U+30E4_U+30FC 1
370
     0
  0
POLYLINE
  5
8C
330
78
100
AcDbEntity
  8
_U+30EC_U+30A4_U+30E4_U+30FC 1
370
     0
100
AcDb2dPolyline
 66
     1
 10
0.0
 20
0.0
 30
0.0
  0
VERTEX
  5
8D
330
8C
100
AcDbEntity
  8
_U+30EC_U+30A4_U+30E4_U+30FC 1
370
     0
100
AcDbVertex
100
AcDb2dVertex
 10
103.59229869372
 20
-154.7168266757305
 30
0.0
  0
VERTEX
  5
8E
330
8C
100
AcDbEntity
  8
_U+30EC_U+30A4_U+30E4_U+30FC 1
370
     0
100
AcDbVertex
100
AcDb2dVertex
 10
103.1037841539116
 20
-155.3727728561221
 30
0.0
  0
VERTEX
  5
8F
330
8C
100
AcDbEntity
  8
_U+30EC_U+30A4_U+30E4_U+30FC 1
370
     0
100
AcDbVertex
100
AcDb2dVertex
 10
103.59229869372
 20
-155.3727728561221
 30
0.0
  0
VERTEX
  5
90
330
8C
100
AcDbEntity
  8
_U+30EC_U+30A4_U+30E4_U+30FC 1
370
     0
100
AcDbVertex
100
AcDb2dVertex
 10
103.59229869372
 20
-154.7168266757305
 30
0.0
  0
SEQEND
  5
91
330
8C
100
AcDbEntity
  8
_U+30EC_U+30A4_U+30E4_U+30FC 1
370
     0
  0
HATCH
  5
92
330
78
100
AcDbEntity
  8
_U+30EC_U+30A4_U+30E4_U+30FC 1
 62
   179
420
  2234388
100
AcDbHatch
 10
0.0
 20
0.0
 30
0.0
210
0.0
220
0.0
230
1.0
  2
SOLID
 70
     1
 71
     0
 91
        2
 92
        1
 93
       11
 72
     1
 10
103.8250148937486
 20
-155.571554865621
 11
103.8250148937486
 21
-155.9184759809857
 72
     1
 10
103.8250148937486
 20
-155.9184759809857
 11
103.59229869372
 21
-155.9184759809857
 72
     1
 10
103.59229869372
 20
-155.9184759809857
 11
103.59229869372
 21
-155.571554865621
 72
     1
 10
103.59229869372
 20
-155.571554865621
 11
102.8913940172459
 21
-155.571554865621
 72
     1
 10
102.8913940172459
 20
-155.571554865621
 11
102.8913940172459
 21
-155.3472791495312
 72
     1
 10
102.8913940172459
 20
-155.3472791495312
 11
103.6171033812138
 21
-154.3743841844967
 72
     1
 10
103.6171033812138
 20
-154.3743841844967
 11
103.8250148937486
 21
-154.3743841844967
 72
     1
 10
103.8250148937486
 20
-154.3743841844967
 11
103.8250148937486
 21
-155.3727728561221
 72
     1
 10
103.8250148937486
 20
-155.3727728561221
 11
104.0467067882244
 21
-155.3727728561221
 72
     1
 10
104.0467067882244
 20
-155.3727728561221
 11
104.0467067882244
 21
-155.571554865621
 72
     1
 10
104.0467067882244
 20
-155.571554865621
 11
103.8250148937486
 21
-155.571554865621
 97
        0
 92
        1
 93
        3
 72
     1
 10
103.59229869372
 20
-154.7168266757305
 11
103.1037841539116
 21
-155.3727728561221
 72
     1
 10
103.1037841539116
 20
-155.3727728561221
 11
103.59229869372
 21
-155.3727728561221
 72
     1
 10
103.59229869372
 20
-155.3727728561221
 11
103.59229869372
 21
-154.7168266757305
 97
        0
 75
     2
 76
     1
 98
        0
  0
ENDBLK
  5
7B
330
78
100
AcDbEntity
  8
0
100
AcDbBlockEnd
  0
BLOCK
  5
A1
330
9F
100
AcDbEntity
  8
0
100
AcDbBlockBegin
  2
block 4
 70
     0
 10
0.0
 20
0.0
 30
0.0
  3
block 4
  1

  0
SPLINE
  5
A3
330
9F
100
AcDbEntity
  8
_U+30EC_U+30A4_U+30E4_U+30FC 1
370
     0
100
AcDbSpline
210
0.0
220
0.0
230
1.0
 70
    11
 71
     3
 72
    53
 73
    49
 74
     0
 42
0.0000000001
 43
0.0000000001
 12
1.0
 22
0.0
 32
0.0
 13
1.0
 23
0.0
 33
0.0
 40
0.0
 40
0.0
 40
0.0
 40
0.0
 40
1.0
 40
1.0
 40
1.0
 40
2.0
 40
2.0
 40
2.0
 40
3.0
 40
3.0
 40
3.0
 40
4.0
 40
4.0
 40
4.0
 40
5.0
 40
5.0
 40
5.0
 40
6.0
 40
6.0
 40
6.0
 40
7.0
 40
7.0
 40
7.0
 40
8.0
 40
8.0
 40
8.0
 40
9.0
 40
9.0
 40
9.0
 40
10.0
 40
10.0
 40
10.0
 40
11.0
 40
11.0
 40
11.0
 40
12.0
 40
12.0
 40
12.0
 40
13.0
 40
13.0
 40
13.0
 40
14.0
 40
14.0
 40
14.0
 40
15.0
 40
15.0
 40
15.0
 40
16.0
 40
16.0
 40
16.0
 40
16.0
 10
95.32131345273217
 20
-142.4696844804416
 30
0.0
 10
95.23759763244061
 20
-142.4696844804416
 30
0.0
 10
95.12907712465524
 20
-142.4528035125639
 30
0.0
 10
95.02055661686987
 20
-142.389241500861
 30
0.0
 10
94.83521047976342
 20
-142.2791707001073
 30
0.0
 10
94.81247284956078
 20
-142.1480848168935
 30
0.0
 10
94.7921467861978
 20
-142.0402533282052
 30
0.0
 10
94.7921467861978
 20
-142.0402533282052
 30
0.0
 10
95.02951386513152
 20
-142.0402533282052
 30
0.0
 10
95.02951386513152
 20
-142.0402533282052
 30
0.0
 10
95.08842499792928
 20
-142.2390353377041
 30
0.0
 10
95.22398950527386
 20
-142.2686631588773
 30
0.0
 10
95.32355276479758
 20
-142.2686631588773
 30
0.0
 10
95.4727253993089
 20
-142.2686631588773
 30
0.0
 10
95.63550616098696
 20
-142.1692721541278
 30
0.0
 10
95.63550616098696
 20
-141.9365559540992
 30
0.0
 10
95.63550616098696
 20
-141.6805853595451
 30
0.0
 10
95.44326983291002
 20
-141.6108221759688
 30
0.0
 10
95.31442326176168
 20
-141.6108221759688
 30
0.0
 10
95.28048907123197
 20
-141.6108221759688
 30
0.0
 10
95.12907712465524
 20
-141.6108221759688
 30
0.0
 10
95.0341647440366
 20
-141.7398410018914
 30
0.0
 10
95.0341647440366
 20
-141.7398410018914
 30
0.0
 10
94.84640704009048
 20
-141.7207207219483
 30
0.0
 10
94.84640704009048
 20
-141.7207207219483
 30
0.0
 10
94.84640704009048
 20
-141.7207207219483
 30
0.0
 10
94.9754258660131
 20
-140.8746052707709
 30
0.0
 10
94.9754258660131
 20
-140.8746052707709
 30
0.0
 10
94.9754258660131
 20
-140.8746052707709
 30
0.0
 10
95.80741642570092
 20
-140.8746052707709
 30
0.0
 10
95.80741642570092
 20
-140.8746052707709
 30
0.0
 10
95.80741642570092
 20
-140.8746052707709
 30
0.0
 10
95.80741642570092
 20
-141.0692531656875
 30
0.0
 10
95.80741642570092
 20
-141.0692531656875
 30
0.0
 10
95.80741642570092
 20
-141.0692531656875
 30
0.0
 10
95.14940318801821
 20
-141.0692531656875
 30
0.0
 10
95.14940318801821
 20
-141.0692531656875
 30
0.0
 10
95.14940318801821
 20
-141.0692531656875
 30
0.0
 10
95.07929549489337
 20
-141.4923108912762
 30
0.0
 10
95.07929549489337
 20
-141.4923108912762
 30
0.0
 10
95.14492456388739
 20
-141.4583767007465
 30
0.0
 10
95.23311900830979
 20
-141.4182413383434
 30
0.0
 10
95.35972626739272
 20
-141.4182413383434
 30
0.0
 10
95.63102753685614
 20
-141.4182413383434
 30
0.0
 10
95.884242055022
 20
-141.6044487493211
 30
0.0
 10
95.884242055022
 20
-141.9174356741561
 30
0.0
 10
95.884242055022
 20
-142.2349012231218
 30
0.0
 10
95.64446340924862
 20
-142.4696844804416
 30
0.0
 10
95.32131345273217
 20
-142.4696844804416
 30
0.0
  0
HATCH
  5
A4
330
9F
100
AcDbEntity
  8
_U+30EC_U+30A4_U+30E4_U+30FC 1
 62
   179
420
  2234388
100
AcDbHatch
 10
0.0
 20
0.0
 30
0.0
210
0.0
220
0.0
230
1.0
  2
SOLID
 70
     1
 71
     0
 91
        1
 92
        1
 93
        1
 72
     4
 94
        3
 73
     0
 74
     1
 95
       53
 96
       49
 40
0.0
 40
0.0
 40
0.0
 40
0.0
 40
1.0
 40
1.0
 40
1.0
 40
2.0
 40
2.0
 40
2.0
 40
3.0
 40
3.0
 40
3.0
 40
4.0
 40
4.0
 40
4.0
 40
5.0
 40
5.0
 40
5.0
 40
6.0
 40
6.0
 40
6.0
 40
7.0
 40
7.0
 40
7.0
 40
8.0
 40
8.0
 40
8.0
 40
9.0
 40
9.0
 40
9.0
 40
10.0
 40
10.0
 40
10.0
 40
11.0
 40
11.0
 40
11.0
 40
12.0
 40
12.0
 40
12.0
 40
13.0
 40
13.0
 40
13.0
 40
14.0
 40
14.0
 40
14.0
 40
15.0
 40
15.0
 40
15.0
 40
16.0
 40
16.0
 40
16.0
 40
16.0
 10
95.32131345273217
 20
-142.4696844804416
 10
95.23759763244061
 20
-142.4696844804416
 10
95.12907712465524
 20
-142.4528035125639
 10
95.02055661686987
 20
-142.389241500861
 10
94.83521047976342
 20
-142.2791707001073
 10
94.81247284956078
 20
-142.1480848168935
 10
94.7921467861978
 20
-142.0402533282052
 10
94.7921467861978
 20
-142.0402533282052
 10
95.02951386513152
 20
-142.0402533282052
 10
95.02951386513152
 20
-142.0402533282052
 10
95.08842499792928
 20
-142.2390353377041
 10
95.22398950527386
 20
-142.2686631588773
 10
95.32355276479758
 20
-142.2686631588773
 10
95.4727253993089
 20
-142.2686631588773
 10
95.63550616098696
 20
-142.1692721541278
 10
95.63550616098696
 20
-141.9365559540992
 10
95.63550616098696
 20
-141.6805853595451
 10
95.44326983291002
 20
-141.6108221759688
 10
95.31442326176168
 20
-141.6108221759688
 10
95.28048907123197
 20
-141.6108221759688
 10
95.12907712465524
 20
-141.6108221759688
 10
95.0341647440366
 20
-141.7398410018914
 10
95.0341647440366
 20
-141.7398410018914
 10
94.84640704009048
 20
-141.7207207219483
 10
94.84640704009048
 20
-141.7207207219483
 10
94.84640704009048
 20
-141.7207207219483
 10
94.9754258660131
 20
-140.8746052707709
 10
94.9754258660131
 20
-140.8746052707709
 10
94.9754258660131
 20
-140.8746052707709
 10
95.80741642570092
 20
-140.8746052707709
 10
95.80741642570092
 20
-140.8746052707709
 10
95.80741642570092
 20
-140.8746052707709
 10
95.80741642570092
 20
-141.0692531656875
 10
95.80741642570092
 20
-141.0692531656875
 10
95.80741642570092
 20
-141.0692531656875
 10
95.14940318801821
 20
-141.0692531656875
 10
95.14940318801821
 20
-141.0692531656875
 10
95.14940318801821
 20
-141.0692531656875
 10
95.07929549489337
 20
-141.4923108912762
 10
95.07929549489337
 20
-141.4923108912762
 10
95.14492456388739
 20
-141.4583767007465
 10
95.23311900830979
 20
-141.4182413383434
 10
95.35972626739272
 20
-141.4182413383434
 10
95.63102753685614
 20
-141.4182413383434
 10
95.884242055022
 20
-141.6044487493211
 10
95.884242055022
 20
-141.9174356741561
 10
95.884242055022
 20
-142.2349012231218
 10
95.64446340924862
 20
-142.4696844804416
 10
95.32131345273217
 20
-142.4696844804416
 97
        0
 97
        0
 75
     2
 76
     1
 98
        0
  0
ENDBLK
  5
A2
330
9F
100
AcDbEntity
  8
0
100
AcDbBlockEnd
  0
BLOCK
  5
B3
330
B1
100
AcDbEntity
  8
0
100
AcDbBlockBegin
  2
block 5
 70
     0
 10
0.0
 20
0.0
 30
0.0
  3
block 5
  1

  0
SPLINE
  5
B5
330
B1
100
AcDbEntity
  8
_U+30EC_U+30A4_U+30E4_U+30FC 1
370
     0
100
AcDbSpline
210
0.0
220
0.0
230
1.0
 70
    11
 71
     3
 72
    32
 73
    28
 74
     0
 42
0.0000000001
 43
0.0000000001
 12
1.0
 22
0.0
 32
0.0
 13
1.0
 23
0.0
 33
0.0
 40
0.0
 40
0.0
 40
0.0
 40
0.0
 40
1.0
 40
1.0
 40
1.0
 40
2.0
 40
2.0
 40
2.0
 40
3.0
 40
3.0
 40
3.0
 40
4.0
 40
4.0
 40
4.0
 40
5.0
 40
5.0
 40
5.0
 40
6.0
 40
6.0
 40
6.0
 40
7.0
 40
7.0
 40
7.0
 40
8.0
 40
8.0
 40
8.0
 40
9.0
 40
9.0
 40
9.0
 40
9.0
 10
100.8460408276531
 20
-142.4696844804416
 30
0.0
 10
100.2943087856903
 20
-142.4696844804416
 30
0.0
 10
100.2853515374287
 20
-141.9153686168649
 30
0.0
 10
100.2853515374287
 20
-141.7017726967794
 30
0.0
 10
100.2853515374287
 20
-141.471123554042
 30
0.0
 10
100.3056776007916
 20
-140.8237901123635
 30
0.0
 10
100.886692954379
 20
-140.8237901123635
 30
0.0
 10
101.0722113462597
 20
-140.8237901123635
 30
0.0
 10
101.3343831126872
 20
-140.8935532959398
 30
0.0
 10
101.3750352394132
 20
-141.2256605007179
 30
0.0
 10
101.3750352394132
 20
-141.2256605007179
 30
0.0
 10
101.1467976635154
 20
-141.2256605007179
 30
0.0
 10
101.1467976635154
 20
-141.2256605007179
 30
0.0
 10
101.1354288484141
 20
-141.168644170437
 30
0.0
 10
101.1014946578844
 20
-141.0205050645713
 30
0.0
 10
100.8844536423136
 20
-141.0205050645713
 30
0.0
 10
100.5725002461242
 20
-141.0205050645713
 30
0.0
 10
100.5296088073329
 20
-141.3484781547671
 30
0.0
 10
100.5160006801661
 20
-141.5536335909137
 30
0.0
 10
100.6153916849156
 20
-141.4754299233985
 30
0.0
 10
100.6877386901058
 20
-141.4161742810522
 30
0.0
 10
100.8822143302482
 20
-141.4161742810522
 30
0.0
 10
101.0744506583251
 20
-141.4161742810522
 30
0.0
 10
101.3977728696158
 20
-141.5240057697405
 30
0.0
 10
101.3977728696158
 20
-141.9301825274515
 30
0.0
 10
101.3977728696158
 20
-142.2495428789341
 30
0.0
 10
101.1852104781759
 20
-142.4696844804416
 30
0.0
 10
100.8460408276531
 20
-142.4696844804416
 30
0.0
  0
SPLINE
  5
B6
330
B1
100
AcDbEntity
  8
_U+30EC_U+30A4_U+30E4_U+30FC 1
370
     0
100
AcDbSpline
210
0.0
220
0.0
230
1.0
 70
    11
 71
     3
 72
    17
 73
    13
 74
     0
 42
0.0000000001
 43
0.0000000001
 12
1.0
 22
0.0
 32
0.0
 13
1.0
 23
0.0
 33
0.0
 40
0.0
 40
0.0
 40
0.0
 40
0.0
 40
1.0
 40
1.0
 40
1.0
 40
2.0
 40
2.0
 40
2.0
 40
3.0
 40
3.0
 40
3.0
 40
4.0
 40
4.0
 40
4.0
 40
4.0
 10
100.8641275789506
 20
-141.6108221759688
 30
0.0
 10
100.5836968064513
 20
-141.6108221759688
 30
0.0
 10
100.5430446797254
 20
-141.8223510387632
 30
0.0
 10
100.5430446797254
 20
-141.9386230113903
 30
0.0
 10
100.5430446797254
 20
-142.1141506263638
 30
0.0
 10
100.6448472513145
 20
-142.2771036428161
 30
0.0
 10
100.8415622035223
 20
-142.2771036428161
 30
0.0
 10
100.9704087746706
 20
-142.2771036428161
 30
0.0
 10
101.1579942238425
 20
-142.2178480004698
 30
0.0
 10
101.1579942238425
 20
-141.9322495847426
 30
0.0
 10
101.1579942238425
 20
-141.7079738686529
 30
0.0
 10
101.0088215893311
 20
-141.6108221759688
 30
0.0
 10
100.8641275789506
 20
-141.6108221759688
 30
0.0
  0
HATCH
  5
B7
330
B1
100
AcDbEntity
  8
_U+30EC_U+30A4_U+30E4_U+30FC 1
 62
   179
420
  2234388
100
AcDbHatch
 10
0.0
 20
0.0
 30
0.0
210
0.0
220
0.0
230
1.0
  2
SOLID
 70
     1
 71
     0
 91
        2
 92
        1
 93
        1
 72
     4
 94
        3
 73
     0
 74
     1
 95
       32
 96
       28
 40
0.0
 40
0.0
 40
0.0
 40
0.0
 40
1.0
 40
1.0
 40
1.0
 40
2.0
 40
2.0
 40
2.0
 40
3.0
 40
3.0
 40
3.0
 40
4.0
 40
4.0
 40
4.0
 40
5.0
 40
5.0
 40
5.0
 40
6.0
 40
6.0
 40
6.0
 40
7.0
 40
7.0
 40
7.0
 40
8.0
 40
8.0
 40
8.0
 40
9.0
 40
9.0
 40
9.0
 40
9.0
 10
100.8460408276531
 20
-142.4696844804416
 10
100.2943087856903
 20
-142.4696844804416
 10
100.2853515374287
 20
-141.9153686168649
 10
100.2853515374287
 20
-141.7017726967794
 10
100.2853515374287
 20
-141.471123554042
 10
100.3056776007916
 20
-140.8237901123635
 10
100.886692954379
 20
-140.8237901123635
 10
101.0722113462597
 20
-140.8237901123635
 10
101.3343831126872
 20
-140.8935532959398
 10
101.3750352394132
 20
-141.2256605007179
 10
101.3750352394132
 20
-141.2256605007179
 10
101.1467976635154
 20
-141.2256605007179
 10
101.1467976635154
 20
-141.2256605007179
 10
101.1354288484141
 20
-141.168644170437
 10
101.1014946578844
 20
-141.0205050645713
 10
100.8844536423136
 20
-141.0205050645713
 10
100.5725002461242
 20
-141.0205050645713
 10
100.5296088073329
 20
-141.3484781547671
 10
100.5160006801661
 20
-141.5536335909137
 10
100.6153916849156
 20
-141.4754299233985
 10
100.6877386901058
 20
-141.4161742810522
 10
100.8822143302482
 20
-141.4161742810522
 10
101.0744506583251
 20
-141.4161742810522
 10
101.3977728696158
 20
-141.5240057697405
 10
101.3977728696158
 20
-141.9301825274515
 10
101.3977728696158
 20
-142.2495428789341
 10
101.1852104781759
 20
-142.4696844804416
 10
100.8460408276531
 20
-142.4696844804416
 97
        0
 97
        0
 92
        1
 93
        1
 72
     4
 94
        3
 73
     0
 74
     1
 95
       17
 96
       13
 40
0.0
 40
0.0
 40
0.0
 40
0.0
 40
1.0
 40
1.0
 40
1.0
 40
2.0
 40
2.0
 40
2.0
 40
3.0
 40
3.0
 40
3.0
 40
4.0
 40
4.0
 40
4.0
 40
4.0
 10
100.8641275789506
 20
-141.6108221759688
 10
100.5836968064513
 20
-141.6108221759688
 10
100.5430446797254
 20
-141.8223510387632
 10
100.5430446797254
 20
-141.9386230113903
 10
100.5430446797254
 20
-142.1141506263638
 10
100.6448472513145
 20
-142.2771036428161
 10
100.8415622035223
 20
-142.2771036428161
 10
100.9704087746706
 20
-142.2771036428161
 10
101.1579942238425
 20
-142.2178480004698
 10
101.1579942238425
 20
-141.9322495847426
 10
101.1579942238425
 20
-141.7079738686529
 10
101.0088215893311
 20
-141.6108221759688
 10
100.8641275789506
 20
-141.6108221759688
 97
        0
 97
        0
 75
     2
 76
     1
 98
        0
  0
ENDBLK
  5
B4
330
B1
100
AcDbEntity
  8
0
100
AcDbBlockEnd
  0
BLOCK
  5
C2
330
C0
100
AcDbEntity
  8
0
100
AcDbBlockBegin
  2
block 6
 70
     0
 10
0.0
 20
0.0
 30
0.0
  3
block 6
  1

  0
SPLINE
  5
C4
330
C0
100
AcDbEntity
  8
_U+30EC_U+30A4_U+30E4_U+30FC 1
370
     0
100
AcDbSpline
210
0.0
220
0.0
230
1.0
 70
    11
 71
     3
 72
    53
 73
    49
 74
     0
 42
0.0000000001
 43
0.0000000001
 12
1.0
 22
0.0
 32
0.0
 13
1.0
 23
0.0
 33
0.0
 40
0.0
 40
0.0
 40
0.0
 40
0.0
 40
1.0
 40
1.0
 40
1.0
 40
2.0
 40
2.0
 40
2.0
 40
3.0
 40
3.0
 40
3.0
 40
4.0
 40
4.0
 40
4.0
 40
5.0
 40
5.0
 40
5.0
 40
6.0
 40
6.0
 40
6.0
 40
7.0
 40
7.0
 40
7.0
 40
8.0
 40
8.0
 40
8.0
 40
9.0
 40
9.0
 40
9.0
 40
10.0
 40
10.0
 40
10.0
 40
11.0
 40
11.0
 40
11.0
 40
12.0
 40
12.0
 40
12.0
 40
13.0
 40
13.0
 40
13.0
 40
14.0
 40
14.0
 40
14.0
 40
15.0
 40
15.0
 40
15.0
 40
16.0
 40
16.0
 40
16.0
 40
16.0
 10
106.3211588275864
 20
-142.4696844804416
 30
0.0
 10
106.2377875168433
 20
-142.4696844804416
 30
0.0
 10
106.1289224995094
 20
-142.4528035125639
 30
0.0
 10
106.0207465012726
 20
-142.389241500861
 30
0.0
 10
105.8354003641661
 20
-142.2791707001073
 30
0.0
 10
105.8126627339635
 20
-142.1480848168935
 30
0.0
 10
105.791992161052
 20
-142.0402533282052
 30
0.0
 10
105.791992161052
 20
-142.0402533282052
 30
0.0
 10
106.0297037495342
 20
-142.0402533282052
 30
0.0
 10
106.0297037495342
 20
-142.0402533282052
 30
0.0
 10
106.0882703727835
 20
-142.2390353377041
 30
0.0
 10
106.2240071349023
 20
-142.2686631588773
 30
0.0
 10
106.3235703944261
 20
-142.2686631588773
 30
0.0
 10
106.4727430289374
 20
-142.2686631588773
 30
0.0
 10
106.6353515358412
 20
-142.1692721541278
 30
0.0
 10
106.6353515358412
 20
-141.9365559540992
 30
0.0
 10
106.6353515358412
 20
-141.6805853595451
 30
0.0
 10
106.4431152077642
 20
-141.6108221759688
 30
0.0
 10
106.3142686366159
 20
-141.6108221759688
 30
0.0
 10
106.2805067008604
 20
-141.6108221759688
 30
0.0
 10
106.1289224995094
 20
-141.6108221759688
 30
0.0
 10
106.0341823736651
 20
-141.7398410018914
 30
0.0
 10
106.0341823736651
 20
-141.7398410018914
 30
0.0
 10
105.846424669719
 20
-141.7207207219483
 30
0.0
 10
105.846424669719
 20
-141.7207207219483
 30
0.0
 10
105.846424669719
 20
-141.7207207219483
 30
0.0
 10
105.9752712408673
 20
-140.8746052707709
 30
0.0
 10
105.9752712408673
 20
-140.8746052707709
 30
0.0
 10
105.9752712408673
 20
-140.8746052707709
 30
0.0
 10
106.8072618005551
 20
-140.8746052707709
 30
0.0
 10
106.8072618005551
 20
-140.8746052707709
 30
0.0
 10
106.8072618005551
 20
-140.8746052707709
 30
0.0
 10
106.8072618005551
 20
-141.0692531656875
 30
0.0
 10
106.8072618005551
 20
-141.0692531656875
 30
0.0
 10
106.8072618005551
 20
-141.0692531656875
 30
0.0
 10
106.1495930724209
 20
-141.0692531656875
 30
0.0
 10
106.1495930724209
 20
-141.0692531656875
 30
0.0
 10
106.1495930724209
 20
-141.0692531656875
 30
0.0
 10
106.0793131245218
 20
-141.4923108912762
 30
0.0
 10
106.0793131245218
 20
-141.4923108912762
 30
0.0
 10
106.1447699387416
 20
-141.4583767007465
 30
0.0
 10
106.232964383164
 20
-141.4182413383434
 30
0.0
 10
106.3597438970212
 20
-141.4182413383434
 30
0.0
 10
106.6312174212589
 20
-141.4182413383434
 30
0.0
 10
106.8840874298762
 20
-141.6044487493211
 30
0.0
 10
106.8840874298762
 20
-141.9174356741561
 30
0.0
 10
106.8840874298762
 20
-142.2349012231218
 30
0.0
 10
106.6446532936513
 20
-142.4696844804416
 30
0.0
 10
106.3211588275864
 20
-142.4696844804416
 30
0.0
  0
HATCH
  5
C5
330
C0
100
AcDbEntity
  8
_U+30EC_U+30A4_U+30E4_U+30FC 1
 62
   179
420
  2234388
100
AcDbHatch
 10
0.0
 20
0.0
 30
0.0
210
0.0
220
0.0
230
1.0
  2
SOLID
 70
     1
 71
     0
 91
        1
 92
        1
 93
        1
 72
     4
 94
        3
 73
     0
 74
     1
 95
       53
 96
       49
 40
0.0
 40
0.0
 40
0.0
 40
0.0
 40
1.0
 40
1.0
 40
1.0
 40
2.0
 40
2.0
 40
2.0
 40
3.0
 40
3.0
 40
3.0
 40
4.0
 40
4.0
 40
4.0
 40
5.0
 40
5.0
 40
5.0
 40
6.0
 40
6.0
 40
6.0
 40
7.0
 40
7.0
 40
7.0
 40
8.0
 40
8.0
 40
8.0
 40
9.0
 40
9.0
 40
9.0
 40
10.0
 40
10.0
 40
10.0
 40
11.0
 40
11.0
 40
11.0
 40
12.0
 40
12.0
 40
12.0
 40
13.0
 40
13.0
 40
13.0
 40
14.0
 40
14.0
 40
14.0
 40
15.0
 40
15.0
 40
15.0
 40
16.0
 40
16.0
 40
16.0
 40
16.0
 10
106.3211588275864
 20
-142.4696844804416
 10
106.2377875168433
 20
-142.4696844804416
 10
106.1289224995094
 20
-142.4528035125639
 10
106.0207465012726
 20
-142.389241500861
 10
105.8354003641661
 20
-142.2791707001073
 10
105.8126627339635
 20
-142.1480848168935
 10
105.791992161052
 20
-142.0402533282052
 10
105.791992161052
 20
-142.0402533282052
 10
106.0297037495342
 20
-142.0402533282052
 10
106.0297037495342
 20
-142.0402533282052
 10
106.0882703727835
 20
-142.2390353377041
 10
106.2240071349023
 20
-142.2686631588773
 10
106.3235703944261
 20
-142.2686631588773
 10
106.4727430289374
 20
-142.2686631588773
 10
106.6353515358412
 20
-142.1692721541278
 10
106.6353515358412
 20
-141.9365559540992
 10
106.6353515358412
 20
-141.6805853595451
 10
106.4431152077642
 20
-141.6108221759688
 10
106.3142686366159
 20
-141.6108221759688
 10
106.2805067008604
 20
-141.6108221759688
 10
106.1289224995094
 20
-141.6108221759688
 10
106.0341823736651
 20
-141.7398410018914
 10
106.0341823736651
 20
-141.7398410018914
 10
105.846424669719
 20
-141.7207207219483
 10
105.846424669719
 20
-141.7207207219483
 10
105.846424669719
 20
-141.7207207219483
 10
105.9752712408673
 20
-140.8746052707709
 10
105.9752712408673
 20
-140.8746052707709
 10
105.9752712408673
 20
-140.8746052707709
 10
106.8072618005551
 20
-140.8746052707709
 10
106.8072618005551
 20
-140.8746052707709
 10
106.8072618005551
 20
-140.8746052707709
 10
106.8072618005551
 20
-141.0692531656875
 10
106.8072618005551
 20
-141.0692531656875
 10
106.8072618005551
 20
-141.0692531656875
 10
106.1495930724209
 20
-141.0692531656875
 10
106.1495930724209
 20
-141.0692531656875
 10
106.1495930724209
 20
-141.0692531656875
 10
106.0793131245218
 20
-141.4923108912762
 10
106.0793131245218
 20
-141.4923108912762
 10
106.1447699387416
 20
-141.4583767007465
 10
106.232964383164
 20
-141.4182413383434
 10
106.3597438970212
 20
-141.4182413383434
 10
106.6312174212589
 20
-141.4182413383434
 10
106.8840874298762
 20
-141.6044487493211
 10
106.8840874298762
 20
-141.9174356741561
 10
106.8840874298762
 20
-142.2349012231218
 10
106.6446532936513
 20
-142.4696844804416
 10
106.3211588275864
 20
-142.4696844804416
 97
        0
 97
        0
 75
     2
 76
     1
 98
        0
  0
ENDBLK
  5
C3
330
C0
100
AcDbEntity
  8
0
100
AcDbBlockEnd
  0
BLOCK
  5
D2
330
D0
100
AcDbEntity
  8
0
100
AcDbBlockBegin
  2
block 7
 70
     0
 10
0.0
 20
0.0
 30
0.0
  3
block 7
  1

  0
SPLINE
  5
D4
330
D0
100
AcDbEntity
  8
_U+30EC_U+30A4_U+30E4_U+30FC 1
370
     0
100
AcDbSpline
210
0.0
220
0.0
230
1.0
 70
    11
 71
     3
 72
    26
 73
    22
 74
     0
 42
0.0000000001
 43
0.0000000001
 12
1.0
 22
0.0
 32
0.0
 13
1.0
 23
0.0
 33
0.0
 40
0.0
 40
0.0
 40
0.0
 40
0.0
 40
1.0
 40
1.0
 40
1.0
 40
2.0
 40
2.0
 40
2.0
 40
3.0
 40
3.0
 40
3.0
 40
4.0
 40
4.0
 40
4.0
 40
5.0
 40
5.0
 40
5.0
 40
6.0
 40
6.0
 40
6.0
 40
7.0
 40
7.0
 40
7.0
 40
7.0
 10
100.7817897968532
 20
-148.6481187236887
 30
0.0
 10
100.7817897968532
 20
-148.6481187236887
 30
0.0
 10
100.7817897968532
 20
-147.5437933658918
 30
0.0
 10
100.7817897968532
 20
-147.5437933658918
 30
0.0
 10
100.7817897968532
 20
-147.5437933658918
 30
0.0
 10
100.4290120191636
 20
-147.5437933658918
 30
0.0
 10
100.4290120191636
 20
-147.5437933658918
 30
0.0
 10
100.4290120191636
 20
-147.5437933658918
 30
0.0
 10
100.4290120191636
 20
-147.3958265148003
 30
0.0
 10
100.4290120191636
 20
-147.3958265148003
 30
0.0
 10
100.7840291089186
 20
-147.3810126042138
 30
0.0
 10
100.8338107386804
 20
-147.2180595877615
 30
0.0
 10
100.8655056171447
 20
-147.1038546724254
 30
0.0
 10
100.8655056171447
 20
-147.1038546724254
 30
0.0
 10
101.0213961878523
 20
-147.1038546724254
 30
0.0
 10
101.0213961878523
 20
-147.1038546724254
 30
0.0
 10
101.0213961878523
 20
-147.1038546724254
 30
0.0
 10
101.0213961878523
 20
-148.6481187236887
 30
0.0
 10
101.0213961878523
 20
-148.6481187236887
 30
0.0
 10
101.0213961878523
 20
-148.6481187236887
 30
0.0
 10
100.7817897968532
 20
-148.6481187236887
 30
0.0
 10
100.7817897968532
 20
-148.6481187236887
 30
0.0
  0
HATCH
  5
D5
330
D0
100
AcDbEntity
  8
_U+30EC_U+30A4_U+30E4_U+30FC 1
 62
   179
420
  2234388
100
AcDbHatch
 10
0.0
 20
0.0
 30
0.0
210
0.0
220
0.0
230
1.0
  2
SOLID
 70
     1
 71
     0
 91
        1
 92
        1
 93
        1
 72
     4
 94
        3
 73
     0
 74
     1
 95
       26
 96
       22
 40
0.0
 40
0.0
 40
0.0
 40
0.0
 40
1.0
 40
1.0
 40
1.0
 40
2.0
 40
2.0
 40
2.0
 40
3.0
 40
3.0
 40
3.0
 40
4.0
 40
4.0
 40
4.0
 40
5.0
 40
5.0
 40
5.0
 40
6.0
 40
6.0
 40
6.0
 40
7.0
 40
7.0
 40
7.0
 40
7.0
 10
100.7817897968532
 20
-148.6481187236887
 10
100.7817897968532
 20
-148.6481187236887
 10
100.7817897968532
 20
-147.5437933658918
 10
100.7817897968532
 20
-147.5437933658918
 10
100.7817897968532
 20
-147.5437933658918
 10
100.4290120191636
 20
-147.5437933658918
 10
100.4290120191636
 20
-147.5437933658918
 10
100.4290120191636
 20
-147.5437933658918
 10
100.4290120191636
 20
-147.3958265148003
 10
100.4290120191636
 20
-147.3958265148003
 10
100.7840291089186
 20
-147.3810126042138
 10
100.8338107386804
 20
-147.2180595877615
 10
100.8655056171447
 20
-147.1038546724254
 10
100.8655056171447
 20
-147.1038546724254
 10
101.0213961878523
 20
-147.1038546724254
 10
101.0213961878523
 20
-147.1038546724254
 10
101.0213961878523
 20
-147.1038546724254
 10
101.0213961878523
 20
-148.6481187236887
 10
101.0213961878523
 20
-148.6481187236887
 10
101.0213961878523
 20
-148.6481187236887
 10
100.7817897968532
 20
-148.6481187236887
 10
100.7817897968532
 20
-148.6481187236887
 97
        0
 97
        0
 75
     2
 76
     1
 98
        0
  0
ENDBLK
  5
D3
330
D0
100
AcDbEntity
  8
0
100
AcDbBlockEnd
  0
ENDSEC
  0
SECTION
  2
ENTITIES
  0
SPLINE
  5
41
330
1F
100
AcDbEntity
  8
_U+30EC_U+30A4_U+30E4_U+30FC 1
370
     0
100
AcDbSpline
210
0.0
220
0.0
230
1.0
 70
    11
 71
     3
 72
    65
 73
    61
 74
     0
 42
0.0000000001
 43
0.0000000001
 12
1.0
 22
0.0
 32
0.0
 13
1.0
 23
0.0
 33
0.0
 40
0.0
 40
0.0
 40
0.0
 40
0.0
 40
1.0
 40
1.0
 40
1.0
 40
2.0
 40
2.0
 40
2.0
 40
3.0
 40
3.0
 40
3.0
 40
4.0
 40
4.0
 40
4.0
 40
5.0
 40
5.0
 40
5.0
 40
6.0
 40
6.0
 40
6.0
 40
7.0
 40
7.0
 40
7.0
 40
8.0
 40
8.0
 40
8.0
 40
9.0
 40
9.0
 40
9.0
 40
10.0
 40
10.0
 40
10.0
 40
11.0
 40
11.0
 40
11.0
 40
12.0
 40
12.0
 40
12.0
 40
13.0
 40
13.0
 40
13.0
 40
14.0
 40
14.0
 40
14.0
 40
15.0
 40
15.0
 40
15.0
 40
16.0
 40
16.0
 40
16.0
 40
17.0
 40
17.0
 40
17.0
 40
18.0
 40
18.0
 40
18.0
 40
19.0
 40
19.0
 40
19.0
 40
20.0
 40
20.0
 40
20.0
 40
20.0
 10
103.8418689468179
 20
-147.8142764251778
 30
0.0
 10
103.8418689468179
 20
-147.4001328841569
 30
0.0
 10
104.1777119270128
 20
-147.0646236475875
 30
0.0
 10
104.5918716169184
 20
-147.0646236475875
 30
0.0
 10
104.5918716169184
 20
-147.0646236475875
 30
0.0
 10
107.8416624859248
 20
-147.0646236475875
 30
0.0
 10
107.8416624859248
 20
-147.0646236475875
 30
0.0
 10
107.8416624859248
 20
-147.0646236475875
 30
0.0
 10
108.8417844712162
 20
-148.0644118892534
 30
0.0
 10
108.8417844712162
 20
-148.0644118892534
 30
0.0
 10
108.8417844712162
 20
-148.0644118892534
 30
0.0
 10
104.8416410395991
 20
-148.0644118892534
 30
0.0
 10
104.8416410395991
 20
-148.0644118892534
 30
0.0
 10
104.8416410395991
 20
-148.0644118892534
 30
0.0
 10
104.8416410395991
 20
-151.5646719659608
 30
0.0
 10
104.8416410395991
 20
-151.5646719659608
 30
0.0
 10
104.8416410395991
 20
-151.5646719659608
 30
0.0
 10
108.8417844712162
 20
-151.5646719659608
 30
0.0
 10
108.8417844712162
 20
-151.5646719659608
 30
0.0
 10
108.8417844712162
 20
-151.5646719659608
 30
0.0
 10
109.3416732090877
 20
-152.0645553208706
 30
0.0
 10
109.3416732090877
 20
-152.0645553208706
 30
0.0
 10
109.3416732090877
 20
-152.0645553208706
 30
0.0
 10
114.3419440089579
 20
-152.0645553208706
 30
0.0
 10
114.3419440089579
 20
-152.0645553208706
 30
0.0
 10
114.3419440089579
 20
-152.0645553208706
 30
0.0
 10
114.8418327468294
 20
-152.5644386757803
 30
0.0
 10
114.8418327468294
 20
-152.5644386757803
 30
0.0
 10
114.8418327468294
 20
-152.5644386757803
 30
0.0
 10
90.84165310178096
 20
-152.5644386757803
 30
0.0
 10
90.84165310178096
 20
-152.5644386757803
 30
0.0
 10
90.84165310178096
 20
-152.5644386757803
 30
0.0
 10
91.84178047003408
 20
-151.5646719659608
 30
0.0
 10
91.84178047003408
 20
-151.5646719659608
 30
0.0
 10
91.84178047003408
 20
-151.5646719659608
 30
0.0
 10
96.84205126990435
 20
-151.5646719659608
 30
0.0
 10
96.84205126990435
 20
-151.5646719659608
 30
0.0
 10
96.84205126990435
 20
-151.5646719659608
 30
0.0
 10
96.84205126990435
 20
-148.0644118892534
 30
0.0
 10
96.84205126990435
 20
-148.0644118892534
 30
0.0
 10
96.84205126990435
 20
-148.0644118892534
 30
0.0
 10
92.84190514680634
 20
-148.0644118892534
 30
0.0
 10
92.84190514680634
 20
-148.0644118892534
 30
0.0
 10
92.84190514680634
 20
-148.0644118892534
 30
0.0
 10
93.84167723958754
 20
-147.0646236475875
 30
0.0
 10
93.84167723958754
 20
-147.0646236475875
 30
0.0
 10
93.84167723958754
 20
-147.0646236475875
 30
0.0
 10
97.09146541711304
 20
-147.0646236475875
 30
0.0
 10
97.09146541711304
 20
-147.0646236475875
 30
0.0
 10
97.50598038249065
 20
-147.0646236475875
 30
0.0
 10
97.84182336268555
 20
-147.4001328841569
 30
0.0
 10
97.84182336268555
 20
-147.8142764251778
 30
0.0
 10
97.84182336268555
 20
-147.8142764251778
 30
0.0
 10
97.84182336268555
 20
-151.5646719659608
 30
0.0
 10
97.84182336268555
 20
-151.5646719659608
 30
0.0
 10
97.84182336268555
 20
-151.5646719659608
 30
0.0
 10
103.8418689468179
 20
-151.5646719659608
 30
0.0
 10
103.8418689468179
 20
-151.5646719659608
 30
0.0
 10
103.8418689468179
 20
-151.5646719659608
 30
0.0
 10
103.8418689468179
 20
-147.8142764251778
 30
0.0
 10
103.8418689468179
 20
-147.8142764251778
 30
0.0
  0
HATCH
  5
42
330
1F
100
AcDbEntity
  8
_U+30EC_U+30A4_U+30E4_U+30FC 1
 62
     9
420
 13224394
100
AcDbHatch
 10
0.0
 20
0.0
 30
0.0
210
0.0
220
0.0
230
1.0
  2
SOLID
 70
     1
 71
     0
 91
        1
 92
        1
 93
        1
 72
     4
 94
        3
 73
     0
 74
     1
 95
       65
 96
       61
 40
0.0
 40
0.0
 40
0.0
 40
0.0
 40
1.0
 40
1.0
 40
1.0
 40
2.0
 40
2.0
 40
2.0
 40
3.0
 40
3.0
 40
3.0
 40
4.0
 40
4.0
 40
4.0
 40
5.0
 40
5.0
 40
5.0
 40
6.0
 40
6.0
 40
6.0
 40
7.0
 40
7.0
 40
7.0
 40
8.0
 40
8.0
 40
8.0
 40
9.0
 40
9.0
 40
9.0
 40
10.0
 40
10.0
 40
10.0
 40
11.0
 40
11.0
 40
11.0
 40
12.0
 40
12.0
 40
12.0
 40
13.0
 40
13.0
 40
13.0
 40
14.0
 40
14.0
 40
14.0
 40
15.0
 40
15.0
 40
15.0
 40
16.0
 40
16.0
 40
16.0
 40
17.0
 40
17.0
 40
17.0
 40
18.0
 40
18.0
 40
18.0
 40
19.0
 40
19.0
 40
19.0
 40
20.0
 40
20.0
 40
20.0
 40
20.0
 10
103.8418689468179
 20
-147.8142764251778
 10
103.8418689468179
 20
-147.4001328841569
 10
104.1777119270128
 20
-147.0646236475875
 10
104.5918716169184
 20
-147.0646236475875
 10
104.5918716169184
 20
-147.0646236475875
 10
107.8416624859248
 20
-147.0646236475875
 10
107.8416624859248
 20
-147.0646236475875
 10
107.8416624859248
 20
-147.0646236475875
 10
108.8417844712162
 20
-148.0644118892534
 10
108.8417844712162
 20
-148.0644118892534
 10
108.8417844712162
 20
-148.0644118892534
 10
104.8416410395991
 20
-148.0644118892534
 10
104.8416410395991
 20
-148.0644118892534
 10
104.8416410395991
 20
-148.0644118892534
 10
104.8416410395991
 20
-151.5646719659608
 10
104.8416410395991
 20
-151.5646719659608
 10
104.8416410395991
 20
-151.5646719659608
 10
108.8417844712162
 20
-151.5646719659608
 10
108.8417844712162
 20
-151.5646719659608
 10
108.8417844712162
 20
-151.5646719659608
 10
109.3416732090877
 20
-152.0645553208706
 10
109.3416732090877
 20
-152.0645553208706
 10
109.3416732090877
 20
-152.0645553208706
 10
114.3419440089579
 20
-152.0645553208706
 10
114.3419440089579
 20
-152.0645553208706
 10
114.3419440089579
 20
-152.0645553208706
 10
114.8418327468294
 20
-152.5644386757803
 10
114.8418327468294
 20
-152.5644386757803
 10
114.8418327468294
 20
-152.5644386757803
 10
90.84165310178096
 20
-152.5644386757803
 10
90.84165310178096
 20
-152.5644386757803
 10
90.84165310178096
 20
-152.5644386757803
 10
91.84178047003408
 20
-151.5646719659608
 10
91.84178047003408
 20
-151.5646719659608
 10
91.84178047003408
 20
-151.5646719659608
 10
96.84205126990435
 20
-151.5646719659608
 10
96.84205126990435
 20
-151.5646719659608
 10
96.84205126990435
 20
-151.5646719659608
 10
96.84205126990435
 20
-148.0644118892534
 10
96.84205126990435
 20
-148.0644118892534
 10
96.84205126990435
 20
-148.0644118892534
 10
92.84190514680634
 20
-148.0644118892534
 10
92.84190514680634
 20
-148.0644118892534
 10
92.84190514680634
 20
-148.0644118892534
 10
93.84167723958754
 20
-147.0646236475875
 10
93.84167723958754
 20
-147.0646236475875
 10
93.84167723958754
 20
-147.0646236475875
 10
97.09146541711304
 20
-147.0646236475875
 10
97.09146541711304
 20
-147.0646236475875
 10
97.50598038249065
 20
-147.0646236475875
 10
97.84182336268555
 20
-147.4001328841569
 10
97.84182336268555
 20
-147.8142764251778
 10
97.84182336268555
 20
-147.8142764251778
 10
97.84182336268555
 20
-151.5646719659608
 10
97.84182336268555
 20
-151.5646719659608
 10
97.84182336268555
 20
-151.5646719659608
 10
103.8418689468179
 20
-151.5646719659608
 10
103.8418689468179
 20
-151.5646719659608
 10
103.8418689468179
 20
-151.5646719659608
 10
103.8418689468179
 20
-147.8142764251778
 10
103.8418689468179
 20
-147.8142764251778
 97
        0
 97
        0
 75
     2
 76
     1
 98
        0
  0
SPLINE
  5
43
330
1F
100
AcDbEntity
  8
_U+30EC_U+30A4_U+30E4_U+30FC 1
 62
   179
420
  2234388
370
    25
100
AcDbSpline
210
0.0
220
0.0
230
1.0
 70
    11
 71
     3
 72
    65
 73
    61
 74
     0
 42
0.0000000001
 43
0.0000000001
 12
1.0
 22
0.0
 32
0.0
 13
1.0
 23
0.0
 33
0.0
 40
0.0
 40
0.0
 40
0.0
 40
0.0
 40
1.0
 40
1.0
 40
1.0
 40
2.0
 40
2.0
 40
2.0
 40
3.0
 40
3.0
 40
3.0
 40
4.0
 40
4.0
 40
4.0
 40
5.0
 40
5.0
 40
5.0
 40
6.0
 40
6.0
 40
6.0
 40
7.0
 40
7.0
 40
7.0
 40
8.0
 40
8.0
 40
8.0
 40
9.0
 40
9.0
 40
9.0
 40
10.0
 40
10.0
 40
10.0
 40
11.0
 40
11.0
 40
11.0
 40
12.0
 40
12.0
 40
12.0
 40
13.0
 40
13.0
 40
13.0
 40
14.0
 40
14.0
 40
14.0
 40
15.0
 40
15.0
 40
15.0
 40
16.0
 40
16.0
 40
16.0
 40
17.0
 40
17.0
 40
17.0
 40
18.0
 40
18.0
 40
18.0
 40
19.0
 40
19.0
 40
19.0
 40
20.0
 40
20.0
 40
20.0
 40
20.0
 10
103.8418689468179
 20
-147.8142764251778
 30
0.0
 10
103.8418689468179
 20
-147.4001328841569
 30
0.0
 10
104.1777119270128
 20
-147.0646236475875
 30
0.0
 10
104.5918716169184
 20
-147.0646236475875
 30
0.0
 10
104.5918716169184
 20
-147.0646236475875
 30
0.0
 10
107.8416624859248
 20
-147.0646236475875
 30
0.0
 10
107.8416624859248
 20
-147.0646236475875
 30
0.0
 10
107.8416624859248
 20
-147.0646236475875
 30
0.0
 10
108.8417844712162
 20
-148.0644118892534
 30
0.0
 10
108.8417844712162
 20
-148.0644118892534
 30
0.0
 10
108.8417844712162
 20
-148.0644118892534
 30
0.0
 10
104.8416410395991
 20
-148.0644118892534
 30
0.0
 10
104.8416410395991
 20
-148.0644118892534
 30
0.0
 10
104.8416410395991
 20
-148.0644118892534
 30
0.0
 10
104.8416410395991
 20
-151.5646719659608
 30
0.0
 10
104.8416410395991
 20
-151.5646719659608
 30
0.0
 10
104.8416410395991
 20
-151.5646719659608
 30
0.0
 10
108.8417844712162
 20
-151.5646719659608
 30
0.0
 10
108.8417844712162
 20
-151.5646719659608
 30
0.0
 10
108.8417844712162
 20
-151.5646719659608
 30
0.0
 10
109.3416732090877
 20
-152.0645553208706
 30
0.0
 10
109.3416732090877
 20
-152.0645553208706
 30
0.0
 10
109.3416732090877
 20
-152.0645553208706
 30
0.0
 10
114.3419440089579
 20
-152.0645553208706
 30
0.0
 10
114.3419440089579
 20
-152.0645553208706
 30
0.0
 10
114.3419440089579
 20
-152.0645553208706
 30
0.0
 10
114.8418327468294
 20
-152.5644386757803
 30
0.0
 10
114.8418327468294
 20
-152.5644386757803
 30
0.0
 10
114.8418327468294
 20
-152.5644386757803
 30
0.0
 10
90.84165310178096
 20
-152.5644386757803
 30
0.0
 10
90.84165310178096
 20
-152.5644386757803
 30
0.0
 10
90.84165310178096
 20
-152.5644386757803
 30
0.0
 10
91.84178047003408
 20
-151.5646719659608
 30
0.0
 10
91.84178047003408
 20
-151.5646719659608
 30
0.0
 10
91.84178047003408
 20
-151.5646719659608
 30
0.0
 10
96.84205126990435
 20
-151.5646719659608
 30
0.0
 10
96.84205126990435
 20
-151.5646719659608
 30
0.0
 10
96.84205126990435
 20
-151.5646719659608
 30
0.0
 10
96.84205126990435
 20
-148.0644118892534
 30
0.0
 10
96.84205126990435
 20
-148.0644118892534
 30
0.0
 10
96.84205126990435
 20
-148.0644118892534
 30
0.0
 10
92.84190514680634
 20
-148.0644118892534
 30
0.0
 10
92.84190514680634
 20
-148.0644118892534
 30
0.0
 10
92.84190514680634
 20
-148.0644118892534
 30
0.0
 10
93.84167723958754
 20
-147.0646236475875
 30
0.0
 10
93.84167723958754
 20
-147.0646236475875
 30
0.0
 10
93.84167723958754
 20
-147.0646236475875
 30
0.0
 10
97.09146541711304
 20
-147.0646236475875
 30
0.0
 10
97.09146541711304
 20
-147.0646236475875
 30
0.0
 10
97.50598038249065
 20
-147.0646236475875
 30
0.0
 10
97.84182336268555
 20
-147.4001328841569
 30
0.0
 10
97.84182336268555
 20
-147.8142764251778
 30
0.0
 10
97.84182336268555
 20
-147.8142764251778
 30
0.0
 10
97.84182336268555
 20
-151.5646719659608
 30
0.0
 10
97.84182336268555
 20
-151.5646719659608
 30
0.0
 10
97.84182336268555
 20
-151.5646719659608
 30
0.0
 10
103.8418689468179
 20
-151.5646719659608
 30
0.0
 10
103.8418689468179
 20
-151.5646719659608
 30
0.0
 10
103.8418689468179
 20
-151.5646719659608
 30
0.0
 10
103.8418689468179
 20
-147.8142764251778
 30
0.0
 10
103.8418689468179
 20
-147.8142764251778
 30
0.0
  0
SPLINE
  5
44
330
1F
100
AcDbEntity
  8
_U+30EC_U+30A4_U+30E4_U+30FC 1
 62
   179
420
  2234388
370
     9
100
AcDbSpline
210
0.0
220
0.0
230
1.0
 70
    11
 71
     3
 72
    17
 73
    13
 74
     0
 42
0.0000000001
 43
0.0000000001
 12
1.0
 22
0.0
 32
0.0
 13
1.0
 23
0.0
 33
0.0
 40
0.0
 40
0.0
 40
0.0
 40
0.0
 40
1.0
 40
1.0
 40
1.0
 40
2.0
 40
2.0
 40
2.0
 40
3.0
 40
3.0
 40
3.0
 40
4.0
 40
4.0
 40
4.0
 40
4.0
 10
92.9417402458957
 20
-143.0647601299782
 30
0.0
 10
92.9417402458957
 20
-143.0093802200528
 30
0.0
 10
92.89693516422152
 20
-142.9645724468978
 30
0.0
 10
92.8419024553255
 20
-142.9645724468978
 30
0.0
 10
92.78651716243841
 20
-142.9645724468978
 30
0.0
 10
92.74171477224507
 20
-143.0093802200528
 30
0.0
 10
92.74171477224507
 20
-143.0647601299782
 30
0.0
 10
92.74171477224507
 20
-143.119795530355
 30
0.0
 10
92.78651716243841
 20
-143.1646033035104
 30
0.0
 10
92.8419024553255
 20
-143.1646033035104
 30
0.0
 10
92.89693516422152
 20
-143.1646033035104
 30
0.0
 10
92.9417402458957
 20
-143.119795530355
 30
0.0
 10
92.9417402458957
 20
-143.0647601299782
 30
0.0
  0
SPLINE
  5
45
330
1F
100
AcDbEntity
  8
_U+30EC_U+30A4_U+30E4_U+30FC 1
 62
   179
420
  2234388
370
     9
100
AcDbSpline
210
0.0
220
0.0
230
1.0
 70
    11
 71
     3
 72
    17
 73
    13
 74
     0
 42
0.0000000001
 43
0.0000000001
 12
1.0
 22
0.0
 32
0.0
 13
1.0
 23
0.0
 33
0.0
 40
0.0
 40
0.0
 40
0.0
 40
0.0
 40
1.0
 40
1.0
 40
1.0
 40
2.0
 40
2.0
 40
2.0
 40
3.0
 40
3.0
 40
3.0
 40
4.0
 40
4.0
 40
4.0
 40
4.0
 10
97.94162347252387
 20
-143.0647601299782
 30
0.0
 10
97.94162347252387
 20
-143.0093802200528
 30
0.0
 10
97.89681839084969
 20
-142.9645724468978
 30
0.0
 10
97.84178568195368
 20
-142.9645724468978
 30
0.0
 10
97.78675297305797
 20
-142.9645724468978
 30
0.0
 10
97.74195058286432
 20
-143.0093802200528
 30
0.0
 10
97.74195058286432
 20
-143.0647601299782
 30
0.0
 10
97.74195058286432
 20
-143.119795530355
 30
0.0
 10
97.78675297305797
 20
-143.1646033035104
 30
0.0
 10
97.84178568195368
 20
-143.1646033035104
 30
0.0
 10
97.89681839084969
 20
-143.1646033035104
 30
0.0
 10
97.94162347252387
 20
-143.119795530355
 30
0.0
 10
97.94162347252387
 20
-143.0647601299782
 30
0.0
  0
SPLINE
  5
46
330
1F
100
AcDbEntity
  8
_U+30EC_U+30A4_U+30E4_U+30FC 1
 62
   179
420
  2234388
370
     9
100
AcDbSpline
210
0.0
220
0.0
230
1.0
 70
    11
 71
     3
 72
    17
 73
    13
 74
     0
 42
0.0000000001
 43
0.0000000001
 12
1.0
 22
0.0
 32
0.0
 13
1.0
 23
0.0
 33
0.0
 40
0.0
 40
0.0
 40
0.0
 40
0.0
 40
1.0
 40
1.0
 40
1.0
 40
2.0
 40
2.0
 40
2.0
 40
3.0
 40
3.0
 40
3.0
 40
4.0
 40
4.0
 40
4.0
 40
4.0
 10
103.9419489706644
 20
-143.0647601299782
 30
0.0
 10
103.9419489706644
 20
-143.0093802200528
 30
0.0
 10
103.8971411975093
 20
-142.9645724468978
 30
0.0
 10
103.8417559046222
 20
-142.9645724468978
 30
0.0
 10
103.7867258872071
 20
-142.9645724468978
 30
0.0
 10
103.7419234970137
 20
-143.0093802200528
 30
0.0
 10
103.7419234970137
 20
-143.0647601299782
 30
0.0
 10
103.7419234970137
 20
-143.119795530355
 30
0.0
 10
103.7867258872071
 20
-143.1646033035104
 30
0.0
 10
103.8417559046222
 20
-143.1646033035104
 30
0.0
 10
103.8971411975093
 20
-143.1646033035104
 30
0.0
 10
103.9419489706644
 20
-143.119795530355
 30
0.0
 10
103.9419489706644
 20
-143.0647601299782
 30
0.0
  0
SPLINE
  5
47
330
1F
100
AcDbEntity
  8
_U+30EC_U+30A4_U+30E4_U+30FC 1
 62
   179
420
  2234388
370
     9
100
AcDbSpline
210
0.0
220
0.0
230
1.0
 70
    11
 71
     3
 72
    17
 73
    13
 74
     0
 42
0.0000000001
 43
0.0000000001
 12
1.0
 22
0.0
 32
0.0
 13
1.0
 23
0.0
 33
0.0
 40
0.0
 40
0.0
 40
0.0
 40
0.0
 40
1.0
 40
1.0
 40
1.0
 40
2.0
 40
2.0
 40
2.0
 40
3.0
 40
3.0
 40
3.0
 40
4.0
 40
4.0
 40
4.0
 40
4.0
 10
108.9417998995224
 20
-143.0647601299782
 30
0.0
 10
108.9417998995224
 20
-143.0093802200528
 30
0.0
 10
108.8969921263673
 20
-142.9645724468978
 30
0.0
 10
108.8419621089522
 20
-142.9645724468978
 30
0.0
 10
108.7865768160651
 20
-142.9645724468978
 30
0.0
 10
108.7417744258717
 20
-143.0093802200528
 30
0.0
 10
108.7417744258717
 20
-143.0647601299782
 30
0.0
 10
108.7417744258717
 20
-143.119795530355
 30
0.0
 10
108.7865768160651
 20
-143.1646033035104
 30
0.0
 10
108.8419621089522
 20
-143.1646033035104
 30
0.0
 10
108.8969921263673
 20
-143.1646033035104
 30
0.0
 10
108.9417998995224
 20
-143.119795530355
 30
0.0
 10
108.9417998995224
 20
-143.0647601299782
 30
0.0
  0
SPLINE
  5
48
330
1F
100
AcDbEntity
  8
_U+30EC_U+30A4_U+30E4_U+30FC 1
 62
   179
420
  2234388
370
     9
100
AcDbSpline
210
0.0
220
0.0
230
1.0
 70
    11
 71
     3
 72
    17
 73
    13
 74
     0
 42
0.0000000001
 43
0.0000000001
 12
1.0
 22
0.0
 32
0.0
 13
1.0
 23
0.0
 33
0.0
 40
0.0
 40
0.0
 40
0.0
 40
0.0
 40
1.0
 40
1.0
 40
1.0
 40
2.0
 40
2.0
 40
2.0
 40
3.0
 40
3.0
 40
3.0
 40
4.0
 40
4.0
 40
4.0
 40
4.0
 10
118.4418229548731
 20
-151.5646719659608
 30
0.0
 10
118.4418229548731
 20
-151.5092920560354
 30
0.0
 10
118.397015181718
 20
-151.4644842828804
 30
0.0
 10
118.3416298888309
 20
-151.4644842828804
 30
0.0
 10
118.2865998714158
 20
-151.4644842828804
 30
0.0
 10
118.2417974812224
 20
-151.5092920560354
 30
0.0
 10
118.2417974812224
 20
-151.5646719659608
 30
0.0
 10
118.2417974812224
 20
-151.6197073663377
 30
0.0
 10
118.2865998714158
 20
-151.6645151394927
 30
0.0
 10
118.3416298888309
 20
-151.6645151394927
 30
0.0
 10
118.397015181718
 20
-151.6645151394927
 30
0.0
 10
118.4418229548731
 20
-151.6197073663377
 30
0.0
 10
118.4418229548731
 20
-151.5646719659608
 30
0.0
  0
SPLINE
  5
49
330
1F
100
AcDbEntity
  8
_U+30EC_U+30A4_U+30E4_U+30FC 1
 62
   179
420
  2234388
370
     9
100
AcDbSpline
210
0.0
220
0.0
230
1.0
 70
    11
 71
     3
 72
    17
 73
    13
 74
     0
 42
0.0000000001
 43
0.0000000001
 12
1.0
 22
0.0
 32
0.0
 13
1.0
 23
0.0
 33
0.0
 40
0.0
 40
0.0
 40
0.0
 40
0.0
 40
1.0
 40
1.0
 40
1.0
 40
2.0
 40
2.0
 40
2.0
 40
3.0
 40
3.0
 40
3.0
 40
4.0
 40
4.0
 40
4.0
 40
4.0
 10
114.9415951759358
 20
-156.5644744481636
 30
0.0
 10
114.9415951759358
 20
-156.5094605796335
 30
0.0
 10
114.8967874027808
 20
-156.4646528064785
 30
0.0
 10
114.8417573853656
 20
-156.4646528064785
 30
0.0
 10
114.7867219849888
 20
-156.4646528064785
 30
0.0
 10
114.7419195947954
 20
-156.5094605796335
 30
0.0
 10
114.7419195947954
 20
-156.5644744481636
 30
0.0
 10
114.7419195947954
 20
-156.6198758899357
 30
0.0
 10
114.7867219849888
 20
-156.6643176216955
 30
0.0
 10
114.8417573853656
 20
-156.6643176216955
 30
0.0
 10
114.8967874027808
 20
-156.6643176216955
 30
0.0
 10
114.9415951759358
 20
-156.6198758899357
 30
0.0
 10
114.9415951759358
 20
-156.5644744481636
 30
0.0
  0
SPLINE
  5
4A
330
1F
100
AcDbEntity
  8
_U+30EC_U+30A4_U+30E4_U+30FC 1
 62
   179
420
  2234388
370
     9
100
AcDbSpline
210
0.0
220
0.0
230
1.0
 70
    11
 71
     3
 72
    17
 73
    13
 74
     0
 42
0.0000000001
 43
0.0000000001
 12
1.0
 22
0.0
 32
0.0
 13
1.0
 23
0.0
 33
0.0
 40
0.0
 40
0.0
 40
0.0
 40
0.0
 40
1.0
 40
1.0
 40
1.0
 40
2.0
 40
2.0
 40
2.0
 40
3.0
 40
3.0
 40
3.0
 40
4.0
 40
4.0
 40
4.0
 40
4.0
 10
118.4418229548731
 20
-148.0646056758745
 30
0.0
 10
118.4418229548731
 20
-148.0092257659491
 30
0.0
 10
118.397015181718
 20
-147.9644179927941
 30
0.0
 10
118.3416298888309
 20
-147.9644179927941
 30
0.0
 10
118.2865998714158
 20
-147.9644179927941
 30
0.0
 10
118.2417974812224
 20
-148.0092257659491
 30
0.0
 10
118.2417974812224
 20
-148.0646056758745
 30
0.0
 10
118.2417974812224
 20
-148.1196410762514
 30
0.0
 10
118.2865998714158
 20
-148.1644488494064
 30
0.0
 10
118.3416298888309
 20
-148.1644488494064
 30
0.0
 10
118.397015181718
 20
-148.1644488494064
 30
0.0
 10
118.4418229548731
 20
-148.1196410762514
 30
0.0
 10
118.4418229548731
 20
-148.0646056758745
 30
0.0
  0
SPLINE
  5
4B
330
1F
100
AcDbEntity
  8
_U+30EC_U+30A4_U+30E4_U+30FC 1
 62
   179
420
  2234388
370
     9
100
AcDbSpline
210
0.0
220
0.0
230
1.0
 70
    11
 71
     3
 72
    17
 73
    13
 74
     0
 42
0.0000000001
 43
0.0000000001
 12
1.0
 22
0.0
 32
0.0
 13
1.0
 23
0.0
 33
0.0
 40
0.0
 40
0.0
 40
0.0
 40
0.0
 40
1.0
 40
1.0
 40
1.0
 40
2.0
 40
2.0
 40
2.0
 40
3.0
 40
3.0
 40
3.0
 40
4.0
 40
4.0
 40
4.0
 40
4.0
 10
90.94187846559326
 20
-156.5644744481636
 30
0.0
 10
90.94187846559326
 20
-156.5094605796335
 30
0.0
 10
90.89707338391908
 20
-156.4646528064785
 30
0.0
 10
90.84168809103198
 20
-156.4646528064785
 30
0.0
 10
90.78665538213596
 20
-156.4646528064785
 30
0.0
 10
90.74185299194264
 20
-156.5094605796335
 30
0.0
 10
90.74185299194264
 20
-156.5644744481636
 30
0.0
 10
90.74185299194264
 20
-156.6198758899357
 30
0.0
 10
90.78665538213596
 20
-156.6643176216955
 30
0.0
 10
90.84168809103198
 20
-156.6643176216955
 30
0.0
 10
90.89707338391908
 20
-156.6643176216955
 30
0.0
 10
90.94187846559326
 20
-156.6198758899357
 30
0.0
 10
90.94187846559326
 20
-156.5644744481636
 30
0.0
  0
POLYLINE
  5
4C
330
1F
100
AcDbEntity
  8
_U+30EC_U+30A4_U+30E4_U+30FC 1
 62
   179
420
  2234388
370
     9
100
AcDb2dPolyline
 66
     1
 10
0.0
 20
0.0
 30
0.0
  0
VERTEX
  5
4D
330
4C
100
AcDbEntity
  8
_U+30EC_U+30A4_U+30E4_U+30FC 1
 62
   179
420
  2234388
370
     9
100
AcDbVertex
100
AcDb2dVertex
 10
118.3415652932906
 20
-148.0646056758745
 30
0.0
  0
VERTEX
  5
4E
330
4C
100
AcDbEntity
  8
_U+30EC_U+30A4_U+30E4_U+30FC 1
 62
   179
420
  2234388
370
     9
100
AcDbVertex
100
AcDb2dVertex
 10
118.3415652932906
 20
-142.8068086055201
 30
0.0
  0
SEQEND
  5
4F
330
4C
100
AcDbEntity
  8
_U+30EC_U+30A4_U+30E4_U+30FC 1
 62
   179
420
  2234388
370
     9
  0
POLYLINE
  5
50
330
1F
100
AcDbEntity
  8
_U+30EC_U+30A4_U+30E4_U+30FC 1
 62
   179
420
  2234388
370
     9
100
AcDb2dPolyline
 66
     1
 10
0.0
 20
0.0
 30
0.0
  0
VERTEX
  5
51
330
50
100
AcDbEntity
  8
_U+30EC_U+30A4_U+30E4_U+30FC 1
 62
   179
420
  2234388
370
     9
100
AcDbVertex
100
AcDb2dVertex
 10
118.3415652932906
 20
-152.5643956120868
 30
0.0
  0
VERTEX
  5
52
330
50
100
AcDbEntity
  8
_U+30EC_U+30A4_U+30E4_U+30FC 1
 62
   179
420
  2234388
370
     9
100
AcDbVertex
100
AcDb2dVertex
 10
118.3415652932906
 20
-148.0647348669555
 30
0.0
  0
SEQEND
  5
53
330
50
100
AcDbEntity
  8
_U+30EC_U+30A4_U+30E4_U+30FC 1
 62
   179
420
  2234388
370
     9
  0
POLYLINE
  5
54
330
1F
100
AcDbEntity
  8
_U+30EC_U+30A4_U+30E4_U+30FC 1
 62
   179
420
  2234388
370
     9
100
AcDb2dPolyline
 66
     1
 10
0.0
 20
0.0
 30
0.0
  0
VERTEX
  5
55
330
54
100
AcDbEntity
  8
_U+30EC_U+30A4_U+30E4_U+30FC 1
 62
   179
420
  2234388
370
     9
100
AcDbVertex
100
AcDb2dVertex
 10
112.3815608697318
 20
-151.5646719659608
 30
0.0
  0
VERTEX
  5
56
330
54
100
AcDbEntity
  8
_U+30EC_U+30A4_U+30E4_U+30FC 1
 62
   179
420
  2234388
370
     9
100
AcDbVertex
100
AcDb2dVertex
 10
119.3415096408461
 20
-151.5646719659608
 30
0.0
  0
SEQEND
  5
57
330
54
100
AcDbEntity
  8
_U+30EC_U+30A4_U+30E4_U+30FC 1
 62
   179
420
  2234388
370
     9
  0
POLYLINE
  5
58
330
1F
100
AcDbEntity
  8
_U+30EC_U+30A4_U+30E4_U+30FC 1
 62
   179
420
  2234388
370
     9
100
AcDb2dPolyline
 66
     1
 10
0.0
 20
0.0
 30
0.0
  0
VERTEX
  5
59
330
58
100
AcDbEntity
  8
_U+30EC_U+30A4_U+30E4_U+30FC 1
 62
   179
420
  2234388
370
     9
100
AcDbVertex
100
AcDb2dVertex
 10
112.3815608697318
 20
-148.0646056758745
 30
0.0
  0
VERTEX
  5
5A
330
58
100
AcDbEntity
  8
_U+30EC_U+30A4_U+30E4_U+30FC 1
 62
   179
420
  2234388
370
     9
100
AcDbVertex
100
AcDb2dVertex
 10
119.3415096408461
 20
-148.0646056758745
 30
0.0
  0
SEQEND
  5
5B
330
58
100
AcDbEntity
  8
_U+30EC_U+30A4_U+30E4_U+30FC 1
 62
   179
420
  2234388
370
     9
  0
INSERT
  5
5D
330
1F
100
AcDbEntity
  8
_U+30EC_U+30A4_U+30E4_U+30FC 1
100
AcDbBlockReference
  2
block 2
 10
0.0
 20
0.0
 30
0.0
  0
POLYLINE
  5
6C
330
1F
100
AcDbEntity
  8
_U+30EC_U+30A4_U+30E4_U+30FC 1
 62
   179
420
  2234388
370
     9
100
AcDb2dPolyline
 66
     1
 10
0.0
 20
0.0
 30
0.0
  0
VERTEX
  5
6D
330
6C
100
AcDbEntity
  8
_U+30EC_U+30A4_U+30E4_U+30FC 1
 62
   179
420
  2234388
370
     9
100
AcDbVertex
100
AcDb2dVertex
 10
90.8417957502659
 20
-156.5644744481636
 30
0.0
  0
VERTEX
  5
6E
330
6C
100
AcDbEntity
  8
_U+30EC_U+30A4_U+30E4_U+30FC 1
 62
   179
420
  2234388
370
     9
100
AcDbVertex
100
AcDb2dVertex
 10
114.8416174283615
 20
-156.5644744481636
 30
0.0
  0
SEQEND
  5
6F
330
6C
100
AcDbEntity
  8
_U+30EC_U+30A4_U+30E4_U+30FC 1
 62
   179
420
  2234388
370
     9
  0
POLYLINE
  5
70
330
1F
100
AcDbEntity
  8
_U+30EC_U+30A4_U+30E4_U+30FC 1
 62
   179
420
  2234388
370
     9
100
AcDb2dPolyline
 66
     1
 10
0.0
 20
0.0
 30
0.0
  0
VERTEX
  5
71
330
70
100
AcDbEntity
  8
_U+30EC_U+30A4_U+30E4_U+30FC 1
 62
   179
420
  2234388
370
     9
100
AcDbVertex
100
AcDb2dVertex
 10
90.8417957502659
 20
-155.1044645133615
 30
0.0
  0
VERTEX
  5
72
330
70
100
AcDbEntity
  8
_U+30EC_U+30A4_U+30E4_U+30FC 1
 62
   179
420
  2234388
370
     9
100
AcDbVertex
100
AcDb2dVertex
 10
90.8417957502659
 20
-157.5647579223059
 30
0.0
  0
SEQEND
  5
73
330
70
100
AcDbEntity
  8
_U+30EC_U+30A4_U+30E4_U+30FC 1
 62
   179
420
  2234388
370
     9
  0
POLYLINE
  5
74
330
1F
100
AcDbEntity
  8
_U+30EC_U+30A4_U+30E4_U+30FC 1
 62
   179
420
  2234388
370
     9
100
AcDb2dPolyline
 66
     1
 10
0.0
 20
0.0
 30
0.0
  0
VERTEX
  5
75
330
74
100
AcDbEntity
  8
_U+30EC_U+30A4_U+30E4_U+30FC 1
 62
   179
420
  2234388
370
     9
100
AcDbVertex
100
AcDb2dVertex
 10
114.8416927898253
 20
-155.1044645133615
 30
0.0
  0
VERTEX
  5
76
330
74
100
AcDbEntity
  8
_U+30EC_U+30A4_U+30E4_U+30FC 1
 62
   179
420
  2234388
370
     9
100
AcDbVertex
100
AcDb2dVertex
 10
114.8416927898253
 20
-157.5647579223059
 30
0.0
  0
SEQEND
  5
77
330
74
100
AcDbEntity
  8
_U+30EC_U+30A4_U+30E4_U+30FC 1
 62
   179
420
  2234388
370
     9
  0
INSERT
  5
79
330
1F
100
AcDbEntity
  8
_U+30EC_U+30A4_U+30E4_U+30FC 1
100
AcDbBlockReference
  2
block 3
 10
0.0
 20
0.0
 30
0.0
  0
POLYLINE
  5
93
330
1F
100
AcDbEntity
  8
_U+30EC_U+30A4_U+30E4_U+30FC 1
 62
   179
420
  2234388
370
     9
100
AcDb2dPolyline
 66
     1
 10
0.0
 20
0.0
 30
0.0
  0
VERTEX
  5
94
330
93
100
AcDbEntity
  8
_U+30EC_U+30A4_U+30E4_U+30FC 1
 62
   179
420
  2234388
370
     9
100
AcDbVertex
100
AcDb2dVertex
 10
92.84183247682346
 20
-143.0647601299782
 30
0.0
  0
VERTEX
  5
95
330
93
100
AcDbEntity
  8
_U+30EC_U+30A4_U+30E4_U+30FC 1
 62
   179
420
  2234388
370
     9
100
AcDbVertex
100
AcDb2dVertex
 10
97.84175069270265
 20
-143.0647601299782
 30
0.0
  0
SEQEND
  5
96
330
93
100
AcDbEntity
  8
_U+30EC_U+30A4_U+30E4_U+30FC 1
 62
   179
420
  2234388
370
     9
  0
POLYLINE
  5
97
330
1F
100
AcDbEntity
  8
_U+30EC_U+30A4_U+30E4_U+30FC 1
 62
   179
420
  2234388
370
     9
100
AcDb2dPolyline
 66
     1
 10
0.0
 20
0.0
 30
0.0
  0
VERTEX
  5
98
330
97
100
AcDbEntity
  8
_U+30EC_U+30A4_U+30E4_U+30FC 1
 62
   179
420
  2234388
370
     9
100
AcDbVertex
100
AcDb2dVertex
 10
92.84183247682346
 20
-145.5245367745998
 30
0.0
  0
VERTEX
  5
99
330
97
100
AcDbEntity
  8
_U+30EC_U+30A4_U+30E4_U+30FC 1
 62
   179
420
  2234388
370
     9
100
AcDbVertex
100
AcDb2dVertex
 10
92.84183247682346
 20
-142.0641536781345
 30
0.0
  0
SEQEND
  5
9A
330
97
100
AcDbEntity
  8
_U+30EC_U+30A4_U+30E4_U+30FC 1
 62
   179
420
  2234388
370
     9
  0
POLYLINE
  5
9B
330
1F
100
AcDbEntity
  8
_U+30EC_U+30A4_U+30E4_U+30FC 1
 62
   179
420
  2234388
370
     9
100
AcDb2dPolyline
 66
     1
 10
0.0
 20
0.0
 30
0.0
  0
VERTEX
  5
9C
330
9B
100
AcDbEntity
  8
_U+30EC_U+30A4_U+30E4_U+30FC 1
 62
   179
420
  2234388
370
     9
100
AcDbVertex
100
AcDb2dVertex
 10
97.84171839493249
 20
-144.5247700647803
 30
0.0
  0
VERTEX
  5
9D
330
9B
100
AcDbEntity
  8
_U+30EC_U+30A4_U+30E4_U+30FC 1
 62
   179
420
  2234388
370
     9
100
AcDbVertex
100
AcDb2dVertex
 10
97.84171839493249
 20
-142.0641536781345
 30
0.0
  0
SEQEND
  5
9E
330
9B
100
AcDbEntity
  8
_U+30EC_U+30A4_U+30E4_U+30FC 1
 62
   179
420
  2234388
370
     9
  0
INSERT
  5
A0
330
1F
100
AcDbEntity
  8
_U+30EC_U+30A4_U+30E4_U+30FC 1
100
AcDbBlockReference
  2
block 4
 10
0.0
 20
0.0
 30
0.0
  0
POLYLINE
  5
A5
330
1F
100
AcDbEntity
  8
_U+30EC_U+30A4_U+30E4_U+30FC 1
 62
   179
420
  2234388
370
     9
100
AcDb2dPolyline
 66
     1
 10
0.0
 20
0.0
 30
0.0
  0
VERTEX
  5
A6
330
A5
100
AcDbEntity
  8
_U+30EC_U+30A4_U+30E4_U+30FC 1
 62
   179
420
  2234388
370
     9
100
AcDbVertex
100
AcDb2dVertex
 10
97.84171839493249
 20
-143.0647601299782
 30
0.0
  0
VERTEX
  5
A7
330
A5
100
AcDbEntity
  8
_U+30EC_U+30A4_U+30E4_U+30FC 1
 62
   179
420
  2234388
370
     9
100
AcDbVertex
100
AcDb2dVertex
 10
103.8417612875839
 20
-143.0647601299782
 30
0.0
  0
SEQEND
  5
A8
330
A5
100
AcDbEntity
  8
_U+30EC_U+30A4_U+30E4_U+30FC 1
 62
   179
420
  2234388
370
     9
  0
POLYLINE
  5
A9
330
1F
100
AcDbEntity
  8
_U+30EC_U+30A4_U+30E4_U+30FC 1
 62
   179
420
  2234388
370
     9
100
AcDb2dPolyline
 66
     1
 10
0.0
 20
0.0
 30
0.0
  0
VERTEX
  5
AA
330
A9
100
AcDbEntity
  8
_U+30EC_U+30A4_U+30E4_U+30FC 1
 62
   179
420
  2234388
370
     9
100
AcDbVertex
100
AcDb2dVertex
 10
97.84171839493249
 20
-144.5247700647803
 30
0.0
  0
VERTEX
  5
AB
330
A9
100
AcDbEntity
  8
_U+30EC_U+30A4_U+30E4_U+30FC 1
 62
   179
420
  2234388
370
     9
100
AcDbVertex
100
AcDb2dVertex
 10
97.84171839493249
 20
-142.0641536781345
 30
0.0
  0
SEQEND
  5
AC
330
A9
100
AcDbEntity
  8
_U+30EC_U+30A4_U+30E4_U+30FC 1
 62
   179
420
  2234388
370
     9
  0
POLYLINE
  5
AD
330
1F
100
AcDbEntity
  8
_U+30EC_U+30A4_U+30E4_U+30FC 1
 62
   179
420
  2234388
370
     9
100
AcDb2dPolyline
 66
     1
 10
0.0
 20
0.0
 30
0.0
  0
VERTEX
  5
AE
330
AD
100
AcDbEntity
  8
_U+30EC_U+30A4_U+30E4_U+30FC 1
 62
   179
420
  2234388
370
     9
100
AcDbVertex
100
AcDb2dVertex
 10
103.8416913090819
 20
-144.5247700647803
 30
0.0
  0
VERTEX
  5
AF
330
AD
100
AcDbEntity
  8
_U+30EC_U+30A4_U+30E4_U+30FC 1
 62
   179
420
  2234388
370
     9
100
AcDbVertex
100
AcDb2dVertex
 10
103.8416913090819
 20
-142.0641536781345
 30
0.0
  0
SEQEND
  5
B0
330
AD
100
AcDbEntity
  8
_U+30EC_U+30A4_U+30E4_U+30FC 1
 62
   179
420
  2234388
370
     9
  0
INSERT
  5
B2
330
1F
100
AcDbEntity
  8
_U+30EC_U+30A4_U+30E4_U+30FC 1
100
AcDbBlockReference
  2
block 5
 10
0.0
 20
0.0
 30
0.0
  0
POLYLINE
  5
B8
330
1F
100
AcDbEntity
  8
_U+30EC_U+30A4_U+30E4_U+30FC 1
 62
   179
420
  2234388
370
     9
100
AcDb2dPolyline
 66
     1
 10
0.0
 20
0.0
 30
0.0
  0
VERTEX
  5
B9
330
B8
100
AcDbEntity
  8
_U+30EC_U+30A4_U+30E4_U+30FC 1
 62
   179
420
  2234388
370
     9
100
AcDbVertex
100
AcDb2dVertex
 10
103.8416913090819
 20
-143.0647601299782
 30
0.0
  0
VERTEX
  5
BA
330
B8
100
AcDbEntity
  8
_U+30EC_U+30A4_U+30E4_U+30FC 1
 62
   179
420
  2234388
370
     9
100
AcDbVertex
100
AcDb2dVertex
 10
108.8419621089522
 20
-143.0647601299782
 30
0.0
  0
SEQEND
  5
BB
330
B8
100
AcDbEntity
  8
_U+30EC_U+30A4_U+30E4_U+30FC 1
 62
   179
420
  2234388
370
     9
  0
POLYLINE
  5
BC
330
1F
100
AcDbEntity
  8
_U+30EC_U+30A4_U+30E4_U+30FC 1
 62
   179
420
  2234388
370
     9
100
AcDb2dPolyline
 66
     1
 10
0.0
 20
0.0
 30
0.0
  0
VERTEX
  5
BD
330
BC
100
AcDbEntity
  8
_U+30EC_U+30A4_U+30E4_U+30FC 1
 62
   179
420
  2234388
370
     9
100
AcDbVertex
100
AcDb2dVertex
 10
108.8418921304501
 20
-145.5245367745998
 30
0.0
  0
VERTEX
  5
BE
330
BC
100
AcDbEntity
  8
_U+30EC_U+30A4_U+30E4_U+30FC 1
 62
   179
420
  2234388
370
     9
100
AcDbVertex
100
AcDb2dVertex
 10
108.8418921304501
 20
-142.0641536781345
 30
0.0
  0
SEQEND
  5
BF
330
BC
100
AcDbEntity
  8
_U+30EC_U+30A4_U+30E4_U+30FC 1
 62
   179
420
  2234388
370
     9
  0
INSERT
  5
C1
330
1F
100
AcDbEntity
  8
_U+30EC_U+30A4_U+30E4_U+30FC 1
100
AcDbBlockReference
  2
block 6
 10
0.0
 20
0.0
 30
0.0
  0
SPLINE
  5
C6
330
1F
100
AcDbEntity
  8
_U+30EC_U+30A4_U+30E4_U+30FC 1
 62
   179
420
  2234388
370
     9
100
AcDbSpline
210
0.0
220
0.0
230
1.0
 70
    11
 71
     3
 72
    17
 73
    13
 74
     0
 42
0.0000000001
 43
0.0000000001
 12
1.0
 22
0.0
 32
0.0
 13
1.0
 23
0.0
 33
0.0
 40
0.0
 40
0.0
 40
0.0
 40
0.0
 40
1.0
 40
1.0
 40
1.0
 40
2.0
 40
2.0
 40
2.0
 40
3.0
 40
3.0
 40
3.0
 40
4.0
 40
4.0
 40
4.0
 40
4.0
 10
96.93409184045865
 20
-149.2937942131648
 30
0.0
 10
96.93409184045865
 20
-149.2387803446348
 30
0.0
 10
96.88928675878414
 20
-149.1939725714797
 30
0.0
 10
96.83425404988812
 20
-149.1939725714797
 30
0.0
 10
96.77886875700104
 20
-149.1939725714797
 30
0.0
 10
96.7340663668077
 20
-149.2387803446348
 30
0.0
 10
96.7340663668077
 20
-149.2937942131648
 30
0.0
 10
96.7340663668077
 20
-149.3488296135417
 30
0.0
 10
96.77886875700104
 20
-149.3936373866967
 30
0.0
 10
96.83425404988812
 20
-149.3936373866967
 30
0.0
 10
96.88928675878414
 20
-149.3936373866967
 30
0.0
 10
96.93409184045865
 20
-149.3488296135417
 30
0.0
 10
96.93409184045865
 20
-149.2937942131648
 30
0.0
  0
SPLINE
  5
C7
330
1F
100
AcDbEntity
  8
_U+30EC_U+30A4_U+30E4_U+30FC 1
 62
   179
420
  2234388
370
     9
100
AcDbSpline
210
0.0
220
0.0
230
1.0
 70
    11
 71
     3
 72
    17
 73
    13
 74
     0
 42
0.0000000001
 43
0.0000000001
 12
1.0
 22
0.0
 32
0.0
 13
1.0
 23
0.0
 33
0.0
 40
0.0
 40
0.0
 40
0.0
 40
0.0
 40
1.0
 40
1.0
 40
1.0
 40
2.0
 40
2.0
 40
2.0
 40
3.0
 40
3.0
 40
3.0
 40
4.0
 40
4.0
 40
4.0
 40
4.0
 10
97.9342165172306
 20
-149.2937942131648
 30
0.0
 10
97.9342165172306
 20
-149.2387803446348
 30
0.0
 10
97.88941143555641
 20
-149.1939725714797
 30
0.0
 10
97.83437872666039
 20
-149.1939725714797
 30
0.0
 10
97.7793460177647
 20
-149.1939725714797
 30
0.0
 10
97.73454362757103
 20
-149.2387803446348
 30
0.0
 10
97.73454362757103
 20
-149.2937942131648
 30
0.0
 10
97.73454362757103
 20
-149.3488296135417
 30
0.0
 10
97.7793460177647
 20
-149.3936373866967
 30
0.0
 10
97.83437872666039
 20
-149.3936373866967
 30
0.0
 10
97.88941143555641
 20
-149.3936373866967
 30
0.0
 10
97.9342165172306
 20
-149.3488296135417
 30
0.0
 10
97.9342165172306
 20
-149.2937942131648
 30
0.0
  0
POLYLINE
  5
C8
330
1F
100
AcDbEntity
  8
_U+30EC_U+30A4_U+30E4_U+30FC 1
 62
   179
420
  2234388
370
     9
100
AcDb2dPolyline
 66
     1
 10
0.0
 20
0.0
 30
0.0
  0
VERTEX
  5
C9
330
C8
100
AcDbEntity
  8
_U+30EC_U+30A4_U+30E4_U+30FC 1
 62
   179
420
  2234388
370
     9
100
AcDbVertex
100
AcDb2dVertex
 10
97.83430874815835
 20
-149.2937942131648
 30
0.0
  0
VERTEX
  5
CA
330
C8
100
AcDbEntity
  8
_U+30EC_U+30A4_U+30E4_U+30FC 1
 62
   179
420
  2234388
370
     9
100
AcDbVertex
100
AcDb2dVertex
 10
101.6047961934709
 20
-149.2937942131648
 30
0.0
  0
SEQEND
  5
CB
330
C8
100
AcDbEntity
  8
_U+30EC_U+30A4_U+30E4_U+30FC 1
 62
   179
420
  2234388
370
     9
  0
POLYLINE
  5
CC
330
1F
100
AcDbEntity
  8
_U+30EC_U+30A4_U+30E4_U+30FC 1
 62
   179
420
  2234388
370
     9
100
AcDb2dPolyline
 66
     1
 10
0.0
 20
0.0
 30
0.0
  0
VERTEX
  5
CD
330
CC
100
AcDbEntity
  8
_U+30EC_U+30A4_U+30E4_U+30FC 1
 62
   179
420
  2234388
370
     9
100
AcDbVertex
100
AcDb2dVertex
 10
95.83409438386484
 20
-149.2937942131648
 30
0.0
  0
VERTEX
  5
CE
330
CC
100
AcDbEntity
  8
_U+30EC_U+30A4_U+30E4_U+30FC 1
 62
   179
420
  2234388
370
     9
100
AcDbVertex
100
AcDb2dVertex
 10
97.83434373740937
 20
-149.2937942131648
 30
0.0
  0
SEQEND
  5
CF
330
CC
100
AcDbEntity
  8
_U+30EC_U+30A4_U+30E4_U+30FC 1
 62
   179
420
  2234388
370
     9
  0
INSERT
  5
D1
330
1F
100
AcDbEntity
  8
_U+30EC_U+30A4_U+30E4_U+30FC 1
100
AcDbBlockReference
  2
block 7
 10
0.0
 20
0.0
 30
0.0
  0
ENDSEC
  0
SECTION
  2
OBJECTS
  0
DICTIONARY
  5
C
330
0
100
AcDbDictionary
281
     1
  3
ACAD_GROUP
350
D
  3
ACAD_LAYOUT
350
1A
  3
ACAD_MATERIAL
350
3B
  3
ACAD_MLEADERSTYLE
350
D7
  3
ACAD_MLINESTYLE
350
17
  3
ACAD_PLOTSETTINGS
350
19
  3
ACAD_PLOTSTYLENAME
350
E
  3
ACAD_TABLESTYLE
350
D6
  3
ACAD_VISUALSTYLE
350
2A
  0
SUN
  5
3F
330
29
100
AcDbSun
 90
        1
290
     0
 63
     7
421
 16777215
 40
1.0
291
     1
 91
  2455826
 92
 54000000
292
     0
 70
     2
 71
   256
280
     1
  0
DICTIONARY
  5
D
102
{ACAD_REACTORS
330
C
102
}
330
C
100
AcDbDictionary
281
     1
  0
DICTIONARY
  5
1A
102
{ACAD_REACTORS
330
C
102
}
330
C
100
AcDbDictionary
281
     1
  3
Layout1
350
1E
  3
Layout2
350
26
  3
Model
350
22
  0
DICTIONARY
  5
3B
102
{ACAD_REACTORS
330
C
102
}
330
C
100
AcDbDictionary
281
     1
  3
ByBlock
350
3D
  3
ByLayer
350
3C
  3
Global
350
3E
  0
DICTIONARY
  5
D7
102
{ACAD_REACTORS
330
C
102
}
330
C
100
AcDbDictionary
281
     1
  0
DICTIONARY
  5
17
102
{ACAD_REACTORS
330
C
102
}
330
C
100
AcDbDictionary
281
     1
  3
Standard
350
18
  0
DICTIONARY
  5
19
102
{ACAD_REACTORS
330
C
102
}
330
C
100
AcDbDictionary
281
     1
  0
ACDBDICTIONARYWDFLT
  5
E
102
{ACAD_REACTORS
330
C
102
}
330
C
100
AcDbDictionary
281
     1
  3
Normal
350
F
100
AcDbDictionaryWithDefault
340
F
  0
DICTIONARY
  5
D6
102
{ACAD_REACTORS
330
C
102
}
330
C
100
AcDbDictionary
281
     1
  0
DICTIONARY
  5
2A
102
{ACAD_REACTORS
330
C
102
}
330
C
100
AcDbDictionary
281
     1
  3
2dWireframe
350
2F
  3
3D Hidden
350
31
  3
3dWireframe
350
30
  3
Basic
350
32
  3
Brighten
350
36
  3
ColorChange
350
3A
  3
Conceptual
350
34
  3
Dim
350
35
  3
Facepattern
350
39
  3
Flat
350
2B
  3
FlatWithEdges
350
2C
  3
Gouraud
350
2D
  3
GouraudWithEdges
350
2E
  3
Linepattern
350
38
  3
Realistic
350
33
  3
Thicken
350
37
  0
LAYOUT
  5
1E
102
{ACAD_REACTORS
330
1A
102
}
330
1A
100
AcDbPlotSettings
  1

  2
none_device
  4

  6

 40
0.0
 41
0.0
 42
0.0
 43
0.0
 44
0.0
 45
0.0
 46
0.0
 47
0.0
 48
0.0
 49
0.0
140
0.0
141
0.0
142
1.0
143
1.0
 70
   688
 72
     0
 73
     0
 74
     5
  7

 75
    16
 76
     0
 77
     2
 78
   300
147
1.0
148
0.0
149
0.0
100
AcDbLayout
  1
Layout1
 70
     1
 71
     1
 10
0.0
 20
0.0
 11
12.0
 21
9.0
 12
0.0
 22
0.0
 32
0.0
 14
1.000000000000000E+20
 24
1.000000000000000E+20
 34
1.000000000000000E+20
 15
-1.000000000000000E+20
 25
-1.000000000000000E+20
 35
-1.000000000000000E+20
146
0.0
 13
0.0
 23
0.0
 33
0.0
 16
1.0
 26
0.0
 36
0.0
 17
0.0
 27
1.0
 37
0.0
 76
     0
330
1B
  0
LAYOUT
  5
26
102
{ACAD_REACTORS
330
1A
102
}
330
1A
100
AcDbPlotSettings
  1

  2
none_device
  4

  6

 40
0.0
 41
0.0
 42
0.0
 43
0.0
 44
0.0
 45
0.0
 46
0.0
 47
0.0
 48
0.0
 49
0.0
140
0.0
141
0.0
142
1.0
143
1.0
 70
   688
 72
     0
 73
     0
 74
     5
  7

 75
    16
 76
     0
 77
     2
 78
   300
147
1.0
148
0.0
149
0.0
100
AcDbLayout
  1
Layout2
 70
     1
 71
     2
 10
0.0
 20
0.0
 11
0.0
 21
0.0
 12
0.0
 22
0.0
 32
0.0
 14
0.0
 24
0.0
 34
0.0
 15
0.0
 25
0.0
 35
0.0
146
0.0
 13
0.0
 23
0.0
 33
0.0
 16
1.0
 26
0.0
 36
0.0
 17
0.0
 27
1.0
 37
0.0
 76
     0
330
23
  0
LAYOUT
  5
22
102
{ACAD_REACTORS
330
1A
102
}
330
1A
100
AcDbPlotSettings
  1

  2
none_device
  4

  6

 40
0.0
 41
0.0
 42
0.0
 43
0.0
 44
0.0
 45
0.0
 46
0.0
 47
0.0
 48
0.0
 49
0.0
140
0.0
141
0.0
142
1.0
143
1.0
 70
  1712
 72
     0
 73
     0
 74
     0
  7

 75
     0
 76
     0
 77
     2
 78
   300
147
1.0
148
0.0
149
0.0
100
AcDbLayout
  1
Model
 70
     1
 71
     0
 10
0.0
 20
0.0
 11
12.0
 21
9.0
 12
0.0
 22
0.0
 32
0.0
 14
1.000000000000000E+20
 24
1.000000000000000E+20
 34
1.000000000000000E+20
 15
-1.000000000000000E+20
 25
-1.000000000000000E+20
 35
-1.000000000000000E+20
146
0.0
 13
0.0
 23
0.0
 33
0.0
 16
1.0
 26
0.0
 36
0.0
 17
0.0
 27
1.0
 37
0.0
 76
     0
330
1F
331
29
  0
MATERIAL
  5
3D
102
{ACAD_REACTORS
330
3B
102
}
330
3B
100
AcDbMaterial
  1
ByBlock
 72
     1
 94
      127
  0
MATERIAL
  5
3C
102
{ACAD_REACTORS
330
3B
102
}
330
3B
100
AcDbMaterial
  1
ByLayer
 72
     1
 94
      127
  0
MATERIAL
  5
3E
102
{ACAD_REACTORS
330
3B
102
}
330
3B
100
AcDbMaterial
  1
Global
 72
     1
 94
      127
  0
MLINESTYLE
  5
18
102
{ACAD_REACTORS
330
17
102
}
330
17
100
AcDbMlineStyle
  2
Standard
 70
     0
  3

 62
   256
 51
90.0
 52
90.0
 71
     2
 49
0.5
 62
   256
  6
BYLAYER
 49
-0.5
 62
   256
  6
BYLAYER
  0
ACDBPLACEHOLDER
  5
F
102
{ACAD_REACTORS
330
E
102
}
330
E
  0
VISUALSTYLE
  5
2F
102
{ACAD_REACTORS
330
2A
102
}
330
2A
100
AcDbVisualStyle
  2
2dWireframe
 70
     4
177
     2
291
     0
 71
     0
176
     1
 72
     2
176
     1
 73
     0
176
     1
 90
        0
176
     1
 40
-0.6
176
     1
 41
-30.0
176
     1
 62
     5
 63
     7
421
 16777215
176
     1
 74
     1
176
     1
 91
        4
176
     1
 64
     7
176
     1
 65
   257
176
     1
 75
     1
176
     1
175
     1
176
     1
 42
1.0
176
     1
 92
        0
176
     1
 66
   257
176
     1
 43
1.0
176
     1
 76
     1
176
     1
 77
     6
176
     1
 78
     2
176
     1
 67
     7
176
     1
 79
     5
176
     1
170
     0
176
     1
171
     0
176
     1
290
     0
176
     1
 93
        1
176
     1
 44
0.0
176
     1
173
     0
176
     1
  0
VISUALSTYLE
  5
31
102
{ACAD_REACTORS
330
2A
102
}
330
2A
100
AcDbVisualStyle
  2
3D Hidden
 70
     6
177
     2
291
     0
 71
     1
176
     1
 72
     2
176
     1
 73
     2
176
     1
 90
        0
176
     1
 40
-0.6
176
     1
 41
-30.0
176
     1
 62
     5
 63
     7
421
 16777215
176
     1
 74
     2
176
     1
 91
        2
176
     1
 64
     7
176
     1
 65
   257
176
     1
 75
     2
176
     1
175
     1
176
     1
 42
40.0
176
     1
 92
        0
176
     1
 66
   257
176
     1
 43
1.0
176
     1
 76
     1
176
     1
 77
     6
176
     1
 78
     2
176
     1
 67
     7
176
     1
 79
     3
176
     1
170
     0
176
     1
171
     0
176
     1
290
     0
176
     1
 93
        1
176
     1
 44
0.0
176
     1
173
     0
176
     1
  0
VISUALSTYLE
  5
30
102
{ACAD_REACTORS
330
2A
102
}
330
2A
100
AcDbVisualStyle
  2
3dWireframe
 70
     5
177
     2
291
     0
 71
     0
176
     1
 72
     2
176
     1
 73
     0
176
     1
 90
        0
176
     1
 40
-0.6
176
     1
 41
-30.0
176
     1
 62
     5
 63
     7
421
 16777215
176
     1
 74
     1
176
     1
 91
        4
176
     1
 64
     7
176
     1
 65
   257
176
     1
 75
     1
176
     1
175
     1
176
     1
 42
1.0
176
     1
 92
        0
176
     1
 66
   257
176
     1
 43
1.0
176
     1
 76
     1
176
     1
 77
     6
176
     1
 78
     2
176
     1
 67
     7
176
     1
 79
     5
176
     1
170
     0
176
     1
171
     0
176
     1
290
     0
176
     1
 93
        1
176
     1
 44
0.0
176
     1
173
     0
176
     1
  0
VISUALSTYLE
  5
32
102
{ACAD_REACTORS
330
2A
102
}
330
2A
100
AcDbVisualStyle
  2
Basic
 70
     7
177
     2
291
     1
 71
     1
176
     1
 72
     0
176
     1
 73
     1
176
     1
 90
        0
176
     1
 40
-0.6
176
     1
 41
-30.0
176
     1
 62
     5
 63
     7
421
 16777215
176
     1
 74
     0
176
     1
 91
        4
176
     1
 64
     7
176
     1
 65
   257
176
     1
 75
     1
176
     1
175
     1
176
     1
 42
1.0
176
     1
 92
        8
176
     1
 66
     7
176
     1
 43
1.0
176
     1
 76
     1
176
     1
 77
     6
176
     1
 78
     2
176
     1
 67
     7
176
     1
 79
     5
176
     1
170
     0
176
     1
171
     0
176
     1
290
     0
176
     1
 93
        1
176
     1
 44
0.0
176
     1
173
     0
176
     1
  0
VISUALSTYLE
  5
36
102
{ACAD_REACTORS
330
2A
102
}
330
2A
100
AcDbVisualStyle
  2
Brighten
 70
    12
177
     2
291
     1
 71
     2
176
     1
 72
     2
176
     1
 73
     0
176
     1
 90
        0
176
     1
 40
-0.6
176
     1
 41
-30.0
176
     1
 62
     5
 63
     7
421
 16777215
176
     1
 74
     1
176
     1
 91
        4
176
     1
 64
     7
176
     1
 65
   257
176
     1
 75
     1
176
     1
175
     1
176
     1
 42
1.0
176
     1
 92
        8
176
     1
 66
     7
176
     1
 43
1.0
176
     1
 76
     1
176
     1
 77
     6
176
     1
 78
     2
176
     1
 67
     7
176
     1
 79
     5
176
     1
170
     0
176
     1
171
     0
176
     1
290
     0
176
     1
 93
        1
176
     1
 44
50.0
176
     1
173
     0
176
     1
  0
VISUALSTYLE
  5
3A
102
{ACAD_REACTORS
330
2A
102
}
330
2A
100
AcDbVisualStyle
  2
ColorChange
 70
    16
177
     2
291
     1
 71
     2
176
     1
 72
     2
176
     1
 73
     3
176
     1
 90
        0
176
     1
 40
-0.6
176
     1
 41
-30.0
176
     1
 62
     5
 63
     8
421
  8421504
176
     1
 74
     1
176
     1
 91
        4
176
     1
 64
     7
176
     1
 65
   257
176
     1
 75
     1
176
     1
175
     1
176
     1
 42
1.0
176
     1
 92
        8
176
     1
 66
     8
424
  8421504
176
     1
 43
1.0
176
     1
 76
     1
176
     1
 77
     6
176
     1
 78
     2
176
     1
 67
     7
176
     1
 79
     5
176
     1
170
     0
176
     1
171
     0
176
     1
290
     0
176
     1
 93
        1
176
     1
 44
0.0
176
     1
173
     0
176
     1
  0
VISUALSTYLE
  5
34
102
{ACAD_REACTORS
330
2A
102
}
330
2A
100
AcDbVisualStyle
  2
Conceptual
 70
     9
177
     2
291
     0
 71
     3
176
     1
 72
     2
176
     1
 73
     0
176
     1
 90
        0
176
     1
 40
-0.6
176
     1
 41
-30.0
176
     1
 62
     5
 63
     7
421
 16777215
176
     1
 74
     2
176
     1
 91
        2
176
     1
 64
     7
176
     1
 65
   257
176
     1
 75
     1
176
     1
175
     1
176
     1
 42
40.0
176
     1
 92
        8
176
     1
 66
     7
176
     1
 43
1.0
176
     1
 76
     1
176
     1
 77
     6
176
     1
 78
     2
176
     1
 67
     7
176
     1
 79
     3
176
     1
170
     0
176
     1
171
     0
176
     1
290
     0
176
     1
 93
        1
176
     1
 44
0.0
176
     1
173
     0
176
     1
  0
VISUALSTYLE
  5
35
102
{ACAD_REACTORS
330
2A
102
}
330
2A
100
AcDbVisualStyle
  2
Dim
 70
    11
177
     2
291
     1
 71
     2
176
     1
 72
     2
176
     1
 73
     0
176
     1
 90
        0
176
     1
 40
-0.6
176
     1
 41
-30.0
176
     1
 62
     5
 63
     7
421
 16777215
176
     1
 74
     1
176
     1
 91
        4
176
     1
 64
     7
176
     1
 65
   257
176
     1
 75
     1
176
     1
175
     1
176
     1
 42
1.0
176
     1
 92
        8
176
     1
 66
     7
176
     1
 43
1.0
176
     1
 76
     1
176
     1
 77
     6
176
     1
 78
     2
176
     1
 67
     7
176
     1
 79
     5
176
     1
170
     0
176
     1
171
     0
176
     1
290
     0
176
     1
 93
        1
176
     1
 44
-50.0
176
     1
173
     0
176
     1
  0
VISUALSTYLE
  5
39
102
{ACAD_REACTORS
330
2A
102
}
330
2A
100
AcDbVisualStyle
  2
Facepattern
 70
    15
177
     2
291
     1
 71
     2
176
     1
 72
     2
176
     1
 73
     0
176
     1
 90
        0
176
     1
 40
-0.6
176
     1
 41
-30.0
176
     1
 62
     5
 63
     7
421
 16777215
176
     1
 74
     1
176
     1
 91
        4
176
     1
 64
     7
176
     1
 65
   257
176
     1
 75
     1
176
     1
175
     1
176
     1
 42
1.0
176
     1
 92
        8
176
     1
 66
     7
176
     1
 43
1.0
176
     1
 76
     1
176
     1
 77
     6
176
     1
 78
     2
176
     1
 67
     7
176
     1
 79
     5
176
     1
170
     0
176
     1
171
     0
176
     1
290
     0
176
     1
 93
        1
176
     1
 44
0.0
176
     1
173
     0
176
     1
  0
VISUALSTYLE
  5
2B
102
{ACAD_REACTORS
330
2A
102
}
330
2A
100
AcDbVisualStyle
  2
Flat
 70
     0
177
     2
291
     1
 71
     2
176
     1
 72
     1
176
     1
 73
     1
176
     1
 90
        2
176
     1
 40
-0.6
176
     1
 41
30.0
176
     1
 62
     5
 63
     7
421
 16777215
176
     1
 74
     0
176
     1
 91
        4
176
     1
 64
     7
176
     1
 65
   257
176
     1
 75
     1
176
     1
175
     1
176
     1
 42
1.0
176
     1
 92
        8
176
     1
 66
     7
176
     1
 43
1.0
176
     1
 76
     1
176
     1
 77
     6
176
     1
 78
     2
176
     1
 67
     7
176
     1
 79
     5
176
     1
170
     0
176
     1
171
     0
176
     1
290
     0
176
     1
 93
       13
176
     1
 44
0.0
176
     1
173
     0
176
     1
  0
VISUALSTYLE
  5
2C
102
{ACAD_REACTORS
330
2A
102
}
330
2A
100
AcDbVisualStyle
  2
FlatWithEdges
 70
     1
177
     2
291
     1
 71
     2
176
     1
 72
     1
176
     1
 73
     1
176
     1
 90
        2
176
     1
 40
-0.6
176
     1
 41
30.0
176
     1
 62
     5
 63
     7
421
 16777215
176
     1
 74
     1
176
     1
 91
        4
176
     1
 64
     7
176
     1
 65
   257
176
     1
 75
     1
176
     1
175
     1
176
     1
 42
1.0
176
     1
 92
        0
176
     1
 66
   257
176
     1
 43
1.0
176
     1
 76
     1
176
     1
 77
     6
176
     1
 78
     2
176
     1
 67
     7
176
     1
 79
     5
176
     1
170
     0
176
     1
171
     0
176
     1
290
     0
176
     1
 93
       13
176
     1
 44
0.0
176
     1
173
     0
176
     1
  0
VISUALSTYLE
  5
2D
102
{ACAD_REACTORS
330
2A
102
}
330
2A
100
AcDbVisualStyle
  2
Gouraud
 70
     2
177
     2
291
     1
 71
     2
176
     1
 72
     2
176
     1
 73
     1
176
     1
 90
        2
176
     1
 40
-0.6
176
     1
 41
30.0
176
     1
 62
     5
 63
     7
421
 16777215
176
     1
 74
     0
176
     1
 91
        4
176
     1
 64
     7
176
     1
 65
   257
176
     1
 75
     1
176
     1
175
     1
176
     1
 42
1.0
176
     1
 92
        0
176
     1
 66
     7
176
     1
 43
1.0
176
     1
 76
     1
176
     1
 77
     6
176
     1
 78
     2
176
     1
 67
     7
176
     1
 79
     5
176
     1
170
     0
176
     1
171
     0
176
     1
290
     0
176
     1
 93
       13
176
     1
 44
0.0
176
     1
173
     0
176
     1
  0
VISUALSTYLE
  5
2E
102
{ACAD_REACTORS
330
2A
102
}
330
2A
100
AcDbVisualStyle
  2
GouraudWithEdges
 70
     3
177
     2
291
     1
 71
     2
176
     1
 72
     2
176
     1
 73
     1
176
     1
 90
        2
176
     1
 40
-0.6
176
     1
 41
30.0
176
     1
 62
     5
 63
     7
421
 16777215
176
     1
 74
     1
176
     1
 91
        4
176
     1
 64
     7
176
     1
 65
   257
176
     1
 75
     1
176
     1
175
     1
176
     1
 42
1.0
176
     1
 92
        0
176
     1
 66
   257
176
     1
 43
1.0
176
     1
 76
     1
176
     1
 77
     6
176
     1
 78
     2
176
     1
 67
     7
176
     1
 79
     5
176
     1
170
     0
176
     1
171
     0
176
     1
290
     0
176
     1
 93
       13
176
     1
 44
0.0
176
     1
173
     0
176
     1
  0
VISUALSTYLE
  5
38
102
{ACAD_REACTORS
330
2A
102
}
330
2A
100
AcDbVisualStyle
  2
Linepattern
 70
    14
177
     2
291
     1
 71
     2
176
     1
 72
     2
176
     1
 73
     0
176
     1
 90
        0
176
     1
 40
-0.6
176
     1
 41
-30.0
176
     1
 62
     5
 63
     7
421
 16777215
176
     1
 74
     1
176
     1
 91
        4
176
     1
 64
     7
176
     1
 65
   257
176
     1
 75
     7
176
     1
175
     7
176
     1
 42
1.0
176
     1
 92
        8
176
     1
 66
     7
176
     1
 43
1.0
176
     1
 76
     1
176
     1
 77
     6
176
     1
 78
     2
176
     1
 67
     7
176
     1
 79
     5
176
     1
170
     0
176
     1
171
     0
176
     1
290
     0
176
     1
 93
        1
176
     1
 44
0.0
176
     1
173
     0
176
     1
  0
VISUALSTYLE
  5
33
102
{ACAD_REACTORS
330
2A
102
}
330
2A
100
AcDbVisualStyle
  2
Realistic
 70
     8
177
     2
291
     0
 71
     2
176
     1
 72
     2
176
     1
 73
     0
176
     1
 90
        0
176
     1
 40
-0.6
176
     1
 41
-30.0
176
     1
 62
     5
 63
     7
421
 16777215
176
     1
 74
     1
176
     1
 91
        0
176
     1
 64
     7
176
     1
 65
   257
176
     1
 75
     1
176
     1
175
     1
176
     1
 42
1.0
176
     1
 92
        8
176
     1
 66
     8
424
  7895160
176
     1
 43
1.0
176
     1
 76
     1
176
     1
 77
     6
176
     1
 78
     2
176
     1
 67
     7
176
     1
 79
     5
176
     1
170
     0
176
     1
171
     0
176
     1
290
     0
176
     1
 93
       13
176
     1
 44
0.0
176
     1
173
     0
176
     1
  0
VISUALSTYLE
  5
37
102
{ACAD_REACTORS
330
2A
102
}
330
2A
100
AcDbVisualStyle
  2
Thicken
 70
    13
177
     2
291
     1
 71
     2
176
     1
 72
     2
176
     1
 73
     0
176
     1
 90
        0
176
     1
 40
-0.6
176
     1
 41
-30.0
176
     1
 62
     5
 63
     7
421
 16777215
176
     1
 74
     1
176
     1
 91
        4
176
     1
 64
     7
176
     1
 65
   257
176
     1
 75
     1
176
     1
175
     1
176
     1
 42
1.0
176
     1
 92
       12
176
     1
 66
     7
176
     1
 43
1.0
176
     1
 76
     1
176
     1
 77
     6
176
     1
 78
     2
176
     1
 67
     7
176
     1
 79
     5
176
     1
170
     0
176
     1
171
     0
176
     1
290
     0
176
     1
 93
        1
176
     1
 44
0.0
176
     1
173
     0
176
     1
  0
ENDSEC
  0
EOF
