  0
SECTION
  2
HEADER
  9
$ACADVER
  1
AC1024
  9
$ACADMAINTVER
 70
     6
  9
$DWGCODEPAGE
  3
UNDEFINED
  9
$INSBASE
 10
0.0
 20
0.0
 30
0.0
  9
$EXTMIN
 10
1.000000000000000E+20
 20
1.000000000000000E+20
 30
1.000000000000000E+20
  9
$EXTMAX
 10
-1.000000000000000E+20
 20
-1.000000000000000E+20
 30
-1.000000000000000E+20
  9
$LIMMIN
 10
0.0
 20
0.0
  9
$LIMMAX
 10
12.0
 20
9.0
  9
$ORTHOMODE
 70
     0
  9
$REGENMODE
 70
     1
  9
$FILLMODE
 70
     1
  9
$QTEXTMODE
 70
     0
  9
$MIRRTEXT
 70
     1
  9
$LTSCALE
 40
1.0
  9
$ATTMODE
 70
     1
  9
$TEXTSIZE
 40
0.2
  9
$TRACEWID
 40
0.05
  9
$TEXTSTYLE
  7
Standard
  9
$CLAYER
  8
0
  9
$CELTYPE
  6
ByLayer
  9
$CECOLOR
 62
   256
  9
$CELTSCALE
 40
1.0
  9
$DISPSILH
 70
     0
  9
$DIMSCALE
 40
1.0
  9
$DIMASZ
 40
0.18
  9
$DIMEXO
 40
0.0625
  9
$DIMDLI
 40
0.38
  9
$DIMRND
 40
0.0
  9
$DIMDLE
 40
0.0
  9
$DIMEXE
 40
0.18
  9
$DIMTP
 40
0.0
  9
$DIMTM
 40
0.0
  9
$DIMTXT
 40
0.18
  9
$DIMCEN
 40
0.09
  9
$DIMTSZ
 40
0.0
  9
$DIMTOL
 70
     0
  9
$DIMLIM
 70
     0
  9
$DIMTIH
 70
     1
  9
$DIMTOH
 70
     1
  9
$DIMSE1
 70
     0
  9
$DIMSE2
 70
     0
  9
$DIMTAD
 70
     0
  9
$DIMZIN
 70
     0
  9
$DIMBLK
  1

  9
$DIMASO
 70
     1
  9
$DIMSHO
 70
     1
  9
$DIMPOST
  1

  9
$DIMAPOST
  1

  9
$DIMALT
 70
     0
  9
$DIMALTD
 70
     2
  9
$DIMALTF
 40
25.4
  9
$DIMLFAC
 40
1.0
  9
$DIMTOFL
 70
     0
  9
$DIMTVP
 40
0.0
  9
$DIMTIX
 70
     0
  9
$DIMSOXD
 70
     0
  9
$DIMSAH
 70
     0
  9
$DIMBLK1
  1

  9
$DIMBLK2
  1

  9
$DIMSTYLE
  2
Standard
  9
$DIMCLRD
 70
     0
  9
$DIMCLRE
 70
     0
  9
$DIMCLRT
 70
     0
  9
$DIMTFAC
 40
1.0
  9
$DIMGAP
 40
0.09
  9
$DIMJUST
 70
     0
  9
$DIMSD1
 70
     0
  9
$DIMSD2
 70
     0
  9
$DIMTOLJ
 70
     1
  9
$DIMTZIN
 70
     0
  9
$DIMALTZ
 70
     0
  9
$DIMALTTZ
 70
     0
  9
$DIMUPT
 70
     0
  9
$DIMDEC
 70
     4
  9
$DIMTDEC
 70
     4
  9
$DIMALTU
 70
     2
  9
$DIMALTTD
 70
     2
  9
$DIMTXSTY
  7
Standard
  9
$DIMAUNIT
 70
     0
  9
$DIMADEC
 70
     0
  9
$DIMALTRND
 40
0.0
  9
$DIMAZIN
 70
     0
  9
$DIMDSEP
 70
    46
  9
$DIMATFIT
 70
     3
  9
$DIMFRAC
 70
     0
  9
$DIMLDRBLK
  1

  9
$DIMLUNIT
 70
     2
  9
$DIMLWD
 70
    -2
  9
$DIMLWE
 70
    -2
  9
$DIMTMOVE
 70
     0
  9
$DIMFXL
 40
1.0
  9
$DIMFXLON
 70
     0
  9
$DIMJOGANG
 40
0.7853981633974483
  9
$DIMTFILL
 70
     0
  9
$DIMTFILLCLR
 70
     0
  9
$DIMARCSYM
 70
     0
  9
$DIMLTYPE
  6

  9
$DIMLTEX1
  6

  9
$DIMLTEX2
  6

  9
$DIMTXTDIRECTION
 70
     0
  9
$LUNITS
 70
     2
  9
$LUPREC
 70
     4
  9
$SKETCHINC
 40
0.1
  9
$FILLETRAD
 40
0.5
  9
$AUNITS
 70
     0
  9
$AUPREC
 70
     0
  9
$MENU
  1
.
  9
$ELEVATION
 40
0.0
  9
$PELEVATION
 40
0.0
  9
$THICKNESS
 40
0.0
  9
$LIMCHECK
 70
     0
  9
$CHAMFERA
 40
0.5
  9
$CHAMFERB
 40
0.5
  9
$CHAMFERC
 40
1.0
  9
$CHAMFERD
 40
0.0
  9
$SKPOLY
 70
     0
  9
$TDCREATE
 40
2457917.623541655
  9
$TDUCREATE
 40
2457917.248541667
  9
$TDUPDATE
 40
2457917.623541655
  9
$TDUUPDATE
 40
2457917.248541667
  9
$TDINDWG
 40
0.0000000116
  9
$TDUSRTIMER
 40
0.0000000116
  9
$USRTIMER
 70
     1
  9
$ANGBASE
 50
0.0
  9
$ANGDIR
 70
     0
  9
$PDMODE
 70
     0
  9
$PDSIZE
 40
0.0
  9
$PLINEWID
 40
0.0
  9
$SPLFRAME
 70
     0
  9
$SPLINETYPE
 70
     6
  9
$SPLINESEGS
 70
     8
  9
$HANDSEED
  5
C6
  9
$SURFTAB1
 70
     6
  9
$SURFTAB2
 70
     6
  9
$SURFTYPE
 70
     6
  9
$SURFU
 70
     6
  9
$SURFV
 70
     6
  9
$UCSBASE
  2

  9
$UCSNAME
  2

  9
$UCSORG
 10
0.0
 20
0.0
 30
0.0
  9
$UCSXDIR
 10
1.0
 20
0.0
 30
0.0
  9
$UCSYDIR
 10
0.0
 20
1.0
 30
0.0
  9
$UCSORTHOREF
  2

  9
$UCSORTHOVIEW
 70
     0
  9
$UCSORGTOP
 10
0.0
 20
0.0
 30
0.0
  9
$UCSORGBOTTOM
 10
0.0
 20
0.0
 30
0.0
  9
$UCSORGLEFT
 10
0.0
 20
0.0
 30
0.0
  9
$UCSORGRIGHT
 10
0.0
 20
0.0
 30
0.0
  9
$UCSORGFRONT
 10
0.0
 20
0.0
 30
0.0
  9
$UCSORGBACK
 10
0.0
 20
0.0
 30
0.0
  9
$PUCSBASE
  2

  9
$PUCSNAME
  2

  9
$PUCSORG
 10
0.0
 20
0.0
 30
0.0
  9
$PUCSXDIR
 10
1.0
 20
0.0
 30
0.0
  9
$PUCSYDIR
 10
0.0
 20
1.0
 30
0.0
  9
$PUCSORTHOREF
  2

  9
$PUCSORTHOVIEW
 70
     0
  9
$PUCSORGTOP
 10
0.0
 20
0.0
 30
0.0
  9
$PUCSORGBOTTOM
 10
0.0
 20
0.0
 30
0.0
  9
$PUCSORGLEFT
 10
0.0
 20
0.0
 30
0.0
  9
$PUCSORGRIGHT
 10
0.0
 20
0.0
 30
0.0
  9
$PUCSORGFRONT
 10
0.0
 20
0.0
 30
0.0
  9
$PUCSORGBACK
 10
0.0
 20
0.0
 30
0.0
  9
$USERI1
 70
     0
  9
$USERI2
 70
     0
  9
$USERI3
 70
     0
  9
$USERI4
 70
     0
  9
$USERI5
 70
     0
  9
$USERR1
 40
0.0
  9
$USERR2
 40
0.0
  9
$USERR3
 40
0.0
  9
$USERR4
 40
0.0
  9
$USERR5
 40
0.0
  9
$WORLDVIEW
 70
     1
  9
$SHADEDGE
 70
     3
  9
$SHADEDIF
 70
    70
  9
$TILEMODE
 70
     1
  9
$MAXACTVP
 70
    64
  9
$PINSBASE
 10
0.0
 20
0.0
 30
0.0
  9
$PLIMCHECK
 70
     0
  9
$PEXTMIN
 10
1.000000000000000E+20
 20
1.000000000000000E+20
 30
1.000000000000000E+20
  9
$PEXTMAX
 10
-1.000000000000000E+20
 20
-1.000000000000000E+20
 30
-1.000000000000000E+20
  9
$PLIMMIN
 10
0.0
 20
0.0
  9
$PLIMMAX
 10
12.0
 20
9.0
  9
$UNITMODE
 70
     0
  9
$VISRETAIN
 70
     1
  9
$PLINEGEN
 70
     0
  9
$PSLTSCALE
 70
     1
  9
$TREEDEPTH
 70
  3020
  9
$CMLSTYLE
  2
Standard
  9
$CMLJUST
 70
     0
  9
$CMLSCALE
 40
1.0
  9
$PROXYGRAPHICS
 70
     1
  9
$MEASUREMENT
 70
     0
  9
$CELWEIGHT
370
    -1
  9
$ENDCAPS
280
     0
  9
$JOINSTYLE
280
     0
  9
$LWDISPLAY
290
     1
  9
$INSUNITS
 70
     1
  9
$HYPERLINKBASE
  1

  9
$STYLESHEET
  1

  9
$XEDIT
290
     1
  9
$CEPSNTYPE
380
     0
  9
$PSTYLEMODE
290
     1
  9
$FINGERPRINTGUID
  2
{A7827436-F4DA-E285-5677-23964CC01544}
  9
$VERSIONGUID
  2
{FAEB1C32-E019-11D5-929B-00C0DF256EC4}
  9
$EXTNAMES
290
     1
  9
$PSVPSCALE
 40
0.0
  9
$OLESTARTUP
290
     0
  9
$SORTENTS
280
   127
  9
$INDEXCTL
280
     0
  9
$HIDETEXT
280
     1
  9
$XCLIPFRAME
280
     2
  9
$HALOGAP
280
     0
  9
$OBSCOLOR
 70
   257
  9
$OBSLTYPE
280
     0
  9
$INTERSECTIONDISPLAY
280
     0
  9
$INTERSECTIONCOLOR
 70
   257
  9
$DIMASSOC
280
     2
  9
$PROJECTNAME
  1

  9
$CAMERADISPLAY
290
     0
  9
$LENSLENGTH
 40
50.0
  9
$CAMERAHEIGHT
 40
0.0
  9
$STEPSPERSEC
 40
2.0
  9
$STEPSIZE
 40
6.0
  9
$3DDWFPREC
 40
2.0
  9
$PSOLWIDTH
 40
0.25
  9
$PSOLHEIGHT
 40
4.0
  9
$LOFTANG1
 40
1.570796326794897
  9
$LOFTANG2
 40
1.570796326794897
  9
$LOFTMAG1
 40
0.0
  9
$LOFTMAG2
 40
0.0
  9
$LOFTPARAM
 70
     7
  9
$LOFTNORMALS
280
     1
  9
$LATITUDE
 40
37.795
  9
$LONGITUDE
 40
-122.394
  9
$NORTHDIRECTION
 40
0.0
  9
$TIMEZONE
 70
 -8000
  9
$LIGHTGLYPHDISPLAY
280
     1
  9
$TILEMODELIGHTSYNCH
280
     1
  9
$CMATERIAL
347
3C
  9
$SOLIDHIST
280
     1
  9
$SHOWHIST
280
     1
  9
$DWFFRAME
280
     2
  9
$DGNFRAME
280
     2
  9
$REALWORLDSCALE
290
     1
  9
$INTERFERECOLOR
 62
   256
  9
$CSHADOW
280
     0
  9
$SHADOWPLANELOCATION
 40
0.0
  0
ENDSEC
  0
SECTION
  2
CLASSES
  0
CLASS
  1
ACDBDICTIONARYWDFLT
  2
AcDbDictionaryWithDefault
  3
ObjectDBX Classes
 90
        0
 91
        4
280
     0
281
     0
  0
CLASS
  1
VISUALSTYLE
  2
AcDbVisualStyle
  3
ObjectDBX Classes
 90
     4095
 91
        4
280
     0
281
     0
  0
CLASS
  1
MATERIAL
  2
AcDbMaterial
  3
ObjectDBX Classes
 90
     1153
 91
        4
280
     0
281
     0
  0
CLASS
  1
SUN
  2
AcDbSun
  3
SCENEOE
 90
     1024
 91
        4
280
     0
281
     0
  0
ENDSEC
  0
SECTION
  2
TABLES
  0
TABLE
  2
VPORT
  5
8
330
0
100
AcDbSymbolTable
 70
     1
  0
VPORT
  5
29
330
8
100
AcDbSymbolTableRecord
100
AcDbViewportTableRecord
  2
*Active
 70
     0
 10
0.0
 20
0.0
 11
1.0
 21
1.0
 12
0.0
 22
0.0
 13
0.0
 23
0.0
 14
0.5
 24
0.5
 15
0.5
 25
0.5
 16
0.0
 26
0.0
 36
1.0
 17
91.00082462281999
 27
-128.4993055234307
 37
0.0
 40
256.9986110468615
 41
0.7081814508812795
 42
50.0
 43
0.0
 44
0.0
 50
0.0
 51
0.0
 71
     0
 72
   100
 73
     1
 74
     3
 75
     0
 76
     0
 77
     0
 78
     0
281
     0
 65
     1
110
0.0
120
0.0
130
0.0
111
1.0
121
0.0
131
0.0
112
0.0
122
1.0
132
0.0
 79
     0
146
0.0
 60
     3
 61
     5
292
     1
282
     1
141
0.0
142
0.0
 63
   250
361
3F
  0
ENDTAB
  0
TABLE
  2
LTYPE
  5
5
330
0
100
AcDbSymbolTable
 70
     1
  0
LTYPE
  5
14
330
5
100
AcDbSymbolTableRecord
100
AcDbLinetypeTableRecord
  2
ByBlock
 70
     0
  3

 72
    65
 73
     0
 40
0.0
  0
LTYPE
  5
15
330
5
100
AcDbSymbolTableRecord
100
AcDbLinetypeTableRecord
  2
ByLayer
 70
     0
  3

 72
    65
 73
     0
 40
0.0
  0
LTYPE
  5
16
330
5
100
AcDbSymbolTableRecord
100
AcDbLinetypeTableRecord
  2
Continuous
 70
     0
  3
Solid line
 72
    65
 73
     0
 40
0.0
  0
ENDTAB
  0
TABLE
  2
LAYER
  5
2
330
0
100
AcDbSymbolTable
 70
     2
  0
LAYER
  5
10
330
2
100
AcDbSymbolTableRecord
100
AcDbLayerTableRecord
  2
0
 70
     0
 62
     7
  6
Continuous
370
    -3
390
F
347
3E
  0
LAYER
  5
40
330
2
100
AcDbSymbolTableRecord
100
AcDbLayerTableRecord
  2
_U+30EC_U+30A4_U+30E4_U+30FC 1
 70
     0
 62
     7
  6
Continuous
370
    -3
390
F
347
3E
  0
ENDTAB
  0
TABLE
  2
STYLE
  5
3
330
0
100
AcDbSymbolTable
 70
     1
  0
STYLE
  5
11
330
3
100
AcDbSymbolTableRecord
100
AcDbTextStyleTableRecord
  2
Standard
 70
     0
 40
0.0
 41
1.0
 50
0.0
 71
     0
 42
0.2
  3
txt
  4

  0
ENDTAB
  0
TABLE
  2
VIEW
  5
6
330
0
100
AcDbSymbolTable
 70
     0
  0
ENDTAB
  0
TABLE
  2
UCS
  5
7
330
0
100
AcDbSymbolTable
 70
     0
  0
ENDTAB
  0
TABLE
  2
APPID
  5
9
330
0
100
AcDbSymbolTable
 70
     1
  0
APPID
  5
12
330
9
100
AcDbSymbolTableRecord
100
AcDbRegAppTableRecord
  2
ACAD
 70
     0
  0
ENDTAB
  0
TABLE
  2
DIMSTYLE
  5
A
330
0
100
AcDbSymbolTable
 70
     1
100
AcDbDimStyleTable
  0
DIMSTYLE
105
27
330
A
100
AcDbSymbolTableRecord
100
AcDbDimStyleTableRecord
  2
Standard
 70
     0
178
     0
340
11
  0
ENDTAB
  0
TABLE
  2
BLOCK_RECORD
  5
1
330
0
100
AcDbSymbolTable
 70
     5
  0
BLOCK_RECORD
  5
1F
330
1
100
AcDbSymbolTableRecord
100
AcDbBlockTableRecord
  2
*Model_Space
340
22
 70
     0
280
     1
281
     0
  0
BLOCK_RECORD
  5
1B
330
1
100
AcDbSymbolTableRecord
100
AcDbBlockTableRecord
  2
*Paper_Space
340
1E
 70
     0
280
     1
281
     0
  0
BLOCK_RECORD
  5
23
330
1
100
AcDbSymbolTableRecord
100
AcDbBlockTableRecord
  2
*Paper_Space0
340
26
 70
     0
280
     1
281
     0
  0
BLOCK_RECORD
  5
6E
330
1
100
AcDbSymbolTableRecord
100
AcDbBlockTableRecord
  2
block 2
340
0
102
{BLKREFS
331
6F
102
}
 70
     0
280
     1
281
     0
  0
BLOCK_RECORD
  5
74
330
1
100
AcDbSymbolTableRecord
100
AcDbBlockTableRecord
  2
block 3
340
0
102
{BLKREFS
331
75
102
}
 70
     0
280
     1
281
     0
  0
BLOCK_RECORD
  5
A4
330
1
100
AcDbSymbolTableRecord
100
AcDbBlockTableRecord
  2
block 4
340
0
102
{BLKREFS
331
A5
102
}
 70
     0
280
     1
281
     0
  0
BLOCK_RECORD
  5
BB
330
1
100
AcDbSymbolTableRecord
100
AcDbBlockTableRecord
  2
block 5
340
0
102
{BLKREFS
331
BC
102
}
 70
     0
280
     1
281
     0
  0
ENDTAB
  0
ENDSEC
  0
SECTION
  2
BLOCKS
  0
BLOCK
  5
20
330
1F
100
AcDbEntity
  8
0
100
AcDbBlockBegin
  2
*Model_Space
 70
     0
 10
0.0
 20
0.0
 30
0.0
  3
*Model_Space
  1

  0
ENDBLK
  5
21
330
1F
100
AcDbEntity
  8
0
100
AcDbBlockEnd
  0
BLOCK
  5
1C
330
1B
100
AcDbEntity
 67
     1
  8
0
100
AcDbBlockBegin
  2
*Paper_Space
 70
     0
 10
0.0
 20
0.0
 30
0.0
  3
*Paper_Space
  1

  0
ENDBLK
  5
1D
330
1B
100
AcDbEntity
 67
     1
  8
0
100
AcDbBlockEnd
  0
BLOCK
  5
24
330
23
100
AcDbEntity
  8
0
100
AcDbBlockBegin
  2
*Paper_Space0
 70
     0
 10
0.0
 20
0.0
 30
0.0
  3
*Paper_Space0
  1

  0
ENDBLK
  5
25
330
23
100
AcDbEntity
  8
0
100
AcDbBlockEnd
  0
BLOCK
  5
70
330
6E
100
AcDbEntity
  8
0
100
AcDbBlockBegin
  2
block 2
 70
     0
 10
0.0
 20
0.0
 30
0.0
  3
block 2
  1

  0
SPLINE
  5
72
330
6E
100
AcDbEntity
  8
_U+30EC_U+30A4_U+30E4_U+30FC 1
370
     0
100
AcDbSpline
210
0.0
220
0.0
230
1.0
 70
    11
 71
     3
 72
    26
 73
    22
 74
     0
 42
0.0000000001
 43
0.0000000001
 12
1.0
 22
0.0
 32
0.0
 13
1.0
 23
0.0
 33
0.0
 40
0.0
 40
0.0
 40
0.0
 40
0.0
 40
1.0
 40
1.0
 40
1.0
 40
2.0
 40
2.0
 40
2.0
 40
3.0
 40
3.0
 40
3.0
 40
4.0
 40
4.0
 40
4.0
 40
5.0
 40
5.0
 40
5.0
 40
6.0
 40
6.0
 40
6.0
 40
7.0
 40
7.0
 40
7.0
 40
7.0
 10
106.0655327425808
 20
-133.3816948451268
 30
0.0
 10
106.0655327425808
 20
-133.3816948451268
 30
0.0
 10
104.9617241491068
 20
-133.3816948451268
 30
0.0
 10
104.9617241491068
 20
-133.3816948451268
 30
0.0
 10
104.9617241491068
 20
-133.3816948451268
 30
0.0
 10
104.9617241491068
 20
-133.7344726228164
 30
0.0
 10
104.9617241491068
 20
-133.7344726228164
 30
0.0
 10
104.9617241491068
 20
-133.7344726228164
 30
0.0
 10
104.813585043241
 20
-133.7344726228164
 30
0.0
 10
104.813585043241
 20
-133.7344726228164
 30
0.0
 10
104.798426623106
 20
-133.3792832782871
 30
0.0
 10
104.6358181162022
 20
-133.3296739032995
 30
0.0
 10
104.5214409460919
 20
-133.2979790248352
 30
0.0
 10
104.5214409460919
 20
-133.2979790248352
 30
0.0
 10
104.5214409460919
 20
-133.1419161993534
 30
0.0
 10
104.5214409460919
 20
-133.1419161993534
 30
0.0
 10
104.5214409460919
 20
-133.1419161993534
 30
0.0
 10
106.0655327425808
 20
-133.1419161993534
 30
0.0
 10
106.0655327425808
 20
-133.1419161993534
 30
0.0
 10
106.0655327425808
 20
-133.1419161993534
 30
0.0
 10
106.0655327425808
 20
-133.3816948451268
 30
0.0
 10
106.0655327425808
 20
-133.3816948451268
 30
0.0
  0
HATCH
  5
73
330
6E
100
AcDbEntity
  8
_U+30EC_U+30A4_U+30E4_U+30FC 1
 62
     7
420
 16777215
100
AcDbHatch
 10
0.0
 20
0.0
 30
0.0
210
0.0
220
0.0
230
1.0
  2
SOLID
 70
     1
 71
     0
 91
        1
 92
        1
 93
        1
 72
     4
 94
        3
 73
     0
 74
     1
 95
       26
 96
       22
 40
0.0
 40
0.0
 40
0.0
 40
0.0
 40
1.0
 40
1.0
 40
1.0
 40
2.0
 40
2.0
 40
2.0
 40
3.0
 40
3.0
 40
3.0
 40
4.0
 40
4.0
 40
4.0
 40
5.0
 40
5.0
 40
5.0
 40
6.0
 40
6.0
 40
6.0
 40
7.0
 40
7.0
 40
7.0
 40
7.0
 10
106.0655327425808
 20
-133.3816948451268
 10
106.0655327425808
 20
-133.3816948451268
 10
104.9617241491068
 20
-133.3816948451268
 10
104.9617241491068
 20
-133.3816948451268
 10
104.9617241491068
 20
-133.3816948451268
 10
104.9617241491068
 20
-133.7344726228164
 10
104.9617241491068
 20
-133.7344726228164
 10
104.9617241491068
 20
-133.7344726228164
 10
104.813585043241
 20
-133.7344726228164
 10
104.813585043241
 20
-133.7344726228164
 10
104.798426623106
 20
-133.3792832782871
 10
104.6358181162022
 20
-133.3296739032995
 10
104.5214409460919
 20
-133.2979790248352
 10
104.5214409460919
 20
-133.2979790248352
 10
104.5214409460919
 20
-133.1419161993534
 10
104.5214409460919
 20
-133.1419161993534
 10
104.5214409460919
 20
-133.1419161993534
 10
106.0655327425808
 20
-133.1419161993534
 10
106.0655327425808
 20
-133.1419161993534
 10
106.0655327425808
 20
-133.1419161993534
 10
106.0655327425808
 20
-133.3816948451268
 10
106.0655327425808
 20
-133.3816948451268
 97
        0
 97
        0
 75
     2
 76
     1
 98
        0
  0
ENDBLK
  5
71
330
6E
100
AcDbEntity
  8
0
100
AcDbBlockEnd
  0
BLOCK
  5
76
330
74
100
AcDbEntity
  8
0
100
AcDbBlockBegin
  2
block 3
 70
     0
 10
0.0
 20
0.0
 30
0.0
  3
block 3
  1

  0
SPLINE
  5
78
330
74
100
AcDbEntity
  8
_U+30EC_U+30A4_U+30E4_U+30FC 1
370
     0
100
AcDbSpline
210
0.0
220
0.0
230
1.0
 70
    11
 71
     3
 72
    26
 73
    22
 74
     0
 42
0.0000000001
 43
0.0000000001
 12
1.0
 22
0.0
 32
0.0
 13
1.0
 23
0.0
 33
0.0
 40
0.0
 40
0.0
 40
0.0
 40
0.0
 40
1.0
 40
1.0
 40
1.0
 40
2.0
 40
2.0
 40
2.0
 40
3.0
 40
3.0
 40
3.0
 40
4.0
 40
4.0
 40
4.0
 40
5.0
 40
5.0
 40
5.0
 40
6.0
 40
6.0
 40
6.0
 40
7.0
 40
7.0
 40
7.0
 40
7.0
 10
106.0655327425808
 20
-128.4986165043337
 30
0.0
 10
106.0655327425808
 20
-128.4986165043337
 30
0.0
 10
104.9617241491068
 20
-128.4986165043337
 30
0.0
 10
104.9617241491068
 20
-128.4986165043337
 30
0.0
 10
104.9617241491068
 20
-128.4986165043337
 30
0.0
 10
104.9617241491068
 20
-128.8513942820233
 30
0.0
 10
104.9617241491068
 20
-128.8513942820233
 30
0.0
 10
104.9617241491068
 20
-128.8513942820233
 30
0.0
 10
104.813585043241
 20
-128.8513942820233
 30
0.0
 10
104.813585043241
 20
-128.8513942820233
 30
0.0
 10
104.798426623106
 20
-128.4963771922683
 30
0.0
 10
104.6358181162022
 20
-128.4465955625064
 30
0.0
 10
104.5214409460919
 20
-128.4149006840421
 30
0.0
 10
104.5214409460919
 20
-128.4149006840421
 30
0.0
 10
104.5214409460919
 20
-128.2590101133346
 30
0.0
 10
104.5214409460919
 20
-128.2590101133346
 30
0.0
 10
104.5214409460919
 20
-128.2590101133346
 30
0.0
 10
106.0655327425808
 20
-128.2590101133346
 30
0.0
 10
106.0655327425808
 20
-128.2590101133346
 30
0.0
 10
106.0655327425808
 20
-128.2590101133346
 30
0.0
 10
106.0655327425808
 20
-128.4986165043337
 30
0.0
 10
106.0655327425808
 20
-128.4986165043337
 30
0.0
  0
HATCH
  5
79
330
74
100
AcDbEntity
  8
_U+30EC_U+30A4_U+30E4_U+30FC 1
 62
     7
420
 16777215
100
AcDbHatch
 10
0.0
 20
0.0
 30
0.0
210
0.0
220
0.0
230
1.0
  2
SOLID
 70
     1
 71
     0
 91
        1
 92
        1
 93
        1
 72
     4
 94
        3
 73
     0
 74
     1
 95
       26
 96
       22
 40
0.0
 40
0.0
 40
0.0
 40
0.0
 40
1.0
 40
1.0
 40
1.0
 40
2.0
 40
2.0
 40
2.0
 40
3.0
 40
3.0
 40
3.0
 40
4.0
 40
4.0
 40
4.0
 40
5.0
 40
5.0
 40
5.0
 40
6.0
 40
6.0
 40
6.0
 40
7.0
 40
7.0
 40
7.0
 40
7.0
 10
106.0655327425808
 20
-128.4986165043337
 10
106.0655327425808
 20
-128.4986165043337
 10
104.9617241491068
 20
-128.4986165043337
 10
104.9617241491068
 20
-128.4986165043337
 10
104.9617241491068
 20
-128.4986165043337
 10
104.9617241491068
 20
-128.8513942820233
 10
104.9617241491068
 20
-128.8513942820233
 10
104.9617241491068
 20
-128.8513942820233
 10
104.813585043241
 20
-128.8513942820233
 10
104.813585043241
 20
-128.8513942820233
 10
104.798426623106
 20
-128.4963771922683
 10
104.6358181162022
 20
-128.4465955625064
 10
104.5214409460919
 20
-128.4149006840421
 10
104.5214409460919
 20
-128.4149006840421
 10
104.5214409460919
 20
-128.2590101133346
 10
104.5214409460919
 20
-128.2590101133346
 10
104.5214409460919
 20
-128.2590101133346
 10
106.0655327425808
 20
-128.2590101133346
 10
106.0655327425808
 20
-128.2590101133346
 10
106.0655327425808
 20
-128.2590101133346
 10
106.0655327425808
 20
-128.4986165043337
 10
106.0655327425808
 20
-128.4986165043337
 97
        0
 97
        0
 75
     2
 76
     1
 98
        0
  0
SPLINE
  5
7A
330
74
100
AcDbEntity
  8
_U+30EC_U+30A4_U+30E4_U+30FC 1
370
     0
100
AcDbSpline
210
0.0
220
0.0
230
1.0
 70
    11
 71
     3
 72
    29
 73
    25
 74
     0
 42
0.0000000001
 43
0.0000000001
 12
1.0
 22
0.0
 32
0.0
 13
1.0
 23
0.0
 33
0.0
 40
0.0
 40
0.0
 40
0.0
 40
0.0
 40
1.0
 40
1.0
 40
1.0
 40
2.0
 40
2.0
 40
2.0
 40
3.0
 40
3.0
 40
3.0
 40
4.0
 40
4.0
 40
4.0
 40
5.0
 40
5.0
 40
5.0
 40
6.0
 40
6.0
 40
6.0
 40
7.0
 40
7.0
 40
7.0
 40
8.0
 40
8.0
 40
8.0
 40
8.0
 10
105.887765815542
 20
-126.7638386727361
 30
0.0
 10
106.0972276210451
 20
-126.8790771167177
 30
0.0
 10
106.1165201557625
 20
-127.0644232538242
 30
0.0
 10
106.1165201557625
 20
-127.1887912008417
 30
0.0
 10
106.1165201557625
 20
-127.3607014655557
 30
0.0
 10
106.0696668571631
 20
-127.5121134121324
 30
0.0
 10
105.887765815542
 20
-127.6139159837215
 30
0.0
 10
105.6934624301739
 20
-127.7246758035723
 30
0.0
 10
105.4564398607887
 20
-127.7450018669353
 30
0.0
 10
105.2938313538849
 20
-127.7450018669353
 30
0.0
 10
105.1498263626014
 20
-127.7450018669353
 30
0.0
 10
104.8976453730811
 20
-127.7269151156377
 30
0.0
 10
104.6992078731308
 20
-127.6139159837215
 30
0.0
 10
104.495947239501
 20
-127.4985052849657
 30
0.0
 10
104.4725205902013
 20
-127.326767275026
 30
0.0
 10
104.4725205902013
 20
-127.1887912008417
 30
0.0
 10
104.4725205902013
 20
-127.0192925029674
 30
0.0
 10
104.5173068315096
 20
-126.865468989551
 30
0.0
 10
104.6992078731308
 20
-126.7638386727361
 30
0.0
 10
104.8914442012077
 20
-126.6575574770162
 30
0.0
 10
105.1201985414283
 20
-126.6327527895224
 30
0.0
 10
105.2938313538849
 20
-126.6327527895224
 30
0.0
 10
105.4647080899533
 20
-126.6327527895224
 30
0.0
 10
105.695529487465
 20
-126.6553181649508
 30
0.0
 10
105.887765815542
 20
-126.7638386727361
 30
0.0
  0
SPLINE
  5
7B
330
74
100
AcDbEntity
  8
_U+30EC_U+30A4_U+30E4_U+30FC 1
370
     0
100
AcDbSpline
210
0.0
220
0.0
230
1.0
 70
    11
 71
     3
 72
    17
 73
    13
 74
     0
 42
0.0000000001
 43
0.0000000001
 12
1.0
 22
0.0
 32
0.0
 13
1.0
 23
0.0
 33
0.0
 40
0.0
 40
0.0
 40
0.0
 40
0.0
 40
1.0
 40
1.0
 40
1.0
 40
2.0
 40
2.0
 40
2.0
 40
3.0
 40
3.0
 40
3.0
 40
4.0
 40
4.0
 40
4.0
 40
4.0
 10
104.6654459373753
 20
-127.1887912008417
 30
0.0
 10
104.6654459373753
 20
-127.4556138461743
 30
0.0
 10
104.9486327862628
 20
-127.5053954759362
 30
0.0
 10
105.2938313538849
 20
-127.5053954759362
 30
0.0
 10
105.612847195819
 20
-127.5053954759362
 30
0.0
 10
105.9215277512974
 20
-127.4669826612756
 30
0.0
 10
105.9215277512974
 20
-127.1887912008417
 30
0.0
 10
105.9215277512974
 20
-126.9243801223488
 30
0.0
 10
105.640407959701
 20
-126.8723591805215
 30
0.0
 10
105.2938313538849
 20
-126.8723591805215
 30
0.0
 10
104.9741264928537
 20
-126.8723591805215
 30
0.0
 10
104.6654459373753
 20
-126.9130113072474
 30
0.0
 10
104.6654459373753
 20
-127.1887912008417
 30
0.0
  0
HATCH
  5
7C
330
74
100
AcDbEntity
  8
_U+30EC_U+30A4_U+30E4_U+30FC 1
 62
     7
420
 16777215
100
AcDbHatch
 10
0.0
 20
0.0
 30
0.0
210
0.0
220
0.0
230
1.0
  2
SOLID
 70
     1
 71
     0
 91
        2
 92
        1
 93
        1
 72
     4
 94
        3
 73
     0
 74
     1
 95
       29
 96
       25
 40
0.0
 40
0.0
 40
0.0
 40
0.0
 40
1.0
 40
1.0
 40
1.0
 40
2.0
 40
2.0
 40
2.0
 40
3.0
 40
3.0
 40
3.0
 40
4.0
 40
4.0
 40
4.0
 40
5.0
 40
5.0
 40
5.0
 40
6.0
 40
6.0
 40
6.0
 40
7.0
 40
7.0
 40
7.0
 40
8.0
 40
8.0
 40
8.0
 40
8.0
 10
105.887765815542
 20
-126.7638386727361
 10
106.0972276210451
 20
-126.8790771167177
 10
106.1165201557625
 20
-127.0644232538242
 10
106.1165201557625
 20
-127.1887912008417
 10
106.1165201557625
 20
-127.3607014655557
 10
106.0696668571631
 20
-127.5121134121324
 10
105.887765815542
 20
-127.6139159837215
 10
105.6934624301739
 20
-127.7246758035723
 10
105.4564398607887
 20
-127.7450018669353
 10
105.2938313538849
 20
-127.7450018669353
 10
105.1498263626014
 20
-127.7450018669353
 10
104.8976453730811
 20
-127.7269151156377
 10
104.6992078731308
 20
-127.6139159837215
 10
104.495947239501
 20
-127.4985052849657
 10
104.4725205902013
 20
-127.326767275026
 10
104.4725205902013
 20
-127.1887912008417
 10
104.4725205902013
 20
-127.0192925029674
 10
104.5173068315096
 20
-126.865468989551
 10
104.6992078731308
 20
-126.7638386727361
 10
104.8914442012077
 20
-126.6575574770162
 10
105.1201985414283
 20
-126.6327527895224
 10
105.2938313538849
 20
-126.6327527895224
 10
105.4647080899533
 20
-126.6327527895224
 10
105.695529487465
 20
-126.6553181649508
 10
105.887765815542
 20
-126.7638386727361
 97
        0
 97
        0
 92
        1
 93
        1
 72
     4
 94
        3
 73
     0
 74
     1
 95
       17
 96
       13
 40
0.0
 40
0.0
 40
0.0
 40
0.0
 40
1.0
 40
1.0
 40
1.0
 40
2.0
 40
2.0
 40
2.0
 40
3.0
 40
3.0
 40
3.0
 40
4.0
 40
4.0
 40
4.0
 40
4.0
 10
104.6654459373753
 20
-127.1887912008417
 10
104.6654459373753
 20
-127.4556138461743
 10
104.9486327862628
 20
-127.5053954759362
 10
105.2938313538849
 20
-127.5053954759362
 10
105.612847195819
 20
-127.5053954759362
 10
105.9215277512974
 20
-127.4669826612756
 10
105.9215277512974
 20
-127.1887912008417
 10
105.9215277512974
 20
-126.9243801223488
 10
105.640407959701
 20
-126.8723591805215
 10
105.2938313538849
 20
-126.8723591805215
 10
104.9741264928537
 20
-126.8723591805215
 10
104.6654459373753
 20
-126.9130113072474
 10
104.6654459373753
 20
-127.1887912008417
 97
        0
 97
        0
 75
     2
 76
     1
 98
        0
  0
ENDBLK
  5
77
330
74
100
AcDbEntity
  8
0
100
AcDbBlockEnd
  0
BLOCK
  5
A6
330
A4
100
AcDbEntity
  8
0
100
AcDbBlockBegin
  2
block 4
 70
     0
 10
0.0
 20
0.0
 30
0.0
  3
block 4
  1

  0
SPLINE
  5
A8
330
A4
100
AcDbEntity
  8
_U+30EC_U+30A4_U+30E4_U+30FC 1
370
     0
100
AcDbSpline
210
0.0
220
0.0
230
1.0
 70
    11
 71
     3
 72
    62
 73
    58
 74
     0
 42
0.0000000001
 43
0.0000000001
 12
1.0
 22
0.0
 32
0.0
 13
1.0
 23
0.0
 33
0.0
 40
0.0
 40
0.0
 40
0.0
 40
0.0
 40
1.0
 40
1.0
 40
1.0
 40
2.0
 40
2.0
 40
2.0
 40
3.0
 40
3.0
 40
3.0
 40
4.0
 40
4.0
 40
4.0
 40
5.0
 40
5.0
 40
5.0
 40
6.0
 40
6.0
 40
6.0
 40
7.0
 40
7.0
 40
7.0
 40
8.0
 40
8.0
 40
8.0
 40
9.0
 40
9.0
 40
9.0
 40
10.0
 40
10.0
 40
10.0
 40
11.0
 40
11.0
 40
11.0
 40
12.0
 40
12.0
 40
12.0
 40
13.0
 40
13.0
 40
13.0
 40
14.0
 40
14.0
 40
14.0
 40
15.0
 40
15.0
 40
15.0
 40
16.0
 40
16.0
 40
16.0
 40
17.0
 40
17.0
 40
17.0
 40
18.0
 40
18.0
 40
18.0
 40
19.0
 40
19.0
 40
19.0
 40
19.0
 10
88.12950437249887
 20
-136.604581671578
 30
0.0
 10
88.02787405568401
 20
-136.604581671578
 30
0.0
 10
87.79498560088112
 20
-136.583566589118
 30
0.0
 10
87.66166040560195
 20
-136.397186923366
 30
0.0
 10
87.5824232094412
 20
-136.2852213200954
 30
0.0
 10
87.57794458531038
 20
-136.1856580605717
 30
0.0
 10
87.57346596117955
 20
-136.101253221183
 30
0.0
 10
87.57346596117955
 20
-136.101253221183
 30
0.0
 10
87.8084214732736
 20
-136.101253221183
 30
0.0
 10
87.8084214732736
 20
-136.101253221183
 30
0.0
 10
87.81083304011327
 20
-136.1753227741159
 30
0.0
 10
87.82220185521459
 20
-136.4099337766614
 30
0.0
 10
88.12502574836806
 20
-136.4099337766614
 30
0.0
 10
88.27213132558822
 20
-136.4099337766614
 30
0.0
 10
88.43473983249201
 20
-136.3403428478594
 30
0.0
 10
88.43473983249201
 20
-136.1115885076388
 30
0.0
 10
88.43473983249201
 20
-135.9954887897859
 30
0.0
 10
88.39408770576607
 20
-135.9465684338953
 30
0.0
 10
88.35998126046209
 20
-135.914873555431
 30
0.0
 10
88.28108857384987
 20
-135.8408040024981
 30
0.0
 10
88.15672062683235
 20
-135.8284016587512
 30
0.0
 10
88.09780949403458
 20
-135.8284016587512
 30
0.0
 10
88.0774834306716
 20
-135.8284016587512
 30
0.0
 10
88.03924287078533
 20
-135.8304687160424
 30
0.0
 10
88.00961504961218
 20
-135.8346028306247
 30
0.0
 10
88.00961504961218
 20
-135.8346028306247
 30
0.0
 10
88.00961504961218
 20
-135.6399549357081
 30
0.0
 10
88.00961504961218
 20
-135.6399549357081
 30
0.0
 10
88.05026717633814
 20
-135.6461561075815
 30
0.0
 10
88.09574243674344
 20
-135.6485676744212
 30
0.0
 10
88.1022881181654
 20
-135.6485676744212
 30
0.0
 10
88.1725680660645
 20
-135.6485676744212
 30
0.0
 10
88.38513045750442
 20
-135.6272080824126
 30
0.0
 10
88.38513045750442
 20
-135.3901855130275
 30
0.0
 10
88.38513045750442
 20
-135.2127630955371
 30
0.0
 10
88.24491507125475
 20
-135.1576415677731
 30
0.0
 10
88.12743731520773
 20
-135.1576415677731
 30
0.0
 10
87.84459497586872
 20
-135.1576415677731
 30
0.0
 10
87.83563772760706
 20
-135.3901855130275
 30
0.0
 10
87.83115910347624
 20
-135.4621880086692
 30
0.0
 10
87.83115910347624
 20
-135.4621880086692
 30
0.0
 10
87.6141180879055
 20
-135.4621880086692
 30
0.0
 10
87.6141180879055
 20
-135.4621880086692
 30
0.0
 10
87.62307533616715
 20
-135.3374755521031
 30
0.0
 10
87.65235864779177
 20
-134.9609266155653
 30
0.0
 10
88.1408731876002
 20
-134.9609266155653
 30
0.0
 10
88.38065183337359
 20
-134.9609266155653
 30
0.0
 10
88.63834497567028
 20
-135.0877061294225
 30
0.0
 10
88.63834497567028
 20
-135.383984341154
 30
0.0
 10
88.63834497567028
 20
-135.5700194973575
 30
0.0
 10
88.53637014930689
 20
-135.6527017890035
 30
0.0
 10
88.43026120836119
 20
-135.7140244886409
 30
0.0
 10
88.49571802258093
 20
-135.741585252523
 30
0.0
 10
88.69036591749754
 20
-135.8218559773293
 30
0.0
 10
88.69036591749754
 20
-136.0991861638919
 30
0.0
 10
88.69036591749754
 20
-136.4374945405434
 30
0.0
 10
88.42578258423036
 20
-136.604581671578
 30
0.0
 10
88.12950437249887
 20
-136.604581671578
 30
0.0
  0
HATCH
  5
A9
330
A4
100
AcDbEntity
  8
_U+30EC_U+30A4_U+30E4_U+30FC 1
 62
     7
420
 16777215
100
AcDbHatch
 10
0.0
 20
0.0
 30
0.0
210
0.0
220
0.0
230
1.0
  2
SOLID
 70
     1
 71
     0
 91
        1
 92
        1
 93
        1
 72
     4
 94
        3
 73
     0
 74
     1
 95
       62
 96
       58
 40
0.0
 40
0.0
 40
0.0
 40
0.0
 40
1.0
 40
1.0
 40
1.0
 40
2.0
 40
2.0
 40
2.0
 40
3.0
 40
3.0
 40
3.0
 40
4.0
 40
4.0
 40
4.0
 40
5.0
 40
5.0
 40
5.0
 40
6.0
 40
6.0
 40
6.0
 40
7.0
 40
7.0
 40
7.0
 40
8.0
 40
8.0
 40
8.0
 40
9.0
 40
9.0
 40
9.0
 40
10.0
 40
10.0
 40
10.0
 40
11.0
 40
11.0
 40
11.0
 40
12.0
 40
12.0
 40
12.0
 40
13.0
 40
13.0
 40
13.0
 40
14.0
 40
14.0
 40
14.0
 40
15.0
 40
15.0
 40
15.0
 40
16.0
 40
16.0
 40
16.0
 40
17.0
 40
17.0
 40
17.0
 40
18.0
 40
18.0
 40
18.0
 40
19.0
 40
19.0
 40
19.0
 40
19.0
 10
88.12950437249887
 20
-136.604581671578
 10
88.02787405568401
 20
-136.604581671578
 10
87.79498560088112
 20
-136.583566589118
 10
87.66166040560195
 20
-136.397186923366
 10
87.5824232094412
 20
-136.2852213200954
 10
87.57794458531038
 20
-136.1856580605717
 10
87.57346596117955
 20
-136.101253221183
 10
87.57346596117955
 20
-136.101253221183
 10
87.8084214732736
 20
-136.101253221183
 10
87.8084214732736
 20
-136.101253221183
 10
87.81083304011327
 20
-136.1753227741159
 10
87.82220185521459
 20
-136.4099337766614
 10
88.12502574836806
 20
-136.4099337766614
 10
88.27213132558822
 20
-136.4099337766614
 10
88.43473983249201
 20
-136.3403428478594
 10
88.43473983249201
 20
-136.1115885076388
 10
88.43473983249201
 20
-135.9954887897859
 10
88.39408770576607
 20
-135.9465684338953
 10
88.35998126046209
 20
-135.914873555431
 10
88.28108857384987
 20
-135.8408040024981
 10
88.15672062683235
 20
-135.8284016587512
 10
88.09780949403458
 20
-135.8284016587512
 10
88.0774834306716
 20
-135.8284016587512
 10
88.03924287078533
 20
-135.8304687160424
 10
88.00961504961218
 20
-135.8346028306247
 10
88.00961504961218
 20
-135.8346028306247
 10
88.00961504961218
 20
-135.6399549357081
 10
88.00961504961218
 20
-135.6399549357081
 10
88.05026717633814
 20
-135.6461561075815
 10
88.09574243674344
 20
-135.6485676744212
 10
88.1022881181654
 20
-135.6485676744212
 10
88.1725680660645
 20
-135.6485676744212
 10
88.38513045750442
 20
-135.6272080824126
 10
88.38513045750442
 20
-135.3901855130275
 10
88.38513045750442
 20
-135.2127630955371
 10
88.24491507125475
 20
-135.1576415677731
 10
88.12743731520773
 20
-135.1576415677731
 10
87.84459497586872
 20
-135.1576415677731
 10
87.83563772760706
 20
-135.3901855130275
 10
87.83115910347624
 20
-135.4621880086692
 10
87.83115910347624
 20
-135.4621880086692
 10
87.6141180879055
 20
-135.4621880086692
 10
87.6141180879055
 20
-135.4621880086692
 10
87.62307533616715
 20
-135.3374755521031
 10
87.65235864779177
 20
-134.9609266155653
 10
88.1408731876002
 20
-134.9609266155653
 10
88.38065183337359
 20
-134.9609266155653
 10
88.63834497567028
 20
-135.0877061294225
 10
88.63834497567028
 20
-135.383984341154
 10
88.63834497567028
 20
-135.5700194973575
 10
88.53637014930689
 20
-135.6527017890035
 10
88.43026120836119
 20
-135.7140244886409
 10
88.49571802258093
 20
-135.741585252523
 10
88.69036591749754
 20
-135.8218559773293
 10
88.69036591749754
 20
-136.0991861638919
 10
88.69036591749754
 20
-136.4374945405434
 10
88.42578258423036
 20
-136.604581671578
 10
88.12950437249887
 20
-136.604581671578
 97
        0
 97
        0
 75
     2
 76
     1
 98
        0
  0
SPLINE
  5
AA
330
A4
100
AcDbEntity
  8
_U+30EC_U+30A4_U+30E4_U+30FC 1
370
     0
100
AcDbSpline
210
0.0
220
0.0
230
1.0
 70
    11
 71
     3
 72
    29
 73
    25
 74
     0
 42
0.0000000001
 43
0.0000000001
 12
1.0
 22
0.0
 32
0.0
 13
1.0
 23
0.0
 33
0.0
 40
0.0
 40
0.0
 40
0.0
 40
0.0
 40
1.0
 40
1.0
 40
1.0
 40
2.0
 40
2.0
 40
2.0
 40
3.0
 40
3.0
 40
3.0
 40
4.0
 40
4.0
 40
4.0
 40
5.0
 40
5.0
 40
5.0
 40
6.0
 40
6.0
 40
6.0
 40
7.0
 40
7.0
 40
7.0
 40
8.0
 40
8.0
 40
8.0
 40
8.0
 10
89.82139076530507
 20
-136.376171840906
 30
0.0
 10
89.7059800665492
 20
-136.5856336464091
 30
0.0
 10
89.52063392944277
 20
-136.604581671578
 30
0.0
 10
89.39626598242525
 20
-136.604581671578
 30
0.0
 10
89.2247002272598
 20
-136.604581671578
 30
0.0
 10
89.0731160259088
 20
-136.5580728825271
 30
0.0
 10
88.97148570909394
 20
-136.376171840906
 30
0.0
 10
88.8605536344689
 20
-136.1815239459893
 30
0.0
 10
88.84022757110591
 20
-135.9445013766042
 30
0.0
 10
88.84022757110591
 20
-135.7815483601518
 30
0.0
 10
88.84022757110591
 20
-135.6378878784169
 30
0.0
 10
88.85814206762922
 20
-135.3860513984451
 30
0.0
 10
88.97148570909394
 20
-135.1872693889462
 30
0.0
 10
89.08655189830128
 20
-134.9840087553165
 30
0.0
 10
89.25846216301525
 20
-134.9609266155653
 30
0.0
 10
89.39626598242525
 20
-134.9609266155653
 30
0.0
 10
89.56610918984806
 20
-134.9609266155653
 30
0.0
 10
89.7197604484902
 20
-135.0053683473251
 30
0.0
 10
89.82139076530507
 20
-135.1872693889462
 30
0.0
 10
89.9278442157993
 20
-135.3798502265717
 30
0.0
 10
89.9526489032931
 20
-135.6082600572438
 30
0.0
 10
89.9526489032931
 20
-135.7815483601518
 30
0.0
 10
89.9526489032931
 20
-135.9531141153173
 30
0.0
 10
89.92991127309044
 20
-136.1835910032805
 30
0.0
 10
89.82139076530507
 20
-136.376171840906
 30
0.0
  0
SPLINE
  5
AB
330
A4
100
AcDbEntity
  8
_U+30EC_U+30A4_U+30E4_U+30FC 1
370
     0
100
AcDbSpline
210
0.0
220
0.0
230
1.0
 70
    11
 71
     3
 72
    17
 73
    13
 74
     0
 42
0.0000000001
 43
0.0000000001
 12
1.0
 22
0.0
 32
0.0
 13
1.0
 23
0.0
 33
0.0
 40
0.0
 40
0.0
 40
0.0
 40
0.0
 40
1.0
 40
1.0
 40
1.0
 40
2.0
 40
2.0
 40
2.0
 40
3.0
 40
3.0
 40
3.0
 40
4.0
 40
4.0
 40
4.0
 40
4.0
 10
89.39626598242525
 20
-135.1535074531908
 30
0.0
 10
89.12961559186691
 20
-135.1535074531908
 30
0.0
 10
89.08000621687931
 20
-135.4370388116268
 30
0.0
 10
89.08000621687931
 20
-135.7815483601518
 30
0.0
 10
89.08000621687931
 20
-136.101253221183
 30
0.0
 10
89.11824677676559
 20
-136.4099337766614
 30
0.0
 10
89.39626598242525
 20
-136.4099337766614
 30
0.0
 10
89.66084931569243
 20
-136.4099337766614
 30
0.0
 10
89.7128702575197
 20
-136.1284694755165
 30
0.0
 10
89.7128702575197
 20
-135.7815483601518
 30
0.0
 10
89.7128702575197
 20
-135.4621880086692
 30
0.0
 10
89.67221813079375
 20
-135.1535074531908
 30
0.0
 10
89.39626598242525
 20
-135.1535074531908
 30
0.0
  0
HATCH
  5
AC
330
A4
100
AcDbEntity
  8
_U+30EC_U+30A4_U+30E4_U+30FC 1
 62
     7
420
 16777215
100
AcDbHatch
 10
0.0
 20
0.0
 30
0.0
210
0.0
220
0.0
230
1.0
  2
SOLID
 70
     1
 71
     0
 91
        2
 92
        1
 93
        1
 72
     4
 94
        3
 73
     0
 74
     1
 95
       29
 96
       25
 40
0.0
 40
0.0
 40
0.0
 40
0.0
 40
1.0
 40
1.0
 40
1.0
 40
2.0
 40
2.0
 40
2.0
 40
3.0
 40
3.0
 40
3.0
 40
4.0
 40
4.0
 40
4.0
 40
5.0
 40
5.0
 40
5.0
 40
6.0
 40
6.0
 40
6.0
 40
7.0
 40
7.0
 40
7.0
 40
8.0
 40
8.0
 40
8.0
 40
8.0
 10
89.82139076530507
 20
-136.376171840906
 10
89.7059800665492
 20
-136.5856336464091
 10
89.52063392944277
 20
-136.604581671578
 10
89.39626598242525
 20
-136.604581671578
 10
89.2247002272598
 20
-136.604581671578
 10
89.0731160259088
 20
-136.5580728825271
 10
88.97148570909394
 20
-136.376171840906
 10
88.8605536344689
 20
-136.1815239459893
 10
88.84022757110591
 20
-135.9445013766042
 10
88.84022757110591
 20
-135.7815483601518
 10
88.84022757110591
 20
-135.6378878784169
 10
88.85814206762922
 20
-135.3860513984451
 10
88.97148570909394
 20
-135.1872693889462
 10
89.08655189830128
 20
-134.9840087553165
 10
89.25846216301525
 20
-134.9609266155653
 10
89.39626598242525
 20
-134.9609266155653
 10
89.56610918984806
 20
-134.9609266155653
 10
89.7197604484902
 20
-135.0053683473251
 10
89.82139076530507
 20
-135.1872693889462
 10
89.9278442157993
 20
-135.3798502265717
 10
89.9526489032931
 20
-135.6082600572438
 10
89.9526489032931
 20
-135.7815483601518
 10
89.9526489032931
 20
-135.9531141153173
 10
89.92991127309044
 20
-136.1835910032805
 10
89.82139076530507
 20
-136.376171840906
 97
        0
 97
        0
 92
        1
 93
        1
 72
     4
 94
        3
 73
     0
 74
     1
 95
       17
 96
       13
 40
0.0
 40
0.0
 40
0.0
 40
0.0
 40
1.0
 40
1.0
 40
1.0
 40
2.0
 40
2.0
 40
2.0
 40
3.0
 40
3.0
 40
3.0
 40
4.0
 40
4.0
 40
4.0
 40
4.0
 10
89.39626598242525
 20
-135.1535074531908
 10
89.12961559186691
 20
-135.1535074531908
 10
89.08000621687931
 20
-135.4370388116268
 10
89.08000621687931
 20
-135.7815483601518
 10
89.08000621687931
 20
-136.101253221183
 10
89.11824677676559
 20
-136.4099337766614
 10
89.39626598242525
 20
-136.4099337766614
 10
89.66084931569243
 20
-136.4099337766614
 10
89.7128702575197
 20
-136.1284694755165
 10
89.7128702575197
 20
-135.7815483601518
 10
89.7128702575197
 20
-135.4621880086692
 10
89.67221813079375
 20
-135.1535074531908
 10
89.39626598242525
 20
-135.1535074531908
 97
        0
 97
        0
 75
     2
 76
     1
 98
        0
  0
ENDBLK
  5
A7
330
A4
100
AcDbEntity
  8
0
100
AcDbBlockEnd
  0
BLOCK
  5
BD
330
BB
100
AcDbEntity
  8
0
100
AcDbBlockBegin
  2
block 5
 70
     0
 10
0.0
 20
0.0
 30
0.0
  3
block 5
  1

  0
SPLINE
  5
BF
330
BB
100
AcDbEntity
  8
_U+30EC_U+30A4_U+30E4_U+30FC 1
370
     0
100
AcDbSpline
210
0.0
220
0.0
230
1.0
 70
    11
 71
     3
 72
    26
 73
    22
 74
     0
 42
0.0000000001
 43
0.0000000001
 12
1.0
 22
0.0
 32
0.0
 13
1.0
 23
0.0
 33
0.0
 40
0.0
 40
0.0
 40
0.0
 40
0.0
 40
1.0
 40
1.0
 40
1.0
 40
2.0
 40
2.0
 40
2.0
 40
3.0
 40
3.0
 40
3.0
 40
4.0
 40
4.0
 40
4.0
 40
5.0
 40
5.0
 40
5.0
 40
6.0
 40
6.0
 40
6.0
 40
7.0
 40
7.0
 40
7.0
 40
7.0
 10
87.92693275796618
 20
-120.3702582164352
 30
0.0
 10
87.92693275796618
 20
-120.3702582164352
 30
0.0
 10
87.92693275796618
 20
-119.2659328586384
 30
0.0
 10
87.92693275796618
 20
-119.2659328586384
 30
0.0
 10
87.92693275796618
 20
-119.2659328586384
 30
0.0
 10
87.57449948982513
 20
-119.2659328586384
 30
0.0
 10
87.57449948982513
 20
-119.2659328586384
 30
0.0
 10
87.57449948982513
 20
-119.2659328586384
 30
0.0
 10
87.57449948982513
 20
-119.1179660075469
 30
0.0
 10
87.57449948982513
 20
-119.1179660075469
 30
0.0
 10
87.92934432480587
 20
-119.1031520969603
 30
0.0
 10
87.97895369979346
 20
-118.940199080508
 30
0.0
 10
88.01064857825776
 20
-118.825994165172
 30
0.0
 10
88.01064857825776
 20
-118.825994165172
 30
0.0
 10
88.16671140373957
 20
-118.825994165172
 30
0.0
 10
88.16671140373957
 20
-118.825994165172
 30
0.0
 10
88.16671140373957
 20
-118.825994165172
 30
0.0
 10
88.16671140373957
 20
-120.3702582164352
 30
0.0
 10
88.16671140373957
 20
-120.3702582164352
 30
0.0
 10
88.16671140373957
 20
-120.3702582164352
 30
0.0
 10
87.92693275796618
 20
-120.3702582164352
 30
0.0
 10
87.92693275796618
 20
-120.3702582164352
 30
0.0
  0
HATCH
  5
C0
330
BB
100
AcDbEntity
  8
_U+30EC_U+30A4_U+30E4_U+30FC 1
 62
     7
420
 16777215
100
AcDbHatch
 10
0.0
 20
0.0
 30
0.0
210
0.0
220
0.0
230
1.0
  2
SOLID
 70
     1
 71
     0
 91
        1
 92
        1
 93
        1
 72
     4
 94
        3
 73
     0
 74
     1
 95
       26
 96
       22
 40
0.0
 40
0.0
 40
0.0
 40
0.0
 40
1.0
 40
1.0
 40
1.0
 40
2.0
 40
2.0
 40
2.0
 40
3.0
 40
3.0
 40
3.0
 40
4.0
 40
4.0
 40
4.0
 40
5.0
 40
5.0
 40
5.0
 40
6.0
 40
6.0
 40
6.0
 40
7.0
 40
7.0
 40
7.0
 40
7.0
 10
87.92693275796618
 20
-120.3702582164352
 10
87.92693275796618
 20
-120.3702582164352
 10
87.92693275796618
 20
-119.2659328586384
 10
87.92693275796618
 20
-119.2659328586384
 10
87.92693275796618
 20
-119.2659328586384
 10
87.57449948982513
 20
-119.2659328586384
 10
87.57449948982513
 20
-119.2659328586384
 10
87.57449948982513
 20
-119.2659328586384
 10
87.57449948982513
 20
-119.1179660075469
 10
87.57449948982513
 20
-119.1179660075469
 10
87.92934432480587
 20
-119.1031520969603
 10
87.97895369979346
 20
-118.940199080508
 10
88.01064857825776
 20
-118.825994165172
 10
88.01064857825776
 20
-118.825994165172
 10
88.16671140373957
 20
-118.825994165172
 10
88.16671140373957
 20
-118.825994165172
 10
88.16671140373957
 20
-118.825994165172
 10
88.16671140373957
 20
-120.3702582164352
 10
88.16671140373957
 20
-120.3702582164352
 10
88.16671140373957
 20
-120.3702582164352
 10
87.92693275796618
 20
-120.3702582164352
 10
87.92693275796618
 20
-120.3702582164352
 97
        0
 97
        0
 75
     2
 76
     1
 98
        0
  0
SPLINE
  5
C1
330
BB
100
AcDbEntity
  8
_U+30EC_U+30A4_U+30E4_U+30FC 1
370
     0
100
AcDbSpline
210
0.0
220
0.0
230
1.0
 70
    11
 71
     3
 72
    29
 73
    25
 74
     0
 42
0.0000000001
 43
0.0000000001
 12
1.0
 22
0.0
 32
0.0
 13
1.0
 23
0.0
 33
0.0
 40
0.0
 40
0.0
 40
0.0
 40
0.0
 40
1.0
 40
1.0
 40
1.0
 40
2.0
 40
2.0
 40
2.0
 40
3.0
 40
3.0
 40
3.0
 40
4.0
 40
4.0
 40
4.0
 40
5.0
 40
5.0
 40
5.0
 40
6.0
 40
6.0
 40
6.0
 40
7.0
 40
7.0
 40
7.0
 40
8.0
 40
8.0
 40
8.0
 40
8.0
 10
89.66188284433801
 20
-120.1924912893963
 30
0.0
 10
89.54647214558213
 20
-120.4019530948995
 30
0.0
 10
89.3611260084757
 20
-120.4210733748426
 30
0.0
 10
89.23675806145818
 20
-120.4210733748426
 30
0.0
 10
89.06519230629273
 20
-120.4210733748426
 30
0.0
 10
88.91360810494174
 20
-120.3745645857918
 30
0.0
 10
88.81197778812687
 20
-120.1924912893963
 30
0.0
 10
88.70104571350183
 20
-119.9978433944797
 30
0.0
 10
88.68071965013885
 20
-119.7609930798688
 30
0.0
 10
88.68071965013885
 20
-119.5980400634165
 30
0.0
 10
88.68071965013885
 20
-119.4542073269073
 30
0.0
 10
88.69863414666216
 20
-119.2025431017098
 30
0.0
 10
88.81197778812687
 20
-119.0035888374366
 30
0.0
 10
88.92704397733422
 20
-118.8005004585811
 30
0.0
 10
89.09895424204818
 20
-118.7772460640557
 30
0.0
 10
89.23675806145818
 20
-118.7772460640557
 30
0.0
 10
89.40660126888099
 20
-118.7772460640557
 30
0.0
 10
89.56025252752313
 20
-118.8216877958154
 30
0.0
 10
89.66188284433801
 20
-119.0035888374366
 30
0.0
 10
89.76833629483222
 20
-119.1961696750621
 30
0.0
 10
89.79314098232602
 20
-119.4245795057341
 30
0.0
 10
89.79314098232602
 20
-119.5980400634165
 30
0.0
 10
89.79314098232602
 20
-119.7694335638077
 30
0.0
 10
89.77040335212338
 20
-120.0000827065451
 30
0.0
 10
89.66188284433801
 20
-120.1924912893963
 30
0.0
  0
SPLINE
  5
C2
330
BB
100
AcDbEntity
  8
_U+30EC_U+30A4_U+30E4_U+30FC 1
370
     0
100
AcDbSpline
210
0.0
220
0.0
230
1.0
 70
    11
 71
     3
 72
    17
 73
    13
 74
     0
 42
0.0000000001
 43
0.0000000001
 12
1.0
 22
0.0
 32
0.0
 13
1.0
 23
0.0
 33
0.0
 40
0.0
 40
0.0
 40
0.0
 40
0.0
 40
1.0
 40
1.0
 40
1.0
 40
2.0
 40
2.0
 40
2.0
 40
3.0
 40
3.0
 40
3.0
 40
4.0
 40
4.0
 40
4.0
 40
4.0
 10
89.23675806145818
 20
-118.9698269016812
 30
0.0
 10
88.97010767089984
 20
-118.9698269016812
 30
0.0
 10
88.92049829591224
 20
-119.2533582601172
 30
0.0
 10
88.92049829591224
 20
-119.5980400634165
 30
0.0
 10
88.92049829591224
 20
-119.9175726696734
 30
0.0
 10
88.95873885579852
 20
-120.226425479926
 30
0.0
 10
89.23675806145818
 20
-120.226425479926
 30
0.0
 10
89.50134139472536
 20
-120.226425479926
 30
0.0
 10
89.55336233655264
 20
-119.9449611787811
 30
0.0
 10
89.55336233655264
 20
-119.5980400634165
 30
0.0
 10
89.55336233655264
 20
-119.2786797119338
 30
0.0
 10
89.5127102098267
 20
-118.9698269016812
 30
0.0
 10
89.23675806145818
 20
-118.9698269016812
 30
0.0
  0
HATCH
  5
C3
330
BB
100
AcDbEntity
  8
_U+30EC_U+30A4_U+30E4_U+30FC 1
 62
     7
420
 16777215
100
AcDbHatch
 10
0.0
 20
0.0
 30
0.0
210
0.0
220
0.0
230
1.0
  2
SOLID
 70
     1
 71
     0
 91
        2
 92
        1
 93
        1
 72
     4
 94
        3
 73
     0
 74
     1
 95
       29
 96
       25
 40
0.0
 40
0.0
 40
0.0
 40
0.0
 40
1.0
 40
1.0
 40
1.0
 40
2.0
 40
2.0
 40
2.0
 40
3.0
 40
3.0
 40
3.0
 40
4.0
 40
4.0
 40
4.0
 40
5.0
 40
5.0
 40
5.0
 40
6.0
 40
6.0
 40
6.0
 40
7.0
 40
7.0
 40
7.0
 40
8.0
 40
8.0
 40
8.0
 40
8.0
 10
89.66188284433801
 20
-120.1924912893963
 10
89.54647214558213
 20
-120.4019530948995
 10
89.3611260084757
 20
-120.4210733748426
 10
89.23675806145818
 20
-120.4210733748426
 10
89.06519230629273
 20
-120.4210733748426
 10
88.91360810494174
 20
-120.3745645857918
 10
88.81197778812687
 20
-120.1924912893963
 10
88.70104571350183
 20
-119.9978433944797
 10
88.68071965013885
 20
-119.7609930798688
 10
88.68071965013885
 20
-119.5980400634165
 10
88.68071965013885
 20
-119.4542073269073
 10
88.69863414666216
 20
-119.2025431017098
 10
88.81197778812687
 20
-119.0035888374366
 10
88.92704397733422
 20
-118.8005004585811
 10
89.09895424204818
 20
-118.7772460640557
 10
89.23675806145818
 20
-118.7772460640557
 10
89.40660126888099
 20
-118.7772460640557
 10
89.56025252752313
 20
-118.8216877958154
 10
89.66188284433801
 20
-119.0035888374366
 10
89.76833629483222
 20
-119.1961696750621
 10
89.79314098232602
 20
-119.4245795057341
 10
89.79314098232602
 20
-119.5980400634165
 10
89.79314098232602
 20
-119.7694335638077
 10
89.77040335212338
 20
-120.0000827065451
 10
89.66188284433801
 20
-120.1924912893963
 97
        0
 97
        0
 92
        1
 93
        1
 72
     4
 94
        3
 73
     0
 74
     1
 95
       17
 96
       13
 40
0.0
 40
0.0
 40
0.0
 40
0.0
 40
1.0
 40
1.0
 40
1.0
 40
2.0
 40
2.0
 40
2.0
 40
3.0
 40
3.0
 40
3.0
 40
4.0
 40
4.0
 40
4.0
 40
4.0
 10
89.23675806145818
 20
-118.9698269016812
 10
88.97010767089984
 20
-118.9698269016812
 10
88.92049829591224
 20
-119.2533582601172
 10
88.92049829591224
 20
-119.5980400634165
 10
88.92049829591224
 20
-119.9175726696734
 10
88.95873885579852
 20
-120.226425479926
 10
89.23675806145818
 20
-120.226425479926
 10
89.50134139472536
 20
-120.226425479926
 10
89.55336233655264
 20
-119.9449611787811
 10
89.55336233655264
 20
-119.5980400634165
 10
89.55336233655264
 20
-119.2786797119338
 10
89.5127102098267
 20
-118.9698269016812
 10
89.23675806145818
 20
-118.9698269016812
 97
        0
 97
        0
 75
     2
 76
     1
 98
        0
  0
ENDBLK
  5
BE
330
BB
100
AcDbEntity
  8
0
100
AcDbBlockEnd
  0
ENDSEC
  0
SECTION
  2
ENTITIES
  0
POLYLINE
  5
41
330
1F
100
AcDbEntity
  8
_U+30EC_U+30A4_U+30E4_U+30FC 1
370
     0
100
AcDb2dPolyline
 66
     1
 10
0.0
 20
0.0
 30
0.0
  0
VERTEX
  5
42
330
41
100
AcDbEntity
  8
_U+30EC_U+30A4_U+30E4_U+30FC 1
370
     0
100
AcDbVertex
100
AcDb2dVertex
 10
82.56689594909855
 20
-132.8211860779059
 30
0.0
  0
VERTEX
  5
43
330
41
100
AcDbEntity
  8
_U+30EC_U+30A4_U+30E4_U+30FC 1
370
     0
100
AcDbVertex
100
AcDb2dVertex
 10
82.61924816998516
 20
-132.8036177445767
 30
0.0
  0
VERTEX
  5
44
330
41
100
AcDbEntity
  8
_U+30EC_U+30A4_U+30E4_U+30FC 1
370
     0
100
AcDbVertex
100
AcDb2dVertex
 10
82.61924816998516
 20
-122.8211002470726
 30
0.0
  0
VERTEX
  5
45
330
41
100
AcDbEntity
  8
_U+30EC_U+30A4_U+30E4_U+30FC 1
370
     0
100
AcDbVertex
100
AcDb2dVertex
 10
82.61924816998516
 20
-122.664678580445
 30
0.0
  0
VERTEX
  5
46
330
41
100
AcDbEntity
  8
_U+30EC_U+30A4_U+30E4_U+30FC 1
370
     0
100
AcDbVertex
100
AcDb2dVertex
 10
83.61902036670106
 20
-122.664678580445
 30
0.0
  0
VERTEX
  5
47
330
41
100
AcDbEntity
  8
_U+30EC_U+30A4_U+30E4_U+30FC 1
370
     0
100
AcDbVertex
100
AcDb2dVertex
 10
83.61902036670106
 20
-122.7980285804115
 30
0.0
  0
VERTEX
  5
48
330
41
100
AcDbEntity
  8
_U+30EC_U+30A4_U+30E4_U+30FC 1
370
     0
100
AcDbVertex
100
AcDb2dVertex
 10
83.61902036670106
 20
-132.7984319112448
 30
0.0
  0
VERTEX
  5
49
330
41
100
AcDbEntity
  8
_U+30EC_U+30A4_U+30E4_U+30FC 1
370
     0
100
AcDbVertex
100
AcDb2dVertex
 10
83.71342369762597
 20
-132.8211860779059
 30
0.0
  0
VERTEX
  5
4A
330
41
100
AcDbEntity
  8
_U+30EC_U+30A4_U+30E4_U+30FC 1
370
     0
100
AcDbVertex
100
AcDb2dVertex
 10
93.82682149516725
 20
-132.8211860779059
 30
0.0
  0
VERTEX
  5
4B
330
41
100
AcDbEntity
  8
_U+30EC_U+30A4_U+30E4_U+30FC 1
370
     0
100
AcDbVertex
100
AcDb2dVertex
 10
93.8275270507048
 20
-132.8036177445767
 30
0.0
  0
VERTEX
  5
4C
330
41
100
AcDbEntity
  8
_U+30EC_U+30A4_U+30E4_U+30FC 1
370
     0
100
AcDbVertex
100
AcDb2dVertex
 10
93.8275270507048
 20
-122.8211002470726
 30
0.0
  0
VERTEX
  5
4D
330
41
100
AcDbEntity
  8
_U+30EC_U+30A4_U+30E4_U+30FC 1
370
     0
100
AcDbVertex
100
AcDb2dVertex
 10
93.8275270507048
 20
-122.664678580445
 30
0.0
  0
VERTEX
  5
4E
330
41
100
AcDbEntity
  8
_U+30EC_U+30A4_U+30E4_U+30FC 1
370
     0
100
AcDbVertex
100
AcDb2dVertex
 10
94.82796952518139
 20
-122.664678580445
 30
0.0
  0
VERTEX
  5
4F
330
41
100
AcDbEntity
  8
_U+30EC_U+30A4_U+30E4_U+30FC 1
370
     0
100
AcDbVertex
100
AcDb2dVertex
 10
94.82796952518139
 20
-122.7980285804115
 30
0.0
  0
VERTEX
  5
50
330
41
100
AcDbEntity
  8
_U+30EC_U+30A4_U+30E4_U+30FC 1
370
     0
100
AcDbVertex
100
AcDb2dVertex
 10
94.82796952518139
 20
-132.7984319112448
 30
0.0
  0
VERTEX
  5
51
330
41
100
AcDbEntity
  8
_U+30EC_U+30A4_U+30E4_U+30FC 1
370
     0
100
AcDbVertex
100
AcDb2dVertex
 10
94.79696035930583
 20
-132.8211860779059
 30
0.0
  0
VERTEX
  5
52
330
41
100
AcDbEntity
  8
_U+30EC_U+30A4_U+30E4_U+30FC 1
370
     0
100
AcDbVertex
100
AcDb2dVertex
 10
95.4432845094834
 20
-132.8211860779059
 30
0.0
  0
VERTEX
  5
53
330
41
100
AcDbEntity
  8
_U+30EC_U+30A4_U+30E4_U+30FC 1
370
     0
100
AcDbVertex
100
AcDb2dVertex
 10
103.7679931859913
 20
-132.8211860779059
 30
0.0
  0
VERTEX
  5
54
330
41
100
AcDbEntity
  8
_U+30EC_U+30A4_U+30E4_U+30FC 1
370
     0
100
AcDbVertex
100
AcDb2dVertex
 10
103.7679931859913
 20
-133.8209582998778
 30
0.0
  0
VERTEX
  5
55
330
41
100
AcDbEntity
  8
_U+30EC_U+30A4_U+30E4_U+30FC 1
370
     0
100
AcDbVertex
100
AcDb2dVertex
 10
73.76808922913037
 20
-133.8209582998778
 30
0.0
  0
VERTEX
  5
56
330
41
100
AcDbEntity
  8
_U+30EC_U+30A4_U+30E4_U+30FC 1
370
     0
100
AcDbVertex
100
AcDb2dVertex
 10
73.76808922913037
 20
-132.8211860779059
 30
0.0
  0
VERTEX
  5
57
330
41
100
AcDbEntity
  8
_U+30EC_U+30A4_U+30E4_U+30FC 1
370
     0
100
AcDbVertex
100
AcDb2dVertex
 10
81.4795995879489
 20
-132.8211860779059
 30
0.0
  0
VERTEX
  5
58
330
41
100
AcDbEntity
  8
_U+30EC_U+30A4_U+30E4_U+30FC 1
370
     0
100
AcDbVertex
100
AcDb2dVertex
 10
82.56689594909855
 20
-132.8211860779059
 30
0.0
  0
SEQEND
  5
5A
330
41
100
AcDbEntity
  8
_U+30EC_U+30A4_U+30E4_U+30FC 1
370
     0
  0
HATCH
  5
59
330
1F
100
AcDbEntity
  8
_U+30EC_U+30A4_U+30E4_U+30FC 1
 62
   253
420
 11711154
100
AcDbHatch
 10
0.0
 20
0.0
 30
0.0
210
0.0
220
0.0
230
1.0
  2
SOLID
 70
     1
 71
     0
 91
        1
 92
        1
 93
       22
 72
     1
 10
82.56689594909855
 20
-132.8211860779059
 11
82.61924816998516
 21
-132.8036177445767
 72
     1
 10
82.61924816998516
 20
-132.8036177445767
 11
82.61924816998516
 21
-122.8211002470726
 72
     1
 10
82.61924816998516
 20
-122.8211002470726
 11
82.61924816998516
 21
-122.664678580445
 72
     1
 10
82.61924816998516
 20
-122.664678580445
 11
83.61902036670106
 21
-122.664678580445
 72
     1
 10
83.61902036670106
 20
-122.664678580445
 11
83.61902036670106
 21
-122.7980285804115
 72
     1
 10
83.61902036670106
 20
-122.7980285804115
 11
83.61902036670106
 21
-132.7984319112448
 72
     1
 10
83.61902036670106
 20
-132.7984319112448
 11
83.71342369762597
 21
-132.8211860779059
 72
     1
 10
83.71342369762597
 20
-132.8211860779059
 11
93.82682149516725
 21
-132.8211860779059
 72
     1
 10
93.82682149516725
 20
-132.8211860779059
 11
93.8275270507048
 21
-132.8036177445767
 72
     1
 10
93.8275270507048
 20
-132.8036177445767
 11
93.8275270507048
 21
-122.8211002470726
 72
     1
 10
93.8275270507048
 20
-122.8211002470726
 11
93.8275270507048
 21
-122.664678580445
 72
     1
 10
93.8275270507048
 20
-122.664678580445
 11
94.82796952518139
 21
-122.664678580445
 72
     1
 10
94.82796952518139
 20
-122.664678580445
 11
94.82796952518139
 21
-122.7980285804115
 72
     1
 10
94.82796952518139
 20
-122.7980285804115
 11
94.82796952518139
 21
-132.7984319112448
 72
     1
 10
94.82796952518139
 20
-132.7984319112448
 11
94.79696035930583
 21
-132.8211860779059
 72
     1
 10
94.79696035930583
 20
-132.8211860779059
 11
95.44328450948339
 21
-132.8211860779059
 72
     1
 10
95.4432845094834
 20
-132.8211860779059
 11
103.7679931859913
 21
-132.8211860779059
 72
     1
 10
103.7679931859913
 20
-132.8211860779059
 11
103.7679931859913
 21
-133.8209582998778
 72
     1
 10
103.7679931859913
 20
-133.8209582998778
 11
73.76808922913037
 21
-133.8209582998778
 72
     1
 10
73.76808922913037
 20
-133.8209582998778
 11
73.76808922913037
 21
-132.8211860779059
 72
     1
 10
73.76808922913037
 20
-132.8211860779059
 11
81.47959958794891
 21
-132.8211860779059
 72
     1
 10
81.4795995879489
 20
-132.8211860779059
 11
82.56689594909855
 21
-132.8211860779059
 97
        0
 75
     2
 76
     1
 98
        0
  0
SPLINE
  5
5B
330
1F
100
AcDbEntity
  8
_U+30EC_U+30A4_U+30E4_U+30FC 1
 62
     7
420
 16777215
370
     9
100
AcDbSpline
210
0.0
220
0.0
230
1.0
 70
    11
 71
     3
 72
    17
 73
    13
 74
     0
 42
0.0000000001
 43
0.0000000001
 12
1.0
 22
0.0
 32
0.0
 13
1.0
 23
0.0
 33
0.0
 40
0.0
 40
0.0
 40
0.0
 40
0.0
 40
1.0
 40
1.0
 40
1.0
 40
2.0
 40
2.0
 40
2.0
 40
3.0
 40
3.0
 40
3.0
 40
4.0
 40
4.0
 40
4.0
 40
4.0
 10
106.8148289415933
 20
-122.9420324692643
 30
0.0
 10
106.8148289415933
 20
-122.9971363581396
 30
0.0
 10
106.8596317182281
 20
-123.0419391359063
 30
0.0
 10
106.9147356057112
 20
-123.0419391359063
 30
0.0
 10
106.9698747709711
 20
-123.0419391359063
 30
0.0
 10
107.014642269829
 20
-122.9971363581396
 30
0.0
 10
107.014642269829
 20
-122.9420324692643
 30
0.0
 10
107.014642269829
 20
-122.8862230248339
 30
0.0
 10
106.9698747709711
 20
-122.8421258026227
 30
0.0
 10
106.9147356057112
 20
-122.8421258026227
 30
0.0
 10
106.8596317182281
 20
-122.8421258026227
 30
0.0
 10
106.8148289415933
 20
-122.8862230248339
 30
0.0
 10
106.8148289415933
 20
-122.9420324692643
 30
0.0
  0
SPLINE
  5
5C
330
1F
100
AcDbEntity
  8
_U+30EC_U+30A4_U+30E4_U+30FC 1
 62
     7
420
 16777215
370
     9
100
AcDbSpline
210
0.0
220
0.0
230
1.0
 70
    11
 71
     3
 72
    17
 73
    13
 74
     0
 42
0.0000000001
 43
0.0000000001
 12
1.0
 22
0.0
 32
0.0
 13
1.0
 23
0.0
 33
0.0
 40
0.0
 40
0.0
 40
0.0
 40
0.0
 40
1.0
 40
1.0
 40
1.0
 40
2.0
 40
2.0
 40
2.0
 40
3.0
 40
3.0
 40
3.0
 40
4.0
 40
4.0
 40
4.0
 40
4.0
 10
106.8148289415933
 20
-133.9584005220658
 30
0.0
 10
106.8148289415933
 20
-134.0135396887189
 30
0.0
 10
106.8596317182281
 20
-134.0583071887074
 30
0.0
 10
106.9147356057112
 20
-134.0583071887074
 30
0.0
 10
106.9698747709711
 20
-134.0583071887074
 30
0.0
 10
107.014642269829
 20
-134.0135396887189
 30
0.0
 10
107.014642269829
 20
-133.9584005220658
 30
0.0
 10
107.014642269829
 20
-133.9029438554131
 30
0.0
 10
106.9698747709711
 20
-133.8581410776464
 30
0.0
 10
106.9147356057112
 20
-133.8581410776464
 30
0.0
 10
106.8596317182281
 20
-133.8581410776464
 30
0.0
 10
106.8148289415933
 20
-133.9029438554131
 30
0.0
 10
106.8148289415933
 20
-133.9584005220658
 30
0.0
  0
POLYLINE
  5
5D
330
1F
100
AcDbEntity
  8
_U+30EC_U+30A4_U+30E4_U+30FC 1
 62
     7
420
 16777215
370
     9
100
AcDb2dPolyline
 66
     1
 10
0.0
 20
0.0
 30
0.0
  0
VERTEX
  5
5E
330
5D
100
AcDbEntity
  8
_U+30EC_U+30A4_U+30E4_U+30FC 1
 62
     7
420
 16777215
370
     9
100
AcDbVertex
100
AcDb2dVertex
 10
106.9147356057112
 20
-122.9585424692603
 30
0.0
  0
VERTEX
  5
5F
330
5D
100
AcDbEntity
  8
_U+30EC_U+30A4_U+30E4_U+30FC 1
 62
     7
420
 16777215
370
     9
100
AcDbVertex
100
AcDb2dVertex
 10
106.9147356057112
 20
-133.9584005220658
 30
0.0
  0
SEQEND
  5
60
330
5D
100
AcDbEntity
  8
_U+30EC_U+30A4_U+30E4_U+30FC 1
 62
     7
420
 16777215
370
     9
  0
POLYLINE
  5
61
330
1F
100
AcDbEntity
  8
_U+30EC_U+30A4_U+30E4_U+30FC 1
 62
     7
420
 16777215
370
     9
100
AcDb2dPolyline
 66
     1
 10
0.0
 20
0.0
 30
0.0
  0
VERTEX
  5
62
330
61
100
AcDbEntity
  8
_U+30EC_U+30A4_U+30E4_U+30FC 1
 62
     7
420
 16777215
370
     9
100
AcDbVertex
100
AcDb2dVertex
 10
105.9187734088981
 20
-122.9420324692643
 30
0.0
  0
VERTEX
  5
63
330
61
100
AcDbEntity
  8
_U+30EC_U+30A4_U+30E4_U+30FC 1
 62
     7
420
 16777215
370
     9
100
AcDbVertex
100
AcDb2dVertex
 10
107.9152133579646
 20
-122.9420324692643
 30
0.0
  0
SEQEND
  5
64
330
61
100
AcDbEntity
  8
_U+30EC_U+30A4_U+30E4_U+30FC 1
 62
     7
420
 16777215
370
     9
  0
POLYLINE
  5
65
330
1F
100
AcDbEntity
  8
_U+30EC_U+30A4_U+30E4_U+30FC 1
 62
     7
420
 16777215
370
     9
100
AcDb2dPolyline
 66
     1
 10
0.0
 20
0.0
 30
0.0
  0
VERTEX
  5
66
330
65
100
AcDbEntity
  8
_U+30EC_U+30A4_U+30E4_U+30FC 1
 62
     7
420
 16777215
370
     9
100
AcDbVertex
100
AcDb2dVertex
 10
105.9456550748789
 20
-133.9584005220658
 30
0.0
  0
VERTEX
  5
67
330
65
100
AcDbEntity
  8
_U+30EC_U+30A4_U+30E4_U+30FC 1
 62
     7
420
 16777215
370
     9
100
AcDbVertex
100
AcDb2dVertex
 10
107.9152133579646
 20
-133.9584005220658
 30
0.0
  0
SEQEND
  5
68
330
65
100
AcDbEntity
  8
_U+30EC_U+30A4_U+30E4_U+30FC 1
 62
     7
420
 16777215
370
     9
  0
SPLINE
  5
69
330
1F
100
AcDbEntity
  8
_U+30EC_U+30A4_U+30E4_U+30FC 1
 62
     7
420
 16777215
370
     9
100
AcDbSpline
210
0.0
220
0.0
230
1.0
 70
    11
 71
     3
 72
    17
 73
    13
 74
     0
 42
0.0000000001
 43
0.0000000001
 12
1.0
 22
0.0
 32
0.0
 13
1.0
 23
0.0
 33
0.0
 40
0.0
 40
0.0
 40
0.0
 40
0.0
 40
1.0
 40
1.0
 40
1.0
 40
2.0
 40
2.0
 40
2.0
 40
3.0
 40
3.0
 40
3.0
 40
4.0
 40
4.0
 40
4.0
 40
4.0
 10
106.8148289415933
 20
-132.7529588557007
 30
0.0
 10
106.8148289415933
 20
-132.8080980223538
 30
0.0
 10
106.8596317182281
 20
-132.8528655223423
 30
0.0
 10
106.9147356057112
 20
-132.8528655223423
 30
0.0
 10
106.9698747709711
 20
-132.8528655223423
 30
0.0
 10
107.014642269829
 20
-132.8080980223538
 30
0.0
 10
107.014642269829
 20
-132.7529588557007
 30
0.0
 10
107.014642269829
 20
-132.6978549668258
 30
0.0
 10
106.9698747709711
 20
-132.6530521890591
 30
0.0
 10
106.9147356057112
 20
-132.6530521890591
 30
0.0
 10
106.8596317182281
 20
-132.6530521890591
 30
0.0
 10
106.8148289415933
 20
-132.6978549668258
 30
0.0
 10
106.8148289415933
 20
-132.7529588557007
 30
0.0
  0
POLYLINE
  5
6A
330
1F
100
AcDbEntity
  8
_U+30EC_U+30A4_U+30E4_U+30FC 1
 62
     7
420
 16777215
370
     9
100
AcDb2dPolyline
 66
     1
 10
0.0
 20
0.0
 30
0.0
  0
VERTEX
  5
6B
330
6A
100
AcDbEntity
  8
_U+30EC_U+30A4_U+30E4_U+30FC 1
 62
     7
420
 16777215
370
     9
100
AcDbVertex
100
AcDb2dVertex
 10
105.9456550748789
 20
-132.7529588557007
 30
0.0
  0
VERTEX
  5
6C
330
6A
100
AcDbEntity
  8
_U+30EC_U+30A4_U+30E4_U+30FC 1
 62
     7
420
 16777215
370
     9
100
AcDbVertex
100
AcDb2dVertex
 10
107.9152133579646
 20
-132.7529588557007
 30
0.0
  0
SEQEND
  5
6D
330
6A
100
AcDbEntity
  8
_U+30EC_U+30A4_U+30E4_U+30FC 1
 62
     7
420
 16777215
370
     9
  0
INSERT
  5
6F
330
1F
100
AcDbEntity
  8
_U+30EC_U+30A4_U+30E4_U+30FC 1
100
AcDbBlockReference
  2
block 2
 10
0.0
 20
0.0
 30
0.0
  0
INSERT
  5
75
330
1F
100
AcDbEntity
  8
_U+30EC_U+30A4_U+30E4_U+30FC 1
100
AcDbBlockReference
  2
block 3
 10
0.0
 20
0.0
 30
0.0
  0
POLYLINE
  5
7D
330
1F
100
AcDbEntity
  8
_U+30EC_U+30A4_U+30E4_U+30FC 1
 62
     7
420
 16777215
370
    25
100
AcDb2dPolyline
 66
     1
 10
0.0
 20
0.0
 30
0.0
  0
VERTEX
  5
7E
330
7D
100
AcDbEntity
  8
_U+30EC_U+30A4_U+30E4_U+30FC 1
 62
     7
420
 16777215
370
    25
100
AcDbVertex
100
AcDb2dVertex
 10
82.56689594909855
 20
-132.8211860779059
 30
0.0
  0
VERTEX
  5
7F
330
7D
100
AcDbEntity
  8
_U+30EC_U+30A4_U+30E4_U+30FC 1
 62
     7
420
 16777215
370
    25
100
AcDbVertex
100
AcDb2dVertex
 10
82.61924816998516
 20
-132.8036177445767
 30
0.0
  0
VERTEX
  5
80
330
7D
100
AcDbEntity
  8
_U+30EC_U+30A4_U+30E4_U+30FC 1
 62
     7
420
 16777215
370
    25
100
AcDbVertex
100
AcDb2dVertex
 10
82.61924816998516
 20
-122.8211002470726
 30
0.0
  0
VERTEX
  5
81
330
7D
100
AcDbEntity
  8
_U+30EC_U+30A4_U+30E4_U+30FC 1
 62
     7
420
 16777215
370
    25
100
AcDbVertex
100
AcDb2dVertex
 10
82.61924816998516
 20
-122.664678580445
 30
0.0
  0
VERTEX
  5
82
330
7D
100
AcDbEntity
  8
_U+30EC_U+30A4_U+30E4_U+30FC 1
 62
     7
420
 16777215
370
    25
100
AcDbVertex
100
AcDb2dVertex
 10
83.61902036670106
 20
-122.664678580445
 30
0.0
  0
VERTEX
  5
83
330
7D
100
AcDbEntity
  8
_U+30EC_U+30A4_U+30E4_U+30FC 1
 62
     7
420
 16777215
370
    25
100
AcDbVertex
100
AcDb2dVertex
 10
83.61902036670106
 20
-122.7980285804115
 30
0.0
  0
VERTEX
  5
84
330
7D
100
AcDbEntity
  8
_U+30EC_U+30A4_U+30E4_U+30FC 1
 62
     7
420
 16777215
370
    25
100
AcDbVertex
100
AcDb2dVertex
 10
83.61902036670106
 20
-132.7984319112448
 30
0.0
  0
VERTEX
  5
85
330
7D
100
AcDbEntity
  8
_U+30EC_U+30A4_U+30E4_U+30FC 1
 62
     7
420
 16777215
370
    25
100
AcDbVertex
100
AcDb2dVertex
 10
83.71342369762597
 20
-132.8211860779059
 30
0.0
  0
VERTEX
  5
86
330
7D
100
AcDbEntity
  8
_U+30EC_U+30A4_U+30E4_U+30FC 1
 62
     7
420
 16777215
370
    25
100
AcDbVertex
100
AcDb2dVertex
 10
93.82682149516725
 20
-132.8211860779059
 30
0.0
  0
VERTEX
  5
87
330
7D
100
AcDbEntity
  8
_U+30EC_U+30A4_U+30E4_U+30FC 1
 62
     7
420
 16777215
370
    25
100
AcDbVertex
100
AcDb2dVertex
 10
93.8275270507048
 20
-132.8036177445767
 30
0.0
  0
VERTEX
  5
88
330
7D
100
AcDbEntity
  8
_U+30EC_U+30A4_U+30E4_U+30FC 1
 62
     7
420
 16777215
370
    25
100
AcDbVertex
100
AcDb2dVertex
 10
93.8275270507048
 20
-122.8211002470726
 30
0.0
  0
VERTEX
  5
89
330
7D
100
AcDbEntity
  8
_U+30EC_U+30A4_U+30E4_U+30FC 1
 62
     7
420
 16777215
370
    25
100
AcDbVertex
100
AcDb2dVertex
 10
93.8275270507048
 20
-122.664678580445
 30
0.0
  0
VERTEX
  5
8A
330
7D
100
AcDbEntity
  8
_U+30EC_U+30A4_U+30E4_U+30FC 1
 62
     7
420
 16777215
370
    25
100
AcDbVertex
100
AcDb2dVertex
 10
94.82796952518139
 20
-122.664678580445
 30
0.0
  0
VERTEX
  5
8B
330
7D
100
AcDbEntity
  8
_U+30EC_U+30A4_U+30E4_U+30FC 1
 62
     7
420
 16777215
370
    25
100
AcDbVertex
100
AcDb2dVertex
 10
94.82796952518139
 20
-122.7980285804115
 30
0.0
  0
VERTEX
  5
8C
330
7D
100
AcDbEntity
  8
_U+30EC_U+30A4_U+30E4_U+30FC 1
 62
     7
420
 16777215
370
    25
100
AcDbVertex
100
AcDb2dVertex
 10
94.82796952518139
 20
-132.7984319112448
 30
0.0
  0
VERTEX
  5
8D
330
7D
100
AcDbEntity
  8
_U+30EC_U+30A4_U+30E4_U+30FC 1
 62
     7
420
 16777215
370
    25
100
AcDbVertex
100
AcDb2dVertex
 10
94.79696035930583
 20
-132.8211860779059
 30
0.0
  0
VERTEX
  5
8E
330
7D
100
AcDbEntity
  8
_U+30EC_U+30A4_U+30E4_U+30FC 1
 62
     7
420
 16777215
370
    25
100
AcDbVertex
100
AcDb2dVertex
 10
95.4432845094834
 20
-132.8211860779059
 30
0.0
  0
VERTEX
  5
8F
330
7D
100
AcDbEntity
  8
_U+30EC_U+30A4_U+30E4_U+30FC 1
 62
     7
420
 16777215
370
    25
100
AcDbVertex
100
AcDb2dVertex
 10
103.7679931859913
 20
-132.8211860779059
 30
0.0
  0
VERTEX
  5
90
330
7D
100
AcDbEntity
  8
_U+30EC_U+30A4_U+30E4_U+30FC 1
 62
     7
420
 16777215
370
    25
100
AcDbVertex
100
AcDb2dVertex
 10
103.7679931859913
 20
-133.8209582998778
 30
0.0
  0
VERTEX
  5
91
330
7D
100
AcDbEntity
  8
_U+30EC_U+30A4_U+30E4_U+30FC 1
 62
     7
420
 16777215
370
    25
100
AcDbVertex
100
AcDb2dVertex
 10
73.76808922913037
 20
-133.8209582998778
 30
0.0
  0
VERTEX
  5
92
330
7D
100
AcDbEntity
  8
_U+30EC_U+30A4_U+30E4_U+30FC 1
 62
     7
420
 16777215
370
    25
100
AcDbVertex
100
AcDb2dVertex
 10
73.76808922913037
 20
-132.8211860779059
 30
0.0
  0
VERTEX
  5
93
330
7D
100
AcDbEntity
  8
_U+30EC_U+30A4_U+30E4_U+30FC 1
 62
     7
420
 16777215
370
    25
100
AcDbVertex
100
AcDb2dVertex
 10
81.4795995879489
 20
-132.8211860779059
 30
0.0
  0
VERTEX
  5
94
330
7D
100
AcDbEntity
  8
_U+30EC_U+30A4_U+30E4_U+30FC 1
 62
     7
420
 16777215
370
    25
100
AcDbVertex
100
AcDb2dVertex
 10
82.56689594909855
 20
-132.8211860779059
 30
0.0
  0
SEQEND
  5
95
330
7D
100
AcDbEntity
  8
_U+30EC_U+30A4_U+30E4_U+30FC 1
 62
     7
420
 16777215
370
    25
  0
SPLINE
  5
96
330
1F
100
AcDbEntity
  8
_U+30EC_U+30A4_U+30E4_U+30FC 1
 62
     7
420
 16777215
370
     9
100
AcDbSpline
210
0.0
220
0.0
230
1.0
 70
    11
 71
     3
 72
    17
 73
    13
 74
     0
 42
0.0000000001
 43
0.0000000001
 12
1.0
 22
0.0
 32
0.0
 13
1.0
 23
0.0
 33
0.0
 40
0.0
 40
0.0
 40
0.0
 40
0.0
 40
1.0
 40
1.0
 40
1.0
 40
2.0
 40
2.0
 40
2.0
 40
3.0
 40
3.0
 40
3.0
 40
4.0
 40
4.0
 40
4.0
 40
4.0
 10
73.83081311641904
 20
-137.2674207990163
 30
0.0
 10
73.83081311641904
 20
-137.2122816323639
 30
0.0
 10
73.78601033978427
 20
-137.1675141323747
 30
0.0
 10
73.73090831490069
 20
-137.1675141323747
 30
0.0
 10
73.67576728704125
 20
-137.1675141323747
 30
0.0
 10
73.63099978818336
 20
-137.2122816323639
 30
0.0
 10
73.63099978818336
 20
-137.2674207990163
 30
0.0
 10
73.63099978818336
 20
-137.3225246878918
 30
0.0
 10
73.67576728704125
 20
-137.3673274656579
 30
0.0
 10
73.73090831490069
 20
-137.3673274656579
 30
0.0
 10
73.78601033978427
 20
-137.3673274656579
 30
0.0
 10
73.83081311641904
 20
-137.3225246878918
 30
0.0
 10
73.83081311641904
 20
-137.2674207990163
 30
0.0
  0
POLYLINE
  5
97
330
1F
100
AcDbEntity
  8
_U+30EC_U+30A4_U+30E4_U+30FC 1
 62
     7
420
 16777215
370
     9
100
AcDb2dPolyline
 66
     1
 10
0.0
 20
0.0
 30
0.0
  0
VERTEX
  5
98
330
97
100
AcDbEntity
  8
_U+30EC_U+30A4_U+30E4_U+30FC 1
 62
     7
420
 16777215
370
     9
100
AcDbVertex
100
AcDb2dVertex
 10
73.73090831490069
 20
-137.2674207990163
 30
0.0
  0
VERTEX
  5
99
330
97
100
AcDbEntity
  8
_U+30EC_U+30A4_U+30E4_U+30FC 1
 62
     7
420
 16777215
370
     9
100
AcDbVertex
100
AcDb2dVertex
 10
103.7307777518454
 20
-137.2674207990163
 30
0.0
  0
SEQEND
  5
9A
330
97
100
AcDbEntity
  8
_U+30EC_U+30A4_U+30E4_U+30FC 1
 62
     7
420
 16777215
370
     9
  0
POLYLINE
  5
9B
330
1F
100
AcDbEntity
  8
_U+30EC_U+30A4_U+30E4_U+30FC 1
 62
     7
420
 16777215
370
     9
100
AcDb2dPolyline
 66
     1
 10
0.0
 20
0.0
 30
0.0
  0
VERTEX
  5
9C
330
9B
100
AcDbEntity
  8
_U+30EC_U+30A4_U+30E4_U+30FC 1
 62
     7
420
 16777215
370
     9
100
AcDbVertex
100
AcDb2dVertex
 10
73.73090831490069
 20
-135.007420521804
 30
0.0
  0
VERTEX
  5
9D
330
9B
100
AcDbEntity
  8
_U+30EC_U+30A4_U+30E4_U+30FC 1
 62
     7
420
 16777215
370
     9
100
AcDbVertex
100
AcDb2dVertex
 10
73.73090831490069
 20
-138.2678632987662
 30
0.0
  0
SEQEND
  5
9E
330
9B
100
AcDbEntity
  8
_U+30EC_U+30A4_U+30E4_U+30FC 1
 62
     7
420
 16777215
370
     9
  0
SPLINE
  5
9F
330
1F
100
AcDbEntity
  8
_U+30EC_U+30A4_U+30E4_U+30FC 1
 62
     7
420
 16777215
370
     9
100
AcDbSpline
210
0.0
220
0.0
230
1.0
 70
    11
 71
     3
 72
    17
 73
    13
 74
     0
 42
0.0000000001
 43
0.0000000001
 12
1.0
 22
0.0
 32
0.0
 13
1.0
 23
0.0
 33
0.0
 40
0.0
 40
0.0
 40
0.0
 40
0.0
 40
1.0
 40
1.0
 40
1.0
 40
2.0
 40
2.0
 40
2.0
 40
3.0
 40
3.0
 40
3.0
 40
4.0
 40
4.0
 40
4.0
 40
4.0
 10
103.8238026290119
 20
-137.2674207990163
 30
0.0
 10
103.8238026290119
 20
-137.2122816323639
 30
0.0
 10
103.779035130154
 20
-137.1675141323747
 30
0.0
 10
103.7238959648941
 20
-137.1675141323747
 30
0.0
 10
103.668792077411
 20
-137.1675141323747
 30
0.0
 10
103.6239893007762
 20
-137.2122816323639
 30
0.0
 10
103.6239893007762
 20
-137.2674207990163
 30
0.0
 10
103.6239893007762
 20
-137.3225246878918
 30
0.0
 10
103.668792077411
 20
-137.3673274656579
 30
0.0
 10
103.7238959648941
 20
-137.3673274656579
 30
0.0
 10
103.779035130154
 20
-137.3673274656579
 30
0.0
 10
103.8238026290119
 20
-137.3225246878918
 30
0.0
 10
103.8238026290119
 20
-137.2674207990163
 30
0.0
  0
POLYLINE
  5
A0
330
1F
100
AcDbEntity
  8
_U+30EC_U+30A4_U+30E4_U+30FC 1
 62
     7
420
 16777215
370
     9
100
AcDb2dPolyline
 66
     1
 10
0.0
 20
0.0
 30
0.0
  0
VERTEX
  5
A1
330
A0
100
AcDbEntity
  8
_U+30EC_U+30A4_U+30E4_U+30FC 1
 62
     7
420
 16777215
370
     9
100
AcDbVertex
100
AcDb2dVertex
 10
103.7238959648941
 20
-135.2072338550872
 30
0.0
  0
VERTEX
  5
A2
330
A0
100
AcDbEntity
  8
_U+30EC_U+30A4_U+30E4_U+30FC 1
 62
     7
420
 16777215
370
     9
100
AcDbVertex
100
AcDb2dVertex
 10
103.7238959648941
 20
-138.2678632987662
 30
0.0
  0
SEQEND
  5
A3
330
A0
100
AcDbEntity
  8
_U+30EC_U+30A4_U+30E4_U+30FC 1
 62
     7
420
 16777215
370
     9
  0
INSERT
  5
A5
330
1F
100
AcDbEntity
  8
_U+30EC_U+30A4_U+30E4_U+30FC 1
100
AcDbBlockReference
  2
block 4
 10
0.0
 20
0.0
 30
0.0
  0
SPLINE
  5
AD
330
1F
100
AcDbEntity
  8
_U+30EC_U+30A4_U+30E4_U+30FC 1
 62
     7
420
 16777215
370
     9
100
AcDbSpline
210
0.0
220
0.0
230
1.0
 70
    11
 71
     3
 72
    17
 73
    13
 74
     0
 42
0.0000000001
 43
0.0000000001
 12
1.0
 22
0.0
 32
0.0
 13
1.0
 23
0.0
 33
0.0
 40
0.0
 40
0.0
 40
0.0
 40
0.0
 40
1.0
 40
1.0
 40
1.0
 40
2.0
 40
2.0
 40
2.0
 40
3.0
 40
3.0
 40
3.0
 40
4.0
 40
4.0
 40
4.0
 40
4.0
 10
83.70859064219371
 20
-121.083740247507
 30
0.0
 10
83.70859064219371
 20
-121.0286010808539
 30
0.0
 10
83.66378786555894
 20
-120.983833580865
 30
0.0
 10
83.60868609020902
 20
-120.983833580865
 30
0.0
 10
83.55354481281593
 20
-120.983833580865
 30
0.0
 10
83.50877731395805
 20
-121.0286010808539
 30
0.0
 10
83.50877731395805
 20
-121.083740247507
 30
0.0
 10
83.50877731395805
 20
-121.1388441363819
 30
0.0
 10
83.55354481281593
 20
-121.1836469141486
 30
0.0
 10
83.60868609020902
 20
-121.1836469141486
 30
0.0
 10
83.66378786555894
 20
-121.1836469141486
 30
0.0
 10
83.70859064219371
 20
-121.1388441363819
 30
0.0
 10
83.70859064219371
 20
-121.083740247507
 30
0.0
  0
POLYLINE
  5
AE
330
1F
100
AcDbEntity
  8
_U+30EC_U+30A4_U+30E4_U+30FC 1
 62
     7
420
 16777215
370
     9
100
AcDb2dPolyline
 66
     1
 10
0.0
 20
0.0
 30
0.0
  0
VERTEX
  5
AF
330
AE
100
AcDbEntity
  8
_U+30EC_U+30A4_U+30E4_U+30FC 1
 62
     7
420
 16777215
370
     9
100
AcDbVertex
100
AcDb2dVertex
 10
83.60868609020902
 20
-121.083740247507
 30
0.0
  0
VERTEX
  5
B0
330
AE
100
AcDbEntity
  8
_U+30EC_U+30A4_U+30E4_U+30FC 1
 62
     7
420
 16777215
370
     9
100
AcDbVertex
100
AcDb2dVertex
 10
93.608416778517
 20
-121.083740247507
 30
0.0
  0
SEQEND
  5
B1
330
AE
100
AcDbEntity
  8
_U+30EC_U+30A4_U+30E4_U+30FC 1
 62
     7
420
 16777215
370
     9
  0
POLYLINE
  5
B2
330
1F
100
AcDbEntity
  8
_U+30EC_U+30A4_U+30E4_U+30FC 1
 62
     7
420
 16777215
370
     9
100
AcDb2dPolyline
 66
     1
 10
0.0
 20
0.0
 30
0.0
  0
VERTEX
  5
B3
330
B2
100
AcDbEntity
  8
_U+30EC_U+30A4_U+30E4_U+30FC 1
 62
     7
420
 16777215
370
     9
100
AcDbVertex
100
AcDb2dVertex
 10
83.60868609020902
 20
-118.823739970294
 30
0.0
  0
VERTEX
  5
B4
330
B2
100
AcDbEntity
  8
_U+30EC_U+30A4_U+30E4_U+30FC 1
 62
     7
420
 16777215
370
     9
100
AcDbVertex
100
AcDb2dVertex
 10
83.60868609020902
 20
-122.0841827472569
 30
0.0
  0
SEQEND
  5
B5
330
B2
100
AcDbEntity
  8
_U+30EC_U+30A4_U+30E4_U+30FC 1
 62
     7
420
 16777215
370
     9
  0
SPLINE
  5
B6
330
1F
100
AcDbEntity
  8
_U+30EC_U+30A4_U+30E4_U+30FC 1
 62
     7
420
 16777215
370
     9
100
AcDbSpline
210
0.0
220
0.0
230
1.0
 70
    11
 71
     3
 72
    17
 73
    13
 74
     0
 42
0.0000000001
 43
0.0000000001
 12
1.0
 22
0.0
 32
0.0
 13
1.0
 23
0.0
 33
0.0
 40
0.0
 40
0.0
 40
0.0
 40
0.0
 40
1.0
 40
1.0
 40
1.0
 40
2.0
 40
2.0
 40
2.0
 40
3.0
 40
3.0
 40
3.0
 40
4.0
 40
4.0
 40
4.0
 40
4.0
 10
93.8137334399456
 20
-121.083740247507
 30
0.0
 10
93.8137334399456
 20
-121.0286010808539
 30
0.0
 10
93.76896594108771
 20
-120.983833580865
 30
0.0
 10
93.71382677582777
 20
-120.983833580865
 30
0.0
 10
93.6587228883447
 20
-120.983833580865
 30
0.0
 10
93.61392011170993
 20
-121.0286010808539
 30
0.0
 10
93.61392011170993
 20
-121.083740247507
 30
0.0
 10
93.61392011170993
 20
-121.1388441363819
 30
0.0
 10
93.6587228883447
 20
-121.1836469141486
 30
0.0
 10
93.71382677582777
 20
-121.1836469141486
 30
0.0
 10
93.76896594108771
 20
-121.1836469141486
 30
0.0
 10
93.8137334399456
 20
-121.1388441363819
 30
0.0
 10
93.8137334399456
 20
-121.083740247507
 30
0.0
  0
POLYLINE
  5
B7
330
1F
100
AcDbEntity
  8
_U+30EC_U+30A4_U+30E4_U+30FC 1
 62
     7
420
 16777215
370
     9
100
AcDb2dPolyline
 66
     1
 10
0.0
 20
0.0
 30
0.0
  0
VERTEX
  5
B8
330
B7
100
AcDbEntity
  8
_U+30EC_U+30A4_U+30E4_U+30FC 1
 62
     7
420
 16777215
370
     9
100
AcDbVertex
100
AcDb2dVertex
 10
93.71382677582777
 20
-119.0235533035776
 30
0.0
  0
VERTEX
  5
B9
330
B7
100
AcDbEntity
  8
_U+30EC_U+30A4_U+30E4_U+30FC 1
 62
     7
420
 16777215
370
     9
100
AcDbVertex
100
AcDb2dVertex
 10
93.71382677582777
 20
-122.0841827472569
 30
0.0
  0
SEQEND
  5
BA
330
B7
100
AcDbEntity
  8
_U+30EC_U+30A4_U+30E4_U+30FC 1
 62
     7
420
 16777215
370
     9
  0
INSERT
  5
BC
330
1F
100
AcDbEntity
  8
_U+30EC_U+30A4_U+30E4_U+30FC 1
100
AcDbBlockReference
  2
block 5
 10
0.0
 20
0.0
 30
0.0
  0
ENDSEC
  0
SECTION
  2
OBJECTS
  0
DICTIONARY
  5
C
330
0
100
AcDbDictionary
281
     1
  3
ACAD_GROUP
350
D
  3
ACAD_LAYOUT
350
1A
  3
ACAD_MATERIAL
350
3B
  3
ACAD_MLEADERSTYLE
350
C5
  3
ACAD_MLINESTYLE
350
17
  3
ACAD_PLOTSETTINGS
350
19
  3
ACAD_PLOTSTYLENAME
350
E
  3
ACAD_TABLESTYLE
350
C4
  3
ACAD_VISUALSTYLE
350
2A
  0
SUN
  5
3F
330
29
100
AcDbSun
 90
        1
290
     0
 63
     7
421
 16777215
 40
1.0
291
     1
 91
  2455826
 92
 54000000
292
     0
 70
     2
 71
   256
280
     1
  0
DICTIONARY
  5
D
102
{ACAD_REACTORS
330
C
102
}
330
C
100
AcDbDictionary
281
     1
  0
DICTIONARY
  5
1A
102
{ACAD_REACTORS
330
C
102
}
330
C
100
AcDbDictionary
281
     1
  3
Layout1
350
1E
  3
Layout2
350
26
  3
Model
350
22
  0
DICTIONARY
  5
3B
102
{ACAD_REACTORS
330
C
102
}
330
C
100
AcDbDictionary
281
     1
  3
ByBlock
350
3D
  3
ByLayer
350
3C
  3
Global
350
3E
  0
DICTIONARY
  5
C5
102
{ACAD_REACTORS
330
C
102
}
330
C
100
AcDbDictionary
281
     1
  0
DICTIONARY
  5
17
102
{ACAD_REACTORS
330
C
102
}
330
C
100
AcDbDictionary
281
     1
  3
Standard
350
18
  0
DICTIONARY
  5
19
102
{ACAD_REACTORS
330
C
102
}
330
C
100
AcDbDictionary
281
     1
  0
ACDBDICTIONARYWDFLT
  5
E
102
{ACAD_REACTORS
330
C
102
}
330
C
100
AcDbDictionary
281
     1
  3
Normal
350
F
100
AcDbDictionaryWithDefault
340
F
  0
DICTIONARY
  5
C4
102
{ACAD_REACTORS
330
C
102
}
330
C
100
AcDbDictionary
281
     1
  0
DICTIONARY
  5
2A
102
{ACAD_REACTORS
330
C
102
}
330
C
100
AcDbDictionary
281
     1
  3
2dWireframe
350
2F
  3
3D Hidden
350
31
  3
3dWireframe
350
30
  3
Basic
350
32
  3
Brighten
350
36
  3
ColorChange
350
3A
  3
Conceptual
350
34
  3
Dim
350
35
  3
Facepattern
350
39
  3
Flat
350
2B
  3
FlatWithEdges
350
2C
  3
Gouraud
350
2D
  3
GouraudWithEdges
350
2E
  3
Linepattern
350
38
  3
Realistic
350
33
  3
Thicken
350
37
  0
LAYOUT
  5
1E
102
{ACAD_REACTORS
330
1A
102
}
330
1A
100
AcDbPlotSettings
  1

  2
none_device
  4

  6

 40
0.0
 41
0.0
 42
0.0
 43
0.0
 44
0.0
 45
0.0
 46
0.0
 47
0.0
 48
0.0
 49
0.0
140
0.0
141
0.0
142
1.0
143
1.0
 70
   688
 72
     0
 73
     0
 74
     5
  7

 75
    16
 76
     0
 77
     2
 78
   300
147
1.0
148
0.0
149
0.0
100
AcDbLayout
  1
Layout1
 70
     1
 71
     1
 10
0.0
 20
0.0
 11
12.0
 21
9.0
 12
0.0
 22
0.0
 32
0.0
 14
1.000000000000000E+20
 24
1.000000000000000E+20
 34
1.000000000000000E+20
 15
-1.000000000000000E+20
 25
-1.000000000000000E+20
 35
-1.000000000000000E+20
146
0.0
 13
0.0
 23
0.0
 33
0.0
 16
1.0
 26
0.0
 36
0.0
 17
0.0
 27
1.0
 37
0.0
 76
     0
330
1B
  0
LAYOUT
  5
26
102
{ACAD_REACTORS
330
1A
102
}
330
1A
100
AcDbPlotSettings
  1

  2
none_device
  4

  6

 40
0.0
 41
0.0
 42
0.0
 43
0.0
 44
0.0
 45
0.0
 46
0.0
 47
0.0
 48
0.0
 49
0.0
140
0.0
141
0.0
142
1.0
143
1.0
 70
   688
 72
     0
 73
     0
 74
     5
  7

 75
    16
 76
     0
 77
     2
 78
   300
147
1.0
148
0.0
149
0.0
100
AcDbLayout
  1
Layout2
 70
     1
 71
     2
 10
0.0
 20
0.0
 11
0.0
 21
0.0
 12
0.0
 22
0.0
 32
0.0
 14
0.0
 24
0.0
 34
0.0
 15
0.0
 25
0.0
 35
0.0
146
0.0
 13
0.0
 23
0.0
 33
0.0
 16
1.0
 26
0.0
 36
0.0
 17
0.0
 27
1.0
 37
0.0
 76
     0
330
23
  0
LAYOUT
  5
22
102
{ACAD_REACTORS
330
1A
102
}
330
1A
100
AcDbPlotSettings
  1

  2
none_device
  4

  6

 40
0.0
 41
0.0
 42
0.0
 43
0.0
 44
0.0
 45
0.0
 46
0.0
 47
0.0
 48
0.0
 49
0.0
140
0.0
141
0.0
142
1.0
143
1.0
 70
  1712
 72
     0
 73
     0
 74
     0
  7

 75
     0
 76
     0
 77
     2
 78
   300
147
1.0
148
0.0
149
0.0
100
AcDbLayout
  1
Model
 70
     1
 71
     0
 10
0.0
 20
0.0
 11
12.0
 21
9.0
 12
0.0
 22
0.0
 32
0.0
 14
1.000000000000000E+20
 24
1.000000000000000E+20
 34
1.000000000000000E+20
 15
-1.000000000000000E+20
 25
-1.000000000000000E+20
 35
-1.000000000000000E+20
146
0.0
 13
0.0
 23
0.0
 33
0.0
 16
1.0
 26
0.0
 36
0.0
 17
0.0
 27
1.0
 37
0.0
 76
     0
330
1F
331
29
  0
MATERIAL
  5
3D
102
{ACAD_REACTORS
330
3B
102
}
330
3B
100
AcDbMaterial
  1
ByBlock
 72
     1
 94
      127
  0
MATERIAL
  5
3C
102
{ACAD_REACTORS
330
3B
102
}
330
3B
100
AcDbMaterial
  1
ByLayer
 72
     1
 94
      127
  0
MATERIAL
  5
3E
102
{ACAD_REACTORS
330
3B
102
}
330
3B
100
AcDbMaterial
  1
Global
 72
     1
 94
      127
  0
MLINESTYLE
  5
18
102
{ACAD_REACTORS
330
17
102
}
330
17
100
AcDbMlineStyle
  2
Standard
 70
     0
  3

 62
   256
 51
90.0
 52
90.0
 71
     2
 49
0.5
 62
   256
  6
BYLAYER
 49
-0.5
 62
   256
  6
BYLAYER
  0
ACDBPLACEHOLDER
  5
F
102
{ACAD_REACTORS
330
E
102
}
330
E
  0
VISUALSTYLE
  5
2F
102
{ACAD_REACTORS
330
2A
102
}
330
2A
100
AcDbVisualStyle
  2
2dWireframe
 70
     4
177
     2
291
     0
 71
     0
176
     1
 72
     2
176
     1
 73
     0
176
     1
 90
        0
176
     1
 40
-0.6
176
     1
 41
-30.0
176
     1
 62
     5
 63
     7
421
 16777215
176
     1
 74
     1
176
     1
 91
        4
176
     1
 64
     7
176
     1
 65
   257
176
     1
 75
     1
176
     1
175
     1
176
     1
 42
1.0
176
     1
 92
        0
176
     1
 66
   257
176
     1
 43
1.0
176
     1
 76
     1
176
     1
 77
     6
176
     1
 78
     2
176
     1
 67
     7
176
     1
 79
     5
176
     1
170
     0
176
     1
171
     0
176
     1
290
     0
176
     1
 93
        1
176
     1
 44
0.0
176
     1
173
     0
176
     1
  0
VISUALSTYLE
  5
31
102
{ACAD_REACTORS
330
2A
102
}
330
2A
100
AcDbVisualStyle
  2
3D Hidden
 70
     6
177
     2
291
     0
 71
     1
176
     1
 72
     2
176
     1
 73
     2
176
     1
 90
        0
176
     1
 40
-0.6
176
     1
 41
-30.0
176
     1
 62
     5
 63
     7
421
 16777215
176
     1
 74
     2
176
     1
 91
        2
176
     1
 64
     7
176
     1
 65
   257
176
     1
 75
     2
176
     1
175
     1
176
     1
 42
40.0
176
     1
 92
        0
176
     1
 66
   257
176
     1
 43
1.0
176
     1
 76
     1
176
     1
 77
     6
176
     1
 78
     2
176
     1
 67
     7
176
     1
 79
     3
176
     1
170
     0
176
     1
171
     0
176
     1
290
     0
176
     1
 93
        1
176
     1
 44
0.0
176
     1
173
     0
176
     1
  0
VISUALSTYLE
  5
30
102
{ACAD_REACTORS
330
2A
102
}
330
2A
100
AcDbVisualStyle
  2
3dWireframe
 70
     5
177
     2
291
     0
 71
     0
176
     1
 72
     2
176
     1
 73
     0
176
     1
 90
        0
176
     1
 40
-0.6
176
     1
 41
-30.0
176
     1
 62
     5
 63
     7
421
 16777215
176
     1
 74
     1
176
     1
 91
        4
176
     1
 64
     7
176
     1
 65
   257
176
     1
 75
     1
176
     1
175
     1
176
     1
 42
1.0
176
     1
 92
        0
176
     1
 66
   257
176
     1
 43
1.0
176
     1
 76
     1
176
     1
 77
     6
176
     1
 78
     2
176
     1
 67
     7
176
     1
 79
     5
176
     1
170
     0
176
     1
171
     0
176
     1
290
     0
176
     1
 93
        1
176
     1
 44
0.0
176
     1
173
     0
176
     1
  0
VISUALSTYLE
  5
32
102
{ACAD_REACTORS
330
2A
102
}
330
2A
100
AcDbVisualStyle
  2
Basic
 70
     7
177
     2
291
     1
 71
     1
176
     1
 72
     0
176
     1
 73
     1
176
     1
 90
        0
176
     1
 40
-0.6
176
     1
 41
-30.0
176
     1
 62
     5
 63
     7
421
 16777215
176
     1
 74
     0
176
     1
 91
        4
176
     1
 64
     7
176
     1
 65
   257
176
     1
 75
     1
176
     1
175
     1
176
     1
 42
1.0
176
     1
 92
        8
176
     1
 66
     7
176
     1
 43
1.0
176
     1
 76
     1
176
     1
 77
     6
176
     1
 78
     2
176
     1
 67
     7
176
     1
 79
     5
176
     1
170
     0
176
     1
171
     0
176
     1
290
     0
176
     1
 93
        1
176
     1
 44
0.0
176
     1
173
     0
176
     1
  0
VISUALSTYLE
  5
36
102
{ACAD_REACTORS
330
2A
102
}
330
2A
100
AcDbVisualStyle
  2
Brighten
 70
    12
177
     2
291
     1
 71
     2
176
     1
 72
     2
176
     1
 73
     0
176
     1
 90
        0
176
     1
 40
-0.6
176
     1
 41
-30.0
176
     1
 62
     5
 63
     7
421
 16777215
176
     1
 74
     1
176
     1
 91
        4
176
     1
 64
     7
176
     1
 65
   257
176
     1
 75
     1
176
     1
175
     1
176
     1
 42
1.0
176
     1
 92
        8
176
     1
 66
     7
176
     1
 43
1.0
176
     1
 76
     1
176
     1
 77
     6
176
     1
 78
     2
176
     1
 67
     7
176
     1
 79
     5
176
     1
170
     0
176
     1
171
     0
176
     1
290
     0
176
     1
 93
        1
176
     1
 44
50.0
176
     1
173
     0
176
     1
  0
VISUALSTYLE
  5
3A
102
{ACAD_REACTORS
330
2A
102
}
330
2A
100
AcDbVisualStyle
  2
ColorChange
 70
    16
177
     2
291
     1
 71
     2
176
     1
 72
     2
176
     1
 73
     3
176
     1
 90
        0
176
     1
 40
-0.6
176
     1
 41
-30.0
176
     1
 62
     5
 63
     8
421
  8421504
176
     1
 74
     1
176
     1
 91
        4
176
     1
 64
     7
176
     1
 65
   257
176
     1
 75
     1
176
     1
175
     1
176
     1
 42
1.0
176
     1
 92
        8
176
     1
 66
     8
424
  8421504
176
     1
 43
1.0
176
     1
 76
     1
176
     1
 77
     6
176
     1
 78
     2
176
     1
 67
     7
176
     1
 79
     5
176
     1
170
     0
176
     1
171
     0
176
     1
290
     0
176
     1
 93
        1
176
     1
 44
0.0
176
     1
173
     0
176
     1
  0
VISUALSTYLE
  5
34
102
{ACAD_REACTORS
330
2A
102
}
330
2A
100
AcDbVisualStyle
  2
Conceptual
 70
     9
177
     2
291
     0
 71
     3
176
     1
 72
     2
176
     1
 73
     0
176
     1
 90
        0
176
     1
 40
-0.6
176
     1
 41
-30.0
176
     1
 62
     5
 63
     7
421
 16777215
176
     1
 74
     2
176
     1
 91
        2
176
     1
 64
     7
176
     1
 65
   257
176
     1
 75
     1
176
     1
175
     1
176
     1
 42
40.0
176
     1
 92
        8
176
     1
 66
     7
176
     1
 43
1.0
176
     1
 76
     1
176
     1
 77
     6
176
     1
 78
     2
176
     1
 67
     7
176
     1
 79
     3
176
     1
170
     0
176
     1
171
     0
176
     1
290
     0
176
     1
 93
        1
176
     1
 44
0.0
176
     1
173
     0
176
     1
  0
VISUALSTYLE
  5
35
102
{ACAD_REACTORS
330
2A
102
}
330
2A
100
AcDbVisualStyle
  2
Dim
 70
    11
177
     2
291
     1
 71
     2
176
     1
 72
     2
176
     1
 73
     0
176
     1
 90
        0
176
     1
 40
-0.6
176
     1
 41
-30.0
176
     1
 62
     5
 63
     7
421
 16777215
176
     1
 74
     1
176
     1
 91
        4
176
     1
 64
     7
176
     1
 65
   257
176
     1
 75
     1
176
     1
175
     1
176
     1
 42
1.0
176
     1
 92
        8
176
     1
 66
     7
176
     1
 43
1.0
176
     1
 76
     1
176
     1
 77
     6
176
     1
 78
     2
176
     1
 67
     7
176
     1
 79
     5
176
     1
170
     0
176
     1
171
     0
176
     1
290
     0
176
     1
 93
        1
176
     1
 44
-50.0
176
     1
173
     0
176
     1
  0
VISUALSTYLE
  5
39
102
{ACAD_REACTORS
330
2A
102
}
330
2A
100
AcDbVisualStyle
  2
Facepattern
 70
    15
177
     2
291
     1
 71
     2
176
     1
 72
     2
176
     1
 73
     0
176
     1
 90
        0
176
     1
 40
-0.6
176
     1
 41
-30.0
176
     1
 62
     5
 63
     7
421
 16777215
176
     1
 74
     1
176
     1
 91
        4
176
     1
 64
     7
176
     1
 65
   257
176
     1
 75
     1
176
     1
175
     1
176
     1
 42
1.0
176
     1
 92
        8
176
     1
 66
     7
176
     1
 43
1.0
176
     1
 76
     1
176
     1
 77
     6
176
     1
 78
     2
176
     1
 67
     7
176
     1
 79
     5
176
     1
170
     0
176
     1
171
     0
176
     1
290
     0
176
     1
 93
        1
176
     1
 44
0.0
176
     1
173
     0
176
     1
  0
VISUALSTYLE
  5
2B
102
{ACAD_REACTORS
330
2A
102
}
330
2A
100
AcDbVisualStyle
  2
Flat
 70
     0
177
     2
291
     1
 71
     2
176
     1
 72
     1
176
     1
 73
     1
176
     1
 90
        2
176
     1
 40
-0.6
176
     1
 41
30.0
176
     1
 62
     5
 63
     7
421
 16777215
176
     1
 74
     0
176
     1
 91
        4
176
     1
 64
     7
176
     1
 65
   257
176
     1
 75
     1
176
     1
175
     1
176
     1
 42
1.0
176
     1
 92
        8
176
     1
 66
     7
176
     1
 43
1.0
176
     1
 76
     1
176
     1
 77
     6
176
     1
 78
     2
176
     1
 67
     7
176
     1
 79
     5
176
     1
170
     0
176
     1
171
     0
176
     1
290
     0
176
     1
 93
       13
176
     1
 44
0.0
176
     1
173
     0
176
     1
  0
VISUALSTYLE
  5
2C
102
{ACAD_REACTORS
330
2A
102
}
330
2A
100
AcDbVisualStyle
  2
FlatWithEdges
 70
     1
177
     2
291
     1
 71
     2
176
     1
 72
     1
176
     1
 73
     1
176
     1
 90
        2
176
     1
 40
-0.6
176
     1
 41
30.0
176
     1
 62
     5
 63
     7
421
 16777215
176
     1
 74
     1
176
     1
 91
        4
176
     1
 64
     7
176
     1
 65
   257
176
     1
 75
     1
176
     1
175
     1
176
     1
 42
1.0
176
     1
 92
        0
176
     1
 66
   257
176
     1
 43
1.0
176
     1
 76
     1
176
     1
 77
     6
176
     1
 78
     2
176
     1
 67
     7
176
     1
 79
     5
176
     1
170
     0
176
     1
171
     0
176
     1
290
     0
176
     1
 93
       13
176
     1
 44
0.0
176
     1
173
     0
176
     1
  0
VISUALSTYLE
  5
2D
102
{ACAD_REACTORS
330
2A
102
}
330
2A
100
AcDbVisualStyle
  2
Gouraud
 70
     2
177
     2
291
     1
 71
     2
176
     1
 72
     2
176
     1
 73
     1
176
     1
 90
        2
176
     1
 40
-0.6
176
     1
 41
30.0
176
     1
 62
     5
 63
     7
421
 16777215
176
     1
 74
     0
176
     1
 91
        4
176
     1
 64
     7
176
     1
 65
   257
176
     1
 75
     1
176
     1
175
     1
176
     1
 42
1.0
176
     1
 92
        0
176
     1
 66
     7
176
     1
 43
1.0
176
     1
 76
     1
176
     1
 77
     6
176
     1
 78
     2
176
     1
 67
     7
176
     1
 79
     5
176
     1
170
     0
176
     1
171
     0
176
     1
290
     0
176
     1
 93
       13
176
     1
 44
0.0
176
     1
173
     0
176
     1
  0
VISUALSTYLE
  5
2E
102
{ACAD_REACTORS
330
2A
102
}
330
2A
100
AcDbVisualStyle
  2
GouraudWithEdges
 70
     3
177
     2
291
     1
 71
     2
176
     1
 72
     2
176
     1
 73
     1
176
     1
 90
        2
176
     1
 40
-0.6
176
     1
 41
30.0
176
     1
 62
     5
 63
     7
421
 16777215
176
     1
 74
     1
176
     1
 91
        4
176
     1
 64
     7
176
     1
 65
   257
176
     1
 75
     1
176
     1
175
     1
176
     1
 42
1.0
176
     1
 92
        0
176
     1
 66
   257
176
     1
 43
1.0
176
     1
 76
     1
176
     1
 77
     6
176
     1
 78
     2
176
     1
 67
     7
176
     1
 79
     5
176
     1
170
     0
176
     1
171
     0
176
     1
290
     0
176
     1
 93
       13
176
     1
 44
0.0
176
     1
173
     0
176
     1
  0
VISUALSTYLE
  5
38
102
{ACAD_REACTORS
330
2A
102
}
330
2A
100
AcDbVisualStyle
  2
Linepattern
 70
    14
177
     2
291
     1
 71
     2
176
     1
 72
     2
176
     1
 73
     0
176
     1
 90
        0
176
     1
 40
-0.6
176
     1
 41
-30.0
176
     1
 62
     5
 63
     7
421
 16777215
176
     1
 74
     1
176
     1
 91
        4
176
     1
 64
     7
176
     1
 65
   257
176
     1
 75
     7
176
     1
175
     7
176
     1
 42
1.0
176
     1
 92
        8
176
     1
 66
     7
176
     1
 43
1.0
176
     1
 76
     1
176
     1
 77
     6
176
     1
 78
     2
176
     1
 67
     7
176
     1
 79
     5
176
     1
170
     0
176
     1
171
     0
176
     1
290
     0
176
     1
 93
        1
176
     1
 44
0.0
176
     1
173
     0
176
     1
  0
VISUALSTYLE
  5
33
102
{ACAD_REACTORS
330
2A
102
}
330
2A
100
AcDbVisualStyle
  2
Realistic
 70
     8
177
     2
291
     0
 71
     2
176
     1
 72
     2
176
     1
 73
     0
176
     1
 90
        0
176
     1
 40
-0.6
176
     1
 41
-30.0
176
     1
 62
     5
 63
     7
421
 16777215
176
     1
 74
     1
176
     1
 91
        0
176
     1
 64
     7
176
     1
 65
   257
176
     1
 75
     1
176
     1
175
     1
176
     1
 42
1.0
176
     1
 92
        8
176
     1
 66
     8
424
  7895160
176
     1
 43
1.0
176
     1
 76
     1
176
     1
 77
     6
176
     1
 78
     2
176
     1
 67
     7
176
     1
 79
     5
176
     1
170
     0
176
     1
171
     0
176
     1
290
     0
176
     1
 93
       13
176
     1
 44
0.0
176
     1
173
     0
176
     1
  0
VISUALSTYLE
  5
37
102
{ACAD_REACTORS
330
2A
102
}
330
2A
100
AcDbVisualStyle
  2
Thicken
 70
    13
177
     2
291
     1
 71
     2
176
     1
 72
     2
176
     1
 73
     0
176
     1
 90
        0
176
     1
 40
-0.6
176
     1
 41
-30.0
176
     1
 62
     5
 63
     7
421
 16777215
176
     1
 74
     1
176
     1
 91
        4
176
     1
 64
     7
176
     1
 65
   257
176
     1
 75
     1
176
     1
175
     1
176
     1
 42
1.0
176
     1
 92
       12
176
     1
 66
     7
176
     1
 43
1.0
176
     1
 76
     1
176
     1
 77
     6
176
     1
 78
     2
176
     1
 67
     7
176
     1
 79
     5
176
     1
170
     0
176
     1
171
     0
176
     1
290
     0
176
     1
 93
        1
176
     1
 44
0.0
176
     1
173
     0
176
     1
  0
ENDSEC
  0
EOF
