  0
SECTION
  2
HEADER
  9
$ACADVER
  1
AC1024
  9
$ACADMAINTVER
 70
     6
  9
$DWGCODEPAGE
  3
UNDEFINED
  9
$INSBASE
 10
0.0
 20
0.0
 30
0.0
  9
$EXTMIN
 10
1.000000000000000E+20
 20
1.000000000000000E+20
 30
1.000000000000000E+20
  9
$EXTMAX
 10
-1.000000000000000E+20
 20
-1.000000000000000E+20
 30
-1.000000000000000E+20
  9
$LIMMIN
 10
0.0
 20
0.0
  9
$LIMMAX
 10
12.0
 20
9.0
  9
$ORTHOMODE
 70
     0
  9
$REGENMODE
 70
     1
  9
$FILLMODE
 70
     1
  9
$QTEXTMODE
 70
     0
  9
$MIRRTEXT
 70
     1
  9
$LTSCALE
 40
1.0
  9
$ATTMODE
 70
     1
  9
$TEXTSIZE
 40
0.2
  9
$TRACEWID
 40
0.05
  9
$TEXTSTYLE
  7
Standard
  9
$CLAYER
  8
0
  9
$CELTYPE
  6
ByLayer
  9
$CECOLOR
 62
   256
  9
$CELTSCALE
 40
1.0
  9
$DISPSILH
 70
     0
  9
$DIMSCALE
 40
1.0
  9
$DIMASZ
 40
0.18
  9
$DIMEXO
 40
0.0625
  9
$DIMDLI
 40
0.38
  9
$DIMRND
 40
0.0
  9
$DIMDLE
 40
0.0
  9
$DIMEXE
 40
0.18
  9
$DIMTP
 40
0.0
  9
$DIMTM
 40
0.0
  9
$DIMTXT
 40
0.18
  9
$DIMCEN
 40
0.09
  9
$DIMTSZ
 40
0.0
  9
$DIMTOL
 70
     0
  9
$DIMLIM
 70
     0
  9
$DIMTIH
 70
     1
  9
$DIMTOH
 70
     1
  9
$DIMSE1
 70
     0
  9
$DIMSE2
 70
     0
  9
$DIMTAD
 70
     0
  9
$DIMZIN
 70
     0
  9
$DIMBLK
  1

  9
$DIMASO
 70
     1
  9
$DIMSHO
 70
     1
  9
$DIMPOST
  1

  9
$DIMAPOST
  1

  9
$DIMALT
 70
     0
  9
$DIMALTD
 70
     2
  9
$DIMALTF
 40
25.4
  9
$DIMLFAC
 40
1.0
  9
$DIMTOFL
 70
     0
  9
$DIMTVP
 40
0.0
  9
$DIMTIX
 70
     0
  9
$DIMSOXD
 70
     0
  9
$DIMSAH
 70
     0
  9
$DIMBLK1
  1

  9
$DIMBLK2
  1

  9
$DIMSTYLE
  2
Standard
  9
$DIMCLRD
 70
     0
  9
$DIMCLRE
 70
     0
  9
$DIMCLRT
 70
     0
  9
$DIMTFAC
 40
1.0
  9
$DIMGAP
 40
0.09
  9
$DIMJUST
 70
     0
  9
$DIMSD1
 70
     0
  9
$DIMSD2
 70
     0
  9
$DIMTOLJ
 70
     1
  9
$DIMTZIN
 70
     0
  9
$DIMALTZ
 70
     0
  9
$DIMALTTZ
 70
     0
  9
$DIMUPT
 70
     0
  9
$DIMDEC
 70
     4
  9
$DIMTDEC
 70
     4
  9
$DIMALTU
 70
     2
  9
$DIMALTTD
 70
     2
  9
$DIMTXSTY
  7
Standard
  9
$DIMAUNIT
 70
     0
  9
$DIMADEC
 70
     0
  9
$DIMALTRND
 40
0.0
  9
$DIMAZIN
 70
     0
  9
$DIMDSEP
 70
    46
  9
$DIMATFIT
 70
     3
  9
$DIMFRAC
 70
     0
  9
$DIMLDRBLK
  1

  9
$DIMLUNIT
 70
     2
  9
$DIMLWD
 70
    -2
  9
$DIMLWE
 70
    -2
  9
$DIMTMOVE
 70
     0
  9
$DIMFXL
 40
1.0
  9
$DIMFXLON
 70
     0
  9
$DIMJOGANG
 40
0.7853981633974483
  9
$DIMTFILL
 70
     0
  9
$DIMTFILLCLR
 70
     0
  9
$DIMARCSYM
 70
     0
  9
$DIMLTYPE
  6

  9
$DIMLTEX1
  6

  9
$DIMLTEX2
  6

  9
$DIMTXTDIRECTION
 70
     0
  9
$LUNITS
 70
     2
  9
$LUPREC
 70
     4
  9
$SKETCHINC
 40
0.1
  9
$FILLETRAD
 40
0.5
  9
$AUNITS
 70
     0
  9
$AUPREC
 70
     0
  9
$MENU
  1
.
  9
$ELEVATION
 40
0.0
  9
$PELEVATION
 40
0.0
  9
$THICKNESS
 40
0.0
  9
$LIMCHECK
 70
     0
  9
$CHAMFERA
 40
0.5
  9
$CHAMFERB
 40
0.5
  9
$CHAMFERC
 40
1.0
  9
$CHAMFERD
 40
0.0
  9
$SKPOLY
 70
     0
  9
$TDCREATE
 40
2457917.623518519
  9
$TDUCREATE
 40
2457917.248518519
  9
$TDUPDATE
 40
2457917.623518519
  9
$TDUUPDATE
 40
2457917.248518519
  9
$TDINDWG
 40
0.0000000116
  9
$TDUSRTIMER
 40
0.0000000116
  9
$USRTIMER
 70
     1
  9
$ANGBASE
 50
0.0
  9
$ANGDIR
 70
     0
  9
$PDMODE
 70
     0
  9
$PDSIZE
 40
0.0
  9
$PLINEWID
 40
0.0
  9
$SPLFRAME
 70
     0
  9
$SPLINETYPE
 70
     6
  9
$SPLINESEGS
 70
     8
  9
$HANDSEED
  5
12B
  9
$SURFTAB1
 70
     6
  9
$SURFTAB2
 70
     6
  9
$SURFTYPE
 70
     6
  9
$SURFU
 70
     6
  9
$SURFV
 70
     6
  9
$UCSBASE
  2

  9
$UCSNAME
  2

  9
$UCSORG
 10
0.0
 20
0.0
 30
0.0
  9
$UCSXDIR
 10
1.0
 20
0.0
 30
0.0
  9
$UCSYDIR
 10
0.0
 20
1.0
 30
0.0
  9
$UCSORTHOREF
  2

  9
$UCSORTHOVIEW
 70
     0
  9
$UCSORGTOP
 10
0.0
 20
0.0
 30
0.0
  9
$UCSORGBOTTOM
 10
0.0
 20
0.0
 30
0.0
  9
$UCSORGLEFT
 10
0.0
 20
0.0
 30
0.0
  9
$UCSORGRIGHT
 10
0.0
 20
0.0
 30
0.0
  9
$UCSORGFRONT
 10
0.0
 20
0.0
 30
0.0
  9
$UCSORGBACK
 10
0.0
 20
0.0
 30
0.0
  9
$PUCSBASE
  2

  9
$PUCSNAME
  2

  9
$PUCSORG
 10
0.0
 20
0.0
 30
0.0
  9
$PUCSXDIR
 10
1.0
 20
0.0
 30
0.0
  9
$PUCSYDIR
 10
0.0
 20
1.0
 30
0.0
  9
$PUCSORTHOREF
  2

  9
$PUCSORTHOVIEW
 70
     0
  9
$PUCSORGTOP
 10
0.0
 20
0.0
 30
0.0
  9
$PUCSORGBOTTOM
 10
0.0
 20
0.0
 30
0.0
  9
$PUCSORGLEFT
 10
0.0
 20
0.0
 30
0.0
  9
$PUCSORGRIGHT
 10
0.0
 20
0.0
 30
0.0
  9
$PUCSORGFRONT
 10
0.0
 20
0.0
 30
0.0
  9
$PUCSORGBACK
 10
0.0
 20
0.0
 30
0.0
  9
$USERI1
 70
     0
  9
$USERI2
 70
     0
  9
$USERI3
 70
     0
  9
$USERI4
 70
     0
  9
$USERI5
 70
     0
  9
$USERR1
 40
0.0
  9
$USERR2
 40
0.0
  9
$USERR3
 40
0.0
  9
$USERR4
 40
0.0
  9
$USERR5
 40
0.0
  9
$WORLDVIEW
 70
     1
  9
$SHADEDGE
 70
     3
  9
$SHADEDIF
 70
    70
  9
$TILEMODE
 70
     1
  9
$MAXACTVP
 70
    64
  9
$PINSBASE
 10
0.0
 20
0.0
 30
0.0
  9
$PLIMCHECK
 70
     0
  9
$PEXTMIN
 10
1.000000000000000E+20
 20
1.000000000000000E+20
 30
1.000000000000000E+20
  9
$PEXTMAX
 10
-1.000000000000000E+20
 20
-1.000000000000000E+20
 30
-1.000000000000000E+20
  9
$PLIMMIN
 10
0.0
 20
0.0
  9
$PLIMMAX
 10
12.0
 20
9.0
  9
$UNITMODE
 70
     0
  9
$VISRETAIN
 70
     1
  9
$PLINEGEN
 70
     0
  9
$PSLTSCALE
 70
     1
  9
$TREEDEPTH
 70
  3020
  9
$CMLSTYLE
  2
Standard
  9
$CMLJUST
 70
     0
  9
$CMLSCALE
 40
1.0
  9
$PROXYGRAPHICS
 70
     1
  9
$MEASUREMENT
 70
     0
  9
$CELWEIGHT
370
    -1
  9
$ENDCAPS
280
     0
  9
$JOINSTYLE
280
     0
  9
$LWDISPLAY
290
     1
  9
$INSUNITS
 70
     1
  9
$HYPERLINKBASE
  1

  9
$STYLESHEET
  1

  9
$XEDIT
290
     1
  9
$CEPSNTYPE
380
     0
  9
$PSTYLEMODE
290
     1
  9
$FINGERPRINTGUID
  2
{9FAA6AC0-134D-BC43-439F-4B99B6EBC764}
  9
$VERSIONGUID
  2
{FAEB1C32-E019-11D5-929B-00C0DF256EC4}
  9
$EXTNAMES
290
     1
  9
$PSVPSCALE
 40
0.0
  9
$OLESTARTUP
290
     0
  9
$SORTENTS
280
   127
  9
$INDEXCTL
280
     0
  9
$HIDETEXT
280
     1
  9
$XCLIPFRAME
280
     2
  9
$HALOGAP
280
     0
  9
$OBSCOLOR
 70
   257
  9
$OBSLTYPE
280
     0
  9
$INTERSECTIONDISPLAY
280
     0
  9
$INTERSECTIONCOLOR
 70
   257
  9
$DIMASSOC
280
     2
  9
$PROJECTNAME
  1

  9
$CAMERADISPLAY
290
     0
  9
$LENSLENGTH
 40
50.0
  9
$CAMERAHEIGHT
 40
0.0
  9
$STEPSPERSEC
 40
2.0
  9
$STEPSIZE
 40
6.0
  9
$3DDWFPREC
 40
2.0
  9
$PSOLWIDTH
 40
0.25
  9
$PSOLHEIGHT
 40
4.0
  9
$LOFTANG1
 40
1.570796326794897
  9
$LOFTANG2
 40
1.570796326794897
  9
$LOFTMAG1
 40
0.0
  9
$LOFTMAG2
 40
0.0
  9
$LOFTPARAM
 70
     7
  9
$LOFTNORMALS
280
     1
  9
$LATITUDE
 40
37.795
  9
$LONGITUDE
 40
-122.394
  9
$NORTHDIRECTION
 40
0.0
  9
$TIMEZONE
 70
 -8000
  9
$LIGHTGLYPHDISPLAY
280
     1
  9
$TILEMODELIGHTSYNCH
280
     1
  9
$CMATERIAL
347
3C
  9
$SOLIDHIST
280
     1
  9
$SHOWHIST
280
     1
  9
$DWFFRAME
280
     2
  9
$DGNFRAME
280
     2
  9
$REALWORLDSCALE
290
     1
  9
$INTERFERECOLOR
 62
   256
  9
$CSHADOW
280
     0
  9
$SHADOWPLANELOCATION
 40
0.0
  0
ENDSEC
  0
SECTION
  2
CLASSES
  0
CLASS
  1
ACDBDICTIONARYWDFLT
  2
AcDbDictionaryWithDefault
  3
ObjectDBX Classes
 90
        0
 91
        4
280
     0
281
     0
  0
CLASS
  1
VISUALSTYLE
  2
AcDbVisualStyle
  3
ObjectDBX Classes
 90
     4095
 91
        4
280
     0
281
     0
  0
CLASS
  1
MATERIAL
  2
AcDbMaterial
  3
ObjectDBX Classes
 90
     1153
 91
        4
280
     0
281
     0
  0
CLASS
  1
SUN
  2
AcDbSun
  3
SCENEOE
 90
     1024
 91
        4
280
     0
281
     0
  0
ENDSEC
  0
SECTION
  2
TABLES
  0
TABLE
  2
VPORT
  5
8
330
0
100
AcDbSymbolTable
 70
     1
  0
VPORT
  5
29
330
8
100
AcDbSymbolTableRecord
100
AcDbViewportTableRecord
  2
*Active
 70
     0
 10
0.0
 20
0.0
 11
1.0
 21
1.0
 12
0.0
 22
0.0
 13
0.0
 23
0.0
 14
0.5
 24
0.5
 15
0.5
 25
0.5
 16
0.0
 26
0.0
 36
1.0
 17
91.00082462281999
 27
-128.4993055234307
 37
0.0
 40
256.9986110468615
 41
0.7081814508812795
 42
50.0
 43
0.0
 44
0.0
 50
0.0
 51
0.0
 71
     0
 72
   100
 73
     1
 74
     3
 75
     0
 76
     0
 77
     0
 78
     0
281
     0
 65
     1
110
0.0
120
0.0
130
0.0
111
1.0
121
0.0
131
0.0
112
0.0
122
1.0
132
0.0
 79
     0
146
0.0
 60
     3
 61
     5
292
     1
282
     1
141
0.0
142
0.0
 63
   250
361
3F
  0
ENDTAB
  0
TABLE
  2
LTYPE
  5
5
330
0
100
AcDbSymbolTable
 70
     1
  0
LTYPE
  5
14
330
5
100
AcDbSymbolTableRecord
100
AcDbLinetypeTableRecord
  2
ByBlock
 70
     0
  3

 72
    65
 73
     0
 40
0.0
  0
LTYPE
  5
15
330
5
100
AcDbSymbolTableRecord
100
AcDbLinetypeTableRecord
  2
ByLayer
 70
     0
  3

 72
    65
 73
     0
 40
0.0
  0
LTYPE
  5
16
330
5
100
AcDbSymbolTableRecord
100
AcDbLinetypeTableRecord
  2
Continuous
 70
     0
  3
Solid line
 72
    65
 73
     0
 40
0.0
  0
ENDTAB
  0
TABLE
  2
LAYER
  5
2
330
0
100
AcDbSymbolTable
 70
     2
  0
LAYER
  5
10
330
2
100
AcDbSymbolTableRecord
100
AcDbLayerTableRecord
  2
0
 70
     0
 62
     7
  6
Continuous
370
    -3
390
F
347
3E
  0
LAYER
  5
40
330
2
100
AcDbSymbolTableRecord
100
AcDbLayerTableRecord
  2
_U+30EC_U+30A4_U+30E4_U+30FC 1
 70
     0
 62
     7
  6
Continuous
370
    -3
390
F
347
3E
  0
ENDTAB
  0
TABLE
  2
STYLE
  5
3
330
0
100
AcDbSymbolTable
 70
     1
  0
STYLE
  5
11
330
3
100
AcDbSymbolTableRecord
100
AcDbTextStyleTableRecord
  2
Standard
 70
     0
 40
0.0
 41
1.0
 50
0.0
 71
     0
 42
0.2
  3
txt
  4

  0
ENDTAB
  0
TABLE
  2
VIEW
  5
6
330
0
100
AcDbSymbolTable
 70
     0
  0
ENDTAB
  0
TABLE
  2
UCS
  5
7
330
0
100
AcDbSymbolTable
 70
     0
  0
ENDTAB
  0
TABLE
  2
APPID
  5
9
330
0
100
AcDbSymbolTable
 70
     1
  0
APPID
  5
12
330
9
100
AcDbSymbolTableRecord
100
AcDbRegAppTableRecord
  2
ACAD
 70
     0
  0
ENDTAB
  0
TABLE
  2
DIMSTYLE
  5
A
330
0
100
AcDbSymbolTable
 70
     1
100
AcDbDimStyleTable
  0
DIMSTYLE
105
27
330
A
100
AcDbSymbolTableRecord
100
AcDbDimStyleTableRecord
  2
Standard
 70
     0
178
     0
340
11
  0
ENDTAB
  0
TABLE
  2
BLOCK_RECORD
  5
1
330
0
100
AcDbSymbolTable
 70
     7
  0
BLOCK_RECORD
  5
1F
330
1
100
AcDbSymbolTableRecord
100
AcDbBlockTableRecord
  2
*Model_Space
340
22
 70
     0
280
     1
281
     0
  0
BLOCK_RECORD
  5
1B
330
1
100
AcDbSymbolTableRecord
100
AcDbBlockTableRecord
  2
*Paper_Space
340
1E
 70
     0
280
     1
281
     0
  0
BLOCK_RECORD
  5
23
330
1
100
AcDbSymbolTableRecord
100
AcDbBlockTableRecord
  2
*Paper_Space0
340
26
 70
     0
280
     1
281
     0
  0
BLOCK_RECORD
  5
D3
330
1
100
AcDbSymbolTableRecord
100
AcDbBlockTableRecord
  2
block 2
340
0
102
{BLKREFS
331
D4
102
}
 70
     0
280
     1
281
     0
  0
BLOCK_RECORD
  5
E1
330
1
100
AcDbSymbolTableRecord
100
AcDbBlockTableRecord
  2
block 3
340
0
102
{BLKREFS
331
E2
102
}
 70
     0
280
     1
281
     0
  0
BLOCK_RECORD
  5
F5
330
1
100
AcDbSymbolTableRecord
100
AcDbBlockTableRecord
  2
block 4
340
0
102
{BLKREFS
331
F6
102
}
 70
     0
280
     1
281
     0
  0
BLOCK_RECORD
  5
FB
330
1
100
AcDbSymbolTableRecord
100
AcDbBlockTableRecord
  2
block 5
340
0
102
{BLKREFS
331
FC
102
}
 70
     0
280
     1
281
     0
  0
BLOCK_RECORD
  5
110
330
1
100
AcDbSymbolTableRecord
100
AcDbBlockTableRecord
  2
block 6
340
0
102
{BLKREFS
331
111
102
}
 70
     0
280
     1
281
     0
  0
BLOCK_RECORD
  5
123
330
1
100
AcDbSymbolTableRecord
100
AcDbBlockTableRecord
  2
block 7
340
0
102
{BLKREFS
331
124
102
}
 70
     0
280
     1
281
     0
  0
ENDTAB
  0
ENDSEC
  0
SECTION
  2
BLOCKS
  0
BLOCK
  5
20
330
1F
100
AcDbEntity
  8
0
100
AcDbBlockBegin
  2
*Model_Space
 70
     0
 10
0.0
 20
0.0
 30
0.0
  3
*Model_Space
  1

  0
ENDBLK
  5
21
330
1F
100
AcDbEntity
  8
0
100
AcDbBlockEnd
  0
BLOCK
  5
1C
330
1B
100
AcDbEntity
 67
     1
  8
0
100
AcDbBlockBegin
  2
*Paper_Space
 70
     0
 10
0.0
 20
0.0
 30
0.0
  3
*Paper_Space
  1

  0
ENDBLK
  5
1D
330
1B
100
AcDbEntity
 67
     1
  8
0
100
AcDbBlockEnd
  0
BLOCK
  5
24
330
23
100
AcDbEntity
  8
0
100
AcDbBlockBegin
  2
*Paper_Space0
 70
     0
 10
0.0
 20
0.0
 30
0.0
  3
*Paper_Space0
  1

  0
ENDBLK
  5
25
330
23
100
AcDbEntity
  8
0
100
AcDbBlockEnd
  0
BLOCK
  5
D5
330
D3
100
AcDbEntity
  8
0
100
AcDbBlockBegin
  2
block 2
 70
     0
 10
0.0
 20
0.0
 30
0.0
  3
block 2
  1

  0
SPLINE
  5
D7
330
D3
100
AcDbEntity
  8
_U+30EC_U+30A4_U+30E4_U+30FC 1
370
     0
100
AcDbSpline
210
0.0
220
0.0
230
1.0
 70
    11
 71
     3
 72
    26
 73
    22
 74
     0
 42
0.0000000001
 43
0.0000000001
 12
1.0
 22
0.0
 32
0.0
 13
1.0
 23
0.0
 33
0.0
 40
0.0
 40
0.0
 40
0.0
 40
0.0
 40
1.0
 40
1.0
 40
1.0
 40
2.0
 40
2.0
 40
2.0
 40
3.0
 40
3.0
 40
3.0
 40
4.0
 40
4.0
 40
4.0
 40
5.0
 40
5.0
 40
5.0
 40
6.0
 40
6.0
 40
6.0
 40
7.0
 40
7.0
 40
7.0
 40
7.0
 10
81.38848603651051
 20
-119.2127061333913
 30
0.0
 10
81.38848603651051
 20
-119.2127061333913
 30
0.0
 10
81.13527151834465
 20
-119.2127061333913
 30
0.0
 10
81.13527151834465
 20
-119.2127061333913
 30
0.0
 10
81.16231551790386
 20
-118.9038533231386
 30
0.0
 10
81.36798771837329
 20
-118.3855387073828
 30
0.0
 10
81.80206974951476
 20
-117.8799709449224
 30
0.0
 10
81.80206974951476
 20
-117.8799709449224
 30
0.0
 10
80.90686168767259
 20
-117.8799709449224
 30
0.0
 10
80.90686168767259
 20
-117.8799709449224
 30
0.0
 10
80.90686168767259
 20
-117.8799709449224
 30
0.0
 10
80.90686168767259
 20
-117.668442082128
 30
0.0
 10
80.90686168767259
 20
-117.668442082128
 30
0.0
 10
80.90686168767259
 20
-117.668442082128
 30
0.0
 10
82.05528426768063
 20
-117.668442082128
 30
0.0
 10
82.05528426768063
 20
-117.668442082128
 30
0.0
 10
82.05528426768063
 20
-117.668442082128
 30
0.0
 10
82.05528426768063
 20
-117.8799709449224
 30
0.0
 10
82.05528426768063
 20
-117.8799709449224
 30
0.0
 10
81.70939668096155
 20
-118.1697034752319
 30
0.0
 10
81.42465953910565
 20
-118.7620876439206
 30
0.0
 10
81.38848603651051
 20
-119.2127061333913
 30
0.0
  0
HATCH
  5
D8
330
D3
100
AcDbEntity
  8
_U+30EC_U+30A4_U+30E4_U+30FC 1
 62
   179
420
  2234388
100
AcDbHatch
 10
0.0
 20
0.0
 30
0.0
210
0.0
220
0.0
230
1.0
  2
SOLID
 70
     1
 71
     0
 91
        1
 92
        1
 93
        1
 72
     4
 94
        3
 73
     0
 74
     1
 95
       26
 96
       22
 40
0.0
 40
0.0
 40
0.0
 40
0.0
 40
1.0
 40
1.0
 40
1.0
 40
2.0
 40
2.0
 40
2.0
 40
3.0
 40
3.0
 40
3.0
 40
4.0
 40
4.0
 40
4.0
 40
5.0
 40
5.0
 40
5.0
 40
6.0
 40
6.0
 40
6.0
 40
7.0
 40
7.0
 40
7.0
 40
7.0
 10
81.38848603651051
 20
-119.2127061333913
 10
81.38848603651051
 20
-119.2127061333913
 10
81.13527151834465
 20
-119.2127061333913
 10
81.13527151834465
 20
-119.2127061333913
 10
81.16231551790386
 20
-118.9038533231386
 10
81.36798771837329
 20
-118.3855387073828
 10
81.80206974951476
 20
-117.8799709449224
 10
81.80206974951476
 20
-117.8799709449224
 10
80.90686168767259
 20
-117.8799709449224
 10
80.90686168767259
 20
-117.8799709449224
 10
80.90686168767259
 20
-117.8799709449224
 10
80.90686168767259
 20
-117.668442082128
 10
80.90686168767259
 20
-117.668442082128
 10
80.90686168767259
 20
-117.668442082128
 10
82.05528426768063
 20
-117.668442082128
 10
82.05528426768063
 20
-117.668442082128
 10
82.05528426768063
 20
-117.668442082128
 10
82.05528426768063
 20
-117.8799709449224
 10
82.05528426768063
 20
-117.8799709449224
 10
81.70939668096155
 20
-118.1697034752319
 10
81.42465953910565
 20
-118.7620876439206
 10
81.38848603651051
 20
-119.2127061333913
 97
        0
 97
        0
 75
     2
 76
     1
 98
        0
  0
ENDBLK
  5
D6
330
D3
100
AcDbEntity
  8
0
100
AcDbBlockEnd
  0
BLOCK
  5
E3
330
E1
100
AcDbEntity
  8
0
100
AcDbBlockBegin
  2
block 3
 70
     0
 10
0.0
 20
0.0
 30
0.0
  3
block 3
  1

  0
SPLINE
  5
E5
330
E1
100
AcDbEntity
  8
_U+30EC_U+30A4_U+30E4_U+30FC 1
370
     0
100
AcDbSpline
210
0.0
220
0.0
230
1.0
 70
    11
 71
     3
 72
    29
 73
    25
 74
     0
 42
0.0000000001
 43
0.0000000001
 12
1.0
 22
0.0
 32
0.0
 13
1.0
 23
0.0
 33
0.0
 40
0.0
 40
0.0
 40
0.0
 40
0.0
 40
1.0
 40
1.0
 40
1.0
 40
2.0
 40
2.0
 40
2.0
 40
3.0
 40
3.0
 40
3.0
 40
4.0
 40
4.0
 40
4.0
 40
5.0
 40
5.0
 40
5.0
 40
6.0
 40
6.0
 40
6.0
 40
7.0
 40
7.0
 40
7.0
 40
8.0
 40
8.0
 40
8.0
 40
8.0
 10
88.98319903374379
 20
-119.2635212917987
 30
0.0
 10
88.69863414666216
 20
-119.2635212917987
 30
0.0
 10
88.42716062242447
 20
-119.125889727163
 30
0.0
 10
88.42716062242447
 20
-118.7769015545072
 30
0.0
 10
88.42716062242447
 20
-118.5209309599531
 30
0.0
 10
88.5785725690012
 20
-118.4256740697859
 30
0.0
 10
88.69174395569165
 20
-118.3643513701485
 30
0.0
 10
88.55824650563822
 20
-118.3050957278022
 30
0.0
 10
88.47694225218632
 20
-118.1908908124662
 30
0.0
 10
88.47694225218632
 20
-118.0301771080793
 30
0.0
 10
88.47694225218632
 20
-117.7550862335821
 30
0.0
 10
88.68933238885198
 20
-117.6196939810117
 30
0.0
 10
88.98319903374379
 20
-117.6196939810117
 30
0.0
 10
89.28636743644577
 20
-117.6196939810117
 30
0.0
 10
89.48962807007551
 20
-117.7635267175209
 30
0.0
 10
89.48962807007551
 20
-118.0301771080793
 30
0.0
 10
89.48962807007551
 20
-118.1908908124662
 30
0.0
 10
89.40625675933246
 20
-118.3050957278022
 30
0.0
 10
89.27258705450477
 20
-118.3643513701485
 30
0.0
 10
89.36767168989768
 20
-118.4151665285559
 30
0.0
 10
89.53717038777197
 20
-118.5104234187231
 30
0.0
 10
89.53717038777197
 20
-118.7727674399249
 30
0.0
 10
89.53717038777197
 20
-119.1470770643973
 30
0.0
 10
89.23882511874933
 20
-119.2635212917987
 30
0.0
 10
88.98319903374379
 20
-119.2635212917987
 30
0.0
  0
SPLINE
  5
E6
330
E1
100
AcDbEntity
  8
_U+30EC_U+30A4_U+30E4_U+30FC 1
370
     0
100
AcDbSpline
210
0.0
220
0.0
230
1.0
 70
    11
 71
     3
 72
    17
 73
    13
 74
     0
 42
0.0000000001
 43
0.0000000001
 12
1.0
 22
0.0
 32
0.0
 13
1.0
 23
0.0
 33
0.0
 40
0.0
 40
0.0
 40
0.0
 40
0.0
 40
1.0
 40
1.0
 40
1.0
 40
2.0
 40
2.0
 40
2.0
 40
3.0
 40
3.0
 40
3.0
 40
4.0
 40
4.0
 40
4.0
 40
4.0
 10
88.98319903374379
 20
-118.4723551136111
 30
0.0
 10
88.82954777510164
 20
-118.4723551136111
 30
0.0
 10
88.66693926819785
 20
-118.5589992650651
 30
0.0
 10
88.66693926819785
 20
-118.7620876439206
 30
0.0
 10
88.66693926819785
 20
-118.9672430800672
 30
0.0
 10
88.80233152076818
 20
-119.0688733968821
 30
0.0
 10
88.98319903374379
 20
-119.0688733968821
 30
0.0
 10
89.18232555279123
 20
-119.0688733968821
 30
0.0
 10
89.29980330883825
 20
-118.9462279976072
 30
0.0
 10
89.29980330883825
 20
-118.7684610705683
 30
0.0
 10
89.29980330883825
 20
-118.5462524117697
 30
0.0
 10
89.12582598683314
 20
-118.4723551136111
 30
0.0
 10
88.98319903374379
 20
-118.4723551136111
 30
0.0
  0
SPLINE
  5
E7
330
E1
100
AcDbEntity
  8
_U+30EC_U+30A4_U+30E4_U+30FC 1
370
     0
100
AcDbSpline
210
0.0
220
0.0
230
1.0
 70
    11
 71
     3
 72
    17
 73
    13
 74
     0
 42
0.0000000001
 43
0.0000000001
 12
1.0
 22
0.0
 32
0.0
 13
1.0
 23
0.0
 33
0.0
 40
0.0
 40
0.0
 40
0.0
 40
0.0
 40
1.0
 40
1.0
 40
1.0
 40
2.0
 40
2.0
 40
2.0
 40
3.0
 40
3.0
 40
3.0
 40
4.0
 40
4.0
 40
4.0
 40
4.0
 10
88.98319903374379
 20
-117.8122748186372
 30
0.0
 10
88.80681014489899
 20
-117.8122748186372
 30
0.0
 10
88.71654864318545
 20
-117.9073594540301
 30
0.0
 10
88.71654864318545
 20
-118.0427517066004
 30
0.0
 10
88.71654864318545
 20
-118.1655693606496
 30
0.0
 10
88.79337427250653
 20
-118.2840806453422
 30
0.0
 10
88.98319903374379
 20
-118.2840806453422
 30
0.0
 10
89.17336830452957
 20
-118.2840806453422
 30
0.0
 10
89.25019393385065
 20
-118.1655693606496
 30
0.0
 10
89.25019393385065
 20
-118.0427517066004
 30
0.0
 10
89.25019393385065
 20
-117.9073594540301
 30
0.0
 10
89.15752086529743
 20
-117.8122748186372
 30
0.0
 10
88.98319903374379
 20
-117.8122748186372
 30
0.0
  0
HATCH
  5
E8
330
E1
100
AcDbEntity
  8
_U+30EC_U+30A4_U+30E4_U+30FC 1
 62
   179
420
  2234388
100
AcDbHatch
 10
0.0
 20
0.0
 30
0.0
210
0.0
220
0.0
230
1.0
  2
SOLID
 70
     1
 71
     0
 91
        3
 92
        1
 93
        1
 72
     4
 94
        3
 73
     0
 74
     1
 95
       29
 96
       25
 40
0.0
 40
0.0
 40
0.0
 40
0.0
 40
1.0
 40
1.0
 40
1.0
 40
2.0
 40
2.0
 40
2.0
 40
3.0
 40
3.0
 40
3.0
 40
4.0
 40
4.0
 40
4.0
 40
5.0
 40
5.0
 40
5.0
 40
6.0
 40
6.0
 40
6.0
 40
7.0
 40
7.0
 40
7.0
 40
8.0
 40
8.0
 40
8.0
 40
8.0
 10
88.98319903374379
 20
-119.2635212917987
 10
88.69863414666216
 20
-119.2635212917987
 10
88.42716062242447
 20
-119.125889727163
 10
88.42716062242447
 20
-118.7769015545072
 10
88.42716062242447
 20
-118.5209309599531
 10
88.5785725690012
 20
-118.4256740697859
 10
88.69174395569165
 20
-118.3643513701485
 10
88.55824650563822
 20
-118.3050957278022
 10
88.47694225218632
 20
-118.1908908124662
 10
88.47694225218632
 20
-118.0301771080793
 10
88.47694225218632
 20
-117.7550862335821
 10
88.68933238885198
 20
-117.6196939810117
 10
88.98319903374379
 20
-117.6196939810117
 10
89.28636743644577
 20
-117.6196939810117
 10
89.48962807007551
 20
-117.7635267175209
 10
89.48962807007551
 20
-118.0301771080793
 10
89.48962807007551
 20
-118.1908908124662
 10
89.40625675933246
 20
-118.3050957278022
 10
89.27258705450477
 20
-118.3643513701485
 10
89.36767168989768
 20
-118.4151665285559
 10
89.53717038777197
 20
-118.5104234187231
 10
89.53717038777197
 20
-118.7727674399249
 10
89.53717038777197
 20
-119.1470770643973
 10
89.23882511874933
 20
-119.2635212917987
 10
88.98319903374379
 20
-119.2635212917987
 97
        0
 97
        0
 92
        1
 93
        1
 72
     4
 94
        3
 73
     0
 74
     1
 95
       17
 96
       13
 40
0.0
 40
0.0
 40
0.0
 40
0.0
 40
1.0
 40
1.0
 40
1.0
 40
2.0
 40
2.0
 40
2.0
 40
3.0
 40
3.0
 40
3.0
 40
4.0
 40
4.0
 40
4.0
 40
4.0
 10
88.98319903374379
 20
-118.4723551136111
 10
88.82954777510164
 20
-118.4723551136111
 10
88.66693926819785
 20
-118.5589992650651
 10
88.66693926819785
 20
-118.7620876439206
 10
88.66693926819785
 20
-118.9672430800672
 10
88.80233152076818
 20
-119.0688733968821
 10
88.98319903374379
 20
-119.0688733968821
 10
89.18232555279123
 20
-119.0688733968821
 10
89.29980330883825
 20
-118.9462279976072
 10
89.29980330883825
 20
-118.7684610705683
 10
89.29980330883825
 20
-118.5462524117697
 10
89.12582598683314
 20
-118.4723551136111
 10
88.98319903374379
 20
-118.4723551136111
 97
        0
 97
        0
 92
        1
 93
        1
 72
     4
 94
        3
 73
     0
 74
     1
 95
       17
 96
       13
 40
0.0
 40
0.0
 40
0.0
 40
0.0
 40
1.0
 40
1.0
 40
1.0
 40
2.0
 40
2.0
 40
2.0
 40
3.0
 40
3.0
 40
3.0
 40
4.0
 40
4.0
 40
4.0
 40
4.0
 10
88.98319903374379
 20
-117.8122748186372
 10
88.80681014489899
 20
-117.8122748186372
 10
88.71654864318545
 20
-117.9073594540301
 10
88.71654864318545
 20
-118.0427517066004
 10
88.71654864318545
 20
-118.1655693606496
 10
88.79337427250653
 20
-118.2840806453422
 10
88.98319903374379
 20
-118.2840806453422
 10
89.17336830452957
 20
-118.2840806453422
 10
89.25019393385065
 20
-118.1655693606496
 10
89.25019393385065
 20
-118.0427517066004
 10
89.25019393385065
 20
-117.9073594540301
 10
89.15752086529743
 20
-117.8122748186372
 10
88.98319903374379
 20
-117.8122748186372
 97
        0
 97
        0
 75
     2
 76
     1
 98
        0
  0
ENDBLK
  5
E4
330
E1
100
AcDbEntity
  8
0
100
AcDbBlockEnd
  0
BLOCK
  5
F7
330
F5
100
AcDbEntity
  8
0
100
AcDbBlockBegin
  2
block 4
 70
     0
 10
0.0
 20
0.0
 30
0.0
  3
block 4
  1

  0
SPLINE
  5
F9
330
F5
100
AcDbEntity
  8
_U+30EC_U+30A4_U+30E4_U+30FC 1
370
     0
100
AcDbSpline
210
0.0
220
0.0
230
1.0
 70
    11
 71
     3
 72
    26
 73
    22
 74
     0
 42
0.0000000001
 43
0.0000000001
 12
1.0
 22
0.0
 32
0.0
 13
1.0
 23
0.0
 33
0.0
 40
0.0
 40
0.0
 40
0.0
 40
0.0
 40
1.0
 40
1.0
 40
1.0
 40
2.0
 40
2.0
 40
2.0
 40
3.0
 40
3.0
 40
3.0
 40
4.0
 40
4.0
 40
4.0
 40
5.0
 40
5.0
 40
5.0
 40
6.0
 40
6.0
 40
6.0
 40
7.0
 40
7.0
 40
7.0
 40
7.0
 10
96.38825952451405
 20
-119.2127061333913
 30
0.0
 10
96.38825952451405
 20
-119.2127061333913
 30
0.0
 10
96.1350450063482
 20
-119.2127061333913
 30
0.0
 10
96.1350450063482
 20
-119.2127061333913
 30
0.0
 10
96.16191675113313
 20
-118.9038533231386
 30
0.0
 10
96.36793346115108
 20
-118.3855387073828
 30
0.0
 10
96.80201549229255
 20
-117.8799709449224
 30
0.0
 10
96.80201549229255
 20
-117.8799709449224
 30
0.0
 10
95.90663517567613
 20
-117.8799709449224
 30
0.0
 10
95.90663517567613
 20
-117.8799709449224
 30
0.0
 10
95.90663517567613
 20
-117.8799709449224
 30
0.0
 10
95.90663517567613
 20
-117.668442082128
 30
0.0
 10
95.90663517567613
 20
-117.668442082128
 30
0.0
 10
95.90663517567613
 20
-117.668442082128
 30
0.0
 10
97.05523001045842
 20
-117.668442082128
 30
0.0
 10
97.05523001045842
 20
-117.668442082128
 30
0.0
 10
97.05523001045842
 20
-117.668442082128
 30
0.0
 10
97.05523001045842
 20
-117.8799709449224
 30
0.0
 10
97.05523001045842
 20
-117.8799709449224
 30
0.0
 10
96.70934242373933
 20
-118.1697034752319
 30
0.0
 10
96.42443302710917
 20
-118.7620876439206
 30
0.0
 10
96.38825952451405
 20
-119.2127061333913
 30
0.0
  0
HATCH
  5
FA
330
F5
100
AcDbEntity
  8
_U+30EC_U+30A4_U+30E4_U+30FC 1
 62
   179
420
  2234388
100
AcDbHatch
 10
0.0
 20
0.0
 30
0.0
210
0.0
220
0.0
230
1.0
  2
SOLID
 70
     1
 71
     0
 91
        1
 92
        1
 93
        1
 72
     4
 94
        3
 73
     0
 74
     1
 95
       26
 96
       22
 40
0.0
 40
0.0
 40
0.0
 40
0.0
 40
1.0
 40
1.0
 40
1.0
 40
2.0
 40
2.0
 40
2.0
 40
3.0
 40
3.0
 40
3.0
 40
4.0
 40
4.0
 40
4.0
 40
5.0
 40
5.0
 40
5.0
 40
6.0
 40
6.0
 40
6.0
 40
7.0
 40
7.0
 40
7.0
 40
7.0
 10
96.38825952451405
 20
-119.2127061333913
 10
96.38825952451405
 20
-119.2127061333913
 10
96.1350450063482
 20
-119.2127061333913
 10
96.1350450063482
 20
-119.2127061333913
 10
96.16191675113313
 20
-118.9038533231386
 10
96.36793346115108
 20
-118.3855387073828
 10
96.80201549229255
 20
-117.8799709449224
 10
96.80201549229255
 20
-117.8799709449224
 10
95.90663517567613
 20
-117.8799709449224
 10
95.90663517567613
 20
-117.8799709449224
 10
95.90663517567613
 20
-117.8799709449224
 10
95.90663517567613
 20
-117.668442082128
 10
95.90663517567613
 20
-117.668442082128
 10
95.90663517567613
 20
-117.668442082128
 10
97.05523001045842
 20
-117.668442082128
 10
97.05523001045842
 20
-117.668442082128
 10
97.05523001045842
 20
-117.668442082128
 10
97.05523001045842
 20
-117.8799709449224
 10
97.05523001045842
 20
-117.8799709449224
 10
96.70934242373933
 20
-118.1697034752319
 10
96.42443302710917
 20
-118.7620876439206
 10
96.38825952451405
 20
-119.2127061333913
 97
        0
 97
        0
 75
     2
 76
     1
 98
        0
  0
ENDBLK
  5
F8
330
F5
100
AcDbEntity
  8
0
100
AcDbBlockEnd
  0
BLOCK
  5
FD
330
FB
100
AcDbEntity
  8
0
100
AcDbBlockBegin
  2
block 5
 70
     0
 10
0.0
 20
0.0
 30
0.0
  3
block 5
  1

  0
SPLINE
  5
FF
330
FB
100
AcDbEntity
  8
_U+30EC_U+30A4_U+30E4_U+30FC 1
370
     0
100
AcDbSpline
210
0.0
220
0.0
230
1.0
 70
    11
 71
     3
 72
    62
 73
    58
 74
     0
 42
0.0000000001
 43
0.0000000001
 12
1.0
 22
0.0
 32
0.0
 13
1.0
 23
0.0
 33
0.0
 40
0.0
 40
0.0
 40
0.0
 40
0.0
 40
1.0
 40
1.0
 40
1.0
 40
2.0
 40
2.0
 40
2.0
 40
3.0
 40
3.0
 40
3.0
 40
4.0
 40
4.0
 40
4.0
 40
5.0
 40
5.0
 40
5.0
 40
6.0
 40
6.0
 40
6.0
 40
7.0
 40
7.0
 40
7.0
 40
8.0
 40
8.0
 40
8.0
 40
9.0
 40
9.0
 40
9.0
 40
10.0
 40
10.0
 40
10.0
 40
11.0
 40
11.0
 40
11.0
 40
12.0
 40
12.0
 40
12.0
 40
13.0
 40
13.0
 40
13.0
 40
14.0
 40
14.0
 40
14.0
 40
15.0
 40
15.0
 40
15.0
 40
16.0
 40
16.0
 40
16.0
 40
17.0
 40
17.0
 40
17.0
 40
18.0
 40
18.0
 40
18.0
 40
19.0
 40
19.0
 40
19.0
 40
19.0
 10
90.34538978861157
 20
-139.2717745962584
 30
0.0
 10
90.24375947179671
 20
-139.2717745962584
 30
0.0
 10
90.01087101699382
 20
-139.2507595137984
 30
0.0
 10
89.87754582171465
 20
-139.0647243575949
 30
0.0
 10
89.7983086255539
 20
-138.9524142447758
 30
0.0
 10
89.79383000142307
 20
-138.8531954948006
 30
0.0
 10
89.78935137729225
 20
-138.7684461458635
 30
0.0
 10
89.78935137729225
 20
-138.7684461458635
 30
0.0
 10
90.0243068893863
 20
-138.7684461458635
 30
0.0
 10
90.0243068893863
 20
-138.7684461458635
 30
0.0
 10
90.02671845622596
 20
-138.8425156987963
 30
0.0
 10
90.03808727132729
 20
-139.0771267013418
 30
0.0
 10
90.34091116448074
 20
-139.0771267013418
 30
0.0
 10
90.48801674170092
 20
-139.0771267013418
 30
0.0
 10
90.65062524860471
 20
-139.0075357725398
 30
0.0
 10
90.65062524860471
 20
-138.7791259418677
 30
0.0
 10
90.65062524860471
 20
-138.6626817144663
 30
0.0
 10
90.60997312187877
 20
-138.6141058681243
 30
0.0
 10
90.57621118612332
 20
-138.58241098966
 30
0.0
 10
90.49697398996257
 20
-138.5083414367271
 30
0.0
 10
90.37260604294505
 20
-138.4955945834317
 30
0.0
 10
90.31369491014728
 20
-138.4955945834317
 30
0.0
 10
90.2933688467843
 20
-138.4955945834317
 30
0.0
 10
90.25512828689803
 20
-138.4976616407228
 30
0.0
 10
90.22550046572488
 20
-138.5017957553051
 30
0.0
 10
90.22550046572488
 20
-138.5017957553051
 30
0.0
 10
90.22550046572488
 20
-138.3071478603885
 30
0.0
 10
90.22550046572488
 20
-138.3071478603885
 30
0.0
 10
90.26615259245082
 20
-138.3136935418105
 30
0.0
 10
90.31162785285612
 20
-138.3157605991016
 30
0.0
 10
90.3181735342781
 20
-138.3157605991016
 30
0.0
 10
90.3884534821772
 20
-138.3157605991016
 30
0.0
 10
90.60101587361711
 20
-138.2944010070931
 30
0.0
 10
90.60101587361711
 20
-138.0577229472564
 30
0.0
 10
90.60101587361711
 20
-137.8799560202175
 30
0.0
 10
90.46080048736744
 20
-137.8248344924535
 30
0.0
 10
90.34332273132043
 20
-137.8248344924535
 30
0.0
 10
90.06048039198141
 20
-137.8248344924535
 30
0.0
 10
90.05152314371976
 20
-138.0577229472564
 30
0.0
 10
90.04704451958894
 20
-138.1293809333496
 30
0.0
 10
90.04704451958894
 20
-138.1293809333496
 30
0.0
 10
89.8300035040182
 20
-138.1293809333496
 30
0.0
 10
89.8300035040182
 20
-138.1293809333496
 30
0.0
 10
89.83896075227985
 20
-138.0046684767836
 30
0.0
 10
89.86824406390447
 20
-137.6281195402458
 30
0.0
 10
90.3567586037129
 20
-137.6281195402458
 30
0.0
 10
90.59653724948629
 20
-137.6281195402458
 30
0.0
 10
90.85423039178298
 20
-137.7552435636515
 30
0.0
 10
90.85423039178298
 20
-138.0511772658344
 30
0.0
 10
90.85423039178298
 20
-138.2375569315865
 30
0.0
 10
90.75225556541957
 20
-138.3198947136839
 30
0.0
 10
90.64614662447389
 20
-138.3812174133214
 30
0.0
 10
90.71160343869363
 20
-138.4087781772034
 30
0.0
 10
90.90625133361024
 20
-138.4890489020097
 30
0.0
 10
90.90625133361024
 20
-138.7663790885723
 30
0.0
 10
90.90625133361024
 20
-139.1046874652238
 30
0.0
 10
90.64166800034306
 20
-139.2717745962584
 30
0.0
 10
90.34538978861157
 20
-139.2717745962584
 30
0.0
  0
HATCH
  5
100
330
FB
100
AcDbEntity
  8
_U+30EC_U+30A4_U+30E4_U+30FC 1
 62
   179
420
  2234388
100
AcDbHatch
 10
0.0
 20
0.0
 30
0.0
210
0.0
220
0.0
230
1.0
  2
SOLID
 70
     1
 71
     0
 91
        1
 92
        1
 93
        1
 72
     4
 94
        3
 73
     0
 74
     1
 95
       62
 96
       58
 40
0.0
 40
0.0
 40
0.0
 40
0.0
 40
1.0
 40
1.0
 40
1.0
 40
2.0
 40
2.0
 40
2.0
 40
3.0
 40
3.0
 40
3.0
 40
4.0
 40
4.0
 40
4.0
 40
5.0
 40
5.0
 40
5.0
 40
6.0
 40
6.0
 40
6.0
 40
7.0
 40
7.0
 40
7.0
 40
8.0
 40
8.0
 40
8.0
 40
9.0
 40
9.0
 40
9.0
 40
10.0
 40
10.0
 40
10.0
 40
11.0
 40
11.0
 40
11.0
 40
12.0
 40
12.0
 40
12.0
 40
13.0
 40
13.0
 40
13.0
 40
14.0
 40
14.0
 40
14.0
 40
15.0
 40
15.0
 40
15.0
 40
16.0
 40
16.0
 40
16.0
 40
17.0
 40
17.0
 40
17.0
 40
18.0
 40
18.0
 40
18.0
 40
19.0
 40
19.0
 40
19.0
 40
19.0
 10
90.34538978861157
 20
-139.2717745962584
 10
90.24375947179671
 20
-139.2717745962584
 10
90.01087101699382
 20
-139.2507595137984
 10
89.87754582171465
 20
-139.0647243575949
 10
89.7983086255539
 20
-138.9524142447758
 10
89.79383000142307
 20
-138.8531954948006
 10
89.78935137729225
 20
-138.7684461458635
 10
89.78935137729225
 20
-138.7684461458635
 10
90.0243068893863
 20
-138.7684461458635
 10
90.0243068893863
 20
-138.7684461458635
 10
90.02671845622596
 20
-138.8425156987963
 10
90.03808727132729
 20
-139.0771267013418
 10
90.34091116448074
 20
-139.0771267013418
 10
90.48801674170092
 20
-139.0771267013418
 10
90.65062524860471
 20
-139.0075357725398
 10
90.65062524860471
 20
-138.7791259418677
 10
90.65062524860471
 20
-138.6626817144663
 10
90.60997312187877
 20
-138.6141058681243
 10
90.57621118612332
 20
-138.58241098966
 10
90.49697398996257
 20
-138.5083414367271
 10
90.37260604294505
 20
-138.4955945834317
 10
90.31369491014728
 20
-138.4955945834317
 10
90.2933688467843
 20
-138.4955945834317
 10
90.25512828689803
 20
-138.4976616407228
 10
90.22550046572488
 20
-138.5017957553051
 10
90.22550046572488
 20
-138.5017957553051
 10
90.22550046572488
 20
-138.3071478603885
 10
90.22550046572488
 20
-138.3071478603885
 10
90.26615259245082
 20
-138.3136935418105
 10
90.31162785285612
 20
-138.3157605991016
 10
90.3181735342781
 20
-138.3157605991016
 10
90.3884534821772
 20
-138.3157605991016
 10
90.60101587361711
 20
-138.2944010070931
 10
90.60101587361711
 20
-138.0577229472564
 10
90.60101587361711
 20
-137.8799560202175
 10
90.46080048736744
 20
-137.8248344924535
 10
90.34332273132043
 20
-137.8248344924535
 10
90.06048039198141
 20
-137.8248344924535
 10
90.05152314371976
 20
-138.0577229472564
 10
90.04704451958894
 20
-138.1293809333496
 10
90.04704451958894
 20
-138.1293809333496
 10
89.8300035040182
 20
-138.1293809333496
 10
89.8300035040182
 20
-138.1293809333496
 10
89.83896075227985
 20
-138.0046684767836
 10
89.86824406390447
 20
-137.6281195402458
 10
90.3567586037129
 20
-137.6281195402458
 10
90.59653724948629
 20
-137.6281195402458
 10
90.85423039178298
 20
-137.7552435636515
 10
90.85423039178298
 20
-138.0511772658344
 10
90.85423039178298
 20
-138.2375569315865
 10
90.75225556541957
 20
-138.3198947136839
 10
90.64614662447389
 20
-138.3812174133214
 10
90.71160343869363
 20
-138.4087781772034
 10
90.90625133361024
 20
-138.4890489020097
 10
90.90625133361024
 20
-138.7663790885723
 10
90.90625133361024
 20
-139.1046874652238
 10
90.64166800034306
 20
-139.2717745962584
 10
90.34538978861157
 20
-139.2717745962584
 97
        0
 97
        0
 75
     2
 76
     1
 98
        0
  0
SPLINE
  5
101
330
FB
100
AcDbEntity
  8
_U+30EC_U+30A4_U+30E4_U+30FC 1
370
     0
100
AcDbSpline
210
0.0
220
0.0
230
1.0
 70
    11
 71
     3
 72
    29
 73
    25
 74
     0
 42
0.0000000001
 43
0.0000000001
 12
1.0
 22
0.0
 32
0.0
 13
1.0
 23
0.0
 33
0.0
 40
0.0
 40
0.0
 40
0.0
 40
0.0
 40
1.0
 40
1.0
 40
1.0
 40
2.0
 40
2.0
 40
2.0
 40
3.0
 40
3.0
 40
3.0
 40
4.0
 40
4.0
 40
4.0
 40
5.0
 40
5.0
 40
5.0
 40
6.0
 40
6.0
 40
6.0
 40
7.0
 40
7.0
 40
7.0
 40
8.0
 40
8.0
 40
8.0
 40
8.0
 10
92.03710392664351
 20
-139.0433647655864
 30
0.0
 10
91.92169322788763
 20
-139.2528265710896
 30
0.0
 10
91.7363470907812
 20
-139.2717745962584
 30
0.0
 10
91.61197914376368
 20
-139.2717745962584
 30
0.0
 10
91.44041338859823
 20
-139.2717745962584
 30
0.0
 10
91.2890014420215
 20
-139.2252658072076
 30
0.0
 10
91.18737112520664
 20
-139.0433647655864
 30
0.0
 10
91.07643905058158
 20
-138.8487168706698
 30
0.0
 10
91.05611298721861
 20
-138.6120388108331
 30
0.0
 10
91.05611298721861
 20
-138.4490857943808
 30
0.0
 10
91.05611298721861
 20
-138.3050808030974
 30
0.0
 10
91.07437199329044
 20
-138.0532443231256
 30
0.0
 10
91.18737112520664
 20
-137.8544623136267
 30
0.0
 10
91.30243731441398
 20
-137.6515461895455
 30
0.0
 10
91.47417532435368
 20
-137.6281195402458
 30
0.0
 10
91.61197914376368
 20
-137.6281195402458
 30
0.0
 10
91.78182235118649
 20
-137.6281195402458
 30
0.0
 10
91.93547360982863
 20
-137.6725612720055
 30
0.0
 10
92.03710392664351
 20
-137.8544623136267
 30
0.0
 10
92.14355737713772
 20
-138.0470431512521
 30
0.0
 10
92.16836206463152
 20
-138.2754529819242
 30
0.0
 10
92.16836206463152
 20
-138.4490857943808
 30
0.0
 10
92.16836206463152
 20
-138.6203070399977
 30
0.0
 10
92.14562443442888
 20
-138.8507839279609
 30
0.0
 10
92.03710392664351
 20
-139.0433647655864
 30
0.0
  0
SPLINE
  5
102
330
FB
100
AcDbEntity
  8
_U+30EC_U+30A4_U+30E4_U+30FC 1
370
     0
100
AcDbSpline
210
0.0
220
0.0
230
1.0
 70
    11
 71
     3
 72
    17
 73
    13
 74
     0
 42
0.0000000001
 43
0.0000000001
 12
1.0
 22
0.0
 32
0.0
 13
1.0
 23
0.0
 33
0.0
 40
0.0
 40
0.0
 40
0.0
 40
0.0
 40
1.0
 40
1.0
 40
1.0
 40
2.0
 40
2.0
 40
2.0
 40
3.0
 40
3.0
 40
3.0
 40
4.0
 40
4.0
 40
4.0
 40
4.0
 10
91.61197914376368
 20
-137.8207003778712
 30
0.0
 10
91.3455010079796
 20
-137.8207003778712
 30
0.0
 10
91.29589163299201
 20
-138.1042317363073
 30
0.0
 10
91.29589163299201
 20
-138.4490857943808
 30
0.0
 10
91.29589163299201
 20
-138.7684461458635
 30
0.0
 10
91.33413219287827
 20
-139.0771267013418
 30
0.0
 10
91.61197914376368
 20
-139.0771267013418
 30
0.0
 10
91.87656247703086
 20
-139.0771267013418
 30
0.0
 10
91.92858341885814
 20
-138.7960069097454
 30
0.0
 10
91.92858341885814
 20
-138.4490857943808
 30
0.0
 10
91.92858341885814
 20
-138.1293809333496
 30
0.0
 10
91.8879312921322
 20
-137.8207003778712
 30
0.0
 10
91.61197914376368
 20
-137.8207003778712
 30
0.0
  0
HATCH
  5
103
330
FB
100
AcDbEntity
  8
_U+30EC_U+30A4_U+30E4_U+30FC 1
 62
   179
420
  2234388
100
AcDbHatch
 10
0.0
 20
0.0
 30
0.0
210
0.0
220
0.0
230
1.0
  2
SOLID
 70
     1
 71
     0
 91
        2
 92
        1
 93
        1
 72
     4
 94
        3
 73
     0
 74
     1
 95
       29
 96
       25
 40
0.0
 40
0.0
 40
0.0
 40
0.0
 40
1.0
 40
1.0
 40
1.0
 40
2.0
 40
2.0
 40
2.0
 40
3.0
 40
3.0
 40
3.0
 40
4.0
 40
4.0
 40
4.0
 40
5.0
 40
5.0
 40
5.0
 40
6.0
 40
6.0
 40
6.0
 40
7.0
 40
7.0
 40
7.0
 40
8.0
 40
8.0
 40
8.0
 40
8.0
 10
92.03710392664351
 20
-139.0433647655864
 10
91.92169322788763
 20
-139.2528265710896
 10
91.7363470907812
 20
-139.2717745962584
 10
91.61197914376368
 20
-139.2717745962584
 10
91.44041338859823
 20
-139.2717745962584
 10
91.2890014420215
 20
-139.2252658072076
 10
91.18737112520664
 20
-139.0433647655864
 10
91.07643905058158
 20
-138.8487168706698
 10
91.05611298721861
 20
-138.6120388108331
 10
91.05611298721861
 20
-138.4490857943808
 10
91.05611298721861
 20
-138.3050808030974
 10
91.07437199329044
 20
-138.0532443231256
 10
91.18737112520664
 20
-137.8544623136267
 10
91.30243731441398
 20
-137.6515461895455
 10
91.47417532435368
 20
-137.6281195402458
 10
91.61197914376368
 20
-137.6281195402458
 10
91.78182235118649
 20
-137.6281195402458
 10
91.93547360982863
 20
-137.6725612720055
 10
92.03710392664351
 20
-137.8544623136267
 10
92.14355737713772
 20
-138.0470431512521
 10
92.16836206463152
 20
-138.2754529819242
 10
92.16836206463152
 20
-138.4490857943808
 10
92.16836206463152
 20
-138.6203070399977
 10
92.14562443442888
 20
-138.8507839279609
 10
92.03710392664351
 20
-139.0433647655864
 97
        0
 97
        0
 92
        1
 93
        1
 72
     4
 94
        3
 73
     0
 74
     1
 95
       17
 96
       13
 40
0.0
 40
0.0
 40
0.0
 40
0.0
 40
1.0
 40
1.0
 40
1.0
 40
2.0
 40
2.0
 40
2.0
 40
3.0
 40
3.0
 40
3.0
 40
4.0
 40
4.0
 40
4.0
 40
4.0
 10
91.61197914376368
 20
-137.8207003778712
 10
91.3455010079796
 20
-137.8207003778712
 10
91.29589163299201
 20
-138.1042317363073
 10
91.29589163299201
 20
-138.4490857943808
 10
91.29589163299201
 20
-138.7684461458635
 10
91.33413219287827
 20
-139.0771267013418
 10
91.61197914376368
 20
-139.0771267013418
 10
91.87656247703086
 20
-139.0771267013418
 10
91.92858341885814
 20
-138.7960069097454
 10
91.92858341885814
 20
-138.4490857943808
 10
91.92858341885814
 20
-138.1293809333496
 10
91.8879312921322
 20
-137.8207003778712
 10
91.61197914376368
 20
-137.8207003778712
 97
        0
 97
        0
 75
     2
 76
     1
 98
        0
  0
ENDBLK
  5
FE
330
FB
100
AcDbEntity
  8
0
100
AcDbBlockEnd
  0
BLOCK
  5
112
330
110
100
AcDbEntity
  8
0
100
AcDbBlockBegin
  2
block 6
 70
     0
 10
0.0
 20
0.0
 30
0.0
  3
block 6
  1

  0
SPLINE
  5
114
330
110
100
AcDbEntity
  8
_U+30EC_U+30A4_U+30E4_U+30FC 1
370
     0
100
AcDbSpline
210
0.0
220
0.0
230
1.0
 70
    11
 71
     3
 72
    26
 73
    22
 74
     0
 42
0.0000000001
 43
0.0000000001
 12
1.0
 22
0.0
 32
0.0
 13
1.0
 23
0.0
 33
0.0
 40
0.0
 40
0.0
 40
0.0
 40
0.0
 40
1.0
 40
1.0
 40
1.0
 40
2.0
 40
2.0
 40
2.0
 40
3.0
 40
3.0
 40
3.0
 40
4.0
 40
4.0
 40
4.0
 40
5.0
 40
5.0
 40
5.0
 40
6.0
 40
6.0
 40
6.0
 40
7.0
 40
7.0
 40
7.0
 40
7.0
 10
103.33770613736
 20
-130.5398355793442
 30
0.0
 10
103.33770613736
 20
-130.5398355793442
 30
0.0
 10
102.2335530343374
 20
-130.5398355793442
 30
0.0
 10
102.2335530343374
 20
-130.5398355793442
 30
0.0
 10
102.2335530343374
 20
-130.5398355793442
 30
0.0
 10
102.2335530343374
 20
-130.8922688474853
 30
0.0
 10
102.2335530343374
 20
-130.8922688474853
 30
0.0
 10
102.2335530343374
 20
-130.8922688474853
 30
0.0
 10
102.0854139284717
 20
-130.8922688474853
 30
0.0
 10
102.0854139284717
 20
-130.8922688474853
 30
0.0
 10
102.0706000178851
 20
-130.5374240125045
 30
0.0
 10
101.9076470014328
 20
-130.4878146375169
 30
0.0
 10
101.7932698313225
 20
-130.4561197590527
 30
0.0
 10
101.7932698313225
 20
-130.4561197590527
 30
0.0
 10
101.7932698313225
 20
-130.3000569335708
 30
0.0
 10
101.7932698313225
 20
-130.3000569335708
 30
0.0
 10
101.7932698313225
 20
-130.3000569335708
 30
0.0
 10
103.33770613736
 20
-130.3000569335708
 30
0.0
 10
103.33770613736
 20
-130.3000569335708
 30
0.0
 10
103.33770613736
 20
-130.3000569335708
 30
0.0
 10
103.33770613736
 20
-130.5398355793442
 30
0.0
 10
103.33770613736
 20
-130.5398355793442
 30
0.0
  0
HATCH
  5
115
330
110
100
AcDbEntity
  8
_U+30EC_U+30A4_U+30E4_U+30FC 1
 62
   179
420
  2234388
100
AcDbHatch
 10
0.0
 20
0.0
 30
0.0
210
0.0
220
0.0
230
1.0
  2
SOLID
 70
     1
 71
     0
 91
        1
 92
        1
 93
        1
 72
     4
 94
        3
 73
     0
 74
     1
 95
       26
 96
       22
 40
0.0
 40
0.0
 40
0.0
 40
0.0
 40
1.0
 40
1.0
 40
1.0
 40
2.0
 40
2.0
 40
2.0
 40
3.0
 40
3.0
 40
3.0
 40
4.0
 40
4.0
 40
4.0
 40
5.0
 40
5.0
 40
5.0
 40
6.0
 40
6.0
 40
6.0
 40
7.0
 40
7.0
 40
7.0
 40
7.0
 10
103.33770613736
 20
-130.5398355793442
 10
103.33770613736
 20
-130.5398355793442
 10
102.2335530343374
 20
-130.5398355793442
 10
102.2335530343374
 20
-130.5398355793442
 10
102.2335530343374
 20
-130.5398355793442
 10
102.2335530343374
 20
-130.8922688474853
 10
102.2335530343374
 20
-130.8922688474853
 10
102.2335530343374
 20
-130.8922688474853
 10
102.0854139284717
 20
-130.8922688474853
 10
102.0854139284717
 20
-130.8922688474853
 10
102.0706000178851
 20
-130.5374240125045
 10
101.9076470014328
 20
-130.4878146375169
 10
101.7932698313225
 20
-130.4561197590527
 10
101.7932698313225
 20
-130.4561197590527
 10
101.7932698313225
 20
-130.3000569335708
 10
101.7932698313225
 20
-130.3000569335708
 10
101.7932698313225
 20
-130.3000569335708
 10
103.33770613736
 20
-130.3000569335708
 10
103.33770613736
 20
-130.3000569335708
 10
103.33770613736
 20
-130.3000569335708
 10
103.33770613736
 20
-130.5398355793442
 10
103.33770613736
 20
-130.5398355793442
 97
        0
 97
        0
 75
     2
 76
     1
 98
        0
  0
SPLINE
  5
116
330
110
100
AcDbEntity
  8
_U+30EC_U+30A4_U+30E4_U+30FC 1
370
     0
100
AcDbSpline
210
0.0
220
0.0
230
1.0
 70
    11
 71
     3
 72
    29
 73
    25
 74
     0
 42
0.0000000001
 43
0.0000000001
 12
1.0
 22
0.0
 32
0.0
 13
1.0
 23
0.0
 33
0.0
 40
0.0
 40
0.0
 40
0.0
 40
0.0
 40
1.0
 40
1.0
 40
1.0
 40
2.0
 40
2.0
 40
2.0
 40
3.0
 40
3.0
 40
3.0
 40
4.0
 40
4.0
 40
4.0
 40
5.0
 40
5.0
 40
5.0
 40
6.0
 40
6.0
 40
6.0
 40
7.0
 40
7.0
 40
7.0
 40
8.0
 40
8.0
 40
8.0
 40
8.0
 10
103.1599392103211
 20
-128.8048854929724
 30
0.0
 10
103.3694010158243
 20
-128.9202961917283
 30
0.0
 10
103.3883490409932
 20
-129.1056423288347
 30
0.0
 10
103.3883490409932
 20
-129.2300102758522
 30
0.0
 10
103.3883490409932
 20
-129.4015760310177
 30
0.0
 10
103.3418402519423
 20
-129.5531602323687
 30
0.0
 10
103.1599392103211
 20
-129.6547905491835
 30
0.0
 10
102.9652913154045
 20
-129.7657226238086
 30
0.0
 10
102.7286132555679
 20
-129.7860486871716
 30
0.0
 10
102.5656602391155
 20
-129.7860486871716
 30
0.0
 10
102.4216552478321
 20
-129.7860486871716
 30
0.0
 10
102.1698187678603
 20
-129.7677896810997
 30
0.0
 10
101.9710367583614
 20
-129.6547905491835
 30
0.0
 10
101.7681206342802
 20
-129.5397243599762
 30
0.0
 10
101.7446939849805
 20
-129.3678140952622
 30
0.0
 10
101.7446939849805
 20
-129.2300102758522
 30
0.0
 10
101.7446939849805
 20
-129.0601670684294
 30
0.0
 10
101.7891357167402
 20
-128.9065158097873
 30
0.0
 10
101.9710367583614
 20
-128.8048854929724
 30
0.0
 10
102.1636175959869
 20
-128.6984320424782
 30
0.0
 10
102.3920274266589
 20
-128.6736273549844
 30
0.0
 10
102.5656602391155
 20
-128.6736273549844
 30
0.0
 10
102.7368814847325
 20
-128.6736273549844
 30
0.0
 10
102.9673583726957
 20
-128.696364985187
 30
0.0
 10
103.1599392103211
 20
-128.8048854929724
 30
0.0
  0
SPLINE
  5
117
330
110
100
AcDbEntity
  8
_U+30EC_U+30A4_U+30E4_U+30FC 1
370
     0
100
AcDbSpline
210
0.0
220
0.0
230
1.0
 70
    11
 71
     3
 72
    17
 73
    13
 74
     0
 42
0.0000000001
 43
0.0000000001
 12
1.0
 22
0.0
 32
0.0
 13
1.0
 23
0.0
 33
0.0
 40
0.0
 40
0.0
 40
0.0
 40
0.0
 40
1.0
 40
1.0
 40
1.0
 40
2.0
 40
2.0
 40
2.0
 40
3.0
 40
3.0
 40
3.0
 40
4.0
 40
4.0
 40
4.0
 40
4.0
 10
101.937274822606
 20
-129.2300102758522
 30
0.0
 10
101.937274822606
 20
-129.4966606664106
 30
0.0
 10
102.220806181042
 20
-129.5462700413982
 30
0.0
 10
102.5656602391155
 20
-129.5462700413982
 30
0.0
 10
102.8850205905982
 20
-129.5462700413982
 30
0.0
 10
103.1937011460766
 20
-129.5080294815119
 30
0.0
 10
103.1937011460766
 20
-129.2300102758522
 30
0.0
 10
103.1937011460766
 20
-128.965426942585
 30
0.0
 10
102.9125813544802
 20
-128.9134060007578
 30
0.0
 10
102.5656602391155
 20
-128.9134060007578
 30
0.0
 10
102.2459553780843
 20
-128.9134060007578
 30
0.0
 10
101.937274822606
 20
-128.9540581274837
 30
0.0
 10
101.937274822606
 20
-129.2300102758522
 30
0.0
  0
HATCH
  5
118
330
110
100
AcDbEntity
  8
_U+30EC_U+30A4_U+30E4_U+30FC 1
 62
   179
420
  2234388
100
AcDbHatch
 10
0.0
 20
0.0
 30
0.0
210
0.0
220
0.0
230
1.0
  2
SOLID
 70
     1
 71
     0
 91
        2
 92
        1
 93
        1
 72
     4
 94
        3
 73
     0
 74
     1
 95
       29
 96
       25
 40
0.0
 40
0.0
 40
0.0
 40
0.0
 40
1.0
 40
1.0
 40
1.0
 40
2.0
 40
2.0
 40
2.0
 40
3.0
 40
3.0
 40
3.0
 40
4.0
 40
4.0
 40
4.0
 40
5.0
 40
5.0
 40
5.0
 40
6.0
 40
6.0
 40
6.0
 40
7.0
 40
7.0
 40
7.0
 40
8.0
 40
8.0
 40
8.0
 40
8.0
 10
103.1599392103211
 20
-128.8048854929724
 10
103.3694010158243
 20
-128.9202961917283
 10
103.3883490409932
 20
-129.1056423288347
 10
103.3883490409932
 20
-129.2300102758522
 10
103.3883490409932
 20
-129.4015760310177
 10
103.3418402519423
 20
-129.5531602323687
 10
103.1599392103211
 20
-129.6547905491835
 10
102.9652913154045
 20
-129.7657226238086
 10
102.7286132555679
 20
-129.7860486871716
 10
102.5656602391155
 20
-129.7860486871716
 10
102.4216552478321
 20
-129.7860486871716
 10
102.1698187678603
 20
-129.7677896810997
 10
101.9710367583614
 20
-129.6547905491835
 10
101.7681206342802
 20
-129.5397243599762
 10
101.7446939849805
 20
-129.3678140952622
 10
101.7446939849805
 20
-129.2300102758522
 10
101.7446939849805
 20
-129.0601670684294
 10
101.7891357167402
 20
-128.9065158097873
 10
101.9710367583614
 20
-128.8048854929724
 10
102.1636175959869
 20
-128.6984320424782
 10
102.3920274266589
 20
-128.6736273549844
 10
102.5656602391155
 20
-128.6736273549844
 10
102.7368814847325
 20
-128.6736273549844
 10
102.9673583726957
 20
-128.696364985187
 10
103.1599392103211
 20
-128.8048854929724
 97
        0
 97
        0
 92
        1
 93
        1
 72
     4
 94
        3
 73
     0
 74
     1
 95
       17
 96
       13
 40
0.0
 40
0.0
 40
0.0
 40
0.0
 40
1.0
 40
1.0
 40
1.0
 40
2.0
 40
2.0
 40
2.0
 40
3.0
 40
3.0
 40
3.0
 40
4.0
 40
4.0
 40
4.0
 40
4.0
 10
101.937274822606
 20
-129.2300102758522
 10
101.937274822606
 20
-129.4966606664106
 10
102.220806181042
 20
-129.5462700413982
 10
102.5656602391155
 20
-129.5462700413982
 10
102.8850205905982
 20
-129.5462700413982
 10
103.1937011460766
 20
-129.5080294815119
 10
103.1937011460766
 20
-129.2300102758522
 10
103.1937011460766
 20
-128.965426942585
 10
102.9125813544802
 20
-128.9134060007578
 10
102.5656602391155
 20
-128.9134060007578
 10
102.2459553780843
 20
-128.9134060007578
 10
101.937274822606
 20
-128.9540581274837
 10
101.937274822606
 20
-129.2300102758522
 97
        0
 97
        0
 75
     2
 76
     1
 98
        0
  0
ENDBLK
  5
113
330
110
100
AcDbEntity
  8
0
100
AcDbBlockEnd
  0
BLOCK
  5
125
330
123
100
AcDbEntity
  8
0
100
AcDbBlockBegin
  2
block 7
 70
     0
 10
0.0
 20
0.0
 30
0.0
  3
block 7
  1

  0
SPLINE
  5
127
330
123
100
AcDbEntity
  8
_U+30EC_U+30A4_U+30E4_U+30FC 1
370
     0
100
AcDbSpline
210
0.0
220
0.0
230
1.0
 70
    11
 71
     3
 72
    26
 73
    22
 74
     0
 42
0.0000000001
 43
0.0000000001
 12
1.0
 22
0.0
 32
0.0
 13
1.0
 23
0.0
 33
0.0
 40
0.0
 40
0.0
 40
0.0
 40
0.0
 40
1.0
 40
1.0
 40
1.0
 40
2.0
 40
2.0
 40
2.0
 40
3.0
 40
3.0
 40
3.0
 40
4.0
 40
4.0
 40
4.0
 40
5.0
 40
5.0
 40
5.0
 40
6.0
 40
6.0
 40
6.0
 40
7.0
 40
7.0
 40
7.0
 40
7.0
 10
87.94329696152113
 20
-130.9422227320214
 30
0.0
 10
87.94329696152113
 20
-130.9422227320214
 30
0.0
 10
87.94329696152113
 20
-129.8380696289988
 30
0.0
 10
87.94329696152113
 20
-129.8380696289988
 30
0.0
 10
87.94329696152113
 20
-129.8380696289988
 30
0.0
 10
87.5906914386058
 20
-129.8380696289988
 30
0.0
 10
87.5906914386058
 20
-129.8380696289988
 30
0.0
 10
87.5906914386058
 20
-129.8380696289988
 30
0.0
 10
87.5906914386058
 20
-129.6899305231331
 30
0.0
 10
87.5906914386058
 20
-129.6899305231331
 30
0.0
 10
87.9457085283608
 20
-129.6751166125465
 30
0.0
 10
87.9953179033484
 20
-129.5121635960942
 30
0.0
 10
88.0270127818127
 20
-129.3981309355324
 30
0.0
 10
88.0270127818127
 20
-129.3981309355324
 30
0.0
 10
88.18307560729451
 20
-129.3981309355324
 30
0.0
 10
88.18307560729451
 20
-129.3981309355324
 30
0.0
 10
88.18307560729451
 20
-129.3981309355324
 30
0.0
 10
88.18307560729451
 20
-130.9422227320214
 30
0.0
 10
88.18307560729451
 20
-130.9422227320214
 30
0.0
 10
88.18307560729451
 20
-130.9422227320214
 30
0.0
 10
87.94329696152113
 20
-130.9422227320214
 30
0.0
 10
87.94329696152113
 20
-130.9422227320214
 30
0.0
  0
HATCH
  5
128
330
123
100
AcDbEntity
  8
_U+30EC_U+30A4_U+30E4_U+30FC 1
 62
   179
420
  2234388
100
AcDbHatch
 10
0.0
 20
0.0
 30
0.0
210
0.0
220
0.0
230
1.0
  2
SOLID
 70
     1
 71
     0
 91
        1
 92
        1
 93
        1
 72
     4
 94
        3
 73
     0
 74
     1
 95
       26
 96
       22
 40
0.0
 40
0.0
 40
0.0
 40
0.0
 40
1.0
 40
1.0
 40
1.0
 40
2.0
 40
2.0
 40
2.0
 40
3.0
 40
3.0
 40
3.0
 40
4.0
 40
4.0
 40
4.0
 40
5.0
 40
5.0
 40
5.0
 40
6.0
 40
6.0
 40
6.0
 40
7.0
 40
7.0
 40
7.0
 40
7.0
 10
87.94329696152113
 20
-130.9422227320214
 10
87.94329696152113
 20
-130.9422227320214
 10
87.94329696152113
 20
-129.8380696289988
 10
87.94329696152113
 20
-129.8380696289988
 10
87.94329696152113
 20
-129.8380696289988
 10
87.5906914386058
 20
-129.8380696289988
 10
87.5906914386058
 20
-129.8380696289988
 10
87.5906914386058
 20
-129.8380696289988
 10
87.5906914386058
 20
-129.6899305231331
 10
87.5906914386058
 20
-129.6899305231331
 10
87.9457085283608
 20
-129.6751166125465
 10
87.9953179033484
 20
-129.5121635960942
 10
88.0270127818127
 20
-129.3981309355324
 10
88.0270127818127
 20
-129.3981309355324
 10
88.18307560729451
 20
-129.3981309355324
 10
88.18307560729451
 20
-129.3981309355324
 10
88.18307560729451
 20
-129.3981309355324
 10
88.18307560729451
 20
-130.9422227320214
 10
88.18307560729451
 20
-130.9422227320214
 10
88.18307560729451
 20
-130.9422227320214
 10
87.94329696152113
 20
-130.9422227320214
 10
87.94329696152113
 20
-130.9422227320214
 97
        0
 97
        0
 75
     2
 76
     1
 98
        0
  0
ENDBLK
  5
126
330
123
100
AcDbEntity
  8
0
100
AcDbBlockEnd
  0
ENDSEC
  0
SECTION
  2
ENTITIES
  0
POLYLINE
  5
41
330
1F
100
AcDbEntity
  8
_U+30EC_U+30A4_U+30E4_U+30FC 1
 62
   179
420
  2234388
370
     9
100
AcDb2dPolyline
 66
     1
 10
0.0
 20
0.0
 30
0.0
  0
VERTEX
  5
42
330
41
100
AcDbEntity
  8
_U+30EC_U+30A4_U+30E4_U+30FC 1
 62
   179
420
  2234388
370
     9
100
AcDbVertex
100
AcDb2dVertex
 10
75.98501528368298
 20
-139.8588205205906
 30
0.0
  0
VERTEX
  5
43
330
41
100
AcDbEntity
  8
_U+30EC_U+30A4_U+30E4_U+30FC 1
 62
   179
420
  2234388
370
     9
100
AcDbVertex
100
AcDb2dVertex
 10
105.9849192405439
 20
-139.8588205205906
 30
0.0
  0
SEQEND
  5
44
330
41
100
AcDbEntity
  8
_U+30EC_U+30A4_U+30E4_U+30FC 1
 62
   179
420
  2234388
370
     9
  0
POLYLINE
  5
45
330
1F
100
AcDbEntity
  8
_U+30EC_U+30A4_U+30E4_U+30FC 1
 62
   179
420
  2234388
370
     9
100
AcDb2dPolyline
 66
     1
 10
0.0
 20
0.0
 30
0.0
  0
VERTEX
  5
46
330
45
100
AcDbEntity
  8
_U+30EC_U+30A4_U+30E4_U+30FC 1
 62
   179
420
  2234388
370
     9
100
AcDbVertex
100
AcDb2dVertex
 10
75.98501528368298
 20
-138.3987791320669
 30
0.0
  0
VERTEX
  5
47
330
45
100
AcDbEntity
  8
_U+30EC_U+30A4_U+30E4_U+30FC 1
 62
   179
420
  2234388
370
     9
100
AcDbVertex
100
AcDb2dVertex
 10
75.98501528368298
 20
-140.8589455203409
 30
0.0
  0
SEQEND
  5
48
330
45
100
AcDbEntity
  8
_U+30EC_U+30A4_U+30E4_U+30FC 1
 62
   179
420
  2234388
370
     9
  0
POLYLINE
  5
49
330
1F
100
AcDbEntity
  8
_U+30EC_U+30A4_U+30E4_U+30FC 1
 62
   179
420
  2234388
370
     9
100
AcDb2dPolyline
 66
     1
 10
0.0
 20
0.0
 30
0.0
  0
VERTEX
  5
4A
330
49
100
AcDbEntity
  8
_U+30EC_U+30A4_U+30E4_U+30FC 1
 62
   179
420
  2234388
370
     9
100
AcDbVertex
100
AcDb2dVertex
 10
105.9849192405439
 20
-138.3987791320669
 30
0.0
  0
VERTEX
  5
4B
330
49
100
AcDbEntity
  8
_U+30EC_U+30A4_U+30E4_U+30FC 1
 62
   179
420
  2234388
370
     9
100
AcDbVertex
100
AcDb2dVertex
 10
105.9849192405439
 20
-140.8589455203409
 30
0.0
  0
SEQEND
  5
4C
330
49
100
AcDbEntity
  8
_U+30EC_U+30A4_U+30E4_U+30FC 1
 62
   179
420
  2234388
370
     9
  0
POLYLINE
  5
4D
330
1F
100
AcDbEntity
  8
_U+30EC_U+30A4_U+30E4_U+30FC 1
370
     0
100
AcDb2dPolyline
 66
     1
 10
0.0
 20
0.0
 30
0.0
  0
VERTEX
  5
4E
330
4D
100
AcDbEntity
  8
_U+30EC_U+30A4_U+30E4_U+30FC 1
370
     0
100
AcDbVertex
100
AcDb2dVertex
 10
99.98357219722621
 20
-134.9585255218161
 30
0.0
  0
VERTEX
  5
4F
330
4D
100
AcDbEntity
  8
_U+30EC_U+30A4_U+30E4_U+30FC 1
370
     0
100
AcDbVertex
100
AcDb2dVertex
 10
99.81060273139717
 20
-134.8586188551745
 30
0.0
  0
VERTEX
  5
50
330
4D
100
AcDbEntity
  8
_U+30EC_U+30A4_U+30E4_U+30FC 1
370
     0
100
AcDbVertex
100
AcDb2dVertex
 10
93.98359593561204
 20
-134.8586188551745
 30
0.0
  0
VERTEX
  5
51
330
4D
100
AcDbEntity
  8
_U+30EC_U+30A4_U+30E4_U+30FC 1
370
     0
100
AcDbVertex
100
AcDb2dVertex
 10
93.98359593561204
 20
-124.8588858021186
 30
0.0
  0
VERTEX
  5
52
330
4D
100
AcDbEntity
  8
_U+30EC_U+30A4_U+30E4_U+30FC 1
370
     0
100
AcDbVertex
100
AcDb2dVertex
 10
99.98357219722621
 20
-124.8588858021186
 30
0.0
  0
VERTEX
  5
53
330
4D
100
AcDbEntity
  8
_U+30EC_U+30A4_U+30E4_U+30FC 1
370
     0
100
AcDbVertex
100
AcDb2dVertex
 10
99.98357219722621
 20
-124.3586469133549
 30
0.0
  0
VERTEX
  5
54
330
4D
100
AcDbEntity
  8
_U+30EC_U+30A4_U+30E4_U+30FC 1
370
     0
100
AcDbVertex
100
AcDb2dVertex
 10
99.1174649713028
 20
-123.8584080245908
 30
0.0
  0
VERTEX
  5
55
330
4D
100
AcDbEntity
  8
_U+30EC_U+30A4_U+30E4_U+30FC 1
370
     0
100
AcDbVertex
100
AcDb2dVertex
 10
92.98382373889613
 20
-123.8584080245908
 30
0.0
  0
VERTEX
  5
56
330
4D
100
AcDbEntity
  8
_U+30EC_U+30A4_U+30E4_U+30FC 1
370
     0
100
AcDbVertex
100
AcDb2dVertex
 10
92.98382373889613
 20
-134.8586188551745
 30
0.0
  0
VERTEX
  5
57
330
4D
100
AcDbEntity
  8
_U+30EC_U+30A4_U+30E4_U+30FC 1
370
     0
100
AcDbVertex
100
AcDb2dVertex
 10
84.98360005410996
 20
-134.8586188551745
 30
0.0
  0
VERTEX
  5
58
330
4D
100
AcDbEntity
  8
_U+30EC_U+30A4_U+30E4_U+30FC 1
370
     0
100
AcDbVertex
100
AcDb2dVertex
 10
84.98360005410996
 20
-123.8584080245908
 30
0.0
  0
VERTEX
  5
59
330
4D
100
AcDbEntity
  8
_U+30EC_U+30A4_U+30E4_U+30FC 1
370
     0
100
AcDbVertex
100
AcDb2dVertex
 10
78.8499588217033
 20
-123.8584080245908
 30
0.0
  0
VERTEX
  5
5A
330
4D
100
AcDbEntity
  8
_U+30EC_U+30A4_U+30E4_U+30FC 1
370
     0
100
AcDbVertex
100
AcDb2dVertex
 10
77.98385412157724
 20
-124.3586469133549
 30
0.0
  0
VERTEX
  5
5B
330
4D
100
AcDbEntity
  8
_U+30EC_U+30A4_U+30E4_U+30FC 1
370
     0
100
AcDbVertex
100
AcDb2dVertex
 10
77.98385412157724
 20
-124.8588858021186
 30
0.0
  0
VERTEX
  5
5C
330
4D
100
AcDbEntity
  8
_U+30EC_U+30A4_U+30E4_U+30FC 1
370
     0
100
AcDbVertex
100
AcDb2dVertex
 10
83.98386313517092
 20
-124.8588858021186
 30
0.0
  0
VERTEX
  5
5D
330
4D
100
AcDbEntity
  8
_U+30EC_U+30A4_U+30E4_U+30FC 1
370
     0
100
AcDbVertex
100
AcDb2dVertex
 10
83.98386313517092
 20
-134.8586188551745
 30
0.0
  0
VERTEX
  5
5E
330
4D
100
AcDbEntity
  8
_U+30EC_U+30A4_U+30E4_U+30FC 1
370
     0
100
AcDbVertex
100
AcDb2dVertex
 10
76.8497441505108
 20
-134.8586188551745
 30
0.0
  0
VERTEX
  5
5F
330
4D
100
AcDbEntity
  8
_U+30EC_U+30A4_U+30E4_U+30FC 1
370
     0
100
AcDbVertex
100
AcDb2dVertex
 10
75.98363945038474
 20
-135.3585049661604
 30
0.0
  0
VERTEX
  5
60
330
4D
100
AcDbEntity
  8
_U+30EC_U+30A4_U+30E4_U+30FC 1
370
     0
100
AcDbVertex
100
AcDb2dVertex
 10
75.98363945038474
 20
-135.8587085771466
 30
0.0
  0
VERTEX
  5
61
330
4D
100
AcDbEntity
  8
_U+30EC_U+30A4_U+30E4_U+30FC 1
370
     0
100
AcDbVertex
100
AcDb2dVertex
 10
105.9835434072457
 20
-135.8587085771466
 30
0.0
  0
VERTEX
  5
62
330
4D
100
AcDbEntity
  8
_U+30EC_U+30A4_U+30E4_U+30FC 1
370
     0
100
AcDbVertex
100
AcDb2dVertex
 10
105.9835434072457
 20
-135.3585049661604
 30
0.0
  0
VERTEX
  5
63
330
4D
100
AcDbEntity
  8
_U+30EC_U+30A4_U+30E4_U+30FC 1
370
     0
100
AcDbVertex
100
AcDb2dVertex
 10
105.291075924912
 20
-134.9585255218161
 30
0.0
  0
VERTEX
  5
64
330
4D
100
AcDbEntity
  8
_U+30EC_U+30A4_U+30E4_U+30FC 1
370
     0
100
AcDbVertex
100
AcDb2dVertex
 10
99.98357219722621
 20
-134.9585255218161
 30
0.0
  0
SEQEND
  5
66
330
4D
100
AcDbEntity
  8
_U+30EC_U+30A4_U+30E4_U+30FC 1
370
     0
  0
HATCH
  5
65
330
1F
100
AcDbEntity
  8
_U+30EC_U+30A4_U+30E4_U+30FC 1
 62
   253
420
 11711154
100
AcDbHatch
 10
0.0
 20
0.0
 30
0.0
210
0.0
220
0.0
230
1.0
  2
SOLID
 70
     1
 71
     0
 91
        1
 92
        1
 93
       22
 72
     1
 10
99.98357219722621
 20
-134.9585255218161
 11
99.81060273139717
 21
-134.8586188551745
 72
     1
 10
99.81060273139717
 20
-134.8586188551745
 11
93.98359593561204
 21
-134.8586188551745
 72
     1
 10
93.98359593561204
 20
-134.8586188551745
 11
93.98359593561204
 21
-124.8588858021186
 72
     1
 10
93.98359593561204
 20
-124.8588858021186
 11
99.98357219722621
 21
-124.8588858021186
 72
     1
 10
99.98357219722621
 20
-124.8588858021186
 11
99.98357219722621
 21
-124.3586469133549
 72
     1
 10
99.98357219722621
 20
-124.3586469133549
 11
99.1174649713028
 21
-123.8584080245908
 72
     1
 10
99.1174649713028
 20
-123.8584080245908
 11
92.98382373889613
 21
-123.8584080245908
 72
     1
 10
92.98382373889613
 20
-123.8584080245908
 11
92.98382373889613
 21
-134.8586188551745
 72
     1
 10
92.98382373889613
 20
-134.8586188551745
 11
84.98360005410996
 21
-134.8586188551745
 72
     1
 10
84.98360005410996
 20
-134.8586188551745
 11
84.98360005410996
 21
-123.8584080245908
 72
     1
 10
84.98360005410996
 20
-123.8584080245908
 11
78.8499588217033
 21
-123.8584080245908
 72
     1
 10
78.8499588217033
 20
-123.8584080245908
 11
77.98385412157724
 21
-124.3586469133549
 72
     1
 10
77.98385412157724
 20
-124.3586469133549
 11
77.98385412157724
 21
-124.8588858021186
 72
     1
 10
77.98385412157724
 20
-124.8588858021186
 11
83.98386313517092
 21
-124.8588858021186
 72
     1
 10
83.98386313517092
 20
-124.8588858021186
 11
83.98386313517092
 21
-134.8586188551745
 72
     1
 10
83.98386313517092
 20
-134.8586188551745
 11
76.8497441505108
 21
-134.8586188551745
 72
     1
 10
76.8497441505108
 20
-134.8586188551745
 11
75.98363945038474
 21
-135.3585049661604
 72
     1
 10
75.98363945038474
 20
-135.3585049661604
 11
75.98363945038474
 21
-135.8587085771466
 72
     1
 10
75.98363945038474
 20
-135.8587085771466
 11
105.9835434072457
 21
-135.8587085771466
 72
     1
 10
105.9835434072457
 20
-135.8587085771466
 11
105.9835434072457
 21
-135.3585049661604
 72
     1
 10
105.9835434072457
 20
-135.3585049661604
 11
105.291075924912
 21
-134.9585255218161
 72
     1
 10
105.291075924912
 20
-134.9585255218161
 11
99.98357219722621
 21
-134.9585255218161
 97
        0
 75
     2
 76
     1
 98
        0
  0
POLYLINE
  5
67
330
1F
100
AcDbEntity
  8
_U+30EC_U+30A4_U+30E4_U+30FC 1
 62
   179
420
  2234388
370
    25
100
AcDb2dPolyline
 66
     1
 10
0.0
 20
0.0
 30
0.0
  0
VERTEX
  5
68
330
67
100
AcDbEntity
  8
_U+30EC_U+30A4_U+30E4_U+30FC 1
 62
   179
420
  2234388
370
    25
100
AcDbVertex
100
AcDb2dVertex
 10
75.98363945038474
 20
-135.8587085771466
 30
0.0
  0
VERTEX
  5
69
330
67
100
AcDbEntity
  8
_U+30EC_U+30A4_U+30E4_U+30FC 1
 62
   179
420
  2234388
370
    25
100
AcDbVertex
100
AcDb2dVertex
 10
105.9835434072457
 20
-135.8587085771466
 30
0.0
  0
SEQEND
  5
6A
330
67
100
AcDbEntity
  8
_U+30EC_U+30A4_U+30E4_U+30FC 1
 62
   179
420
  2234388
370
    25
  0
POLYLINE
  5
6B
330
1F
100
AcDbEntity
  8
_U+30EC_U+30A4_U+30E4_U+30FC 1
 62
   179
420
  2234388
370
    25
100
AcDb2dPolyline
 66
     1
 10
0.0
 20
0.0
 30
0.0
  0
VERTEX
  5
6C
330
6B
100
AcDbEntity
  8
_U+30EC_U+30A4_U+30E4_U+30FC 1
 62
   179
420
  2234388
370
    25
100
AcDbVertex
100
AcDb2dVertex
 10
92.98382373889613
 20
-123.8584080245908
 30
0.0
  0
VERTEX
  5
6D
330
6B
100
AcDbEntity
  8
_U+30EC_U+30A4_U+30E4_U+30FC 1
 62
   179
420
  2234388
370
    25
100
AcDbVertex
100
AcDb2dVertex
 10
92.98382373889613
 20
-134.8586188551745
 30
0.0
  0
SEQEND
  5
6E
330
6B
100
AcDbEntity
  8
_U+30EC_U+30A4_U+30E4_U+30FC 1
 62
   179
420
  2234388
370
    25
  0
POLYLINE
  5
6F
330
1F
100
AcDbEntity
  8
_U+30EC_U+30A4_U+30E4_U+30FC 1
 62
   179
420
  2234388
370
    25
100
AcDb2dPolyline
 66
     1
 10
0.0
 20
0.0
 30
0.0
  0
VERTEX
  5
70
330
6F
100
AcDbEntity
  8
_U+30EC_U+30A4_U+30E4_U+30FC 1
 62
   179
420
  2234388
370
    25
100
AcDbVertex
100
AcDb2dVertex
 10
93.98359593561204
 20
-124.8588858021186
 30
0.0
  0
VERTEX
  5
71
330
6F
100
AcDbEntity
  8
_U+30EC_U+30A4_U+30E4_U+30FC 1
 62
   179
420
  2234388
370
    25
100
AcDbVertex
100
AcDb2dVertex
 10
93.98359593561204
 20
-134.8586188551745
 30
0.0
  0
SEQEND
  5
72
330
6F
100
AcDbEntity
  8
_U+30EC_U+30A4_U+30E4_U+30FC 1
 62
   179
420
  2234388
370
    25
  0
POLYLINE
  5
73
330
1F
100
AcDbEntity
  8
_U+30EC_U+30A4_U+30E4_U+30FC 1
 62
   179
420
  2234388
370
    25
100
AcDb2dPolyline
 66
     1
 10
0.0
 20
0.0
 30
0.0
  0
VERTEX
  5
74
330
73
100
AcDbEntity
  8
_U+30EC_U+30A4_U+30E4_U+30FC 1
 62
   179
420
  2234388
370
    25
100
AcDbVertex
100
AcDb2dVertex
 10
76.8497441505108
 20
-134.8586188551745
 30
0.0
  0
VERTEX
  5
75
330
73
100
AcDbEntity
  8
_U+30EC_U+30A4_U+30E4_U+30FC 1
 62
   179
420
  2234388
370
    25
100
AcDbVertex
100
AcDb2dVertex
 10
83.98386313517092
 20
-134.8586188551745
 30
0.0
  0
SEQEND
  5
76
330
73
100
AcDbEntity
  8
_U+30EC_U+30A4_U+30E4_U+30FC 1
 62
   179
420
  2234388
370
    25
  0
POLYLINE
  5
77
330
1F
100
AcDbEntity
  8
_U+30EC_U+30A4_U+30E4_U+30FC 1
 62
   179
420
  2234388
370
    25
100
AcDb2dPolyline
 66
     1
 10
0.0
 20
0.0
 30
0.0
  0
VERTEX
  5
78
330
77
100
AcDbEntity
  8
_U+30EC_U+30A4_U+30E4_U+30FC 1
 62
   179
420
  2234388
370
    25
100
AcDbVertex
100
AcDb2dVertex
 10
93.98359593561204
 20
-134.8586188551745
 30
0.0
  0
VERTEX
  5
79
330
77
100
AcDbEntity
  8
_U+30EC_U+30A4_U+30E4_U+30FC 1
 62
   179
420
  2234388
370
    25
100
AcDbVertex
100
AcDb2dVertex
 10
99.81060273139717
 20
-134.8586188551745
 30
0.0
  0
SEQEND
  5
7A
330
77
100
AcDbEntity
  8
_U+30EC_U+30A4_U+30E4_U+30FC 1
 62
   179
420
  2234388
370
    25
  0
POLYLINE
  5
7B
330
1F
100
AcDbEntity
  8
_U+30EC_U+30A4_U+30E4_U+30FC 1
 62
   179
420
  2234388
370
    25
100
AcDb2dPolyline
 66
     1
 10
0.0
 20
0.0
 30
0.0
  0
VERTEX
  5
7C
330
7B
100
AcDbEntity
  8
_U+30EC_U+30A4_U+30E4_U+30FC 1
 62
   179
420
  2234388
370
    25
100
AcDbVertex
100
AcDb2dVertex
 10
93.98359593561204
 20
-124.8588858021186
 30
0.0
  0
VERTEX
  5
7D
330
7B
100
AcDbEntity
  8
_U+30EC_U+30A4_U+30E4_U+30FC 1
 62
   179
420
  2234388
370
    25
100
AcDbVertex
100
AcDb2dVertex
 10
99.98357219722621
 20
-124.8588858021186
 30
0.0
  0
SEQEND
  5
7E
330
7B
100
AcDbEntity
  8
_U+30EC_U+30A4_U+30E4_U+30FC 1
 62
   179
420
  2234388
370
    25
  0
POLYLINE
  5
7F
330
1F
100
AcDbEntity
  8
_U+30EC_U+30A4_U+30E4_U+30FC 1
 62
   179
420
  2234388
370
    25
100
AcDb2dPolyline
 66
     1
 10
0.0
 20
0.0
 30
0.0
  0
VERTEX
  5
80
330
7F
100
AcDbEntity
  8
_U+30EC_U+30A4_U+30E4_U+30FC 1
 62
   179
420
  2234388
370
    25
100
AcDbVertex
100
AcDb2dVertex
 10
92.98382373889613
 20
-123.8584080245908
 30
0.0
  0
VERTEX
  5
81
330
7F
100
AcDbEntity
  8
_U+30EC_U+30A4_U+30E4_U+30FC 1
 62
   179
420
  2234388
370
    25
100
AcDbVertex
100
AcDb2dVertex
 10
99.1174649713028
 20
-123.8584080245908
 30
0.0
  0
SEQEND
  5
82
330
7F
100
AcDbEntity
  8
_U+30EC_U+30A4_U+30E4_U+30FC 1
 62
   179
420
  2234388
370
    25
  0
POLYLINE
  5
83
330
1F
100
AcDbEntity
  8
_U+30EC_U+30A4_U+30E4_U+30FC 1
 62
   179
420
  2234388
370
    25
100
AcDb2dPolyline
 66
     1
 10
0.0
 20
0.0
 30
0.0
  0
VERTEX
  5
84
330
83
100
AcDbEntity
  8
_U+30EC_U+30A4_U+30E4_U+30FC 1
 62
   179
420
  2234388
370
    25
100
AcDbVertex
100
AcDb2dVertex
 10
83.98386313517092
 20
-124.8588858021186
 30
0.0
  0
VERTEX
  5
85
330
83
100
AcDbEntity
  8
_U+30EC_U+30A4_U+30E4_U+30FC 1
 62
   179
420
  2234388
370
    25
100
AcDbVertex
100
AcDb2dVertex
 10
77.98385412157724
 20
-124.8588858021186
 30
0.0
  0
SEQEND
  5
86
330
83
100
AcDbEntity
  8
_U+30EC_U+30A4_U+30E4_U+30FC 1
 62
   179
420
  2234388
370
    25
  0
POLYLINE
  5
87
330
1F
100
AcDbEntity
  8
_U+30EC_U+30A4_U+30E4_U+30FC 1
 62
   179
420
  2234388
370
    25
100
AcDb2dPolyline
 66
     1
 10
0.0
 20
0.0
 30
0.0
  0
VERTEX
  5
88
330
87
100
AcDbEntity
  8
_U+30EC_U+30A4_U+30E4_U+30FC 1
 62
   179
420
  2234388
370
    25
100
AcDbVertex
100
AcDb2dVertex
 10
83.98386313517092
 20
-124.8588858021186
 30
0.0
  0
VERTEX
  5
89
330
87
100
AcDbEntity
  8
_U+30EC_U+30A4_U+30E4_U+30FC 1
 62
   179
420
  2234388
370
    25
100
AcDbVertex
100
AcDb2dVertex
 10
83.98386313517092
 20
-134.8586188551745
 30
0.0
  0
SEQEND
  5
8A
330
87
100
AcDbEntity
  8
_U+30EC_U+30A4_U+30E4_U+30FC 1
 62
   179
420
  2234388
370
    25
  0
POLYLINE
  5
8B
330
1F
100
AcDbEntity
  8
_U+30EC_U+30A4_U+30E4_U+30FC 1
 62
   179
420
  2234388
370
    25
100
AcDb2dPolyline
 66
     1
 10
0.0
 20
0.0
 30
0.0
  0
VERTEX
  5
8C
330
8B
100
AcDbEntity
  8
_U+30EC_U+30A4_U+30E4_U+30FC 1
 62
   179
420
  2234388
370
    25
100
AcDbVertex
100
AcDb2dVertex
 10
84.98360005410996
 20
-123.8584080245908
 30
0.0
  0
VERTEX
  5
8D
330
8B
100
AcDbEntity
  8
_U+30EC_U+30A4_U+30E4_U+30FC 1
 62
   179
420
  2234388
370
    25
100
AcDbVertex
100
AcDb2dVertex
 10
84.98360005410996
 20
-134.8586188551745
 30
0.0
  0
SEQEND
  5
8E
330
8B
100
AcDbEntity
  8
_U+30EC_U+30A4_U+30E4_U+30FC 1
 62
   179
420
  2234388
370
    25
  0
POLYLINE
  5
8F
330
1F
100
AcDbEntity
  8
_U+30EC_U+30A4_U+30E4_U+30FC 1
 62
   179
420
  2234388
370
    25
100
AcDb2dPolyline
 66
     1
 10
0.0
 20
0.0
 30
0.0
  0
VERTEX
  5
90
330
8F
100
AcDbEntity
  8
_U+30EC_U+30A4_U+30E4_U+30FC 1
 62
   179
420
  2234388
370
    25
100
AcDbVertex
100
AcDb2dVertex
 10
84.98360005410996
 20
-123.8584080245908
 30
0.0
  0
VERTEX
  5
91
330
8F
100
AcDbEntity
  8
_U+30EC_U+30A4_U+30E4_U+30FC 1
 62
   179
420
  2234388
370
    25
100
AcDbVertex
100
AcDb2dVertex
 10
78.8499588217033
 20
-123.8584080245908
 30
0.0
  0
SEQEND
  5
92
330
8F
100
AcDbEntity
  8
_U+30EC_U+30A4_U+30E4_U+30FC 1
 62
   179
420
  2234388
370
    25
  0
POLYLINE
  5
93
330
1F
100
AcDbEntity
  8
_U+30EC_U+30A4_U+30E4_U+30FC 1
 62
   179
420
  2234388
370
    25
100
AcDb2dPolyline
 66
     1
 10
0.0
 20
0.0
 30
0.0
  0
VERTEX
  5
94
330
93
100
AcDbEntity
  8
_U+30EC_U+30A4_U+30E4_U+30FC 1
 62
   179
420
  2234388
370
    25
100
AcDbVertex
100
AcDb2dVertex
 10
84.98360005410996
 20
-134.8586188551745
 30
0.0
  0
VERTEX
  5
95
330
93
100
AcDbEntity
  8
_U+30EC_U+30A4_U+30E4_U+30FC 1
 62
   179
420
  2234388
370
    25
100
AcDbVertex
100
AcDb2dVertex
 10
92.98382373889613
 20
-134.8586188551745
 30
0.0
  0
SEQEND
  5
96
330
93
100
AcDbEntity
  8
_U+30EC_U+30A4_U+30E4_U+30FC 1
 62
   179
420
  2234388
370
    25
  0
POLYLINE
  5
97
330
1F
100
AcDbEntity
  8
_U+30EC_U+30A4_U+30E4_U+30FC 1
 62
   179
420
  2234388
370
    25
100
AcDb2dPolyline
 66
     1
 10
0.0
 20
0.0
 30
0.0
  0
VERTEX
  5
98
330
97
100
AcDbEntity
  8
_U+30EC_U+30A4_U+30E4_U+30FC 1
 62
   179
420
  2234388
370
    25
100
AcDbVertex
100
AcDb2dVertex
 10
77.98385412157724
 20
-124.3586469133549
 30
0.0
  0
VERTEX
  5
99
330
97
100
AcDbEntity
  8
_U+30EC_U+30A4_U+30E4_U+30FC 1
 62
   179
420
  2234388
370
    25
100
AcDbVertex
100
AcDb2dVertex
 10
77.98385412157724
 20
-124.8588858021186
 30
0.0
  0
SEQEND
  5
9A
330
97
100
AcDbEntity
  8
_U+30EC_U+30A4_U+30E4_U+30FC 1
 62
   179
420
  2234388
370
    25
  0
POLYLINE
  5
9B
330
1F
100
AcDbEntity
  8
_U+30EC_U+30A4_U+30E4_U+30FC 1
 62
   179
420
  2234388
370
    25
100
AcDb2dPolyline
 66
     1
 10
0.0
 20
0.0
 30
0.0
  0
VERTEX
  5
9C
330
9B
100
AcDbEntity
  8
_U+30EC_U+30A4_U+30E4_U+30FC 1
 62
   179
420
  2234388
370
    25
100
AcDbVertex
100
AcDb2dVertex
 10
77.98385412157724
 20
-124.3586469133549
 30
0.0
  0
VERTEX
  5
9D
330
9B
100
AcDbEntity
  8
_U+30EC_U+30A4_U+30E4_U+30FC 1
 62
   179
420
  2234388
370
    25
100
AcDbVertex
100
AcDb2dVertex
 10
78.8499588217033
 20
-123.8584080245908
 30
0.0
  0
SEQEND
  5
9E
330
9B
100
AcDbEntity
  8
_U+30EC_U+30A4_U+30E4_U+30FC 1
 62
   179
420
  2234388
370
    25
  0
POLYLINE
  5
9F
330
1F
100
AcDbEntity
  8
_U+30EC_U+30A4_U+30E4_U+30FC 1
 62
   179
420
  2234388
370
    25
100
AcDb2dPolyline
 66
     1
 10
0.0
 20
0.0
 30
0.0
  0
VERTEX
  5
A0
330
9F
100
AcDbEntity
  8
_U+30EC_U+30A4_U+30E4_U+30FC 1
 62
   179
420
  2234388
370
    25
100
AcDbVertex
100
AcDb2dVertex
 10
75.98363945038474
 20
-135.3585049661604
 30
0.0
  0
VERTEX
  5
A1
330
9F
100
AcDbEntity
  8
_U+30EC_U+30A4_U+30E4_U+30FC 1
 62
   179
420
  2234388
370
    25
100
AcDbVertex
100
AcDb2dVertex
 10
75.98363945038474
 20
-135.8587085771466
 30
0.0
  0
SEQEND
  5
A2
330
9F
100
AcDbEntity
  8
_U+30EC_U+30A4_U+30E4_U+30FC 1
 62
   179
420
  2234388
370
    25
  0
POLYLINE
  5
A3
330
1F
100
AcDbEntity
  8
_U+30EC_U+30A4_U+30E4_U+30FC 1
 62
   179
420
  2234388
370
    25
100
AcDb2dPolyline
 66
     1
 10
0.0
 20
0.0
 30
0.0
  0
VERTEX
  5
A4
330
A3
100
AcDbEntity
  8
_U+30EC_U+30A4_U+30E4_U+30FC 1
 62
   179
420
  2234388
370
    25
100
AcDbVertex
100
AcDb2dVertex
 10
75.98363945038474
 20
-135.3585049661604
 30
0.0
  0
VERTEX
  5
A5
330
A3
100
AcDbEntity
  8
_U+30EC_U+30A4_U+30E4_U+30FC 1
 62
   179
420
  2234388
370
    25
100
AcDbVertex
100
AcDb2dVertex
 10
76.8497441505108
 20
-134.8586188551745
 30
0.0
  0
SEQEND
  5
A6
330
A3
100
AcDbEntity
  8
_U+30EC_U+30A4_U+30E4_U+30FC 1
 62
   179
420
  2234388
370
    25
  0
POLYLINE
  5
A7
330
1F
100
AcDbEntity
  8
_U+30EC_U+30A4_U+30E4_U+30FC 1
 62
   179
420
  2234388
370
    25
100
AcDb2dPolyline
 66
     1
 10
0.0
 20
0.0
 30
0.0
  0
VERTEX
  5
A8
330
A7
100
AcDbEntity
  8
_U+30EC_U+30A4_U+30E4_U+30FC 1
 62
   179
420
  2234388
370
    25
100
AcDbVertex
100
AcDb2dVertex
 10
99.98357219722621
 20
-124.3586469133549
 30
0.0
  0
VERTEX
  5
A9
330
A7
100
AcDbEntity
  8
_U+30EC_U+30A4_U+30E4_U+30FC 1
 62
   179
420
  2234388
370
    25
100
AcDbVertex
100
AcDb2dVertex
 10
99.98357219722621
 20
-124.8588858021186
 30
0.0
  0
SEQEND
  5
AA
330
A7
100
AcDbEntity
  8
_U+30EC_U+30A4_U+30E4_U+30FC 1
 62
   179
420
  2234388
370
    25
  0
POLYLINE
  5
AB
330
1F
100
AcDbEntity
  8
_U+30EC_U+30A4_U+30E4_U+30FC 1
 62
   179
420
  2234388
370
    25
100
AcDb2dPolyline
 66
     1
 10
0.0
 20
0.0
 30
0.0
  0
VERTEX
  5
AC
330
AB
100
AcDbEntity
  8
_U+30EC_U+30A4_U+30E4_U+30FC 1
 62
   179
420
  2234388
370
    25
100
AcDbVertex
100
AcDb2dVertex
 10
99.98357219722621
 20
-124.3586469133549
 30
0.0
  0
VERTEX
  5
AD
330
AB
100
AcDbEntity
  8
_U+30EC_U+30A4_U+30E4_U+30FC 1
 62
   179
420
  2234388
370
    25
100
AcDbVertex
100
AcDb2dVertex
 10
99.1174649713028
 20
-123.8584080245908
 30
0.0
  0
SEQEND
  5
AE
330
AB
100
AcDbEntity
  8
_U+30EC_U+30A4_U+30E4_U+30FC 1
 62
   179
420
  2234388
370
    25
  0
POLYLINE
  5
AF
330
1F
100
AcDbEntity
  8
_U+30EC_U+30A4_U+30E4_U+30FC 1
 62
   179
420
  2234388
370
    25
100
AcDb2dPolyline
 66
     1
 10
0.0
 20
0.0
 30
0.0
  0
VERTEX
  5
B0
330
AF
100
AcDbEntity
  8
_U+30EC_U+30A4_U+30E4_U+30FC 1
 62
   179
420
  2234388
370
    25
100
AcDbVertex
100
AcDb2dVertex
 10
105.9835434072457
 20
-135.3585049661604
 30
0.0
  0
VERTEX
  5
B1
330
AF
100
AcDbEntity
  8
_U+30EC_U+30A4_U+30E4_U+30FC 1
 62
   179
420
  2234388
370
    25
100
AcDbVertex
100
AcDb2dVertex
 10
105.9835434072457
 20
-135.8587085771466
 30
0.0
  0
SEQEND
  5
B2
330
AF
100
AcDbEntity
  8
_U+30EC_U+30A4_U+30E4_U+30FC 1
 62
   179
420
  2234388
370
    25
  0
POLYLINE
  5
B3
330
1F
100
AcDbEntity
  8
_U+30EC_U+30A4_U+30E4_U+30FC 1
 62
   179
420
  2234388
370
    25
100
AcDb2dPolyline
 66
     1
 10
0.0
 20
0.0
 30
0.0
  0
VERTEX
  5
B4
330
B3
100
AcDbEntity
  8
_U+30EC_U+30A4_U+30E4_U+30FC 1
 62
   179
420
  2234388
370
    25
100
AcDbVertex
100
AcDb2dVertex
 10
105.9835434072457
 20
-135.3585049661604
 30
0.0
  0
VERTEX
  5
B5
330
B3
100
AcDbEntity
  8
_U+30EC_U+30A4_U+30E4_U+30FC 1
 62
   179
420
  2234388
370
    25
100
AcDbVertex
100
AcDb2dVertex
 10
105.291075924912
 20
-134.9585255218161
 30
0.0
  0
SEQEND
  5
B6
330
B3
100
AcDbEntity
  8
_U+30EC_U+30A4_U+30E4_U+30FC 1
 62
   179
420
  2234388
370
    25
  0
POLYLINE
  5
B7
330
1F
100
AcDbEntity
  8
_U+30EC_U+30A4_U+30E4_U+30FC 1
 62
   179
420
  2234388
370
    25
100
AcDb2dPolyline
 66
     1
 10
0.0
 20
0.0
 30
0.0
  0
VERTEX
  5
B8
330
B7
100
AcDbEntity
  8
_U+30EC_U+30A4_U+30E4_U+30FC 1
 62
   179
420
  2234388
370
    25
100
AcDbVertex
100
AcDb2dVertex
 10
99.98357219722621
 20
-134.9585255218161
 30
0.0
  0
VERTEX
  5
B9
330
B7
100
AcDbEntity
  8
_U+30EC_U+30A4_U+30E4_U+30FC 1
 62
   179
420
  2234388
370
    25
100
AcDbVertex
100
AcDb2dVertex
 10
105.291075924912
 20
-134.9585255218161
 30
0.0
  0
SEQEND
  5
BA
330
B7
100
AcDbEntity
  8
_U+30EC_U+30A4_U+30E4_U+30FC 1
 62
   179
420
  2234388
370
    25
  0
POLYLINE
  5
BB
330
1F
100
AcDbEntity
  8
_U+30EC_U+30A4_U+30E4_U+30FC 1
 62
   179
420
  2234388
370
    25
100
AcDb2dPolyline
 66
     1
 10
0.0
 20
0.0
 30
0.0
  0
VERTEX
  5
BC
330
BB
100
AcDbEntity
  8
_U+30EC_U+30A4_U+30E4_U+30FC 1
 62
   179
420
  2234388
370
    25
100
AcDbVertex
100
AcDb2dVertex
 10
99.98357219722621
 20
-134.9585255218161
 30
0.0
  0
VERTEX
  5
BD
330
BB
100
AcDbEntity
  8
_U+30EC_U+30A4_U+30E4_U+30FC 1
 62
   179
420
  2234388
370
    25
100
AcDbVertex
100
AcDb2dVertex
 10
99.81060273139717
 20
-134.8586188551745
 30
0.0
  0
SEQEND
  5
BE
330
BB
100
AcDbEntity
  8
_U+30EC_U+30A4_U+30E4_U+30FC 1
 62
   179
420
  2234388
370
    25
  0
SPLINE
  5
BF
330
1F
100
AcDbEntity
  8
_U+30EC_U+30A4_U+30E4_U+30FC 1
 62
   179
420
  2234388
370
     9
100
AcDbSpline
210
0.0
220
0.0
230
1.0
 70
    11
 71
     3
 72
    17
 73
    13
 74
     0
 42
0.0000000001
 43
0.0000000001
 12
1.0
 22
0.0
 32
0.0
 13
1.0
 23
0.0
 33
0.0
 40
0.0
 40
0.0
 40
0.0
 40
0.0
 40
1.0
 40
1.0
 40
1.0
 40
2.0
 40
2.0
 40
2.0
 40
3.0
 40
3.0
 40
3.0
 40
4.0
 40
4.0
 40
4.0
 40
4.0
 10
78.08376078569508
 20
-119.8586488589243
 30
0.0
 10
78.08376078569508
 20
-119.803544970049
 30
0.0
 10
78.0389932868372
 20
-119.7587421922826
 30
0.0
 10
77.98385412157724
 20
-119.7587421922826
 30
0.0
 10
77.92875023409417
 20
-119.7587421922826
 30
0.0
 10
77.88394745745941
 20
-119.803544970049
 30
0.0
 10
77.88394745745941
 20
-119.8586488589243
 30
0.0
 10
77.88394745745941
 20
-119.913788025577
 30
0.0
 10
77.92875023409417
 20
-119.9585555255659
 30
0.0
 10
77.98385412157724
 20
-119.9585555255659
 30
0.0
 10
78.0389932868372
 20
-119.9585555255659
 30
0.0
 10
78.08376078569508
 20
-119.913788025577
 30
0.0
 10
78.08376078569508
 20
-119.8586488589243
 30
0.0
  0
SPLINE
  5
C0
330
1F
100
AcDbEntity
  8
_U+30EC_U+30A4_U+30E4_U+30FC 1
 62
   179
420
  2234388
370
     9
100
AcDbSpline
210
0.0
220
0.0
230
1.0
 70
    11
 71
     3
 72
    17
 73
    13
 74
     0
 42
0.0000000001
 43
0.0000000001
 12
1.0
 22
0.0
 32
0.0
 13
1.0
 23
0.0
 33
0.0
 40
0.0
 40
0.0
 40
0.0
 40
0.0
 40
1.0
 40
1.0
 40
1.0
 40
2.0
 40
2.0
 40
2.0
 40
3.0
 40
3.0
 40
3.0
 40
4.0
 40
4.0
 40
4.0
 40
4.0
 10
85.0835067182278
 20
-119.8586488589243
 30
0.0
 10
85.0835067182278
 20
-119.803544970049
 30
0.0
 10
85.0387392193699
 20
-119.7587421922826
 30
0.0
 10
84.98360005410996
 20
-119.7587421922826
 30
0.0
 10
84.92849616662689
 20
-119.7587421922826
 30
0.0
 10
84.88369338999212
 20
-119.803544970049
 30
0.0
 10
84.88369338999212
 20
-119.8586488589243
 30
0.0
 10
84.88369338999212
 20
-119.913788025577
 30
0.0
 10
84.92849616662689
 20
-119.9585555255659
 30
0.0
 10
84.98360005410996
 20
-119.9585555255659
 30
0.0
 10
85.0387392193699
 20
-119.9585555255659
 30
0.0
 10
85.0835067182278
 20
-119.913788025577
 30
0.0
 10
85.0835067182278
 20
-119.8586488589243
 30
0.0
  0
SPLINE
  5
C1
330
1F
100
AcDbEntity
  8
_U+30EC_U+30A4_U+30E4_U+30FC 1
 62
   179
420
  2234388
370
     9
100
AcDbSpline
210
0.0
220
0.0
230
1.0
 70
    11
 71
     3
 72
    17
 73
    13
 74
     0
 42
0.0000000001
 43
0.0000000001
 12
1.0
 22
0.0
 32
0.0
 13
1.0
 23
0.0
 33
0.0
 40
0.0
 40
0.0
 40
0.0
 40
0.0
 40
1.0
 40
1.0
 40
1.0
 40
2.0
 40
2.0
 40
2.0
 40
3.0
 40
3.0
 40
3.0
 40
4.0
 40
4.0
 40
4.0
 40
4.0
 10
93.08373040301397
 20
-119.8586488589243
 30
0.0
 10
93.08373040301397
 20
-119.803544970049
 30
0.0
 10
93.0389276263792
 20
-119.7587421922826
 30
0.0
 10
92.98382373889613
 20
-119.7587421922826
 30
0.0
 10
92.92868457363619
 20
-119.7587421922826
 30
0.0
 10
92.88391942122335
 20
-119.803544970049
 30
0.0
 10
92.88391942122335
 20
-119.8586488589243
 30
0.0
 10
92.88391942122335
 20
-119.913788025577
 30
0.0
 10
92.92868457363619
 20
-119.9585555255659
 30
0.0
 10
92.98382373889613
 20
-119.9585555255659
 30
0.0
 10
93.0389276263792
 20
-119.9585555255659
 30
0.0
 10
93.08373040301397
 20
-119.913788025577
 30
0.0
 10
93.08373040301397
 20
-119.8586488589243
 30
0.0
  0
SPLINE
  5
C2
330
1F
100
AcDbEntity
  8
_U+30EC_U+30A4_U+30E4_U+30FC 1
 62
   179
420
  2234388
370
     9
100
AcDbSpline
210
0.0
220
0.0
230
1.0
 70
    11
 71
     3
 72
    17
 73
    13
 74
     0
 42
0.0000000001
 43
0.0000000001
 12
1.0
 22
0.0
 32
0.0
 13
1.0
 23
0.0
 33
0.0
 40
0.0
 40
0.0
 40
0.0
 40
0.0
 40
1.0
 40
1.0
 40
1.0
 40
2.0
 40
2.0
 40
2.0
 40
3.0
 40
3.0
 40
3.0
 40
4.0
 40
4.0
 40
4.0
 40
4.0
 10
100.0834763355467
 20
-119.8586488589243
 30
0.0
 10
100.0834763355467
 20
-119.803544970049
 30
0.0
 10
100.0386735589119
 20
-119.7587421922826
 30
0.0
 10
99.98357219722621
 20
-119.7587421922826
 30
0.0
 10
99.92843050616891
 20
-119.7587421922826
 30
0.0
 10
99.88366300731101
 20
-119.803544970049
 30
0.0
 10
99.88366300731101
 20
-119.8586488589243
 30
0.0
 10
99.88366300731101
 20
-119.913788025577
 30
0.0
 10
99.92843050616891
 20
-119.9585555255659
 30
0.0
 10
99.98357219722621
 20
-119.9585555255659
 30
0.0
 10
100.0386735589119
 20
-119.9585555255659
 30
0.0
 10
100.0834763355467
 20
-119.913788025577
 30
0.0
 10
100.0834763355467
 20
-119.8586488589243
 30
0.0
  0
SPLINE
  5
C3
330
1F
100
AcDbEntity
  8
_U+30EC_U+30A4_U+30E4_U+30FC 1
 62
   179
420
  2234388
370
     9
100
AcDbSpline
210
0.0
220
0.0
230
1.0
 70
    11
 71
     3
 72
    17
 73
    13
 74
     0
 42
0.0000000001
 43
0.0000000001
 12
1.0
 22
0.0
 32
0.0
 13
1.0
 23
0.0
 33
0.0
 40
0.0
 40
0.0
 40
0.0
 40
0.0
 40
1.0
 40
1.0
 40
1.0
 40
2.0
 40
2.0
 40
2.0
 40
3.0
 40
3.0
 40
3.0
 40
4.0
 40
4.0
 40
4.0
 40
4.0
 10
104.0839083073121
 20
-124.8588858021186
 30
0.0
 10
104.0839083073121
 20
-124.8033938576881
 30
0.0
 10
104.0391381790738
 20
-124.7586263576992
 30
0.0
 10
103.9839990138138
 20
-124.7586263576992
 30
0.0
 10
103.9281895707932
 20
-124.7586263576992
 30
0.0
 10
103.884092349696
 20
-124.8033938576881
 30
0.0
 10
103.884092349696
 20
-124.8588858021186
 30
0.0
 10
103.884092349696
 20
-124.9139896909938
 30
0.0
 10
103.9281895707932
 20
-124.9587924687602
 30
0.0
 10
103.9839990138138
 20
-124.9587924687602
 30
0.0
 10
104.0391381790738
 20
-124.9587924687602
 30
0.0
 10
104.0839083073121
 20
-124.9139896909938
 30
0.0
 10
104.0839083073121
 20
-124.8588858021186
 30
0.0
  0
SPLINE
  5
C4
330
1F
100
AcDbEntity
  8
_U+30EC_U+30A4_U+30E4_U+30FC 1
 62
   179
420
  2234388
370
     9
100
AcDbSpline
210
0.0
220
0.0
230
1.0
 70
    11
 71
     3
 72
    17
 73
    13
 74
     0
 42
0.0000000001
 43
0.0000000001
 12
1.0
 22
0.0
 32
0.0
 13
1.0
 23
0.0
 33
0.0
 40
0.0
 40
0.0
 40
0.0
 40
0.0
 40
1.0
 40
1.0
 40
1.0
 40
2.0
 40
2.0
 40
2.0
 40
3.0
 40
3.0
 40
3.0
 40
4.0
 40
4.0
 40
4.0
 40
4.0
 10
104.0839083073121
 20
-134.8586188551745
 30
0.0
 10
104.0839083073121
 20
-134.8034796885214
 30
0.0
 10
104.0391381790738
 20
-134.7587121885328
 30
0.0
 10
103.9839990138138
 20
-134.7587121885328
 30
0.0
 10
103.9281895707932
 20
-134.7587121885328
 30
0.0
 10
103.884092349696
 20
-134.8034796885214
 30
0.0
 10
103.884092349696
 20
-134.8586188551745
 30
0.0
 10
103.884092349696
 20
-134.9140755218272
 30
0.0
 10
103.9281895707932
 20
-134.9585255218161
 30
0.0
 10
103.9839990138138
 20
-134.9585255218161
 30
0.0
 10
104.0391381790738
 20
-134.9585255218161
 30
0.0
 10
104.0839083073121
 20
-134.9140755218272
 30
0.0
 10
104.0839083073121
 20
-134.8586188551745
 30
0.0
  0
SPLINE
  5
C5
330
1F
100
AcDbEntity
  8
_U+30EC_U+30A4_U+30E4_U+30FC 1
 62
   179
420
  2234388
370
     9
100
AcDbSpline
210
0.0
220
0.0
230
1.0
 70
    11
 71
     3
 72
    17
 73
    13
 74
     0
 42
0.0000000001
 43
0.0000000001
 12
1.0
 22
0.0
 32
0.0
 13
1.0
 23
0.0
 33
0.0
 40
0.0
 40
0.0
 40
0.0
 40
0.0
 40
1.0
 40
1.0
 40
1.0
 40
2.0
 40
2.0
 40
2.0
 40
3.0
 40
3.0
 40
3.0
 40
4.0
 40
4.0
 40
4.0
 40
4.0
 10
76.08354611450258
 20
-139.8670755205886
 30
0.0
 10
76.08354611450258
 20
-139.8119716317136
 30
0.0
 10
76.03878053654574
 20
-139.7671688539469
 30
0.0
 10
75.98363945038474
 20
-139.7671688539469
 30
0.0
 10
75.92853556290167
 20
-139.7671688539469
 30
0.0
 10
75.88373278626692
 20
-139.8119716317136
 30
0.0
 10
75.88373278626692
 20
-139.8670755205886
 30
0.0
 10
75.88373278626692
 20
-139.9225674650194
 30
0.0
 10
75.92853556290167
 20
-139.967334965008
 30
0.0
 10
75.98363945038474
 20
-139.967334965008
 30
0.0
 10
76.03878053654574
 20
-139.967334965008
 30
0.0
 10
76.08354611450258
 20
-139.9225674650194
 30
0.0
 10
76.08354611450258
 20
-139.8670755205886
 30
0.0
  0
SPLINE
  5
C6
330
1F
100
AcDbEntity
  8
_U+30EC_U+30A4_U+30E4_U+30FC 1
 62
   179
420
  2234388
370
     9
100
AcDbSpline
210
0.0
220
0.0
230
1.0
 70
    11
 71
     3
 72
    17
 73
    13
 74
     0
 42
0.0000000001
 43
0.0000000001
 12
1.0
 22
0.0
 32
0.0
 13
1.0
 23
0.0
 33
0.0
 40
0.0
 40
0.0
 40
0.0
 40
0.0
 40
1.0
 40
1.0
 40
1.0
 40
2.0
 40
2.0
 40
2.0
 40
3.0
 40
3.0
 40
3.0
 40
4.0
 40
4.0
 40
4.0
 40
4.0
 10
106.0834527512572
 20
-139.8670755205886
 30
0.0
 10
106.0834527512572
 20
-139.8119716317136
 30
0.0
 10
106.0386499734905
 20
-139.7671688539469
 30
0.0
 10
105.9835434072457
 20
-139.7671688539469
 30
0.0
 10
105.9284042419857
 20
-139.7671688539469
 30
0.0
 10
105.8836367431278
 20
-139.8119716317136
 30
0.0
 10
105.8836367431278
 20
-139.8670755205886
 30
0.0
 10
105.8836367431278
 20
-139.9225674650194
 30
0.0
 10
105.9284042419857
 20
-139.967334965008
 30
0.0
 10
105.9835434072457
 20
-139.967334965008
 30
0.0
 10
106.0386499734905
 20
-139.967334965008
 30
0.0
 10
106.0834527512572
 20
-139.9225674650194
 30
0.0
 10
106.0834527512572
 20
-139.8670755205886
 30
0.0
  0
POLYLINE
  5
C7
330
1F
100
AcDbEntity
  8
_U+30EC_U+30A4_U+30E4_U+30FC 1
 62
   179
420
  2234388
370
     9
100
AcDb2dPolyline
 66
     1
 10
0.0
 20
0.0
 30
0.0
  0
VERTEX
  5
C8
330
C7
100
AcDbEntity
  8
_U+30EC_U+30A4_U+30E4_U+30FC 1
 62
   179
420
  2234388
370
     9
100
AcDbVertex
100
AcDb2dVertex
 10
77.98385412157724
 20
-119.8586488589243
 30
0.0
  0
VERTEX
  5
C9
330
C7
100
AcDbEntity
  8
_U+30EC_U+30A4_U+30E4_U+30FC 1
 62
   179
420
  2234388
370
     9
100
AcDbVertex
100
AcDb2dVertex
 10
84.98360005410996
 20
-119.8586488589243
 30
0.0
  0
SEQEND
  5
CA
330
C7
100
AcDbEntity
  8
_U+30EC_U+30A4_U+30E4_U+30FC 1
 62
   179
420
  2234388
370
     9
  0
POLYLINE
  5
CB
330
1F
100
AcDbEntity
  8
_U+30EC_U+30A4_U+30E4_U+30FC 1
 62
   179
420
  2234388
370
     9
100
AcDb2dPolyline
 66
     1
 10
0.0
 20
0.0
 30
0.0
  0
VERTEX
  5
CC
330
CB
100
AcDbEntity
  8
_U+30EC_U+30A4_U+30E4_U+30FC 1
 62
   179
420
  2234388
370
     9
100
AcDbVertex
100
AcDb2dVertex
 10
77.98385412157724
 20
-121.818929136212
 30
0.0
  0
VERTEX
  5
CD
330
CB
100
AcDbEntity
  8
_U+30EC_U+30A4_U+30E4_U+30FC 1
 62
   179
420
  2234388
370
     9
100
AcDbVertex
100
AcDb2dVertex
 10
77.98385412157724
 20
-118.8585591369521
 30
0.0
  0
SEQEND
  5
CE
330
CB
100
AcDbEntity
  8
_U+30EC_U+30A4_U+30E4_U+30FC 1
 62
   179
420
  2234388
370
     9
  0
POLYLINE
  5
CF
330
1F
100
AcDbEntity
  8
_U+30EC_U+30A4_U+30E4_U+30FC 1
 62
   179
420
  2234388
370
     9
100
AcDb2dPolyline
 66
     1
 10
0.0
 20
0.0
 30
0.0
  0
VERTEX
  5
D0
330
CF
100
AcDbEntity
  8
_U+30EC_U+30A4_U+30E4_U+30FC 1
 62
   179
420
  2234388
370
     9
100
AcDbVertex
100
AcDb2dVertex
 10
84.98360005410996
 20
-121.318690247448
 30
0.0
  0
VERTEX
  5
D1
330
CF
100
AcDbEntity
  8
_U+30EC_U+30A4_U+30E4_U+30FC 1
 62
   179
420
  2234388
370
     9
100
AcDbVertex
100
AcDb2dVertex
 10
84.98360005410996
 20
-118.8585591369521
 30
0.0
  0
SEQEND
  5
D2
330
CF
100
AcDbEntity
  8
_U+30EC_U+30A4_U+30E4_U+30FC 1
 62
   179
420
  2234388
370
     9
  0
INSERT
  5
D4
330
1F
100
AcDbEntity
  8
_U+30EC_U+30A4_U+30E4_U+30FC 1
100
AcDbBlockReference
  2
block 2
 10
0.0
 20
0.0
 30
0.0
  0
POLYLINE
  5
D9
330
1F
100
AcDbEntity
  8
_U+30EC_U+30A4_U+30E4_U+30FC 1
 62
   179
420
  2234388
370
     9
100
AcDb2dPolyline
 66
     1
 10
0.0
 20
0.0
 30
0.0
  0
VERTEX
  5
DA
330
D9
100
AcDbEntity
  8
_U+30EC_U+30A4_U+30E4_U+30FC 1
 62
   179
420
  2234388
370
     9
100
AcDbVertex
100
AcDb2dVertex
 10
84.98360005410996
 20
-119.8586488589243
 30
0.0
  0
VERTEX
  5
DB
330
D9
100
AcDbEntity
  8
_U+30EC_U+30A4_U+30E4_U+30FC 1
 62
   179
420
  2234388
370
     9
100
AcDbVertex
100
AcDb2dVertex
 10
92.98382373889613
 20
-119.8586488589243
 30
0.0
  0
SEQEND
  5
DC
330
D9
100
AcDbEntity
  8
_U+30EC_U+30A4_U+30E4_U+30FC 1
 62
   179
420
  2234388
370
     9
  0
POLYLINE
  5
DD
330
1F
100
AcDbEntity
  8
_U+30EC_U+30A4_U+30E4_U+30FC 1
 62
   179
420
  2234388
370
     9
100
AcDb2dPolyline
 66
     1
 10
0.0
 20
0.0
 30
0.0
  0
VERTEX
  5
DE
330
DD
100
AcDbEntity
  8
_U+30EC_U+30A4_U+30E4_U+30FC 1
 62
   179
420
  2234388
370
     9
100
AcDbVertex
100
AcDb2dVertex
 10
92.98382373889613
 20
-121.318690247448
 30
0.0
  0
VERTEX
  5
DF
330
DD
100
AcDbEntity
  8
_U+30EC_U+30A4_U+30E4_U+30FC 1
 62
   179
420
  2234388
370
     9
100
AcDbVertex
100
AcDb2dVertex
 10
92.98382373889613
 20
-118.8585591369521
 30
0.0
  0
SEQEND
  5
E0
330
DD
100
AcDbEntity
  8
_U+30EC_U+30A4_U+30E4_U+30FC 1
 62
   179
420
  2234388
370
     9
  0
INSERT
  5
E2
330
1F
100
AcDbEntity
  8
_U+30EC_U+30A4_U+30E4_U+30FC 1
100
AcDbBlockReference
  2
block 3
 10
0.0
 20
0.0
 30
0.0
  0
POLYLINE
  5
E9
330
1F
100
AcDbEntity
  8
_U+30EC_U+30A4_U+30E4_U+30FC 1
 62
   179
420
  2234388
370
     9
100
AcDb2dPolyline
 66
     1
 10
0.0
 20
0.0
 30
0.0
  0
VERTEX
  5
EA
330
E9
100
AcDbEntity
  8
_U+30EC_U+30A4_U+30E4_U+30FC 1
 62
   179
420
  2234388
370
     9
100
AcDbVertex
100
AcDb2dVertex
 10
92.98382373889613
 20
-119.8586488589243
 30
0.0
  0
VERTEX
  5
EB
330
E9
100
AcDbEntity
  8
_U+30EC_U+30A4_U+30E4_U+30FC 1
 62
   179
420
  2234388
370
     9
100
AcDbVertex
100
AcDb2dVertex
 10
99.98357219722621
 20
-119.8586488589243
 30
0.0
  0
SEQEND
  5
EC
330
E9
100
AcDbEntity
  8
_U+30EC_U+30A4_U+30E4_U+30FC 1
 62
   179
420
  2234388
370
     9
  0
POLYLINE
  5
ED
330
1F
100
AcDbEntity
  8
_U+30EC_U+30A4_U+30E4_U+30FC 1
 62
   179
420
  2234388
370
     9
100
AcDb2dPolyline
 66
     1
 10
0.0
 20
0.0
 30
0.0
  0
VERTEX
  5
EE
330
ED
100
AcDbEntity
  8
_U+30EC_U+30A4_U+30E4_U+30FC 1
 62
   179
420
  2234388
370
     9
100
AcDbVertex
100
AcDb2dVertex
 10
92.98382373889613
 20
-121.318690247448
 30
0.0
  0
VERTEX
  5
EF
330
ED
100
AcDbEntity
  8
_U+30EC_U+30A4_U+30E4_U+30FC 1
 62
   179
420
  2234388
370
     9
100
AcDbVertex
100
AcDb2dVertex
 10
92.98382373889613
 20
-118.8585591369521
 30
0.0
  0
SEQEND
  5
F0
330
ED
100
AcDbEntity
  8
_U+30EC_U+30A4_U+30E4_U+30FC 1
 62
   179
420
  2234388
370
     9
  0
POLYLINE
  5
F1
330
1F
100
AcDbEntity
  8
_U+30EC_U+30A4_U+30E4_U+30FC 1
 62
   179
420
  2234388
370
     9
100
AcDb2dPolyline
 66
     1
 10
0.0
 20
0.0
 30
0.0
  0
VERTEX
  5
F2
330
F1
100
AcDbEntity
  8
_U+30EC_U+30A4_U+30E4_U+30FC 1
 62
   179
420
  2234388
370
     9
100
AcDbVertex
100
AcDb2dVertex
 10
99.98357219722621
 20
-121.818929136212
 30
0.0
  0
VERTEX
  5
F3
330
F1
100
AcDbEntity
  8
_U+30EC_U+30A4_U+30E4_U+30FC 1
 62
   179
420
  2234388
370
     9
100
AcDbVertex
100
AcDb2dVertex
 10
99.98357219722621
 20
-118.8585591369521
 30
0.0
  0
SEQEND
  5
F4
330
F1
100
AcDbEntity
  8
_U+30EC_U+30A4_U+30E4_U+30FC 1
 62
   179
420
  2234388
370
     9
  0
INSERT
  5
F6
330
1F
100
AcDbEntity
  8
_U+30EC_U+30A4_U+30E4_U+30FC 1
100
AcDbBlockReference
  2
block 4
 10
0.0
 20
0.0
 30
0.0
  0
INSERT
  5
FC
330
1F
100
AcDbEntity
  8
_U+30EC_U+30A4_U+30E4_U+30FC 1
100
AcDbBlockReference
  2
block 5
 10
0.0
 20
0.0
 30
0.0
  0
POLYLINE
  5
104
330
1F
100
AcDbEntity
  8
_U+30EC_U+30A4_U+30E4_U+30FC 1
 62
   179
420
  2234388
370
     9
100
AcDb2dPolyline
 66
     1
 10
0.0
 20
0.0
 30
0.0
  0
VERTEX
  5
105
330
104
100
AcDbEntity
  8
_U+30EC_U+30A4_U+30E4_U+30FC 1
 62
   179
420
  2234388
370
     9
100
AcDbVertex
100
AcDb2dVertex
 10
103.9839990138138
 20
-124.8588858021186
 30
0.0
  0
VERTEX
  5
106
330
104
100
AcDbEntity
  8
_U+30EC_U+30A4_U+30E4_U+30FC 1
 62
   179
420
  2234388
370
     9
100
AcDbVertex
100
AcDb2dVertex
 10
103.9839990138138
 20
-134.8586188551745
 30
0.0
  0
SEQEND
  5
107
330
104
100
AcDbEntity
  8
_U+30EC_U+30A4_U+30E4_U+30FC 1
 62
   179
420
  2234388
370
     9
  0
POLYLINE
  5
108
330
1F
100
AcDbEntity
  8
_U+30EC_U+30A4_U+30E4_U+30FC 1
 62
   179
420
  2234388
370
     9
100
AcDb2dPolyline
 66
     1
 10
0.0
 20
0.0
 30
0.0
  0
VERTEX
  5
109
330
108
100
AcDbEntity
  8
_U+30EC_U+30A4_U+30E4_U+30FC 1
 62
   179
420
  2234388
370
     9
100
AcDbVertex
100
AcDb2dVertex
 10
102.5239576621737
 20
-124.8588858021186
 30
0.0
  0
VERTEX
  5
10A
330
108
100
AcDbEntity
  8
_U+30EC_U+30A4_U+30E4_U+30FC 1
 62
   179
420
  2234388
370
     9
100
AcDbVertex
100
AcDb2dVertex
 10
104.9837712105298
 20
-124.8588858021186
 30
0.0
  0
SEQEND
  5
10B
330
108
100
AcDbEntity
  8
_U+30EC_U+30A4_U+30E4_U+30FC 1
 62
   179
420
  2234388
370
     9
  0
POLYLINE
  5
10C
330
1F
100
AcDbEntity
  8
_U+30EC_U+30A4_U+30E4_U+30FC 1
 62
   179
420
  2234388
370
     9
100
AcDb2dPolyline
 66
     1
 10
0.0
 20
0.0
 30
0.0
  0
VERTEX
  5
10D
330
10C
100
AcDbEntity
  8
_U+30EC_U+30A4_U+30E4_U+30FC 1
 62
   179
420
  2234388
370
     9
100
AcDbVertex
100
AcDb2dVertex
 10
102.5239576621737
 20
-134.8586188551745
 30
0.0
  0
VERTEX
  5
10E
330
10C
100
AcDbEntity
  8
_U+30EC_U+30A4_U+30E4_U+30FC 1
 62
   179
420
  2234388
370
     9
100
AcDbVertex
100
AcDb2dVertex
 10
104.9837712105298
 20
-134.8586188551745
 30
0.0
  0
SEQEND
  5
10F
330
10C
100
AcDbEntity
  8
_U+30EC_U+30A4_U+30E4_U+30FC 1
 62
   179
420
  2234388
370
     9
  0
INSERT
  5
111
330
1F
100
AcDbEntity
  8
_U+30EC_U+30A4_U+30E4_U+30FC 1
100
AcDbBlockReference
  2
block 6
 10
0.0
 20
0.0
 30
0.0
  0
SPLINE
  5
119
330
1F
100
AcDbEntity
  8
_U+30EC_U+30A4_U+30E4_U+30FC 1
 62
   179
420
  2234388
370
     9
100
AcDbSpline
210
0.0
220
0.0
230
1.0
 70
    11
 71
     3
 72
    17
 73
    13
 74
     0
 42
0.0000000001
 43
0.0000000001
 12
1.0
 22
0.0
 32
0.0
 13
1.0
 23
0.0
 33
0.0
 40
0.0
 40
0.0
 40
0.0
 40
0.0
 40
1.0
 40
1.0
 40
1.0
 40
2.0
 40
2.0
 40
2.0
 40
3.0
 40
3.0
 40
3.0
 40
4.0
 40
4.0
 40
4.0
 40
4.0
 10
84.09548202121218
 20
-131.588192467103
 30
0.0
 10
84.09548202121218
 20
-131.5330533004499
 30
0.0
 10
84.05067924457742
 20
-131.4882858004614
 30
0.0
 10
83.99557535709434
 20
-131.4882858004614
 30
0.0
 10
83.9404361918344
 20
-131.4882858004614
 30
0.0
 10
83.89566869297651
 20
-131.5330533004499
 30
0.0
 10
83.89566869297651
 20
-131.588192467103
 30
0.0
 10
83.89566869297651
 20
-131.6432963559779
 30
0.0
 10
83.9404361918344
 20
-131.6880991337446
 30
0.0
 10
83.99557535709434
 20
-131.6880991337446
 30
0.0
 10
84.05067924457742
 20
-131.6880991337446
 30
0.0
 10
84.09548202121218
 20
-131.6432963559779
 30
0.0
 10
84.09548202121218
 20
-131.588192467103
 30
0.0
  0
SPLINE
  5
11A
330
1F
100
AcDbEntity
  8
_U+30EC_U+30A4_U+30E4_U+30FC 1
 62
   179
420
  2234388
370
     9
100
AcDbSpline
210
0.0
220
0.0
230
1.0
 70
    11
 71
     3
 72
    17
 73
    13
 74
     0
 42
0.0000000001
 43
0.0000000001
 12
1.0
 22
0.0
 32
0.0
 13
1.0
 23
0.0
 33
0.0
 40
0.0
 40
0.0
 40
0.0
 40
0.0
 40
1.0
 40
1.0
 40
1.0
 40
2.0
 40
2.0
 40
2.0
 40
3.0
 40
3.0
 40
3.0
 40
4.0
 40
4.0
 40
4.0
 40
4.0
 10
85.09592449568876
 20
-131.588192467103
 30
0.0
 10
85.09592449568876
 20
-131.5330533004499
 30
0.0
 10
85.05112171905401
 20
-131.4882858004614
 30
0.0
 10
84.99601783157094
 20
-131.4882858004614
 30
0.0
 10
84.94087866631098
 20
-131.4882858004614
 30
0.0
 10
84.8961111674531
 20
-131.5330533004499
 30
0.0
 10
84.8961111674531
 20
-131.588192467103
 30
0.0
 10
84.8961111674531
 20
-131.6432963559779
 30
0.0
 10
84.94087866631098
 20
-131.6880991337446
 30
0.0
 10
84.99601783157094
 20
-131.6880991337446
 30
0.0
 10
85.05112171905401
 20
-131.6880991337446
 30
0.0
 10
85.09592449568876
 20
-131.6432963559779
 30
0.0
 10
85.09592449568876
 20
-131.588192467103
 30
0.0
  0
POLYLINE
  5
11B
330
1F
100
AcDbEntity
  8
_U+30EC_U+30A4_U+30E4_U+30FC 1
 62
   179
420
  2234388
370
     9
100
AcDb2dPolyline
 66
     1
 10
0.0
 20
0.0
 30
0.0
  0
VERTEX
  5
11C
330
11B
100
AcDbEntity
  8
_U+30EC_U+30A4_U+30E4_U+30FC 1
 62
   179
420
  2234388
370
     9
100
AcDbVertex
100
AcDb2dVertex
 10
84.99601783157094
 20
-131.588192467103
 30
0.0
  0
VERTEX
  5
11D
330
11B
100
AcDbEntity
  8
_U+30EC_U+30A4_U+30E4_U+30FC 1
 62
   179
420
  2234388
370
     9
100
AcDbVertex
100
AcDb2dVertex
 10
88.76633023538224
 20
-131.588192467103
 30
0.0
  0
SEQEND
  5
11E
330
11B
100
AcDbEntity
  8
_U+30EC_U+30A4_U+30E4_U+30FC 1
 62
   179
420
  2234388
370
     9
  0
POLYLINE
  5
11F
330
1F
100
AcDbEntity
  8
_U+30EC_U+30A4_U+30E4_U+30FC 1
 62
   179
420
  2234388
370
     9
100
AcDb2dPolyline
 66
     1
 10
0.0
 20
0.0
 30
0.0
  0
VERTEX
  5
120
330
11F
100
AcDbEntity
  8
_U+30EC_U+30A4_U+30E4_U+30FC 1
 62
   179
420
  2234388
370
     9
100
AcDbVertex
100
AcDb2dVertex
 10
82.99580316037844
 20
-131.588192467103
 30
0.0
  0
VERTEX
  5
121
330
11F
100
AcDbEntity
  8
_U+30EC_U+30A4_U+30E4_U+30FC 1
 62
   179
420
  2234388
370
     9
100
AcDbVertex
100
AcDb2dVertex
 10
84.99601783157094
 20
-131.588192467103
 30
0.0
  0
SEQEND
  5
122
330
11F
100
AcDbEntity
  8
_U+30EC_U+30A4_U+30E4_U+30FC 1
 62
   179
420
  2234388
370
     9
  0
INSERT
  5
124
330
1F
100
AcDbEntity
  8
_U+30EC_U+30A4_U+30E4_U+30FC 1
100
AcDbBlockReference
  2
block 7
 10
0.0
 20
0.0
 30
0.0
  0
ENDSEC
  0
SECTION
  2
OBJECTS
  0
DICTIONARY
  5
C
330
0
100
AcDbDictionary
281
     1
  3
ACAD_GROUP
350
D
  3
ACAD_LAYOUT
350
1A
  3
ACAD_MATERIAL
350
3B
  3
ACAD_MLEADERSTYLE
350
12A
  3
ACAD_MLINESTYLE
350
17
  3
ACAD_PLOTSETTINGS
350
19
  3
ACAD_PLOTSTYLENAME
350
E
  3
ACAD_TABLESTYLE
350
129
  3
ACAD_VISUALSTYLE
350
2A
  0
SUN
  5
3F
330
29
100
AcDbSun
 90
        1
290
     0
 63
     7
421
 16777215
 40
1.0
291
     1
 91
  2455826
 92
 54000000
292
     0
 70
     2
 71
   256
280
     1
  0
DICTIONARY
  5
D
102
{ACAD_REACTORS
330
C
102
}
330
C
100
AcDbDictionary
281
     1
  0
DICTIONARY
  5
1A
102
{ACAD_REACTORS
330
C
102
}
330
C
100
AcDbDictionary
281
     1
  3
Layout1
350
1E
  3
Layout2
350
26
  3
Model
350
22
  0
DICTIONARY
  5
3B
102
{ACAD_REACTORS
330
C
102
}
330
C
100
AcDbDictionary
281
     1
  3
ByBlock
350
3D
  3
ByLayer
350
3C
  3
Global
350
3E
  0
DICTIONARY
  5
12A
102
{ACAD_REACTORS
330
C
102
}
330
C
100
AcDbDictionary
281
     1
  0
DICTIONARY
  5
17
102
{ACAD_REACTORS
330
C
102
}
330
C
100
AcDbDictionary
281
     1
  3
Standard
350
18
  0
DICTIONARY
  5
19
102
{ACAD_REACTORS
330
C
102
}
330
C
100
AcDbDictionary
281
     1
  0
ACDBDICTIONARYWDFLT
  5
E
102
{ACAD_REACTORS
330
C
102
}
330
C
100
AcDbDictionary
281
     1
  3
Normal
350
F
100
AcDbDictionaryWithDefault
340
F
  0
DICTIONARY
  5
129
102
{ACAD_REACTORS
330
C
102
}
330
C
100
AcDbDictionary
281
     1
  0
DICTIONARY
  5
2A
102
{ACAD_REACTORS
330
C
102
}
330
C
100
AcDbDictionary
281
     1
  3
2dWireframe
350
2F
  3
3D Hidden
350
31
  3
3dWireframe
350
30
  3
Basic
350
32
  3
Brighten
350
36
  3
ColorChange
350
3A
  3
Conceptual
350
34
  3
Dim
350
35
  3
Facepattern
350
39
  3
Flat
350
2B
  3
FlatWithEdges
350
2C
  3
Gouraud
350
2D
  3
GouraudWithEdges
350
2E
  3
Linepattern
350
38
  3
Realistic
350
33
  3
Thicken
350
37
  0
LAYOUT
  5
1E
102
{ACAD_REACTORS
330
1A
102
}
330
1A
100
AcDbPlotSettings
  1

  2
none_device
  4

  6

 40
0.0
 41
0.0
 42
0.0
 43
0.0
 44
0.0
 45
0.0
 46
0.0
 47
0.0
 48
0.0
 49
0.0
140
0.0
141
0.0
142
1.0
143
1.0
 70
   688
 72
     0
 73
     0
 74
     5
  7

 75
    16
 76
     0
 77
     2
 78
   300
147
1.0
148
0.0
149
0.0
100
AcDbLayout
  1
Layout1
 70
     1
 71
     1
 10
0.0
 20
0.0
 11
12.0
 21
9.0
 12
0.0
 22
0.0
 32
0.0
 14
1.000000000000000E+20
 24
1.000000000000000E+20
 34
1.000000000000000E+20
 15
-1.000000000000000E+20
 25
-1.000000000000000E+20
 35
-1.000000000000000E+20
146
0.0
 13
0.0
 23
0.0
 33
0.0
 16
1.0
 26
0.0
 36
0.0
 17
0.0
 27
1.0
 37
0.0
 76
     0
330
1B
  0
LAYOUT
  5
26
102
{ACAD_REACTORS
330
1A
102
}
330
1A
100
AcDbPlotSettings
  1

  2
none_device
  4

  6

 40
0.0
 41
0.0
 42
0.0
 43
0.0
 44
0.0
 45
0.0
 46
0.0
 47
0.0
 48
0.0
 49
0.0
140
0.0
141
0.0
142
1.0
143
1.0
 70
   688
 72
     0
 73
     0
 74
     5
  7

 75
    16
 76
     0
 77
     2
 78
   300
147
1.0
148
0.0
149
0.0
100
AcDbLayout
  1
Layout2
 70
     1
 71
     2
 10
0.0
 20
0.0
 11
0.0
 21
0.0
 12
0.0
 22
0.0
 32
0.0
 14
0.0
 24
0.0
 34
0.0
 15
0.0
 25
0.0
 35
0.0
146
0.0
 13
0.0
 23
0.0
 33
0.0
 16
1.0
 26
0.0
 36
0.0
 17
0.0
 27
1.0
 37
0.0
 76
     0
330
23
  0
LAYOUT
  5
22
102
{ACAD_REACTORS
330
1A
102
}
330
1A
100
AcDbPlotSettings
  1

  2
none_device
  4

  6

 40
0.0
 41
0.0
 42
0.0
 43
0.0
 44
0.0
 45
0.0
 46
0.0
 47
0.0
 48
0.0
 49
0.0
140
0.0
141
0.0
142
1.0
143
1.0
 70
  1712
 72
     0
 73
     0
 74
     0
  7

 75
     0
 76
     0
 77
     2
 78
   300
147
1.0
148
0.0
149
0.0
100
AcDbLayout
  1
Model
 70
     1
 71
     0
 10
0.0
 20
0.0
 11
12.0
 21
9.0
 12
0.0
 22
0.0
 32
0.0
 14
1.000000000000000E+20
 24
1.000000000000000E+20
 34
1.000000000000000E+20
 15
-1.000000000000000E+20
 25
-1.000000000000000E+20
 35
-1.000000000000000E+20
146
0.0
 13
0.0
 23
0.0
 33
0.0
 16
1.0
 26
0.0
 36
0.0
 17
0.0
 27
1.0
 37
0.0
 76
     0
330
1F
331
29
  0
MATERIAL
  5
3D
102
{ACAD_REACTORS
330
3B
102
}
330
3B
100
AcDbMaterial
  1
ByBlock
 72
     1
 94
      127
  0
MATERIAL
  5
3C
102
{ACAD_REACTORS
330
3B
102
}
330
3B
100
AcDbMaterial
  1
ByLayer
 72
     1
 94
      127
  0
MATERIAL
  5
3E
102
{ACAD_REACTORS
330
3B
102
}
330
3B
100
AcDbMaterial
  1
Global
 72
     1
 94
      127
  0
MLINESTYLE
  5
18
102
{ACAD_REACTORS
330
17
102
}
330
17
100
AcDbMlineStyle
  2
Standard
 70
     0
  3

 62
   256
 51
90.0
 52
90.0
 71
     2
 49
0.5
 62
   256
  6
BYLAYER
 49
-0.5
 62
   256
  6
BYLAYER
  0
ACDBPLACEHOLDER
  5
F
102
{ACAD_REACTORS
330
E
102
}
330
E
  0
VISUALSTYLE
  5
2F
102
{ACAD_REACTORS
330
2A
102
}
330
2A
100
AcDbVisualStyle
  2
2dWireframe
 70
     4
177
     2
291
     0
 71
     0
176
     1
 72
     2
176
     1
 73
     0
176
     1
 90
        0
176
     1
 40
-0.6
176
     1
 41
-30.0
176
     1
 62
     5
 63
     7
421
 16777215
176
     1
 74
     1
176
     1
 91
        4
176
     1
 64
     7
176
     1
 65
   257
176
     1
 75
     1
176
     1
175
     1
176
     1
 42
1.0
176
     1
 92
        0
176
     1
 66
   257
176
     1
 43
1.0
176
     1
 76
     1
176
     1
 77
     6
176
     1
 78
     2
176
     1
 67
     7
176
     1
 79
     5
176
     1
170
     0
176
     1
171
     0
176
     1
290
     0
176
     1
 93
        1
176
     1
 44
0.0
176
     1
173
     0
176
     1
  0
VISUALSTYLE
  5
31
102
{ACAD_REACTORS
330
2A
102
}
330
2A
100
AcDbVisualStyle
  2
3D Hidden
 70
     6
177
     2
291
     0
 71
     1
176
     1
 72
     2
176
     1
 73
     2
176
     1
 90
        0
176
     1
 40
-0.6
176
     1
 41
-30.0
176
     1
 62
     5
 63
     7
421
 16777215
176
     1
 74
     2
176
     1
 91
        2
176
     1
 64
     7
176
     1
 65
   257
176
     1
 75
     2
176
     1
175
     1
176
     1
 42
40.0
176
     1
 92
        0
176
     1
 66
   257
176
     1
 43
1.0
176
     1
 76
     1
176
     1
 77
     6
176
     1
 78
     2
176
     1
 67
     7
176
     1
 79
     3
176
     1
170
     0
176
     1
171
     0
176
     1
290
     0
176
     1
 93
        1
176
     1
 44
0.0
176
     1
173
     0
176
     1
  0
VISUALSTYLE
  5
30
102
{ACAD_REACTORS
330
2A
102
}
330
2A
100
AcDbVisualStyle
  2
3dWireframe
 70
     5
177
     2
291
     0
 71
     0
176
     1
 72
     2
176
     1
 73
     0
176
     1
 90
        0
176
     1
 40
-0.6
176
     1
 41
-30.0
176
     1
 62
     5
 63
     7
421
 16777215
176
     1
 74
     1
176
     1
 91
        4
176
     1
 64
     7
176
     1
 65
   257
176
     1
 75
     1
176
     1
175
     1
176
     1
 42
1.0
176
     1
 92
        0
176
     1
 66
   257
176
     1
 43
1.0
176
     1
 76
     1
176
     1
 77
     6
176
     1
 78
     2
176
     1
 67
     7
176
     1
 79
     5
176
     1
170
     0
176
     1
171
     0
176
     1
290
     0
176
     1
 93
        1
176
     1
 44
0.0
176
     1
173
     0
176
     1
  0
VISUALSTYLE
  5
32
102
{ACAD_REACTORS
330
2A
102
}
330
2A
100
AcDbVisualStyle
  2
Basic
 70
     7
177
     2
291
     1
 71
     1
176
     1
 72
     0
176
     1
 73
     1
176
     1
 90
        0
176
     1
 40
-0.6
176
     1
 41
-30.0
176
     1
 62
     5
 63
     7
421
 16777215
176
     1
 74
     0
176
     1
 91
        4
176
     1
 64
     7
176
     1
 65
   257
176
     1
 75
     1
176
     1
175
     1
176
     1
 42
1.0
176
     1
 92
        8
176
     1
 66
     7
176
     1
 43
1.0
176
     1
 76
     1
176
     1
 77
     6
176
     1
 78
     2
176
     1
 67
     7
176
     1
 79
     5
176
     1
170
     0
176
     1
171
     0
176
     1
290
     0
176
     1
 93
        1
176
     1
 44
0.0
176
     1
173
     0
176
     1
  0
VISUALSTYLE
  5
36
102
{ACAD_REACTORS
330
2A
102
}
330
2A
100
AcDbVisualStyle
  2
Brighten
 70
    12
177
     2
291
     1
 71
     2
176
     1
 72
     2
176
     1
 73
     0
176
     1
 90
        0
176
     1
 40
-0.6
176
     1
 41
-30.0
176
     1
 62
     5
 63
     7
421
 16777215
176
     1
 74
     1
176
     1
 91
        4
176
     1
 64
     7
176
     1
 65
   257
176
     1
 75
     1
176
     1
175
     1
176
     1
 42
1.0
176
     1
 92
        8
176
     1
 66
     7
176
     1
 43
1.0
176
     1
 76
     1
176
     1
 77
     6
176
     1
 78
     2
176
     1
 67
     7
176
     1
 79
     5
176
     1
170
     0
176
     1
171
     0
176
     1
290
     0
176
     1
 93
        1
176
     1
 44
50.0
176
     1
173
     0
176
     1
  0
VISUALSTYLE
  5
3A
102
{ACAD_REACTORS
330
2A
102
}
330
2A
100
AcDbVisualStyle
  2
ColorChange
 70
    16
177
     2
291
     1
 71
     2
176
     1
 72
     2
176
     1
 73
     3
176
     1
 90
        0
176
     1
 40
-0.6
176
     1
 41
-30.0
176
     1
 62
     5
 63
     8
421
  8421504
176
     1
 74
     1
176
     1
 91
        4
176
     1
 64
     7
176
     1
 65
   257
176
     1
 75
     1
176
     1
175
     1
176
     1
 42
1.0
176
     1
 92
        8
176
     1
 66
     8
424
  8421504
176
     1
 43
1.0
176
     1
 76
     1
176
     1
 77
     6
176
     1
 78
     2
176
     1
 67
     7
176
     1
 79
     5
176
     1
170
     0
176
     1
171
     0
176
     1
290
     0
176
     1
 93
        1
176
     1
 44
0.0
176
     1
173
     0
176
     1
  0
VISUALSTYLE
  5
34
102
{ACAD_REACTORS
330
2A
102
}
330
2A
100
AcDbVisualStyle
  2
Conceptual
 70
     9
177
     2
291
     0
 71
     3
176
     1
 72
     2
176
     1
 73
     0
176
     1
 90
        0
176
     1
 40
-0.6
176
     1
 41
-30.0
176
     1
 62
     5
 63
     7
421
 16777215
176
     1
 74
     2
176
     1
 91
        2
176
     1
 64
     7
176
     1
 65
   257
176
     1
 75
     1
176
     1
175
     1
176
     1
 42
40.0
176
     1
 92
        8
176
     1
 66
     7
176
     1
 43
1.0
176
     1
 76
     1
176
     1
 77
     6
176
     1
 78
     2
176
     1
 67
     7
176
     1
 79
     3
176
     1
170
     0
176
     1
171
     0
176
     1
290
     0
176
     1
 93
        1
176
     1
 44
0.0
176
     1
173
     0
176
     1
  0
VISUALSTYLE
  5
35
102
{ACAD_REACTORS
330
2A
102
}
330
2A
100
AcDbVisualStyle
  2
Dim
 70
    11
177
     2
291
     1
 71
     2
176
     1
 72
     2
176
     1
 73
     0
176
     1
 90
        0
176
     1
 40
-0.6
176
     1
 41
-30.0
176
     1
 62
     5
 63
     7
421
 16777215
176
     1
 74
     1
176
     1
 91
        4
176
     1
 64
     7
176
     1
 65
   257
176
     1
 75
     1
176
     1
175
     1
176
     1
 42
1.0
176
     1
 92
        8
176
     1
 66
     7
176
     1
 43
1.0
176
     1
 76
     1
176
     1
 77
     6
176
     1
 78
     2
176
     1
 67
     7
176
     1
 79
     5
176
     1
170
     0
176
     1
171
     0
176
     1
290
     0
176
     1
 93
        1
176
     1
 44
-50.0
176
     1
173
     0
176
     1
  0
VISUALSTYLE
  5
39
102
{ACAD_REACTORS
330
2A
102
}
330
2A
100
AcDbVisualStyle
  2
Facepattern
 70
    15
177
     2
291
     1
 71
     2
176
     1
 72
     2
176
     1
 73
     0
176
     1
 90
        0
176
     1
 40
-0.6
176
     1
 41
-30.0
176
     1
 62
     5
 63
     7
421
 16777215
176
     1
 74
     1
176
     1
 91
        4
176
     1
 64
     7
176
     1
 65
   257
176
     1
 75
     1
176
     1
175
     1
176
     1
 42
1.0
176
     1
 92
        8
176
     1
 66
     7
176
     1
 43
1.0
176
     1
 76
     1
176
     1
 77
     6
176
     1
 78
     2
176
     1
 67
     7
176
     1
 79
     5
176
     1
170
     0
176
     1
171
     0
176
     1
290
     0
176
     1
 93
        1
176
     1
 44
0.0
176
     1
173
     0
176
     1
  0
VISUALSTYLE
  5
2B
102
{ACAD_REACTORS
330
2A
102
}
330
2A
100
AcDbVisualStyle
  2
Flat
 70
     0
177
     2
291
     1
 71
     2
176
     1
 72
     1
176
     1
 73
     1
176
     1
 90
        2
176
     1
 40
-0.6
176
     1
 41
30.0
176
     1
 62
     5
 63
     7
421
 16777215
176
     1
 74
     0
176
     1
 91
        4
176
     1
 64
     7
176
     1
 65
   257
176
     1
 75
     1
176
     1
175
     1
176
     1
 42
1.0
176
     1
 92
        8
176
     1
 66
     7
176
     1
 43
1.0
176
     1
 76
     1
176
     1
 77
     6
176
     1
 78
     2
176
     1
 67
     7
176
     1
 79
     5
176
     1
170
     0
176
     1
171
     0
176
     1
290
     0
176
     1
 93
       13
176
     1
 44
0.0
176
     1
173
     0
176
     1
  0
VISUALSTYLE
  5
2C
102
{ACAD_REACTORS
330
2A
102
}
330
2A
100
AcDbVisualStyle
  2
FlatWithEdges
 70
     1
177
     2
291
     1
 71
     2
176
     1
 72
     1
176
     1
 73
     1
176
     1
 90
        2
176
     1
 40
-0.6
176
     1
 41
30.0
176
     1
 62
     5
 63
     7
421
 16777215
176
     1
 74
     1
176
     1
 91
        4
176
     1
 64
     7
176
     1
 65
   257
176
     1
 75
     1
176
     1
175
     1
176
     1
 42
1.0
176
     1
 92
        0
176
     1
 66
   257
176
     1
 43
1.0
176
     1
 76
     1
176
     1
 77
     6
176
     1
 78
     2
176
     1
 67
     7
176
     1
 79
     5
176
     1
170
     0
176
     1
171
     0
176
     1
290
     0
176
     1
 93
       13
176
     1
 44
0.0
176
     1
173
     0
176
     1
  0
VISUALSTYLE
  5
2D
102
{ACAD_REACTORS
330
2A
102
}
330
2A
100
AcDbVisualStyle
  2
Gouraud
 70
     2
177
     2
291
     1
 71
     2
176
     1
 72
     2
176
     1
 73
     1
176
     1
 90
        2
176
     1
 40
-0.6
176
     1
 41
30.0
176
     1
 62
     5
 63
     7
421
 16777215
176
     1
 74
     0
176
     1
 91
        4
176
     1
 64
     7
176
     1
 65
   257
176
     1
 75
     1
176
     1
175
     1
176
     1
 42
1.0
176
     1
 92
        0
176
     1
 66
     7
176
     1
 43
1.0
176
     1
 76
     1
176
     1
 77
     6
176
     1
 78
     2
176
     1
 67
     7
176
     1
 79
     5
176
     1
170
     0
176
     1
171
     0
176
     1
290
     0
176
     1
 93
       13
176
     1
 44
0.0
176
     1
173
     0
176
     1
  0
VISUALSTYLE
  5
2E
102
{ACAD_REACTORS
330
2A
102
}
330
2A
100
AcDbVisualStyle
  2
GouraudWithEdges
 70
     3
177
     2
291
     1
 71
     2
176
     1
 72
     2
176
     1
 73
     1
176
     1
 90
        2
176
     1
 40
-0.6
176
     1
 41
30.0
176
     1
 62
     5
 63
     7
421
 16777215
176
     1
 74
     1
176
     1
 91
        4
176
     1
 64
     7
176
     1
 65
   257
176
     1
 75
     1
176
     1
175
     1
176
     1
 42
1.0
176
     1
 92
        0
176
     1
 66
   257
176
     1
 43
1.0
176
     1
 76
     1
176
     1
 77
     6
176
     1
 78
     2
176
     1
 67
     7
176
     1
 79
     5
176
     1
170
     0
176
     1
171
     0
176
     1
290
     0
176
     1
 93
       13
176
     1
 44
0.0
176
     1
173
     0
176
     1
  0
VISUALSTYLE
  5
38
102
{ACAD_REACTORS
330
2A
102
}
330
2A
100
AcDbVisualStyle
  2
Linepattern
 70
    14
177
     2
291
     1
 71
     2
176
     1
 72
     2
176
     1
 73
     0
176
     1
 90
        0
176
     1
 40
-0.6
176
     1
 41
-30.0
176
     1
 62
     5
 63
     7
421
 16777215
176
     1
 74
     1
176
     1
 91
        4
176
     1
 64
     7
176
     1
 65
   257
176
     1
 75
     7
176
     1
175
     7
176
     1
 42
1.0
176
     1
 92
        8
176
     1
 66
     7
176
     1
 43
1.0
176
     1
 76
     1
176
     1
 77
     6
176
     1
 78
     2
176
     1
 67
     7
176
     1
 79
     5
176
     1
170
     0
176
     1
171
     0
176
     1
290
     0
176
     1
 93
        1
176
     1
 44
0.0
176
     1
173
     0
176
     1
  0
VISUALSTYLE
  5
33
102
{ACAD_REACTORS
330
2A
102
}
330
2A
100
AcDbVisualStyle
  2
Realistic
 70
     8
177
     2
291
     0
 71
     2
176
     1
 72
     2
176
     1
 73
     0
176
     1
 90
        0
176
     1
 40
-0.6
176
     1
 41
-30.0
176
     1
 62
     5
 63
     7
421
 16777215
176
     1
 74
     1
176
     1
 91
        0
176
     1
 64
     7
176
     1
 65
   257
176
     1
 75
     1
176
     1
175
     1
176
     1
 42
1.0
176
     1
 92
        8
176
     1
 66
     8
424
  7895160
176
     1
 43
1.0
176
     1
 76
     1
176
     1
 77
     6
176
     1
 78
     2
176
     1
 67
     7
176
     1
 79
     5
176
     1
170
     0
176
     1
171
     0
176
     1
290
     0
176
     1
 93
       13
176
     1
 44
0.0
176
     1
173
     0
176
     1
  0
VISUALSTYLE
  5
37
102
{ACAD_REACTORS
330
2A
102
}
330
2A
100
AcDbVisualStyle
  2
Thicken
 70
    13
177
     2
291
     1
 71
     2
176
     1
 72
     2
176
     1
 73
     0
176
     1
 90
        0
176
     1
 40
-0.6
176
     1
 41
-30.0
176
     1
 62
     5
 63
     7
421
 16777215
176
     1
 74
     1
176
     1
 91
        4
176
     1
 64
     7
176
     1
 65
   257
176
     1
 75
     1
176
     1
175
     1
176
     1
 42
1.0
176
     1
 92
       12
176
     1
 66
     7
176
     1
 43
1.0
176
     1
 76
     1
176
     1
 77
     6
176
     1
 78
     2
176
     1
 67
     7
176
     1
 79
     5
176
     1
170
     0
176
     1
171
     0
176
     1
290
     0
176
     1
 93
        1
176
     1
 44
0.0
176
     1
173
     0
176
     1
  0
ENDSEC
  0
EOF
