  0
SECTION
  2
HEADER
  9
$ACADVER
  1
AC1024
  9
$ACADMAINTVER
 70
     6
  9
$DWGCODEPAGE
  3
UNDEFINED
  9
$INSBASE
 10
0.0
 20
0.0
 30
0.0
  9
$EXTMIN
 10
1.000000000000000E+20
 20
1.000000000000000E+20
 30
1.000000000000000E+20
  9
$EXTMAX
 10
-1.000000000000000E+20
 20
-1.000000000000000E+20
 30
-1.000000000000000E+20
  9
$LIMMIN
 10
0.0
 20
0.0
  9
$LIMMAX
 10
12.0
 20
9.0
  9
$ORTHOMODE
 70
     0
  9
$REGENMODE
 70
     1
  9
$FILLMODE
 70
     1
  9
$QTEXTMODE
 70
     0
  9
$MIRRTEXT
 70
     1
  9
$LTSCALE
 40
1.0
  9
$ATTMODE
 70
     1
  9
$TEXTSIZE
 40
0.2
  9
$TRACEWID
 40
0.05
  9
$TEXTSTYLE
  7
Standard
  9
$CLAYER
  8
0
  9
$CELTYPE
  6
ByLayer
  9
$CECOLOR
 62
   256
  9
$CELTSCALE
 40
1.0
  9
$DISPSILH
 70
     0
  9
$DIMSCALE
 40
1.0
  9
$DIMASZ
 40
0.18
  9
$DIMEXO
 40
0.0625
  9
$DIMDLI
 40
0.38
  9
$DIMRND
 40
0.0
  9
$DIMDLE
 40
0.0
  9
$DIMEXE
 40
0.18
  9
$DIMTP
 40
0.0
  9
$DIMTM
 40
0.0
  9
$DIMTXT
 40
0.18
  9
$DIMCEN
 40
0.09
  9
$DIMTSZ
 40
0.0
  9
$DIMTOL
 70
     0
  9
$DIMLIM
 70
     0
  9
$DIMTIH
 70
     1
  9
$DIMTOH
 70
     1
  9
$DIMSE1
 70
     0
  9
$DIMSE2
 70
     0
  9
$DIMTAD
 70
     0
  9
$DIMZIN
 70
     0
  9
$DIMBLK
  1

  9
$DIMASO
 70
     1
  9
$DIMSHO
 70
     1
  9
$DIMPOST
  1

  9
$DIMAPOST
  1

  9
$DIMALT
 70
     0
  9
$DIMALTD
 70
     2
  9
$DIMALTF
 40
25.4
  9
$DIMLFAC
 40
1.0
  9
$DIMTOFL
 70
     0
  9
$DIMTVP
 40
0.0
  9
$DIMTIX
 70
     0
  9
$DIMSOXD
 70
     0
  9
$DIMSAH
 70
     0
  9
$DIMBLK1
  1

  9
$DIMBLK2
  1

  9
$DIMSTYLE
  2
Standard
  9
$DIMCLRD
 70
     0
  9
$DIMCLRE
 70
     0
  9
$DIMCLRT
 70
     0
  9
$DIMTFAC
 40
1.0
  9
$DIMGAP
 40
0.09
  9
$DIMJUST
 70
     0
  9
$DIMSD1
 70
     0
  9
$DIMSD2
 70
     0
  9
$DIMTOLJ
 70
     1
  9
$DIMTZIN
 70
     0
  9
$DIMALTZ
 70
     0
  9
$DIMALTTZ
 70
     0
  9
$DIMUPT
 70
     0
  9
$DIMDEC
 70
     4
  9
$DIMTDEC
 70
     4
  9
$DIMALTU
 70
     2
  9
$DIMALTTD
 70
     2
  9
$DIMTXSTY
  7
Standard
  9
$DIMAUNIT
 70
     0
  9
$DIMADEC
 70
     0
  9
$DIMALTRND
 40
0.0
  9
$DIMAZIN
 70
     0
  9
$DIMDSEP
 70
    46
  9
$DIMATFIT
 70
     3
  9
$DIMFRAC
 70
     0
  9
$DIMLDRBLK
  1

  9
$DIMLUNIT
 70
     2
  9
$DIMLWD
 70
    -2
  9
$DIMLWE
 70
    -2
  9
$DIMTMOVE
 70
     0
  9
$DIMFXL
 40
1.0
  9
$DIMFXLON
 70
     0
  9
$DIMJOGANG
 40
0.7853981633974483
  9
$DIMTFILL
 70
     0
  9
$DIMTFILLCLR
 70
     0
  9
$DIMARCSYM
 70
     0
  9
$DIMLTYPE
  6

  9
$DIMLTEX1
  6

  9
$DIMLTEX2
  6

  9
$DIMTXTDIRECTION
 70
     0
  9
$LUNITS
 70
     2
  9
$LUPREC
 70
     4
  9
$SKETCHINC
 40
0.1
  9
$FILLETRAD
 40
0.5
  9
$AUNITS
 70
     0
  9
$AUPREC
 70
     0
  9
$MENU
  1
.
  9
$ELEVATION
 40
0.0
  9
$PELEVATION
 40
0.0
  9
$THICKNESS
 40
0.0
  9
$LIMCHECK
 70
     0
  9
$CHAMFERA
 40
0.5
  9
$CHAMFERB
 40
0.5
  9
$CHAMFERC
 40
1.0
  9
$CHAMFERD
 40
0.0
  9
$SKPOLY
 70
     0
  9
$TDCREATE
 40
2457917.623483784
  9
$TDUCREATE
 40
2457917.248483796
  9
$TDUPDATE
 40
2457917.623483784
  9
$TDUUPDATE
 40
2457917.248483796
  9
$TDINDWG
 40
0.0000000116
  9
$TDUSRTIMER
 40
0.0000000116
  9
$USRTIMER
 70
     1
  9
$ANGBASE
 50
0.0
  9
$ANGDIR
 70
     0
  9
$PDMODE
 70
     0
  9
$PDSIZE
 40
0.0
  9
$PLINEWID
 40
0.0
  9
$SPLFRAME
 70
     0
  9
$SPLINETYPE
 70
     6
  9
$SPLINESEGS
 70
     8
  9
$HANDSEED
  5
F1
  9
$SURFTAB1
 70
     6
  9
$SURFTAB2
 70
     6
  9
$SURFTYPE
 70
     6
  9
$SURFU
 70
     6
  9
$SURFV
 70
     6
  9
$UCSBASE
  2

  9
$UCSNAME
  2

  9
$UCSORG
 10
0.0
 20
0.0
 30
0.0
  9
$UCSXDIR
 10
1.0
 20
0.0
 30
0.0
  9
$UCSYDIR
 10
0.0
 20
1.0
 30
0.0
  9
$UCSORTHOREF
  2

  9
$UCSORTHOVIEW
 70
     0
  9
$UCSORGTOP
 10
0.0
 20
0.0
 30
0.0
  9
$UCSORGBOTTOM
 10
0.0
 20
0.0
 30
0.0
  9
$UCSORGLEFT
 10
0.0
 20
0.0
 30
0.0
  9
$UCSORGRIGHT
 10
0.0
 20
0.0
 30
0.0
  9
$UCSORGFRONT
 10
0.0
 20
0.0
 30
0.0
  9
$UCSORGBACK
 10
0.0
 20
0.0
 30
0.0
  9
$PUCSBASE
  2

  9
$PUCSNAME
  2

  9
$PUCSORG
 10
0.0
 20
0.0
 30
0.0
  9
$PUCSXDIR
 10
1.0
 20
0.0
 30
0.0
  9
$PUCSYDIR
 10
0.0
 20
1.0
 30
0.0
  9
$PUCSORTHOREF
  2

  9
$PUCSORTHOVIEW
 70
     0
  9
$PUCSORGTOP
 10
0.0
 20
0.0
 30
0.0
  9
$PUCSORGBOTTOM
 10
0.0
 20
0.0
 30
0.0
  9
$PUCSORGLEFT
 10
0.0
 20
0.0
 30
0.0
  9
$PUCSORGRIGHT
 10
0.0
 20
0.0
 30
0.0
  9
$PUCSORGFRONT
 10
0.0
 20
0.0
 30
0.0
  9
$PUCSORGBACK
 10
0.0
 20
0.0
 30
0.0
  9
$USERI1
 70
     0
  9
$USERI2
 70
     0
  9
$USERI3
 70
     0
  9
$USERI4
 70
     0
  9
$USERI5
 70
     0
  9
$USERR1
 40
0.0
  9
$USERR2
 40
0.0
  9
$USERR3
 40
0.0
  9
$USERR4
 40
0.0
  9
$USERR5
 40
0.0
  9
$WORLDVIEW
 70
     1
  9
$SHADEDGE
 70
     3
  9
$SHADEDIF
 70
    70
  9
$TILEMODE
 70
     1
  9
$MAXACTVP
 70
    64
  9
$PINSBASE
 10
0.0
 20
0.0
 30
0.0
  9
$PLIMCHECK
 70
     0
  9
$PEXTMIN
 10
1.000000000000000E+20
 20
1.000000000000000E+20
 30
1.000000000000000E+20
  9
$PEXTMAX
 10
-1.000000000000000E+20
 20
-1.000000000000000E+20
 30
-1.000000000000000E+20
  9
$PLIMMIN
 10
0.0
 20
0.0
  9
$PLIMMAX
 10
12.0
 20
9.0
  9
$UNITMODE
 70
     0
  9
$VISRETAIN
 70
     1
  9
$PLINEGEN
 70
     0
  9
$PSLTSCALE
 70
     1
  9
$TREEDEPTH
 70
  3020
  9
$CMLSTYLE
  2
Standard
  9
$CMLJUST
 70
     0
  9
$CMLSCALE
 40
1.0
  9
$PROXYGRAPHICS
 70
     1
  9
$MEASUREMENT
 70
     0
  9
$CELWEIGHT
370
    -1
  9
$ENDCAPS
280
     0
  9
$JOINSTYLE
280
     0
  9
$LWDISPLAY
290
     1
  9
$INSUNITS
 70
     1
  9
$HYPERLINKBASE
  1

  9
$STYLESHEET
  1

  9
$XEDIT
290
     1
  9
$CEPSNTYPE
380
     0
  9
$PSTYLEMODE
290
     1
  9
$FINGERPRINTGUID
  2
{9F1100D4-52A9-7AC1-97BE-B77812809C46}
  9
$VERSIONGUID
  2
{FAEB1C32-E019-11D5-929B-00C0DF256EC4}
  9
$EXTNAMES
290
     1
  9
$PSVPSCALE
 40
0.0
  9
$OLESTARTUP
290
     0
  9
$SORTENTS
280
   127
  9
$INDEXCTL
280
     0
  9
$HIDETEXT
280
     1
  9
$XCLIPFRAME
280
     2
  9
$HALOGAP
280
     0
  9
$OBSCOLOR
 70
   257
  9
$OBSLTYPE
280
     0
  9
$INTERSECTIONDISPLAY
280
     0
  9
$INTERSECTIONCOLOR
 70
   257
  9
$DIMASSOC
280
     2
  9
$PROJECTNAME
  1

  9
$CAMERADISPLAY
290
     0
  9
$LENSLENGTH
 40
50.0
  9
$CAMERAHEIGHT
 40
0.0
  9
$STEPSPERSEC
 40
2.0
  9
$STEPSIZE
 40
6.0
  9
$3DDWFPREC
 40
2.0
  9
$PSOLWIDTH
 40
0.25
  9
$PSOLHEIGHT
 40
4.0
  9
$LOFTANG1
 40
1.570796326794897
  9
$LOFTANG2
 40
1.570796326794897
  9
$LOFTMAG1
 40
0.0
  9
$LOFTMAG2
 40
0.0
  9
$LOFTPARAM
 70
     7
  9
$LOFTNORMALS
280
     1
  9
$LATITUDE
 40
37.795
  9
$LONGITUDE
 40
-122.394
  9
$NORTHDIRECTION
 40
0.0
  9
$TIMEZONE
 70
 -8000
  9
$LIGHTGLYPHDISPLAY
280
     1
  9
$TILEMODELIGHTSYNCH
280
     1
  9
$CMATERIAL
347
3C
  9
$SOLIDHIST
280
     1
  9
$SHOWHIST
280
     1
  9
$DWFFRAME
280
     2
  9
$DGNFRAME
280
     2
  9
$REALWORLDSCALE
290
     1
  9
$INTERFERECOLOR
 62
   256
  9
$CSHADOW
280
     0
  9
$SHADOWPLANELOCATION
 40
0.0
  0
ENDSEC
  0
SECTION
  2
CLASSES
  0
CLASS
  1
ACDBDICTIONARYWDFLT
  2
AcDbDictionaryWithDefault
  3
ObjectDBX Classes
 90
        0
 91
        4
280
     0
281
     0
  0
CLASS
  1
VISUALSTYLE
  2
AcDbVisualStyle
  3
ObjectDBX Classes
 90
     4095
 91
        4
280
     0
281
     0
  0
CLASS
  1
MATERIAL
  2
AcDbMaterial
  3
ObjectDBX Classes
 90
     1153
 91
        4
280
     0
281
     0
  0
CLASS
  1
SUN
  2
AcDbSun
  3
SCENEOE
 90
     1024
 91
        4
280
     0
281
     0
  0
ENDSEC
  0
SECTION
  2
TABLES
  0
TABLE
  2
VPORT
  5
8
330
0
100
AcDbSymbolTable
 70
     1
  0
VPORT
  5
29
330
8
100
AcDbSymbolTableRecord
100
AcDbViewportTableRecord
  2
*Active
 70
     0
 10
0.0
 20
0.0
 11
1.0
 21
1.0
 12
0.0
 22
0.0
 13
0.0
 23
0.0
 14
0.5
 24
0.5
 15
0.5
 25
0.5
 16
0.0
 26
0.0
 36
1.0
 17
91.00082462281999
 27
-128.4993055234307
 37
0.0
 40
256.9986110468615
 41
0.7081814508812795
 42
50.0
 43
0.0
 44
0.0
 50
0.0
 51
0.0
 71
     0
 72
   100
 73
     1
 74
     3
 75
     0
 76
     0
 77
     0
 78
     0
281
     0
 65
     1
110
0.0
120
0.0
130
0.0
111
1.0
121
0.0
131
0.0
112
0.0
122
1.0
132
0.0
 79
     0
146
0.0
 60
     3
 61
     5
292
     1
282
     1
141
0.0
142
0.0
 63
   250
361
3F
  0
ENDTAB
  0
TABLE
  2
LTYPE
  5
5
330
0
100
AcDbSymbolTable
 70
     1
  0
LTYPE
  5
14
330
5
100
AcDbSymbolTableRecord
100
AcDbLinetypeTableRecord
  2
ByBlock
 70
     0
  3

 72
    65
 73
     0
 40
0.0
  0
LTYPE
  5
15
330
5
100
AcDbSymbolTableRecord
100
AcDbLinetypeTableRecord
  2
ByLayer
 70
     0
  3

 72
    65
 73
     0
 40
0.0
  0
LTYPE
  5
16
330
5
100
AcDbSymbolTableRecord
100
AcDbLinetypeTableRecord
  2
Continuous
 70
     0
  3
Solid line
 72
    65
 73
     0
 40
0.0
  0
ENDTAB
  0
TABLE
  2
LAYER
  5
2
330
0
100
AcDbSymbolTable
 70
     2
  0
LAYER
  5
10
330
2
100
AcDbSymbolTableRecord
100
AcDbLayerTableRecord
  2
0
 70
     0
 62
     7
  6
Continuous
370
    -3
390
F
347
3E
  0
LAYER
  5
40
330
2
100
AcDbSymbolTableRecord
100
AcDbLayerTableRecord
  2
_U+30EC_U+30A4_U+30E4_U+30FC 1
 70
     0
 62
     7
  6
Continuous
370
    -3
390
F
347
3E
  0
ENDTAB
  0
TABLE
  2
STYLE
  5
3
330
0
100
AcDbSymbolTable
 70
     1
  0
STYLE
  5
11
330
3
100
AcDbSymbolTableRecord
100
AcDbTextStyleTableRecord
  2
Standard
 70
     0
 40
0.0
 41
1.0
 50
0.0
 71
     0
 42
0.2
  3
txt
  4

  0
ENDTAB
  0
TABLE
  2
VIEW
  5
6
330
0
100
AcDbSymbolTable
 70
     0
  0
ENDTAB
  0
TABLE
  2
UCS
  5
7
330
0
100
AcDbSymbolTable
 70
     0
  0
ENDTAB
  0
TABLE
  2
APPID
  5
9
330
0
100
AcDbSymbolTable
 70
     1
  0
APPID
  5
12
330
9
100
AcDbSymbolTableRecord
100
AcDbRegAppTableRecord
  2
ACAD
 70
     0
  0
ENDTAB
  0
TABLE
  2
DIMSTYLE
  5
A
330
0
100
AcDbSymbolTable
 70
     1
100
AcDbDimStyleTable
  0
DIMSTYLE
105
27
330
A
100
AcDbSymbolTableRecord
100
AcDbDimStyleTableRecord
  2
Standard
 70
     0
178
     0
340
11
  0
ENDTAB
  0
TABLE
  2
BLOCK_RECORD
  5
1
330
0
100
AcDbSymbolTable
 70
     6
  0
BLOCK_RECORD
  5
1F
330
1
100
AcDbSymbolTableRecord
100
AcDbBlockTableRecord
  2
*Model_Space
340
22
 70
     0
280
     1
281
     0
  0
BLOCK_RECORD
  5
1B
330
1
100
AcDbSymbolTableRecord
100
AcDbBlockTableRecord
  2
*Paper_Space
340
1E
 70
     0
280
     1
281
     0
  0
BLOCK_RECORD
  5
23
330
1
100
AcDbSymbolTableRecord
100
AcDbBlockTableRecord
  2
*Paper_Space0
340
26
 70
     0
280
     1
281
     0
  0
BLOCK_RECORD
  5
9B
330
1
100
AcDbSymbolTableRecord
100
AcDbBlockTableRecord
  2
block 2
340
0
102
{BLKREFS
331
9C
102
}
 70
     0
280
     1
281
     0
  0
BLOCK_RECORD
  5
AA
330
1
100
AcDbSymbolTableRecord
100
AcDbBlockTableRecord
  2
block 3
340
0
102
{BLKREFS
331
AB
102
}
 70
     0
280
     1
281
     0
  0
BLOCK_RECORD
  5
BD
330
1
100
AcDbSymbolTableRecord
100
AcDbBlockTableRecord
  2
block 4
340
0
102
{BLKREFS
331
BE
102
}
 70
     0
280
     1
281
     0
  0
BLOCK_RECORD
  5
D9
330
1
100
AcDbSymbolTableRecord
100
AcDbBlockTableRecord
  2
block 5
340
0
102
{BLKREFS
331
DA
102
}
 70
     0
280
     1
281
     0
  0
BLOCK_RECORD
  5
E9
330
1
100
AcDbSymbolTableRecord
100
AcDbBlockTableRecord
  2
block 6
340
0
102
{BLKREFS
331
EA
102
}
 70
     0
280
     1
281
     0
  0
ENDTAB
  0
ENDSEC
  0
SECTION
  2
BLOCKS
  0
BLOCK
  5
20
330
1F
100
AcDbEntity
  8
0
100
AcDbBlockBegin
  2
*Model_Space
 70
     0
 10
0.0
 20
0.0
 30
0.0
  3
*Model_Space
  1

  0
ENDBLK
  5
21
330
1F
100
AcDbEntity
  8
0
100
AcDbBlockEnd
  0
BLOCK
  5
1C
330
1B
100
AcDbEntity
 67
     1
  8
0
100
AcDbBlockBegin
  2
*Paper_Space
 70
     0
 10
0.0
 20
0.0
 30
0.0
  3
*Paper_Space
  1

  0
ENDBLK
  5
1D
330
1B
100
AcDbEntity
 67
     1
  8
0
100
AcDbBlockEnd
  0
BLOCK
  5
24
330
23
100
AcDbEntity
  8
0
100
AcDbBlockBegin
  2
*Paper_Space0
 70
     0
 10
0.0
 20
0.0
 30
0.0
  3
*Paper_Space0
  1

  0
ENDBLK
  5
25
330
23
100
AcDbEntity
  8
0
100
AcDbBlockEnd
  0
BLOCK
  5
9D
330
9B
100
AcDbEntity
  8
0
100
AcDbBlockBegin
  2
block 2
 70
     0
 10
0.0
 20
0.0
 30
0.0
  3
block 2
  1

  0
SPLINE
  5
9F
330
9B
100
AcDbEntity
  8
_U+30EC_U+30A4_U+30E4_U+30FC 1
370
     0
100
AcDbSpline
210
0.0
220
0.0
230
1.0
 70
    11
 71
     3
 72
    32
 73
    28
 74
     0
 42
0.0000000001
 43
0.0000000001
 12
1.0
 22
0.0
 32
0.0
 13
1.0
 23
0.0
 33
0.0
 40
0.0
 40
0.0
 40
0.0
 40
0.0
 40
1.0
 40
1.0
 40
1.0
 40
2.0
 40
2.0
 40
2.0
 40
3.0
 40
3.0
 40
3.0
 40
4.0
 40
4.0
 40
4.0
 40
5.0
 40
5.0
 40
5.0
 40
6.0
 40
6.0
 40
6.0
 40
7.0
 40
7.0
 40
7.0
 40
8.0
 40
8.0
 40
8.0
 40
9.0
 40
9.0
 40
9.0
 40
9.0
 10
81.4212144436204
 20
-123.7638495241806
 30
0.0
 10
80.86965465643189
 20
-123.7638495241806
 30
0.0
 10
80.86052515339598
 20
-123.2095336606039
 30
0.0
 10
80.86052515339598
 20
-122.9959377405184
 30
0.0
 10
80.86052515339598
 20
-122.7652885977809
 30
0.0
 10
80.88085121675896
 20
-122.1179551561025
 30
0.0
 10
81.46186657034634
 20
-122.1179551561025
 30
0.0
 10
81.64721270745278
 20
-122.1179551561025
 30
0.0
 10
81.90955672865456
 20
-122.1877183396788
 30
0.0
 10
81.95020885538051
 20
-122.5198255444569
 30
0.0
 10
81.95020885538051
 20
-122.5198255444569
 30
0.0
 10
81.7219712794827
 20
-122.5198255444569
 30
0.0
 10
81.7219712794827
 20
-122.5198255444569
 30
0.0
 10
81.71060246438138
 20
-122.462809214176
 30
0.0
 10
81.67666827385167
 20
-122.3146701083102
 30
0.0
 10
81.45962725828093
 20
-122.3146701083102
 30
0.0
 10
81.14767386209155
 20
-122.3146701083102
 30
0.0
 10
81.10461016852594
 20
-122.642643198506
 30
0.0
 10
81.09117429613346
 20
-122.8477986346526
 30
0.0
 10
81.19056530088292
 20
-122.7695949671375
 30
0.0
 10
81.26291230607316
 20
-122.7103393247912
 30
0.0
 10
81.45738794621552
 20
-122.7103393247912
 30
0.0
 10
81.64962427429246
 20
-122.7103393247912
 30
0.0
 10
81.9727742308089
 20
-122.8181708134795
 30
0.0
 10
81.9727742308089
 20
-123.2243475711904
 30
0.0
 10
81.9727742308089
 20
-123.5438801774474
 30
0.0
 10
81.76038409414325
 20
-123.7638495241806
 30
0.0
 10
81.4212144436204
 20
-123.7638495241806
 30
0.0
  0
SPLINE
  5
A0
330
9B
100
AcDbEntity
  8
_U+30EC_U+30A4_U+30E4_U+30FC 1
370
     0
100
AcDbSpline
210
0.0
220
0.0
230
1.0
 70
    11
 71
     3
 72
    17
 73
    13
 74
     0
 42
0.0000000001
 43
0.0000000001
 12
1.0
 22
0.0
 32
0.0
 13
1.0
 23
0.0
 33
0.0
 40
0.0
 40
0.0
 40
0.0
 40
0.0
 40
1.0
 40
1.0
 40
1.0
 40
2.0
 40
2.0
 40
2.0
 40
3.0
 40
3.0
 40
3.0
 40
4.0
 40
4.0
 40
4.0
 40
4.0
 10
81.43930119491796
 20
-122.9049872197078
 30
0.0
 10
81.15904267719289
 20
-122.9049872197078
 30
0.0
 10
81.11821829569267
 20
-123.1165160825021
 30
0.0
 10
81.11821829569267
 20
-123.2327880551293
 30
0.0
 10
81.11821829569267
 20
-123.4084879248771
 30
0.0
 10
81.2200208672818
 20
-123.5712686865551
 30
0.0
 10
81.41673581948957
 20
-123.5712686865551
 30
0.0
 10
81.54558239063792
 20
-123.5712686865551
 30
0.0
 10
81.73316783980977
 20
-123.5120130442088
 30
0.0
 10
81.73316783980977
 20
-123.2264146284816
 30
0.0
 10
81.73316783980977
 20
-123.0023111671661
 30
0.0
 10
81.58399520529845
 20
-122.9049872197078
 30
0.0
 10
81.43930119491796
 20
-122.9049872197078
 30
0.0
  0
HATCH
  5
A1
330
9B
100
AcDbEntity
  8
_U+30EC_U+30A4_U+30E4_U+30FC 1
 62
   179
420
  2234388
100
AcDbHatch
 10
0.0
 20
0.0
 30
0.0
210
0.0
220
0.0
230
1.0
  2
SOLID
 70
     1
 71
     0
 91
        2
 92
        1
 93
        1
 72
     4
 94
        3
 73
     0
 74
     1
 95
       32
 96
       28
 40
0.0
 40
0.0
 40
0.0
 40
0.0
 40
1.0
 40
1.0
 40
1.0
 40
2.0
 40
2.0
 40
2.0
 40
3.0
 40
3.0
 40
3.0
 40
4.0
 40
4.0
 40
4.0
 40
5.0
 40
5.0
 40
5.0
 40
6.0
 40
6.0
 40
6.0
 40
7.0
 40
7.0
 40
7.0
 40
8.0
 40
8.0
 40
8.0
 40
9.0
 40
9.0
 40
9.0
 40
9.0
 10
81.4212144436204
 20
-123.7638495241806
 10
80.86965465643189
 20
-123.7638495241806
 10
80.86052515339598
 20
-123.2095336606039
 10
80.86052515339598
 20
-122.9959377405184
 10
80.86052515339598
 20
-122.7652885977809
 10
80.88085121675896
 20
-122.1179551561025
 10
81.46186657034634
 20
-122.1179551561025
 10
81.64721270745278
 20
-122.1179551561025
 10
81.90955672865456
 20
-122.1877183396788
 10
81.95020885538051
 20
-122.5198255444569
 10
81.95020885538051
 20
-122.5198255444569
 10
81.7219712794827
 20
-122.5198255444569
 10
81.7219712794827
 20
-122.5198255444569
 10
81.71060246438138
 20
-122.462809214176
 10
81.67666827385167
 20
-122.3146701083102
 10
81.45962725828093
 20
-122.3146701083102
 10
81.14767386209155
 20
-122.3146701083102
 10
81.10461016852594
 20
-122.642643198506
 10
81.09117429613346
 20
-122.8477986346526
 10
81.19056530088292
 20
-122.7695949671375
 10
81.26291230607316
 20
-122.7103393247912
 10
81.45738794621552
 20
-122.7103393247912
 10
81.64962427429246
 20
-122.7103393247912
 10
81.9727742308089
 20
-122.8181708134795
 10
81.9727742308089
 20
-123.2243475711904
 10
81.9727742308089
 20
-123.5438801774474
 10
81.76038409414325
 20
-123.7638495241806
 10
81.4212144436204
 20
-123.7638495241806
 97
        0
 97
        0
 92
        1
 93
        1
 72
     4
 94
        3
 73
     0
 74
     1
 95
       17
 96
       13
 40
0.0
 40
0.0
 40
0.0
 40
0.0
 40
1.0
 40
1.0
 40
1.0
 40
2.0
 40
2.0
 40
2.0
 40
3.0
 40
3.0
 40
3.0
 40
4.0
 40
4.0
 40
4.0
 40
4.0
 10
81.43930119491796
 20
-122.9049872197078
 10
81.15904267719289
 20
-122.9049872197078
 10
81.11821829569267
 20
-123.1165160825021
 10
81.11821829569267
 20
-123.2327880551293
 10
81.11821829569267
 20
-123.4084879248771
 10
81.2200208672818
 20
-123.5712686865551
 10
81.41673581948957
 20
-123.5712686865551
 10
81.54558239063792
 20
-123.5712686865551
 10
81.73316783980977
 20
-123.5120130442088
 10
81.73316783980977
 20
-123.2264146284816
 10
81.73316783980977
 20
-123.0023111671661
 10
81.58399520529845
 20
-122.9049872197078
 10
81.43930119491796
 20
-122.9049872197078
 97
        0
 97
        0
 75
     2
 76
     1
 98
        0
  0
ENDBLK
  5
9E
330
9B
100
AcDbEntity
  8
0
100
AcDbBlockEnd
  0
BLOCK
  5
AC
330
AA
100
AcDbEntity
  8
0
100
AcDbBlockBegin
  2
block 3
 70
     0
 10
0.0
 20
0.0
 30
0.0
  3
block 3
  1

  0
SPLINE
  5
AE
330
AA
100
AcDbEntity
  8
_U+30EC_U+30A4_U+30E4_U+30FC 1
370
     0
100
AcDbSpline
210
0.0
220
0.0
230
1.0
 70
    11
 71
     3
 72
    32
 73
    28
 74
     0
 42
0.0000000001
 43
0.0000000001
 12
1.0
 22
0.0
 32
0.0
 13
1.0
 23
0.0
 33
0.0
 40
0.0
 40
0.0
 40
0.0
 40
0.0
 40
1.0
 40
1.0
 40
1.0
 40
2.0
 40
2.0
 40
2.0
 40
3.0
 40
3.0
 40
3.0
 40
4.0
 40
4.0
 40
4.0
 40
5.0
 40
5.0
 40
5.0
 40
6.0
 40
6.0
 40
6.0
 40
7.0
 40
7.0
 40
7.0
 40
8.0
 40
8.0
 40
8.0
 40
9.0
 40
9.0
 40
9.0
 40
9.0
 10
94.42076549288787
 20
-123.7638495241806
 30
0.0
 10
93.86920570569937
 20
-123.7638495241806
 30
0.0
 10
93.86024845743772
 20
-123.2095336606039
 30
0.0
 10
93.86024845743772
 20
-122.9959377405184
 30
0.0
 10
93.86024845743772
 20
-122.7652885977809
 30
0.0
 10
93.88057452080069
 20
-122.1179551561025
 30
0.0
 10
94.46176212916234
 20
-122.1179551561025
 30
0.0
 10
94.64710826626879
 20
-122.1179551561025
 30
0.0
 10
94.9092800326963
 20
-122.1877183396788
 30
0.0
 10
94.94993215942225
 20
-122.5198255444569
 30
0.0
 10
94.94993215942225
 20
-122.5198255444569
 30
0.0
 10
94.72152232875018
 20
-122.5198255444569
 30
0.0
 10
94.72152232875018
 20
-122.5198255444569
 30
0.0
 10
94.71015351364885
 20
-122.462809214176
 30
0.0
 10
94.67639157789341
 20
-122.3146701083102
 30
0.0
 10
94.45935056232267
 20
-122.3146701083102
 30
0.0
 10
94.14722491135903
 20
-122.3146701083102
 30
0.0
 10
94.10450572734193
 20
-122.642643198506
 30
0.0
 10
94.09072534540094
 20
-122.8477986346526
 30
0.0
 10
94.19028860492466
 20
-122.7695949671375
 30
0.0
 10
94.2626356101149
 20
-122.7103393247912
 30
0.0
 10
94.45728350503151
 20
-122.7103393247912
 30
0.0
 10
94.64917532355993
 20
-122.7103393247912
 30
0.0
 10
94.97266978962489
 20
-122.8181708134795
 30
0.0
 10
94.97266978962489
 20
-123.2243475711904
 30
0.0
 10
94.97266978962489
 20
-123.5438801774474
 30
0.0
 10
94.76010739818497
 20
-123.7638495241806
 30
0.0
 10
94.42076549288787
 20
-123.7638495241806
 30
0.0
  0
SPLINE
  5
AF
330
AA
100
AcDbEntity
  8
_U+30EC_U+30A4_U+30E4_U+30FC 1
370
     0
100
AcDbSpline
210
0.0
220
0.0
230
1.0
 70
    11
 71
     3
 72
    17
 73
    13
 74
     0
 42
0.0000000001
 43
0.0000000001
 12
1.0
 22
0.0
 32
0.0
 13
1.0
 23
0.0
 33
0.0
 40
0.0
 40
0.0
 40
0.0
 40
0.0
 40
1.0
 40
1.0
 40
1.0
 40
2.0
 40
2.0
 40
2.0
 40
3.0
 40
3.0
 40
3.0
 40
4.0
 40
4.0
 40
4.0
 40
4.0
 10
94.4390244989597
 20
-122.9049872197078
 30
0.0
 10
94.15859372646035
 20
-122.9049872197078
 30
0.0
 10
94.11794159973441
 20
-123.1165160825021
 30
0.0
 10
94.11794159973441
 20
-123.2327880551293
 30
0.0
 10
94.11794159973441
 20
-123.4084879248771
 30
0.0
 10
94.21957191654928
 20
-123.5712686865551
 30
0.0
 10
94.41628686875704
 20
-123.5712686865551
 30
0.0
 10
94.54513343990538
 20
-123.5712686865551
 30
0.0
 10
94.7328911438515
 20
-123.5120130442088
 30
0.0
 10
94.7328911438515
 20
-123.2264146284816
 30
0.0
 10
94.7328911438515
 20
-123.0023111671661
 30
0.0
 10
94.58371850934019
 20
-122.9049872197078
 30
0.0
 10
94.4390244989597
 20
-122.9049872197078
 30
0.0
  0
HATCH
  5
B0
330
AA
100
AcDbEntity
  8
_U+30EC_U+30A4_U+30E4_U+30FC 1
 62
   179
420
  2234388
100
AcDbHatch
 10
0.0
 20
0.0
 30
0.0
210
0.0
220
0.0
230
1.0
  2
SOLID
 70
     1
 71
     0
 91
        2
 92
        1
 93
        1
 72
     4
 94
        3
 73
     0
 74
     1
 95
       32
 96
       28
 40
0.0
 40
0.0
 40
0.0
 40
0.0
 40
1.0
 40
1.0
 40
1.0
 40
2.0
 40
2.0
 40
2.0
 40
3.0
 40
3.0
 40
3.0
 40
4.0
 40
4.0
 40
4.0
 40
5.0
 40
5.0
 40
5.0
 40
6.0
 40
6.0
 40
6.0
 40
7.0
 40
7.0
 40
7.0
 40
8.0
 40
8.0
 40
8.0
 40
9.0
 40
9.0
 40
9.0
 40
9.0
 10
94.42076549288787
 20
-123.7638495241806
 10
93.86920570569937
 20
-123.7638495241806
 10
93.86024845743772
 20
-123.2095336606039
 10
93.86024845743772
 20
-122.9959377405184
 10
93.86024845743772
 20
-122.7652885977809
 10
93.88057452080069
 20
-122.1179551561025
 10
94.46176212916234
 20
-122.1179551561025
 10
94.64710826626879
 20
-122.1179551561025
 10
94.9092800326963
 20
-122.1877183396788
 10
94.94993215942225
 20
-122.5198255444569
 10
94.94993215942225
 20
-122.5198255444569
 10
94.72152232875018
 20
-122.5198255444569
 10
94.72152232875018
 20
-122.5198255444569
 10
94.71015351364885
 20
-122.462809214176
 10
94.67639157789341
 20
-122.3146701083102
 10
94.45935056232267
 20
-122.3146701083102
 10
94.14722491135903
 20
-122.3146701083102
 10
94.10450572734193
 20
-122.642643198506
 10
94.09072534540094
 20
-122.8477986346526
 10
94.19028860492466
 20
-122.7695949671375
 10
94.2626356101149
 20
-122.7103393247912
 10
94.45728350503151
 20
-122.7103393247912
 10
94.64917532355993
 20
-122.7103393247912
 10
94.97266978962489
 20
-122.8181708134795
 10
94.97266978962489
 20
-123.2243475711904
 10
94.97266978962489
 20
-123.5438801774474
 10
94.76010739818497
 20
-123.7638495241806
 10
94.42076549288787
 20
-123.7638495241806
 97
        0
 97
        0
 92
        1
 93
        1
 72
     4
 94
        3
 73
     0
 74
     1
 95
       17
 96
       13
 40
0.0
 40
0.0
 40
0.0
 40
0.0
 40
1.0
 40
1.0
 40
1.0
 40
2.0
 40
2.0
 40
2.0
 40
3.0
 40
3.0
 40
3.0
 40
4.0
 40
4.0
 40
4.0
 40
4.0
 10
94.4390244989597
 20
-122.9049872197078
 10
94.15859372646035
 20
-122.9049872197078
 10
94.11794159973441
 20
-123.1165160825021
 10
94.11794159973441
 20
-123.2327880551293
 10
94.11794159973441
 20
-123.4084879248771
 10
94.21957191654928
 20
-123.5712686865551
 10
94.41628686875704
 20
-123.5712686865551
 10
94.54513343990538
 20
-123.5712686865551
 10
94.7328911438515
 20
-123.5120130442088
 10
94.7328911438515
 20
-123.2264146284816
 10
94.7328911438515
 20
-123.0023111671661
 10
94.58371850934019
 20
-122.9049872197078
 10
94.4390244989597
 20
-122.9049872197078
 97
        0
 97
        0
 75
     2
 76
     1
 98
        0
  0
ENDBLK
  5
AD
330
AA
100
AcDbEntity
  8
0
100
AcDbBlockEnd
  0
BLOCK
  5
BF
330
BD
100
AcDbEntity
  8
0
100
AcDbBlockBegin
  2
block 4
 70
     0
 10
0.0
 20
0.0
 30
0.0
  3
block 4
  1

  0
SPLINE
  5
C1
330
BD
100
AcDbEntity
  8
_U+30EC_U+30A4_U+30E4_U+30FC 1
370
     0
100
AcDbSpline
210
0.0
220
0.0
230
1.0
 70
    11
 71
     3
 72
    53
 73
    49
 74
     0
 42
0.0000000001
 43
0.0000000001
 12
1.0
 22
0.0
 32
0.0
 13
1.0
 23
0.0
 33
0.0
 40
0.0
 40
0.0
 40
0.0
 40
0.0
 40
1.0
 40
1.0
 40
1.0
 40
2.0
 40
2.0
 40
2.0
 40
3.0
 40
3.0
 40
3.0
 40
4.0
 40
4.0
 40
4.0
 40
5.0
 40
5.0
 40
5.0
 40
6.0
 40
6.0
 40
6.0
 40
7.0
 40
7.0
 40
7.0
 40
8.0
 40
8.0
 40
8.0
 40
9.0
 40
9.0
 40
9.0
 40
10.0
 40
10.0
 40
10.0
 40
11.0
 40
11.0
 40
11.0
 40
12.0
 40
12.0
 40
12.0
 40
13.0
 40
13.0
 40
13.0
 40
14.0
 40
14.0
 40
14.0
 40
15.0
 40
15.0
 40
15.0
 40
16.0
 40
16.0
 40
16.0
 40
16.0
 10
100.3215250400238
 20
-133.053032735834
 30
0.0
 10
100.3215250400238
 20
-133.136404046577
 30
0.0
 10
100.3046440721461
 20
-133.2452690639109
 30
0.0
 10
100.2412543152175
 20
-133.3534450621478
 30
0.0
 10
100.131355769238
 20
-133.5391357088027
 30
0.0
 10
100.00009763125
 20
-133.5615288294568
 30
0.0
 10
99.89226614256167
 20
-133.5818548928198
 30
0.0
 10
99.89226614256167
 20
-133.5818548928198
 30
0.0
 10
99.89226614256167
 20
-133.3444878138861
 30
0.0
 10
99.89226614256167
 20
-133.3444878138861
 30
0.0
 10
100.0910481520606
 20
-133.2859211906369
 30
0.0
 10
100.1206759732337
 20
-133.150184428518
 30
0.0
 10
100.1206759732337
 20
-133.0506211689943
 30
0.0
 10
100.1206759732337
 20
-132.901448534483
 30
0.0
 10
100.02111271371
 20
-132.7388400275792
 30
0.0
 10
99.78856876845563
 20
-132.7388400275792
 30
0.0
 10
99.53259817390158
 20
-132.7388400275792
 30
0.0
 10
99.462662735551
 20
-132.9307318461076
 30
0.0
 10
99.462662735551
 20
-133.0595784172559
 30
0.0
 10
99.462662735551
 20
-133.0936848625599
 30
0.0
 10
99.462662735551
 20
-133.2452690639109
 30
0.0
 10
99.59185381624788
 20
-133.3400091897553
 30
0.0
 10
99.59185381624788
 20
-133.3400091897553
 30
0.0
 10
99.572905791079
 20
-133.5277668937014
 30
0.0
 10
99.572905791079
 20
-133.5277668937014
 30
0.0
 10
99.572905791079
 20
-133.5277668937014
 30
0.0
 10
98.72644583035311
 20
-133.3989203225531
 30
0.0
 10
98.72644583035311
 20
-133.3989203225531
 30
0.0
 10
98.72644583035311
 20
-133.3989203225531
 30
0.0
 10
98.72644583035311
 20
-132.5669297628652
 30
0.0
 10
98.72644583035311
 20
-132.5669297628652
 30
0.0
 10
98.72644583035311
 20
-132.5669297628652
 30
0.0
 10
98.92109372526973
 20
-132.5669297628652
 30
0.0
 10
98.92109372526973
 20
-132.5669297628652
 30
0.0
 10
98.92109372526973
 20
-132.5669297628652
 30
0.0
 10
98.92109372526973
 20
-133.2245984909994
 30
0.0
 10
98.92109372526973
 20
-133.2245984909994
 30
0.0
 10
98.92109372526973
 20
-133.2245984909994
 30
0.0
 10
99.3441514508584
 20
-133.2948784388985
 30
0.0
 10
99.3441514508584
 20
-133.2948784388985
 30
0.0
 10
99.31038951510297
 20
-133.2294216246788
 30
0.0
 10
99.27008189792554
 20
-133.1412271802564
 30
0.0
 10
99.27008189792554
 20
-133.0144476663992
 30
0.0
 10
99.27008189792554
 20
-132.74331865171
 30
0.0
 10
99.45646156367755
 20
-132.4901041335442
 30
0.0
 10
99.76962074328677
 20
-132.4901041335442
 30
0.0
 10
100.0869140374783
 20
-132.4901041335442
 30
0.0
 10
100.3215250400238
 20
-132.729538269769
 30
0.0
 10
100.3215250400238
 20
-133.053032735834
 30
0.0
  0
HATCH
  5
C2
330
BD
100
AcDbEntity
  8
_U+30EC_U+30A4_U+30E4_U+30FC 1
 62
   179
420
  2234388
100
AcDbHatch
 10
0.0
 20
0.0
 30
0.0
210
0.0
220
0.0
230
1.0
  2
SOLID
 70
     1
 71
     0
 91
        1
 92
        1
 93
        1
 72
     4
 94
        3
 73
     0
 74
     1
 95
       53
 96
       49
 40
0.0
 40
0.0
 40
0.0
 40
0.0
 40
1.0
 40
1.0
 40
1.0
 40
2.0
 40
2.0
 40
2.0
 40
3.0
 40
3.0
 40
3.0
 40
4.0
 40
4.0
 40
4.0
 40
5.0
 40
5.0
 40
5.0
 40
6.0
 40
6.0
 40
6.0
 40
7.0
 40
7.0
 40
7.0
 40
8.0
 40
8.0
 40
8.0
 40
9.0
 40
9.0
 40
9.0
 40
10.0
 40
10.0
 40
10.0
 40
11.0
 40
11.0
 40
11.0
 40
12.0
 40
12.0
 40
12.0
 40
13.0
 40
13.0
 40
13.0
 40
14.0
 40
14.0
 40
14.0
 40
15.0
 40
15.0
 40
15.0
 40
16.0
 40
16.0
 40
16.0
 40
16.0
 10
100.3215250400238
 20
-133.053032735834
 10
100.3215250400238
 20
-133.136404046577
 10
100.3046440721461
 20
-133.2452690639109
 10
100.2412543152175
 20
-133.3534450621478
 10
100.131355769238
 20
-133.5391357088027
 10
100.00009763125
 20
-133.5615288294568
 10
99.89226614256167
 20
-133.5818548928198
 10
99.89226614256167
 20
-133.5818548928198
 10
99.89226614256167
 20
-133.3444878138861
 10
99.89226614256167
 20
-133.3444878138861
 10
100.0910481520606
 20
-133.2859211906369
 10
100.1206759732337
 20
-133.150184428518
 10
100.1206759732337
 20
-133.0506211689943
 10
100.1206759732337
 20
-132.901448534483
 10
100.02111271371
 20
-132.7388400275792
 10
99.78856876845563
 20
-132.7388400275792
 10
99.53259817390158
 20
-132.7388400275792
 10
99.462662735551
 20
-132.9307318461076
 10
99.462662735551
 20
-133.0595784172559
 10
99.462662735551
 20
-133.0936848625599
 10
99.462662735551
 20
-133.2452690639109
 10
99.59185381624788
 20
-133.3400091897553
 10
99.59185381624788
 20
-133.3400091897553
 10
99.572905791079
 20
-133.5277668937014
 10
99.572905791079
 20
-133.5277668937014
 10
99.572905791079
 20
-133.5277668937014
 10
98.72644583035311
 20
-133.3989203225531
 10
98.72644583035311
 20
-133.3989203225531
 10
98.72644583035311
 20
-133.3989203225531
 10
98.72644583035311
 20
-132.5669297628652
 10
98.72644583035311
 20
-132.5669297628652
 10
98.72644583035311
 20
-132.5669297628652
 10
98.92109372526973
 20
-132.5669297628652
 10
98.92109372526973
 20
-132.5669297628652
 10
98.92109372526973
 20
-132.5669297628652
 10
98.92109372526973
 20
-133.2245984909994
 10
98.92109372526973
 20
-133.2245984909994
 10
98.92109372526973
 20
-133.2245984909994
 10
99.3441514508584
 20
-133.2948784388985
 10
99.3441514508584
 20
-133.2948784388985
 10
99.31038951510297
 20
-133.2294216246788
 10
99.27008189792554
 20
-133.1412271802564
 10
99.27008189792554
 20
-133.0144476663992
 10
99.27008189792554
 20
-132.74331865171
 10
99.45646156367755
 20
-132.4901041335442
 10
99.76962074328677
 20
-132.4901041335442
 10
100.0869140374783
 20
-132.4901041335442
 10
100.3215250400238
 20
-132.729538269769
 10
100.3215250400238
 20
-133.053032735834
 97
        0
 97
        0
 75
     2
 76
     1
 98
        0
  0
POLYLINE
  5
C3
330
BD
100
AcDbEntity
  8
_U+30EC_U+30A4_U+30E4_U+30FC 1
370
     0
100
AcDb2dPolyline
 66
     1
 10
0.0
 20
0.0
 30
0.0
  0
VERTEX
  5
C4
330
C3
100
AcDbEntity
  8
_U+30EC_U+30A4_U+30E4_U+30FC 1
370
     0
100
AcDbVertex
100
AcDb2dVertex
 10
100.2708821363906
 20
-132.2451578445429
 30
0.0
  0
VERTEX
  5
C5
330
C3
100
AcDbEntity
  8
_U+30EC_U+30A4_U+30E4_U+30FC 1
370
     0
100
AcDbVertex
100
AcDb2dVertex
 10
100.0190456564189
 20
-132.2451578445429
 30
0.0
  0
VERTEX
  5
C6
330
C3
100
AcDbEntity
  8
_U+30EC_U+30A4_U+30E4_U+30FC 1
370
     0
100
AcDbVertex
100
AcDb2dVertex
 10
100.0190456564189
 20
-131.9760958871449
 30
0.0
  0
VERTEX
  5
C7
330
C3
100
AcDbEntity
  8
_U+30EC_U+30A4_U+30E4_U+30FC 1
370
     0
100
AcDbVertex
100
AcDb2dVertex
 10
100.2708821363906
 20
-131.9760958871449
 30
0.0
  0
VERTEX
  5
C8
330
C3
100
AcDbEntity
  8
_U+30EC_U+30A4_U+30E4_U+30FC 1
370
     0
100
AcDbVertex
100
AcDb2dVertex
 10
100.2708821363906
 20
-132.2451578445429
 30
0.0
  0
SEQEND
  5
C9
330
C3
100
AcDbEntity
  8
_U+30EC_U+30A4_U+30E4_U+30FC 1
370
     0
  0
HATCH
  5
CA
330
BD
100
AcDbEntity
  8
_U+30EC_U+30A4_U+30E4_U+30FC 1
 62
   179
420
  2234388
100
AcDbHatch
 10
0.0
 20
0.0
 30
0.0
210
0.0
220
0.0
230
1.0
  2
SOLID
 70
     1
 71
     0
 91
        1
 92
        1
 93
        4
 72
     1
 10
100.2708821363906
 20
-132.2451578445429
 11
100.0190456564189
 21
-132.2451578445429
 72
     1
 10
100.0190456564189
 20
-132.2451578445429
 11
100.0190456564189
 21
-131.9760958871449
 72
     1
 10
100.0190456564189
 20
-131.9760958871449
 11
100.2708821363906
 21
-131.9760958871449
 72
     1
 10
100.2708821363906
 20
-131.9760958871449
 11
100.2708821363906
 21
-132.2451578445429
 97
        0
 75
     2
 76
     1
 98
        0
  0
SPLINE
  5
CB
330
BD
100
AcDbEntity
  8
_U+30EC_U+30A4_U+30E4_U+30FC 1
370
     0
100
AcDbSpline
210
0.0
220
0.0
230
1.0
 70
    11
 71
     3
 72
    53
 73
    49
 74
     0
 42
0.0000000001
 43
0.0000000001
 12
1.0
 22
0.0
 32
0.0
 13
1.0
 23
0.0
 33
0.0
 40
0.0
 40
0.0
 40
0.0
 40
0.0
 40
1.0
 40
1.0
 40
1.0
 40
2.0
 40
2.0
 40
2.0
 40
3.0
 40
3.0
 40
3.0
 40
4.0
 40
4.0
 40
4.0
 40
5.0
 40
5.0
 40
5.0
 40
6.0
 40
6.0
 40
6.0
 40
7.0
 40
7.0
 40
7.0
 40
8.0
 40
8.0
 40
8.0
 40
9.0
 40
9.0
 40
9.0
 40
10.0
 40
10.0
 40
10.0
 40
11.0
 40
11.0
 40
11.0
 40
12.0
 40
12.0
 40
12.0
 40
13.0
 40
13.0
 40
13.0
 40
14.0
 40
14.0
 40
14.0
 40
15.0
 40
15.0
 40
15.0
 40
16.0
 40
16.0
 40
16.0
 40
16.0
 10
100.3215250400238
 20
-131.2092176321283
 30
0.0
 10
100.3215250400238
 20
-131.2925889428713
 30
0.0
 10
100.3046440721461
 20
-131.4014539602052
 30
0.0
 10
100.2412543152175
 20
-131.509629958442
 30
0.0
 10
100.131355769238
 20
-131.695320605097
 30
0.0
 10
100.00009763125
 20
-131.7177137257511
 30
0.0
 10
99.89226614256167
 20
-131.7380397891141
 30
0.0
 10
99.89226614256167
 20
-131.7380397891141
 30
0.0
 10
99.89226614256167
 20
-131.5006727101804
 30
0.0
 10
99.89226614256167
 20
-131.5006727101804
 30
0.0
 10
100.0910481520606
 20
-131.4421060869311
 30
0.0
 10
100.1206759732337
 20
-131.3063693248123
 30
0.0
 10
100.1206759732337
 20
-131.2068060652886
 30
0.0
 10
100.1206759732337
 20
-131.0576334307773
 30
0.0
 10
100.02111271371
 20
-130.8950249238735
 30
0.0
 10
99.78856876845563
 20
-130.8950249238735
 30
0.0
 10
99.53259817390158
 20
-130.8950249238735
 30
0.0
 10
99.462662735551
 20
-131.0869167424019
 30
0.0
 10
99.462662735551
 20
-131.2157633135502
 30
0.0
 10
99.462662735551
 20
-131.2498697588542
 30
0.0
 10
99.462662735551
 20
-131.4014539602052
 30
0.0
 10
99.59185381624788
 20
-131.4961940860496
 30
0.0
 10
99.59185381624788
 20
-131.4961940860496
 30
0.0
 10
99.572905791079
 20
-131.6839517899957
 30
0.0
 10
99.572905791079
 20
-131.6839517899957
 30
0.0
 10
99.572905791079
 20
-131.6839517899957
 30
0.0
 10
98.72644583035311
 20
-131.5551052188473
 30
0.0
 10
98.72644583035311
 20
-131.5551052188473
 30
0.0
 10
98.72644583035311
 20
-131.5551052188473
 30
0.0
 10
98.72644583035311
 20
-130.7231146591595
 30
0.0
 10
98.72644583035311
 20
-130.7231146591595
 30
0.0
 10
98.72644583035311
 20
-130.7231146591595
 30
0.0
 10
98.92109372526973
 20
-130.7231146591595
 30
0.0
 10
98.92109372526973
 20
-130.7231146591595
 30
0.0
 10
98.92109372526973
 20
-130.7231146591595
 30
0.0
 10
98.92109372526973
 20
-131.3807833872937
 30
0.0
 10
98.92109372526973
 20
-131.3807833872937
 30
0.0
 10
98.92109372526973
 20
-131.3807833872937
 30
0.0
 10
99.3441514508584
 20
-131.4510633351928
 30
0.0
 10
99.3441514508584
 20
-131.4510633351928
 30
0.0
 10
99.31038951510297
 20
-131.3856065209731
 30
0.0
 10
99.27008189792554
 20
-131.2974120765506
 30
0.0
 10
99.27008189792554
 20
-131.1706325626935
 30
0.0
 10
99.27008189792554
 20
-130.8995035480043
 30
0.0
 10
99.45646156367755
 20
-130.6462890298384
 30
0.0
 10
99.76962074328677
 20
-130.6462890298384
 30
0.0
 10
100.0869140374783
 20
-130.6462890298384
 30
0.0
 10
100.3215250400238
 20
-130.8857231660633
 30
0.0
 10
100.3215250400238
 20
-131.2092176321283
 30
0.0
  0
HATCH
  5
CC
330
BD
100
AcDbEntity
  8
_U+30EC_U+30A4_U+30E4_U+30FC 1
 62
   179
420
  2234388
100
AcDbHatch
 10
0.0
 20
0.0
 30
0.0
210
0.0
220
0.0
230
1.0
  2
SOLID
 70
     1
 71
     0
 91
        1
 92
        1
 93
        1
 72
     4
 94
        3
 73
     0
 74
     1
 95
       53
 96
       49
 40
0.0
 40
0.0
 40
0.0
 40
0.0
 40
1.0
 40
1.0
 40
1.0
 40
2.0
 40
2.0
 40
2.0
 40
3.0
 40
3.0
 40
3.0
 40
4.0
 40
4.0
 40
4.0
 40
5.0
 40
5.0
 40
5.0
 40
6.0
 40
6.0
 40
6.0
 40
7.0
 40
7.0
 40
7.0
 40
8.0
 40
8.0
 40
8.0
 40
9.0
 40
9.0
 40
9.0
 40
10.0
 40
10.0
 40
10.0
 40
11.0
 40
11.0
 40
11.0
 40
12.0
 40
12.0
 40
12.0
 40
13.0
 40
13.0
 40
13.0
 40
14.0
 40
14.0
 40
14.0
 40
15.0
 40
15.0
 40
15.0
 40
16.0
 40
16.0
 40
16.0
 40
16.0
 10
100.3215250400238
 20
-131.2092176321283
 10
100.3215250400238
 20
-131.2925889428713
 10
100.3046440721461
 20
-131.4014539602052
 10
100.2412543152175
 20
-131.509629958442
 10
100.131355769238
 20
-131.695320605097
 10
100.00009763125
 20
-131.7177137257511
 10
99.89226614256167
 20
-131.7380397891141
 10
99.89226614256167
 20
-131.7380397891141
 10
99.89226614256167
 20
-131.5006727101804
 10
99.89226614256167
 20
-131.5006727101804
 10
100.0910481520606
 20
-131.4421060869311
 10
100.1206759732337
 20
-131.3063693248123
 10
100.1206759732337
 20
-131.2068060652886
 10
100.1206759732337
 20
-131.0576334307773
 10
100.02111271371
 20
-130.8950249238735
 10
99.78856876845563
 20
-130.8950249238735
 10
99.53259817390158
 20
-130.8950249238735
 10
99.462662735551
 20
-131.0869167424019
 10
99.462662735551
 20
-131.2157633135502
 10
99.462662735551
 20
-131.2498697588542
 10
99.462662735551
 20
-131.4014539602052
 10
99.59185381624788
 20
-131.4961940860496
 10
99.59185381624788
 20
-131.4961940860496
 10
99.572905791079
 20
-131.6839517899957
 10
99.572905791079
 20
-131.6839517899957
 10
99.572905791079
 20
-131.6839517899957
 10
98.72644583035311
 20
-131.5551052188473
 10
98.72644583035311
 20
-131.5551052188473
 10
98.72644583035311
 20
-131.5551052188473
 10
98.72644583035311
 20
-130.7231146591595
 10
98.72644583035311
 20
-130.7231146591595
 10
98.72644583035311
 20
-130.7231146591595
 10
98.92109372526973
 20
-130.7231146591595
 10
98.92109372526973
 20
-130.7231146591595
 10
98.92109372526973
 20
-130.7231146591595
 10
98.92109372526973
 20
-131.3807833872937
 10
98.92109372526973
 20
-131.3807833872937
 10
98.92109372526973
 20
-131.3807833872937
 10
99.3441514508584
 20
-131.4510633351928
 10
99.3441514508584
 20
-131.4510633351928
 10
99.31038951510297
 20
-131.3856065209731
 10
99.27008189792554
 20
-131.2974120765506
 10
99.27008189792554
 20
-131.1706325626935
 10
99.27008189792554
 20
-130.8995035480043
 10
99.45646156367755
 20
-130.6462890298384
 10
99.76962074328677
 20
-130.6462890298384
 10
100.0869140374783
 20
-130.6462890298384
 10
100.3215250400238
 20
-130.8857231660633
 10
100.3215250400238
 20
-131.2092176321283
 97
        0
 97
        0
 75
     2
 76
     1
 98
        0
  0
ENDBLK
  5
C0
330
BD
100
AcDbEntity
  8
0
100
AcDbBlockEnd
  0
BLOCK
  5
DB
330
D9
100
AcDbEntity
  8
0
100
AcDbBlockBegin
  2
block 5
 70
     0
 10
0.0
 20
0.0
 30
0.0
  3
block 5
  1

  0
SPLINE
  5
DD
330
D9
100
AcDbEntity
  8
_U+30EC_U+30A4_U+30E4_U+30FC 1
370
     0
100
AcDbSpline
210
0.0
220
0.0
230
1.0
 70
    11
 71
     3
 72
    26
 73
    22
 74
     0
 42
0.0000000001
 43
0.0000000001
 12
1.0
 22
0.0
 32
0.0
 13
1.0
 23
0.0
 33
0.0
 40
0.0
 40
0.0
 40
0.0
 40
0.0
 40
1.0
 40
1.0
 40
1.0
 40
2.0
 40
2.0
 40
2.0
 40
3.0
 40
3.0
 40
3.0
 40
4.0
 40
4.0
 40
4.0
 40
5.0
 40
5.0
 40
5.0
 40
6.0
 40
6.0
 40
6.0
 40
7.0
 40
7.0
 40
7.0
 40
7.0
 10
87.82185734566606
 20
-123.7130343657731
 30
0.0
 10
87.82185734566606
 20
-123.7130343657731
 30
0.0
 10
87.5686428275002
 20
-123.7130343657731
 30
0.0
 10
87.5686428275002
 20
-123.7130343657731
 30
0.0
 10
87.59551457228515
 20
-123.4041815555205
 30
0.0
 10
87.80153128230309
 20
-122.8858669397647
 30
0.0
 10
88.23561331344457
 20
-122.3802991773042
 30
0.0
 10
88.23561331344457
 20
-122.3802991773042
 30
0.0
 10
87.34023299682814
 20
-122.3802991773042
 30
0.0
 10
87.34023299682814
 20
-122.3802991773042
 30
0.0
 10
87.34023299682814
 20
-122.3802991773042
 30
0.0
 10
87.34023299682814
 20
-122.1687703145099
 30
0.0
 10
87.34023299682814
 20
-122.1687703145099
 30
0.0
 10
87.34023299682814
 20
-122.1687703145099
 30
0.0
 10
88.48882783161044
 20
-122.1687703145099
 30
0.0
 10
88.48882783161044
 20
-122.1687703145099
 30
0.0
 10
88.48882783161044
 20
-122.1687703145099
 30
0.0
 10
88.48882783161044
 20
-122.3802991773042
 30
0.0
 10
88.48882783161044
 20
-122.3802991773042
 30
0.0
 10
88.14294024489135
 20
-122.6700317076137
 30
0.0
 10
87.8580308482612
 20
-123.2624158763025
 30
0.0
 10
87.82185734566606
 20
-123.7130343657731
 30
0.0
  0
HATCH
  5
DE
330
D9
100
AcDbEntity
  8
_U+30EC_U+30A4_U+30E4_U+30FC 1
 62
   179
420
  2234388
100
AcDbHatch
 10
0.0
 20
0.0
 30
0.0
210
0.0
220
0.0
230
1.0
  2
SOLID
 70
     1
 71
     0
 91
        1
 92
        1
 93
        1
 72
     4
 94
        3
 73
     0
 74
     1
 95
       26
 96
       22
 40
0.0
 40
0.0
 40
0.0
 40
0.0
 40
1.0
 40
1.0
 40
1.0
 40
2.0
 40
2.0
 40
2.0
 40
3.0
 40
3.0
 40
3.0
 40
4.0
 40
4.0
 40
4.0
 40
5.0
 40
5.0
 40
5.0
 40
6.0
 40
6.0
 40
6.0
 40
7.0
 40
7.0
 40
7.0
 40
7.0
 10
87.82185734566606
 20
-123.7130343657731
 10
87.82185734566606
 20
-123.7130343657731
 10
87.5686428275002
 20
-123.7130343657731
 10
87.5686428275002
 20
-123.7130343657731
 10
87.59551457228515
 20
-123.4041815555205
 10
87.80153128230309
 20
-122.8858669397647
 10
88.23561331344457
 20
-122.3802991773042
 10
88.23561331344457
 20
-122.3802991773042
 10
87.34023299682814
 20
-122.3802991773042
 10
87.34023299682814
 20
-122.3802991773042
 10
87.34023299682814
 20
-122.3802991773042
 10
87.34023299682814
 20
-122.1687703145099
 10
87.34023299682814
 20
-122.1687703145099
 10
87.34023299682814
 20
-122.1687703145099
 10
88.48882783161044
 20
-122.1687703145099
 10
88.48882783161044
 20
-122.1687703145099
 10
88.48882783161044
 20
-122.1687703145099
 10
88.48882783161044
 20
-122.3802991773042
 10
88.48882783161044
 20
-122.3802991773042
 10
88.14294024489135
 20
-122.6700317076137
 10
87.8580308482612
 20
-123.2624158763025
 10
87.82185734566606
 20
-123.7130343657731
 97
        0
 97
        0
 75
     2
 76
     1
 98
        0
  0
ENDBLK
  5
DC
330
D9
100
AcDbEntity
  8
0
100
AcDbBlockEnd
  0
BLOCK
  5
EB
330
E9
100
AcDbEntity
  8
0
100
AcDbBlockBegin
  2
block 6
 70
     0
 10
0.0
 20
0.0
 30
0.0
  3
block 6
  1

  0
SPLINE
  5
ED
330
E9
100
AcDbEntity
  8
_U+30EC_U+30A4_U+30E4_U+30FC 1
370
     0
100
AcDbSpline
210
0.0
220
0.0
230
1.0
 70
    11
 71
     3
 72
    26
 73
    22
 74
     0
 42
0.0000000001
 43
0.0000000001
 12
1.0
 22
0.0
 32
0.0
 13
1.0
 23
0.0
 33
0.0
 40
0.0
 40
0.0
 40
0.0
 40
0.0
 40
1.0
 40
1.0
 40
1.0
 40
2.0
 40
2.0
 40
2.0
 40
3.0
 40
3.0
 40
3.0
 40
4.0
 40
4.0
 40
4.0
 40
5.0
 40
5.0
 40
5.0
 40
6.0
 40
6.0
 40
6.0
 40
7.0
 40
7.0
 40
7.0
 40
7.0
 10
87.38794756929884
 20
-130.9422227320214
 30
0.0
 10
87.38794756929884
 20
-130.9422227320214
 30
0.0
 10
87.38794756929884
 20
-129.8380696289988
 30
0.0
 10
87.38794756929884
 20
-129.8380696289988
 30
0.0
 10
87.38794756929884
 20
-129.8380696289988
 30
0.0
 10
87.03534204638353
 20
-129.8380696289988
 30
0.0
 10
87.03534204638353
 20
-129.8380696289988
 30
0.0
 10
87.03534204638353
 20
-129.8380696289988
 30
0.0
 10
87.03534204638353
 20
-129.6899305231331
 30
0.0
 10
87.03534204638353
 20
-129.6899305231331
 30
0.0
 10
87.39035913613853
 20
-129.6751166125465
 30
0.0
 10
87.43996851112612
 20
-129.5121635960942
 30
0.0
 10
87.47166338959042
 20
-129.3981309355324
 30
0.0
 10
87.47166338959042
 20
-129.3981309355324
 30
0.0
 10
87.62772621507224
 20
-129.3981309355324
 30
0.0
 10
87.62772621507224
 20
-129.3981309355324
 30
0.0
 10
87.62772621507224
 20
-129.3981309355324
 30
0.0
 10
87.62772621507224
 20
-130.9422227320214
 30
0.0
 10
87.62772621507224
 20
-130.9422227320214
 30
0.0
 10
87.62772621507224
 20
-130.9422227320214
 30
0.0
 10
87.38794756929884
 20
-130.9422227320214
 30
0.0
 10
87.38794756929884
 20
-130.9422227320214
 30
0.0
  0
HATCH
  5
EE
330
E9
100
AcDbEntity
  8
_U+30EC_U+30A4_U+30E4_U+30FC 1
 62
   179
420
  2234388
100
AcDbHatch
 10
0.0
 20
0.0
 30
0.0
210
0.0
220
0.0
230
1.0
  2
SOLID
 70
     1
 71
     0
 91
        1
 92
        1
 93
        1
 72
     4
 94
        3
 73
     0
 74
     1
 95
       26
 96
       22
 40
0.0
 40
0.0
 40
0.0
 40
0.0
 40
1.0
 40
1.0
 40
1.0
 40
2.0
 40
2.0
 40
2.0
 40
3.0
 40
3.0
 40
3.0
 40
4.0
 40
4.0
 40
4.0
 40
5.0
 40
5.0
 40
5.0
 40
6.0
 40
6.0
 40
6.0
 40
7.0
 40
7.0
 40
7.0
 40
7.0
 10
87.38794756929884
 20
-130.9422227320214
 10
87.38794756929884
 20
-130.9422227320214
 10
87.38794756929884
 20
-129.8380696289988
 10
87.38794756929884
 20
-129.8380696289988
 10
87.38794756929884
 20
-129.8380696289988
 10
87.03534204638353
 20
-129.8380696289988
 10
87.03534204638353
 20
-129.8380696289988
 10
87.03534204638353
 20
-129.8380696289988
 10
87.03534204638353
 20
-129.6899305231331
 10
87.03534204638353
 20
-129.6899305231331
 10
87.39035913613853
 20
-129.6751166125465
 10
87.43996851112612
 20
-129.5121635960942
 10
87.47166338959042
 20
-129.3981309355324
 10
87.47166338959042
 20
-129.3981309355324
 10
87.62772621507224
 20
-129.3981309355324
 10
87.62772621507224
 20
-129.3981309355324
 10
87.62772621507224
 20
-129.3981309355324
 10
87.62772621507224
 20
-130.9422227320214
 10
87.62772621507224
 20
-130.9422227320214
 10
87.62772621507224
 20
-130.9422227320214
 10
87.38794756929884
 20
-130.9422227320214
 10
87.38794756929884
 20
-130.9422227320214
 97
        0
 97
        0
 75
     2
 76
     1
 98
        0
  0
ENDBLK
  5
EC
330
E9
100
AcDbEntity
  8
0
100
AcDbBlockEnd
  0
ENDSEC
  0
SECTION
  2
ENTITIES
  0
SPLINE
  5
41
330
1F
100
AcDbEntity
  8
_U+30EC_U+30A4_U+30E4_U+30FC 1
370
     0
100
AcDbSpline
210
0.0
220
0.0
230
1.0
 70
    11
 71
     3
 72
    65
 73
    61
 74
     0
 42
0.0000000001
 43
0.0000000001
 12
1.0
 22
0.0
 32
0.0
 13
1.0
 23
0.0
 33
0.0
 40
0.0
 40
0.0
 40
0.0
 40
0.0
 40
1.0
 40
1.0
 40
1.0
 40
2.0
 40
2.0
 40
2.0
 40
3.0
 40
3.0
 40
3.0
 40
4.0
 40
4.0
 40
4.0
 40
5.0
 40
5.0
 40
5.0
 40
6.0
 40
6.0
 40
6.0
 40
7.0
 40
7.0
 40
7.0
 40
8.0
 40
8.0
 40
8.0
 40
9.0
 40
9.0
 40
9.0
 40
10.0
 40
10.0
 40
10.0
 40
11.0
 40
11.0
 40
11.0
 40
12.0
 40
12.0
 40
12.0
 40
13.0
 40
13.0
 40
13.0
 40
14.0
 40
14.0
 40
14.0
 40
15.0
 40
15.0
 40
15.0
 40
16.0
 40
16.0
 40
16.0
 40
17.0
 40
17.0
 40
17.0
 40
18.0
 40
18.0
 40
18.0
 40
19.0
 40
19.0
 40
19.0
 40
20.0
 40
20.0
 40
20.0
 40
20.0
 10
97.41661751469503
 20
-135.35882246616
 30
0.0
 10
97.41661751469503
 20
-135.35882246616
 30
0.0
 10
96.91708419410585
 20
-134.8589363551741
 30
0.0
 10
96.91708419410585
 20
-134.8589363551741
 30
0.0
 10
96.91708419410585
 20
-134.8589363551741
 30
0.0
 10
92.41708625335481
 20
-134.8589363551741
 30
0.0
 10
92.41708625335481
 20
-134.8589363551741
 30
0.0
 10
92.41708625335481
 20
-134.8589363551741
 30
0.0
 10
92.41708625335481
 20
-129.3588485787713
 30
0.0
 10
92.41708625335481
 20
-129.3588485787713
 30
0.0
 10
92.41708625335481
 20
-129.3588485787713
 30
0.0
 10
97.41661751469503
 20
-129.3588485787713
 30
0.0
 10
97.41661751469503
 20
-129.3588485787713
 30
0.0
 10
97.41661751469503
 20
-129.3588485787713
 30
0.0
 10
96.41684531797912
 20
-128.3590763567991
 30
0.0
 10
96.41684531797912
 20
-128.3590763567991
 30
0.0
 10
96.41684531797912
 20
-128.3590763567991
 30
0.0
 10
92.21660264735847
 20
-128.3590763567991
 30
0.0
 10
92.21660264735847
 20
-128.3590763567991
 30
0.0
 10
91.77492488084883
 20
-128.3590763567991
 30
0.0
 10
91.41664377887822
 20
-128.7170399678206
 30
0.0
 10
91.41664377887822
 20
-129.1590352454881
 30
0.0
 10
91.41664377887822
 20
-129.1590352454881
 30
0.0
 10
91.41664377887822
 20
-134.8589363551741
 30
0.0
 10
91.41664377887822
 20
-134.8589363551741
 30
0.0
 10
91.41664377887822
 20
-134.8589363551741
 30
0.0
 10
84.41689997889591
 20
-134.8589363551741
 30
0.0
 10
84.41689997889591
 20
-134.8589363551741
 30
0.0
 10
84.41689997889591
 20
-134.8589363551741
 30
0.0
 10
84.41689997889591
 20
-129.1590352454881
 30
0.0
 10
84.41689997889591
 20
-129.1590352454881
 30
0.0
 10
84.41689997889591
 20
-128.7170399678206
 30
0.0
 10
84.05861674437492
 20
-128.3590763567991
 30
0.0
 10
83.61693897786527
 20
-128.3590763567991
 30
0.0
 10
83.61693897786527
 20
-128.3590763567991
 30
0.0
 10
79.41669630724462
 20
-128.3590763567991
 30
0.0
 10
79.41669630724462
 20
-128.3590763567991
 30
0.0
 10
79.41669630724462
 20
-128.3590763567991
 30
0.0
 10
78.41692411052871
 20
-129.3588485787713
 30
0.0
 10
78.41692411052871
 20
-129.3588485787713
 30
0.0
 10
78.41692411052871
 20
-129.3588485787713
 30
0.0
 10
83.41712775692336
 20
-129.3588485787713
 30
0.0
 10
83.41712775692336
 20
-129.3588485787713
 30
0.0
 10
83.41712775692336
 20
-129.3588485787713
 30
0.0
 10
83.41712775692336
 20
-134.8589363551741
 30
0.0
 10
83.41712775692336
 20
-134.8589363551741
 30
0.0
 10
83.41712775692336
 20
-134.8589363551741
 30
0.0
 10
79.41669630724462
 20
-134.8589363551741
 30
0.0
 10
79.41669630724462
 20
-134.8589363551741
 30
0.0
 10
79.41669630724462
 20
-134.8589363551741
 30
0.0
 10
78.41692411052871
 20
-135.8587085771466
 30
0.0
 10
78.41692411052871
 20
-135.8587085771466
 30
0.0
 10
78.41692411052871
 20
-135.8587085771466
 30
0.0
 10
103.4165912505118
 20
-135.8587085771466
 30
0.0
 10
103.4165912505118
 20
-135.8587085771466
 30
0.0
 10
103.4165912505118
 20
-135.8587085771466
 30
0.0
 10
102.9170579299227
 20
-135.35882246616
 30
0.0
 10
102.9170579299227
 20
-135.35882246616
 30
0.0
 10
102.9170579299227
 20
-135.35882246616
 30
0.0
 10
97.41661751469503
 20
-135.35882246616
 30
0.0
 10
97.41661751469503
 20
-135.35882246616
 30
0.0
  0
HATCH
  5
42
330
1F
100
AcDbEntity
  8
_U+30EC_U+30A4_U+30E4_U+30FC 1
 62
   253
420
 11711154
100
AcDbHatch
 10
0.0
 20
0.0
 30
0.0
210
0.0
220
0.0
230
1.0
  2
SOLID
 70
     1
 71
     0
 91
        1
 92
        1
 93
        1
 72
     4
 94
        3
 73
     0
 74
     1
 95
       65
 96
       61
 40
0.0
 40
0.0
 40
0.0
 40
0.0
 40
1.0
 40
1.0
 40
1.0
 40
2.0
 40
2.0
 40
2.0
 40
3.0
 40
3.0
 40
3.0
 40
4.0
 40
4.0
 40
4.0
 40
5.0
 40
5.0
 40
5.0
 40
6.0
 40
6.0
 40
6.0
 40
7.0
 40
7.0
 40
7.0
 40
8.0
 40
8.0
 40
8.0
 40
9.0
 40
9.0
 40
9.0
 40
10.0
 40
10.0
 40
10.0
 40
11.0
 40
11.0
 40
11.0
 40
12.0
 40
12.0
 40
12.0
 40
13.0
 40
13.0
 40
13.0
 40
14.0
 40
14.0
 40
14.0
 40
15.0
 40
15.0
 40
15.0
 40
16.0
 40
16.0
 40
16.0
 40
17.0
 40
17.0
 40
17.0
 40
18.0
 40
18.0
 40
18.0
 40
19.0
 40
19.0
 40
19.0
 40
20.0
 40
20.0
 40
20.0
 40
20.0
 10
97.41661751469503
 20
-135.35882246616
 10
97.41661751469503
 20
-135.35882246616
 10
96.91708419410585
 20
-134.8589363551741
 10
96.91708419410585
 20
-134.8589363551741
 10
96.91708419410585
 20
-134.8589363551741
 10
92.41708625335481
 20
-134.8589363551741
 10
92.41708625335481
 20
-134.8589363551741
 10
92.41708625335481
 20
-134.8589363551741
 10
92.41708625335481
 20
-129.3588485787713
 10
92.41708625335481
 20
-129.3588485787713
 10
92.41708625335481
 20
-129.3588485787713
 10
97.41661751469503
 20
-129.3588485787713
 10
97.41661751469503
 20
-129.3588485787713
 10
97.41661751469503
 20
-129.3588485787713
 10
96.41684531797912
 20
-128.3590763567991
 10
96.41684531797912
 20
-128.3590763567991
 10
96.41684531797912
 20
-128.3590763567991
 10
92.21660264735847
 20
-128.3590763567991
 10
92.21660264735847
 20
-128.3590763567991
 10
91.77492488084883
 20
-128.3590763567991
 10
91.41664377887822
 20
-128.7170399678206
 10
91.41664377887822
 20
-129.1590352454881
 10
91.41664377887822
 20
-129.1590352454881
 10
91.41664377887822
 20
-134.8589363551741
 10
91.41664377887822
 20
-134.8589363551741
 10
91.41664377887822
 20
-134.8589363551741
 10
84.41689997889591
 20
-134.8589363551741
 10
84.41689997889591
 20
-134.8589363551741
 10
84.41689997889591
 20
-134.8589363551741
 10
84.41689997889591
 20
-129.1590352454881
 10
84.41689997889591
 20
-129.1590352454881
 10
84.41689997889591
 20
-128.7170399678206
 10
84.05861674437492
 20
-128.3590763567991
 10
83.61693897786527
 20
-128.3590763567991
 10
83.61693897786527
 20
-128.3590763567991
 10
79.41669630724462
 20
-128.3590763567991
 10
79.41669630724462
 20
-128.3590763567991
 10
79.41669630724462
 20
-128.3590763567991
 10
78.41692411052871
 20
-129.3588485787713
 10
78.41692411052871
 20
-129.3588485787713
 10
78.41692411052871
 20
-129.3588485787713
 10
83.41712775692336
 20
-129.3588485787713
 10
83.41712775692336
 20
-129.3588485787713
 10
83.41712775692336
 20
-129.3588485787713
 10
83.41712775692336
 20
-134.8589363551741
 10
83.41712775692336
 20
-134.8589363551741
 10
83.41712775692336
 20
-134.8589363551741
 10
79.41669630724462
 20
-134.8589363551741
 10
79.41669630724462
 20
-134.8589363551741
 10
79.41669630724462
 20
-134.8589363551741
 10
78.41692411052871
 20
-135.8587085771466
 10
78.41692411052871
 20
-135.8587085771466
 10
78.41692411052871
 20
-135.8587085771466
 10
103.4165912505118
 20
-135.8587085771466
 10
103.4165912505118
 20
-135.8587085771466
 10
103.4165912505118
 20
-135.8587085771466
 10
102.9170579299227
 20
-135.35882246616
 10
102.9170579299227
 20
-135.35882246616
 10
102.9170579299227
 20
-135.35882246616
 10
97.41661751469503
 20
-135.35882246616
 10
97.41661751469503
 20
-135.35882246616
 97
        0
 97
        0
 75
     2
 76
     1
 98
        0
  0
SPLINE
  5
43
330
1F
100
AcDbEntity
  8
_U+30EC_U+30A4_U+30E4_U+30FC 1
 62
   179
420
  2234388
370
     9
100
AcDbSpline
210
0.0
220
0.0
230
1.0
 70
    11
 71
     3
 72
    17
 73
    13
 74
     0
 42
0.0000000001
 43
0.0000000001
 12
1.0
 22
0.0
 32
0.0
 13
1.0
 23
0.0
 33
0.0
 40
0.0
 40
0.0
 40
0.0
 40
0.0
 40
1.0
 40
1.0
 40
1.0
 40
2.0
 40
2.0
 40
2.0
 40
3.0
 40
3.0
 40
3.0
 40
4.0
 40
4.0
 40
4.0
 40
4.0
 10
78.51683077464654
 20
-124.3586469133549
 30
0.0
 10
78.51683077464654
 20
-124.3035077467018
 30
0.0
 10
78.47202799801178
 20
-124.2587402467132
 30
0.0
 10
78.41692411052871
 20
-124.2587402467132
 30
0.0
 10
78.36178494526875
 20
-124.2587402467132
 30
0.0
 10
78.31701942486526
 20
-124.3035077467018
 30
0.0
 10
78.31701942486526
 20
-124.3586469133549
 30
0.0
 10
78.31701942486526
 20
-124.4141035800075
 30
0.0
 10
78.36178494526875
 20
-124.4589063577743
 30
0.0
 10
78.41692411052871
 20
-124.4589063577743
 30
0.0
 10
78.47202799801178
 20
-124.4589063577743
 30
0.0
 10
78.51683077464654
 20
-124.4141035800075
 30
0.0
 10
78.51683077464654
 20
-124.3586469133549
 30
0.0
  0
SPLINE
  5
44
330
1F
100
AcDbEntity
  8
_U+30EC_U+30A4_U+30E4_U+30FC 1
 62
   179
420
  2234388
370
     9
100
AcDbSpline
210
0.0
220
0.0
230
1.0
 70
    11
 71
     3
 72
    17
 73
    13
 74
     0
 42
0.0000000001
 43
0.0000000001
 12
1.0
 22
0.0
 32
0.0
 13
1.0
 23
0.0
 33
0.0
 40
0.0
 40
0.0
 40
0.0
 40
0.0
 40
1.0
 40
1.0
 40
1.0
 40
2.0
 40
2.0
 40
2.0
 40
3.0
 40
3.0
 40
3.0
 40
4.0
 40
4.0
 40
4.0
 40
4.0
 10
84.51680451046334
 20
-124.3586469133549
 30
0.0
 10
84.51680451046334
 20
-124.3035077467018
 30
0.0
 10
84.47200173382859
 20
-124.2587402467132
 30
0.0
 10
84.41689997889591
 20
-124.2587402467132
 30
0.0
 10
84.36175868108556
 20
-124.2587402467132
 30
0.0
 10
84.31699118222768
 20
-124.3035077467018
 30
0.0
 10
84.31699118222768
 20
-124.3586469133549
 30
0.0
 10
84.31699118222768
 20
-124.4141035800075
 30
0.0
 10
84.36175868108556
 20
-124.4589063577743
 30
0.0
 10
84.41689997889591
 20
-124.4589063577743
 30
0.0
 10
84.47200173382859
 20
-124.4589063577743
 30
0.0
 10
84.51680451046334
 20
-124.4141035800075
 30
0.0
 10
84.51680451046334
 20
-124.3586469133549
 30
0.0
  0
SPLINE
  5
45
330
1F
100
AcDbEntity
  8
_U+30EC_U+30A4_U+30E4_U+30FC 1
 62
   179
420
  2234388
370
     9
100
AcDbSpline
210
0.0
220
0.0
230
1.0
 70
    11
 71
     3
 72
    17
 73
    13
 74
     0
 42
0.0000000001
 43
0.0000000001
 12
1.0
 22
0.0
 32
0.0
 13
1.0
 23
0.0
 33
0.0
 40
0.0
 40
0.0
 40
0.0
 40
0.0
 40
1.0
 40
1.0
 40
1.0
 40
2.0
 40
2.0
 40
2.0
 40
3.0
 40
3.0
 40
3.0
 40
4.0
 40
4.0
 40
4.0
 40
4.0
 10
91.51722072075674
 20
-124.3586469133549
 30
0.0
 10
91.51722072075674
 20
-124.3035077467018
 30
0.0
 10
91.47245553268725
 20
-124.2587402467132
 30
0.0
 10
91.41664377887822
 20
-124.2587402467132
 30
0.0
 10
91.36150461361828
 20
-124.2587402467132
 30
0.0
 10
91.31673711476039
 20
-124.3035077467018
 30
0.0
 10
91.31673711476039
 20
-124.3586469133549
 30
0.0
 10
91.31673711476039
 20
-124.4141035800075
 30
0.0
 10
91.36150461361828
 20
-124.4589063577743
 30
0.0
 10
91.41664377887822
 20
-124.4589063577743
 30
0.0
 10
91.47245553268725
 20
-124.4589063577743
 30
0.0
 10
91.51722072075674
 20
-124.4141035800075
 30
0.0
 10
91.51722072075674
 20
-124.3586469133549
 30
0.0
  0
SPLINE
  5
46
330
1F
100
AcDbEntity
  8
_U+30EC_U+30A4_U+30E4_U+30FC 1
 62
   179
420
  2234388
370
     9
100
AcDbSpline
210
0.0
220
0.0
230
1.0
 70
    11
 71
     3
 72
    17
 73
    13
 74
     0
 42
0.0000000001
 43
0.0000000001
 12
1.0
 22
0.0
 32
0.0
 13
1.0
 23
0.0
 33
0.0
 40
0.0
 40
0.0
 40
0.0
 40
0.0
 40
1.0
 40
1.0
 40
1.0
 40
2.0
 40
2.0
 40
2.0
 40
3.0
 40
3.0
 40
3.0
 40
4.0
 40
4.0
 40
4.0
 40
4.0
 10
97.51722973435042
 20
-124.3586469133549
 30
0.0
 10
97.51722973435042
 20
-124.3035077467018
 30
0.0
 10
97.47242695771565
 20
-124.2587402467132
 30
0.0
 10
97.41661751469503
 20
-124.2587402467132
 30
0.0
 10
97.36151362721196
 20
-124.2587402467132
 30
0.0
 10
97.3167108505772
 20
-124.3035077467018
 30
0.0
 10
97.3167108505772
 20
-124.3586469133549
 30
0.0
 10
97.3167108505772
 20
-124.4141035800075
 30
0.0
 10
97.36151362721196
 20
-124.4589063577743
 30
0.0
 10
97.41661751469503
 20
-124.4589063577743
 30
0.0
 10
97.47242695771565
 20
-124.4589063577743
 30
0.0
 10
97.51722973435042
 20
-124.4141035800075
 30
0.0
 10
97.51722973435042
 20
-124.3586469133549
 30
0.0
  0
SPLINE
  5
47
330
1F
100
AcDbEntity
  8
_U+30EC_U+30A4_U+30E4_U+30FC 1
 62
   179
420
  2234388
370
     9
100
AcDbSpline
210
0.0
220
0.0
230
1.0
 70
    11
 71
     3
 72
    17
 73
    13
 74
     0
 42
0.0000000001
 43
0.0000000001
 12
1.0
 22
0.0
 32
0.0
 13
1.0
 23
0.0
 33
0.0
 40
0.0
 40
0.0
 40
0.0
 40
0.0
 40
1.0
 40
1.0
 40
1.0
 40
2.0
 40
2.0
 40
2.0
 40
3.0
 40
3.0
 40
3.0
 40
4.0
 40
4.0
 40
4.0
 40
4.0
 10
101.016749922848
 20
-129.3588485787713
 30
0.0
 10
101.016749922848
 20
-129.3037446898964
 30
0.0
 10
100.9719471462132
 20
-129.2589419121297
 30
0.0
 10
100.9168432587302
 20
-129.2589419121297
 30
0.0
 10
100.8617040934702
 20
-129.2589419121297
 30
0.0
 10
100.8169365946123
 20
-129.3037446898964
 30
0.0
 10
100.8169365946123
 20
-129.3588485787713
 30
0.0
 10
100.8169365946123
 20
-129.4139877454244
 30
0.0
 10
100.8617040934702
 20
-129.458755245413
 30
0.0
 10
100.9168432587302
 20
-129.458755245413
 30
0.0
 10
100.9719471462132
 20
-129.458755245413
 30
0.0
 10
101.016749922848
 20
-129.4139877454244
 30
0.0
 10
101.016749922848
 20
-129.3588485787713
 30
0.0
  0
SPLINE
  5
48
330
1F
100
AcDbEntity
  8
_U+30EC_U+30A4_U+30E4_U+30FC 1
 62
   179
420
  2234388
370
     9
100
AcDbSpline
210
0.0
220
0.0
230
1.0
 70
    11
 71
     3
 72
    17
 73
    13
 74
     0
 42
0.0000000001
 43
0.0000000001
 12
1.0
 22
0.0
 32
0.0
 13
1.0
 23
0.0
 33
0.0
 40
0.0
 40
0.0
 40
0.0
 40
0.0
 40
1.0
 40
1.0
 40
1.0
 40
2.0
 40
2.0
 40
2.0
 40
3.0
 40
3.0
 40
3.0
 40
4.0
 40
4.0
 40
4.0
 40
4.0
 10
101.016749922848
 20
-134.8589363551741
 30
0.0
 10
101.016749922848
 20
-134.8034796885214
 30
0.0
 10
100.9719471462132
 20
-134.7587121885328
 30
0.0
 10
100.9168432587302
 20
-134.7587121885328
 30
0.0
 10
100.8617040934702
 20
-134.7587121885328
 30
0.0
 10
100.8169365946123
 20
-134.8034796885214
 30
0.0
 10
100.8169365946123
 20
-134.8589363551741
 30
0.0
 10
100.8169365946123
 20
-134.9140755218272
 30
0.0
 10
100.8617040934702
 20
-134.9588430218157
 30
0.0
 10
100.9168432587302
 20
-134.9588430218157
 30
0.0
 10
100.9719471462132
 20
-134.9588430218157
 30
0.0
 10
101.016749922848
 20
-134.9140755218272
 30
0.0
 10
101.016749922848
 20
-134.8589363551741
 30
0.0
  0
POLYLINE
  5
49
330
1F
100
AcDbEntity
  8
_U+30EC_U+30A4_U+30E4_U+30FC 1
 62
   179
420
  2234388
370
    25
100
AcDb2dPolyline
 66
     1
 10
0.0
 20
0.0
 30
0.0
  0
VERTEX
  5
4A
330
49
100
AcDbEntity
  8
_U+30EC_U+30A4_U+30E4_U+30FC 1
 62
   179
420
  2234388
370
    25
100
AcDbVertex
100
AcDb2dVertex
 10
78.41692411052871
 20
-135.8587085771466
 30
0.0
  0
VERTEX
  5
4B
330
49
100
AcDbEntity
  8
_U+30EC_U+30A4_U+30E4_U+30FC 1
 62
   179
420
  2234388
370
    25
100
AcDbVertex
100
AcDb2dVertex
 10
103.4165912505118
 20
-135.8587085771466
 30
0.0
  0
SEQEND
  5
4C
330
49
100
AcDbEntity
  8
_U+30EC_U+30A4_U+30E4_U+30FC 1
 62
   179
420
  2234388
370
    25
  0
POLYLINE
  5
4D
330
1F
100
AcDbEntity
  8
_U+30EC_U+30A4_U+30E4_U+30FC 1
 62
   179
420
  2234388
370
    25
100
AcDb2dPolyline
 66
     1
 10
0.0
 20
0.0
 30
0.0
  0
VERTEX
  5
4E
330
4D
100
AcDbEntity
  8
_U+30EC_U+30A4_U+30E4_U+30FC 1
 62
   179
420
  2234388
370
    25
100
AcDbVertex
100
AcDb2dVertex
 10
91.41664377887822
 20
-129.1590352454881
 30
0.0
  0
VERTEX
  5
4F
330
4D
100
AcDbEntity
  8
_U+30EC_U+30A4_U+30E4_U+30FC 1
 62
   179
420
  2234388
370
    25
100
AcDbVertex
100
AcDb2dVertex
 10
91.41664377887822
 20
-134.8589363551741
 30
0.0
  0
SEQEND
  5
50
330
4D
100
AcDbEntity
  8
_U+30EC_U+30A4_U+30E4_U+30FC 1
 62
   179
420
  2234388
370
    25
  0
POLYLINE
  5
51
330
1F
100
AcDbEntity
  8
_U+30EC_U+30A4_U+30E4_U+30FC 1
 62
   179
420
  2234388
370
    25
100
AcDb2dPolyline
 66
     1
 10
0.0
 20
0.0
 30
0.0
  0
VERTEX
  5
52
330
51
100
AcDbEntity
  8
_U+30EC_U+30A4_U+30E4_U+30FC 1
 62
   179
420
  2234388
370
    25
100
AcDbVertex
100
AcDb2dVertex
 10
92.41708625335481
 20
-129.3588485787713
 30
0.0
  0
VERTEX
  5
53
330
51
100
AcDbEntity
  8
_U+30EC_U+30A4_U+30E4_U+30FC 1
 62
   179
420
  2234388
370
    25
100
AcDbVertex
100
AcDb2dVertex
 10
92.41708625335481
 20
-134.8589363551741
 30
0.0
  0
SEQEND
  5
54
330
51
100
AcDbEntity
  8
_U+30EC_U+30A4_U+30E4_U+30FC 1
 62
   179
420
  2234388
370
    25
  0
POLYLINE
  5
55
330
1F
100
AcDbEntity
  8
_U+30EC_U+30A4_U+30E4_U+30FC 1
 62
   179
420
  2234388
370
    25
100
AcDb2dPolyline
 66
     1
 10
0.0
 20
0.0
 30
0.0
  0
VERTEX
  5
56
330
55
100
AcDbEntity
  8
_U+30EC_U+30A4_U+30E4_U+30FC 1
 62
   179
420
  2234388
370
    25
100
AcDbVertex
100
AcDb2dVertex
 10
79.41669630724462
 20
-134.8589363551741
 30
0.0
  0
VERTEX
  5
57
330
55
100
AcDbEntity
  8
_U+30EC_U+30A4_U+30E4_U+30FC 1
 62
   179
420
  2234388
370
    25
100
AcDbVertex
100
AcDb2dVertex
 10
83.41712775692336
 20
-134.8589363551741
 30
0.0
  0
SEQEND
  5
58
330
55
100
AcDbEntity
  8
_U+30EC_U+30A4_U+30E4_U+30FC 1
 62
   179
420
  2234388
370
    25
  0
POLYLINE
  5
59
330
1F
100
AcDbEntity
  8
_U+30EC_U+30A4_U+30E4_U+30FC 1
 62
   179
420
  2234388
370
    25
100
AcDb2dPolyline
 66
     1
 10
0.0
 20
0.0
 30
0.0
  0
VERTEX
  5
5A
330
59
100
AcDbEntity
  8
_U+30EC_U+30A4_U+30E4_U+30FC 1
 62
   179
420
  2234388
370
    25
100
AcDbVertex
100
AcDb2dVertex
 10
92.41708625335481
 20
-134.8589363551741
 30
0.0
  0
VERTEX
  5
5B
330
59
100
AcDbEntity
  8
_U+30EC_U+30A4_U+30E4_U+30FC 1
 62
   179
420
  2234388
370
    25
100
AcDbVertex
100
AcDb2dVertex
 10
96.91708419410585
 20
-134.8589363551741
 30
0.0
  0
SEQEND
  5
5C
330
59
100
AcDbEntity
  8
_U+30EC_U+30A4_U+30E4_U+30FC 1
 62
   179
420
  2234388
370
    25
  0
POLYLINE
  5
5D
330
1F
100
AcDbEntity
  8
_U+30EC_U+30A4_U+30E4_U+30FC 1
 62
   179
420
  2234388
370
    25
100
AcDb2dPolyline
 66
     1
 10
0.0
 20
0.0
 30
0.0
  0
VERTEX
  5
5E
330
5D
100
AcDbEntity
  8
_U+30EC_U+30A4_U+30E4_U+30FC 1
 62
   179
420
  2234388
370
    25
100
AcDbVertex
100
AcDb2dVertex
 10
92.41708625335481
 20
-129.3588485787713
 30
0.0
  0
VERTEX
  5
5F
330
5D
100
AcDbEntity
  8
_U+30EC_U+30A4_U+30E4_U+30FC 1
 62
   179
420
  2234388
370
    25
100
AcDbVertex
100
AcDb2dVertex
 10
97.41661751469503
 20
-129.3588485787713
 30
0.0
  0
SEQEND
  5
60
330
5D
100
AcDbEntity
  8
_U+30EC_U+30A4_U+30E4_U+30FC 1
 62
   179
420
  2234388
370
    25
  0
POLYLINE
  5
61
330
1F
100
AcDbEntity
  8
_U+30EC_U+30A4_U+30E4_U+30FC 1
 62
   179
420
  2234388
370
    25
100
AcDb2dPolyline
 66
     1
 10
0.0
 20
0.0
 30
0.0
  0
VERTEX
  5
62
330
61
100
AcDbEntity
  8
_U+30EC_U+30A4_U+30E4_U+30FC 1
 62
   179
420
  2234388
370
    25
100
AcDbVertex
100
AcDb2dVertex
 10
92.21660264735847
 20
-128.3590763567991
 30
0.0
  0
VERTEX
  5
63
330
61
100
AcDbEntity
  8
_U+30EC_U+30A4_U+30E4_U+30FC 1
 62
   179
420
  2234388
370
    25
100
AcDbVertex
100
AcDb2dVertex
 10
96.41684531797912
 20
-128.3590763567991
 30
0.0
  0
SEQEND
  5
64
330
61
100
AcDbEntity
  8
_U+30EC_U+30A4_U+30E4_U+30FC 1
 62
   179
420
  2234388
370
    25
  0
POLYLINE
  5
65
330
1F
100
AcDbEntity
  8
_U+30EC_U+30A4_U+30E4_U+30FC 1
 62
   179
420
  2234388
370
    25
100
AcDb2dPolyline
 66
     1
 10
0.0
 20
0.0
 30
0.0
  0
VERTEX
  5
66
330
65
100
AcDbEntity
  8
_U+30EC_U+30A4_U+30E4_U+30FC 1
 62
   179
420
  2234388
370
    25
100
AcDbVertex
100
AcDb2dVertex
 10
83.41712775692336
 20
-129.3588485787713
 30
0.0
  0
VERTEX
  5
67
330
65
100
AcDbEntity
  8
_U+30EC_U+30A4_U+30E4_U+30FC 1
 62
   179
420
  2234388
370
    25
100
AcDbVertex
100
AcDb2dVertex
 10
78.41692411052871
 20
-129.3588485787713
 30
0.0
  0
SEQEND
  5
68
330
65
100
AcDbEntity
  8
_U+30EC_U+30A4_U+30E4_U+30FC 1
 62
   179
420
  2234388
370
    25
  0
POLYLINE
  5
69
330
1F
100
AcDbEntity
  8
_U+30EC_U+30A4_U+30E4_U+30FC 1
 62
   179
420
  2234388
370
    25
100
AcDb2dPolyline
 66
     1
 10
0.0
 20
0.0
 30
0.0
  0
VERTEX
  5
6A
330
69
100
AcDbEntity
  8
_U+30EC_U+30A4_U+30E4_U+30FC 1
 62
   179
420
  2234388
370
    25
100
AcDbVertex
100
AcDb2dVertex
 10
83.41712775692336
 20
-129.3588485787713
 30
0.0
  0
VERTEX
  5
6B
330
69
100
AcDbEntity
  8
_U+30EC_U+30A4_U+30E4_U+30FC 1
 62
   179
420
  2234388
370
    25
100
AcDbVertex
100
AcDb2dVertex
 10
83.41712775692336
 20
-134.8589363551741
 30
0.0
  0
SEQEND
  5
6C
330
69
100
AcDbEntity
  8
_U+30EC_U+30A4_U+30E4_U+30FC 1
 62
   179
420
  2234388
370
    25
  0
POLYLINE
  5
6D
330
1F
100
AcDbEntity
  8
_U+30EC_U+30A4_U+30E4_U+30FC 1
 62
   179
420
  2234388
370
    25
100
AcDb2dPolyline
 66
     1
 10
0.0
 20
0.0
 30
0.0
  0
VERTEX
  5
6E
330
6D
100
AcDbEntity
  8
_U+30EC_U+30A4_U+30E4_U+30FC 1
 62
   179
420
  2234388
370
    25
100
AcDbVertex
100
AcDb2dVertex
 10
84.41689997889591
 20
-129.1590352454881
 30
0.0
  0
VERTEX
  5
6F
330
6D
100
AcDbEntity
  8
_U+30EC_U+30A4_U+30E4_U+30FC 1
 62
   179
420
  2234388
370
    25
100
AcDbVertex
100
AcDb2dVertex
 10
84.41689997889591
 20
-134.8589363551741
 30
0.0
  0
SEQEND
  5
70
330
6D
100
AcDbEntity
  8
_U+30EC_U+30A4_U+30E4_U+30FC 1
 62
   179
420
  2234388
370
    25
  0
POLYLINE
  5
71
330
1F
100
AcDbEntity
  8
_U+30EC_U+30A4_U+30E4_U+30FC 1
 62
   179
420
  2234388
370
    25
100
AcDb2dPolyline
 66
     1
 10
0.0
 20
0.0
 30
0.0
  0
VERTEX
  5
72
330
71
100
AcDbEntity
  8
_U+30EC_U+30A4_U+30E4_U+30FC 1
 62
   179
420
  2234388
370
    25
100
AcDbVertex
100
AcDb2dVertex
 10
83.61693897786527
 20
-128.3590763567991
 30
0.0
  0
VERTEX
  5
73
330
71
100
AcDbEntity
  8
_U+30EC_U+30A4_U+30E4_U+30FC 1
 62
   179
420
  2234388
370
    25
100
AcDbVertex
100
AcDb2dVertex
 10
79.41669630724462
 20
-128.3590763567991
 30
0.0
  0
SEQEND
  5
74
330
71
100
AcDbEntity
  8
_U+30EC_U+30A4_U+30E4_U+30FC 1
 62
   179
420
  2234388
370
    25
  0
POLYLINE
  5
75
330
1F
100
AcDbEntity
  8
_U+30EC_U+30A4_U+30E4_U+30FC 1
 62
   179
420
  2234388
370
    25
100
AcDb2dPolyline
 66
     1
 10
0.0
 20
0.0
 30
0.0
  0
VERTEX
  5
76
330
75
100
AcDbEntity
  8
_U+30EC_U+30A4_U+30E4_U+30FC 1
 62
   179
420
  2234388
370
    25
100
AcDbVertex
100
AcDb2dVertex
 10
84.41689997889591
 20
-134.8589363551741
 30
0.0
  0
VERTEX
  5
77
330
75
100
AcDbEntity
  8
_U+30EC_U+30A4_U+30E4_U+30FC 1
 62
   179
420
  2234388
370
    25
100
AcDbVertex
100
AcDb2dVertex
 10
91.41664377887822
 20
-134.8589363551741
 30
0.0
  0
SEQEND
  5
78
330
75
100
AcDbEntity
  8
_U+30EC_U+30A4_U+30E4_U+30FC 1
 62
   179
420
  2234388
370
    25
  0
POLYLINE
  5
79
330
1F
100
AcDbEntity
  8
_U+30EC_U+30A4_U+30E4_U+30FC 1
 62
   179
420
  2234388
370
    25
100
AcDb2dPolyline
 66
     1
 10
0.0
 20
0.0
 30
0.0
  0
VERTEX
  5
7A
330
79
100
AcDbEntity
  8
_U+30EC_U+30A4_U+30E4_U+30FC 1
 62
   179
420
  2234388
370
    25
100
AcDbVertex
100
AcDb2dVertex
 10
103.4165912505118
 20
-135.8587085771466
 30
0.0
  0
VERTEX
  5
7B
330
79
100
AcDbEntity
  8
_U+30EC_U+30A4_U+30E4_U+30FC 1
 62
   179
420
  2234388
370
    25
100
AcDbVertex
100
AcDb2dVertex
 10
102.9170579299227
 20
-135.35882246616
 30
0.0
  0
SEQEND
  5
7C
330
79
100
AcDbEntity
  8
_U+30EC_U+30A4_U+30E4_U+30FC 1
 62
   179
420
  2234388
370
    25
  0
POLYLINE
  5
7D
330
1F
100
AcDbEntity
  8
_U+30EC_U+30A4_U+30E4_U+30FC 1
 62
   179
420
  2234388
370
    25
100
AcDb2dPolyline
 66
     1
 10
0.0
 20
0.0
 30
0.0
  0
VERTEX
  5
7E
330
7D
100
AcDbEntity
  8
_U+30EC_U+30A4_U+30E4_U+30FC 1
 62
   179
420
  2234388
370
    25
100
AcDbVertex
100
AcDb2dVertex
 10
97.41661751469503
 20
-135.35882246616
 30
0.0
  0
VERTEX
  5
7F
330
7D
100
AcDbEntity
  8
_U+30EC_U+30A4_U+30E4_U+30FC 1
 62
   179
420
  2234388
370
    25
100
AcDbVertex
100
AcDb2dVertex
 10
102.9170579299227
 20
-135.35882246616
 30
0.0
  0
SEQEND
  5
80
330
7D
100
AcDbEntity
  8
_U+30EC_U+30A4_U+30E4_U+30FC 1
 62
   179
420
  2234388
370
    25
  0
POLYLINE
  5
81
330
1F
100
AcDbEntity
  8
_U+30EC_U+30A4_U+30E4_U+30FC 1
 62
   179
420
  2234388
370
    25
100
AcDb2dPolyline
 66
     1
 10
0.0
 20
0.0
 30
0.0
  0
VERTEX
  5
82
330
81
100
AcDbEntity
  8
_U+30EC_U+30A4_U+30E4_U+30FC 1
 62
   179
420
  2234388
370
    25
100
AcDbVertex
100
AcDb2dVertex
 10
96.91708419410585
 20
-134.8589363551741
 30
0.0
  0
VERTEX
  5
83
330
81
100
AcDbEntity
  8
_U+30EC_U+30A4_U+30E4_U+30FC 1
 62
   179
420
  2234388
370
    25
100
AcDbVertex
100
AcDb2dVertex
 10
97.41661751469503
 20
-135.35882246616
 30
0.0
  0
SEQEND
  5
84
330
81
100
AcDbEntity
  8
_U+30EC_U+30A4_U+30E4_U+30FC 1
 62
   179
420
  2234388
370
    25
  0
POLYLINE
  5
85
330
1F
100
AcDbEntity
  8
_U+30EC_U+30A4_U+30E4_U+30FC 1
 62
   179
420
  2234388
370
    25
100
AcDb2dPolyline
 66
     1
 10
0.0
 20
0.0
 30
0.0
  0
VERTEX
  5
86
330
85
100
AcDbEntity
  8
_U+30EC_U+30A4_U+30E4_U+30FC 1
 62
   179
420
  2234388
370
    25
100
AcDbVertex
100
AcDb2dVertex
 10
97.41661751469503
 20
-129.3588485787713
 30
0.0
  0
VERTEX
  5
87
330
85
100
AcDbEntity
  8
_U+30EC_U+30A4_U+30E4_U+30FC 1
 62
   179
420
  2234388
370
    25
100
AcDbVertex
100
AcDb2dVertex
 10
96.41684531797912
 20
-128.3590763567991
 30
0.0
  0
SEQEND
  5
88
330
85
100
AcDbEntity
  8
_U+30EC_U+30A4_U+30E4_U+30FC 1
 62
   179
420
  2234388
370
    25
  0
POLYLINE
  5
89
330
1F
100
AcDbEntity
  8
_U+30EC_U+30A4_U+30E4_U+30FC 1
 62
   179
420
  2234388
370
    25
100
AcDb2dPolyline
 66
     1
 10
0.0
 20
0.0
 30
0.0
  0
VERTEX
  5
8A
330
89
100
AcDbEntity
  8
_U+30EC_U+30A4_U+30E4_U+30FC 1
 62
   179
420
  2234388
370
    25
100
AcDbVertex
100
AcDb2dVertex
 10
78.41692411052871
 20
-129.3588485787713
 30
0.0
  0
VERTEX
  5
8B
330
89
100
AcDbEntity
  8
_U+30EC_U+30A4_U+30E4_U+30FC 1
 62
   179
420
  2234388
370
    25
100
AcDbVertex
100
AcDb2dVertex
 10
79.41669630724462
 20
-128.3590763567991
 30
0.0
  0
SEQEND
  5
8C
330
89
100
AcDbEntity
  8
_U+30EC_U+30A4_U+30E4_U+30FC 1
 62
   179
420
  2234388
370
    25
  0
POLYLINE
  5
8D
330
1F
100
AcDbEntity
  8
_U+30EC_U+30A4_U+30E4_U+30FC 1
 62
   179
420
  2234388
370
    25
100
AcDb2dPolyline
 66
     1
 10
0.0
 20
0.0
 30
0.0
  0
VERTEX
  5
8E
330
8D
100
AcDbEntity
  8
_U+30EC_U+30A4_U+30E4_U+30FC 1
 62
   179
420
  2234388
370
    25
100
AcDbVertex
100
AcDb2dVertex
 10
78.41692411052871
 20
-135.8587085771466
 30
0.0
  0
VERTEX
  5
8F
330
8D
100
AcDbEntity
  8
_U+30EC_U+30A4_U+30E4_U+30FC 1
 62
   179
420
  2234388
370
    25
100
AcDbVertex
100
AcDb2dVertex
 10
79.41669630724462
 20
-134.8589363551741
 30
0.0
  0
SEQEND
  5
90
330
8D
100
AcDbEntity
  8
_U+30EC_U+30A4_U+30E4_U+30FC 1
 62
   179
420
  2234388
370
    25
  0
SPLINE
  5
91
330
1F
100
AcDbEntity
  8
_U+30EC_U+30A4_U+30E4_U+30FC 1
 62
   179
420
  2234388
370
    25
100
AcDbSpline
210
0.0
220
0.0
230
1.0
 70
     8
 71
     3
 72
     8
 73
     4
 74
     0
 42
0.0000000001
 43
0.0000000001
 12
1.0
 22
0.0
 32
0.0
 13
1.0
 23
0.0
 33
0.0
 40
0.0
 40
0.0
 40
0.0
 40
0.0
 40
1.0
 40
1.0
 40
1.0
 40
1.0
 10
84.41689997889591
 20
-129.1590352454881
 30
0.0
 10
84.41689997889591
 20
-128.7170399678206
 30
0.0
 10
84.05861674437492
 20
-128.3590763567991
 30
0.0
 10
83.61693897786527
 20
-128.3590763567991
 30
0.0
  0
SPLINE
  5
92
330
1F
100
AcDbEntity
  8
_U+30EC_U+30A4_U+30E4_U+30FC 1
 62
   179
420
  2234388
370
    25
100
AcDbSpline
210
0.0
220
0.0
230
1.0
 70
     8
 71
     3
 72
     8
 73
     4
 74
     0
 42
0.0000000001
 43
0.0000000001
 12
1.0
 22
0.0
 32
0.0
 13
1.0
 23
0.0
 33
0.0
 40
0.0
 40
0.0
 40
0.0
 40
0.0
 40
1.0
 40
1.0
 40
1.0
 40
1.0
 10
92.21660264735847
 20
-128.3590763567991
 30
0.0
 10
91.77492488084883
 20
-128.3590763567991
 30
0.0
 10
91.41664377887822
 20
-128.7170399678206
 30
0.0
 10
91.41664377887822
 20
-129.1590352454881
 30
0.0
  0
POLYLINE
  5
93
330
1F
100
AcDbEntity
  8
_U+30EC_U+30A4_U+30E4_U+30FC 1
 62
   179
420
  2234388
370
     9
100
AcDb2dPolyline
 66
     1
 10
0.0
 20
0.0
 30
0.0
  0
VERTEX
  5
94
330
93
100
AcDbEntity
  8
_U+30EC_U+30A4_U+30E4_U+30FC 1
 62
   179
420
  2234388
370
     9
100
AcDbVertex
100
AcDb2dVertex
 10
84.41689997889591
 20
-124.3586469133549
 30
0.0
  0
VERTEX
  5
95
330
93
100
AcDbEntity
  8
_U+30EC_U+30A4_U+30E4_U+30FC 1
 62
   179
420
  2234388
370
     9
100
AcDbVertex
100
AcDb2dVertex
 10
78.41692411052871
 20
-124.3586469133549
 30
0.0
  0
SEQEND
  5
96
330
93
100
AcDbEntity
  8
_U+30EC_U+30A4_U+30E4_U+30FC 1
 62
   179
420
  2234388
370
     9
  0
POLYLINE
  5
97
330
1F
100
AcDbEntity
  8
_U+30EC_U+30A4_U+30E4_U+30FC 1
 62
   179
420
  2234388
370
     9
100
AcDb2dPolyline
 66
     1
 10
0.0
 20
0.0
 30
0.0
  0
VERTEX
  5
98
330
97
100
AcDbEntity
  8
_U+30EC_U+30A4_U+30E4_U+30FC 1
 62
   179
420
  2234388
370
     9
100
AcDbVertex
100
AcDb2dVertex
 10
78.41692411052871
 20
-126.8191308016285
 30
0.0
  0
VERTEX
  5
99
330
97
100
AcDbEntity
  8
_U+30EC_U+30A4_U+30E4_U+30FC 1
 62
   179
420
  2234388
370
     9
100
AcDbVertex
100
AcDb2dVertex
 10
78.41692411052871
 20
-123.3588746913827
 30
0.0
  0
SEQEND
  5
9A
330
97
100
AcDbEntity
  8
_U+30EC_U+30A4_U+30E4_U+30FC 1
 62
   179
420
  2234388
370
     9
  0
INSERT
  5
9C
330
1F
100
AcDbEntity
  8
_U+30EC_U+30A4_U+30E4_U+30FC 1
100
AcDbBlockReference
  2
block 2
 10
0.0
 20
0.0
 30
0.0
  0
POLYLINE
  5
A2
330
1F
100
AcDbEntity
  8
_U+30EC_U+30A4_U+30E4_U+30FC 1
 62
   179
420
  2234388
370
     9
100
AcDb2dPolyline
 66
     1
 10
0.0
 20
0.0
 30
0.0
  0
VERTEX
  5
A3
330
A2
100
AcDbEntity
  8
_U+30EC_U+30A4_U+30E4_U+30FC 1
 62
   179
420
  2234388
370
     9
100
AcDbVertex
100
AcDb2dVertex
 10
91.41664377887822
 20
-124.3586469133549
 30
0.0
  0
VERTEX
  5
A4
330
A2
100
AcDbEntity
  8
_U+30EC_U+30A4_U+30E4_U+30FC 1
 62
   179
420
  2234388
370
     9
100
AcDbVertex
100
AcDb2dVertex
 10
97.41661751469503
 20
-124.3586469133549
 30
0.0
  0
SEQEND
  5
A5
330
A2
100
AcDbEntity
  8
_U+30EC_U+30A4_U+30E4_U+30FC 1
 62
   179
420
  2234388
370
     9
  0
POLYLINE
  5
A6
330
1F
100
AcDbEntity
  8
_U+30EC_U+30A4_U+30E4_U+30FC 1
 62
   179
420
  2234388
370
     9
100
AcDb2dPolyline
 66
     1
 10
0.0
 20
0.0
 30
0.0
  0
VERTEX
  5
A7
330
A6
100
AcDbEntity
  8
_U+30EC_U+30A4_U+30E4_U+30FC 1
 62
   179
420
  2234388
370
     9
100
AcDbVertex
100
AcDb2dVertex
 10
97.41661751469503
 20
-126.8191308016285
 30
0.0
  0
VERTEX
  5
A8
330
A6
100
AcDbEntity
  8
_U+30EC_U+30A4_U+30E4_U+30FC 1
 62
   179
420
  2234388
370
     9
100
AcDbVertex
100
AcDb2dVertex
 10
97.41661751469503
 20
-123.3588746913827
 30
0.0
  0
SEQEND
  5
A9
330
A6
100
AcDbEntity
  8
_U+30EC_U+30A4_U+30E4_U+30FC 1
 62
   179
420
  2234388
370
     9
  0
INSERT
  5
AB
330
1F
100
AcDbEntity
  8
_U+30EC_U+30A4_U+30E4_U+30FC 1
100
AcDbBlockReference
  2
block 3
 10
0.0
 20
0.0
 30
0.0
  0
POLYLINE
  5
B1
330
1F
100
AcDbEntity
  8
_U+30EC_U+30A4_U+30E4_U+30FC 1
 62
   179
420
  2234388
370
     9
100
AcDb2dPolyline
 66
     1
 10
0.0
 20
0.0
 30
0.0
  0
VERTEX
  5
B2
330
B1
100
AcDbEntity
  8
_U+30EC_U+30A4_U+30E4_U+30FC 1
 62
   179
420
  2234388
370
     9
100
AcDbVertex
100
AcDb2dVertex
 10
100.9168432587302
 20
-134.8589363551741
 30
0.0
  0
VERTEX
  5
B3
330
B1
100
AcDbEntity
  8
_U+30EC_U+30A4_U+30E4_U+30FC 1
 62
   179
420
  2234388
370
     9
100
AcDbVertex
100
AcDb2dVertex
 10
100.9168432587302
 20
-129.3588485787713
 30
0.0
  0
SEQEND
  5
B4
330
B1
100
AcDbEntity
  8
_U+30EC_U+30A4_U+30E4_U+30FC 1
 62
   179
420
  2234388
370
     9
  0
POLYLINE
  5
B5
330
1F
100
AcDbEntity
  8
_U+30EC_U+30A4_U+30E4_U+30FC 1
 62
   179
420
  2234388
370
     9
100
AcDb2dPolyline
 66
     1
 10
0.0
 20
0.0
 30
0.0
  0
VERTEX
  5
B6
330
B5
100
AcDbEntity
  8
_U+30EC_U+30A4_U+30E4_U+30FC 1
 62
   179
420
  2234388
370
     9
100
AcDbVertex
100
AcDb2dVertex
 10
99.45680190709004
 20
-134.8589363551741
 30
0.0
  0
VERTEX
  5
B7
330
B5
100
AcDbEntity
  8
_U+30EC_U+30A4_U+30E4_U+30FC 1
 62
   179
420
  2234388
370
     9
100
AcDbVertex
100
AcDb2dVertex
 10
101.9166154554461
 20
-134.8589363551741
 30
0.0
  0
SEQEND
  5
B8
330
B5
100
AcDbEntity
  8
_U+30EC_U+30A4_U+30E4_U+30FC 1
 62
   179
420
  2234388
370
     9
  0
POLYLINE
  5
B9
330
1F
100
AcDbEntity
  8
_U+30EC_U+30A4_U+30E4_U+30FC 1
 62
   179
420
  2234388
370
     9
100
AcDb2dPolyline
 66
     1
 10
0.0
 20
0.0
 30
0.0
  0
VERTEX
  5
BA
330
B9
100
AcDbEntity
  8
_U+30EC_U+30A4_U+30E4_U+30FC 1
 62
   179
420
  2234388
370
     9
100
AcDbVertex
100
AcDb2dVertex
 10
99.95704078321677
 20
-129.3588485787713
 30
0.0
  0
VERTEX
  5
BB
330
B9
100
AcDbEntity
  8
_U+30EC_U+30A4_U+30E4_U+30FC 1
 62
   179
420
  2234388
370
     9
100
AcDbVertex
100
AcDb2dVertex
 10
101.9166154554461
 20
-129.3588485787713
 30
0.0
  0
SEQEND
  5
BC
330
B9
100
AcDbEntity
  8
_U+30EC_U+30A4_U+30E4_U+30FC 1
 62
   179
420
  2234388
370
     9
  0
INSERT
  5
BE
330
1F
100
AcDbEntity
  8
_U+30EC_U+30A4_U+30E4_U+30FC 1
100
AcDbBlockReference
  2
block 4
 10
0.0
 20
0.0
 30
0.0
  0
POLYLINE
  5
CD
330
1F
100
AcDbEntity
  8
_U+30EC_U+30A4_U+30E4_U+30FC 1
 62
   179
420
  2234388
370
     9
100
AcDb2dPolyline
 66
     1
 10
0.0
 20
0.0
 30
0.0
  0
VERTEX
  5
CE
330
CD
100
AcDbEntity
  8
_U+30EC_U+30A4_U+30E4_U+30FC 1
 62
   179
420
  2234388
370
     9
100
AcDbVertex
100
AcDb2dVertex
 10
84.41689997889591
 20
-124.3586469133549
 30
0.0
  0
VERTEX
  5
CF
330
CD
100
AcDbEntity
  8
_U+30EC_U+30A4_U+30E4_U+30FC 1
 62
   179
420
  2234388
370
     9
100
AcDbVertex
100
AcDb2dVertex
 10
91.41664377887822
 20
-124.3586469133549
 30
0.0
  0
SEQEND
  5
D0
330
CD
100
AcDbEntity
  8
_U+30EC_U+30A4_U+30E4_U+30FC 1
 62
   179
420
  2234388
370
     9
  0
POLYLINE
  5
D1
330
1F
100
AcDbEntity
  8
_U+30EC_U+30A4_U+30E4_U+30FC 1
 62
   179
420
  2234388
370
     9
100
AcDb2dPolyline
 66
     1
 10
0.0
 20
0.0
 30
0.0
  0
VERTEX
  5
D2
330
D1
100
AcDbEntity
  8
_U+30EC_U+30A4_U+30E4_U+30FC 1
 62
   179
420
  2234388
370
     9
100
AcDbVertex
100
AcDb2dVertex
 10
84.41689997889591
 20
-126.6189646905674
 30
0.0
  0
VERTEX
  5
D3
330
D1
100
AcDbEntity
  8
_U+30EC_U+30A4_U+30E4_U+30FC 1
 62
   179
420
  2234388
370
     9
100
AcDbVertex
100
AcDb2dVertex
 10
84.41689997889591
 20
-123.3588746913827
 30
0.0
  0
SEQEND
  5
D4
330
D1
100
AcDbEntity
  8
_U+30EC_U+30A4_U+30E4_U+30FC 1
 62
   179
420
  2234388
370
     9
  0
POLYLINE
  5
D5
330
1F
100
AcDbEntity
  8
_U+30EC_U+30A4_U+30E4_U+30FC 1
 62
   179
420
  2234388
370
     9
100
AcDb2dPolyline
 66
     1
 10
0.0
 20
0.0
 30
0.0
  0
VERTEX
  5
D6
330
D5
100
AcDbEntity
  8
_U+30EC_U+30A4_U+30E4_U+30FC 1
 62
   179
420
  2234388
370
     9
100
AcDbVertex
100
AcDb2dVertex
 10
91.41664377887822
 20
-126.6189646905674
 30
0.0
  0
VERTEX
  5
D7
330
D5
100
AcDbEntity
  8
_U+30EC_U+30A4_U+30E4_U+30FC 1
 62
   179
420
  2234388
370
     9
100
AcDbVertex
100
AcDb2dVertex
 10
91.41664377887822
 20
-123.3588746913827
 30
0.0
  0
SEQEND
  5
D8
330
D5
100
AcDbEntity
  8
_U+30EC_U+30A4_U+30E4_U+30FC 1
 62
   179
420
  2234388
370
     9
  0
INSERT
  5
DA
330
1F
100
AcDbEntity
  8
_U+30EC_U+30A4_U+30E4_U+30FC 1
100
AcDbBlockReference
  2
block 5
 10
0.0
 20
0.0
 30
0.0
  0
SPLINE
  5
DF
330
1F
100
AcDbEntity
  8
_U+30EC_U+30A4_U+30E4_U+30FC 1
 62
   179
420
  2234388
370
     9
100
AcDbSpline
210
0.0
220
0.0
230
1.0
 70
    11
 71
     3
 72
    17
 73
    13
 74
     0
 42
0.0000000001
 43
0.0000000001
 12
1.0
 22
0.0
 32
0.0
 13
1.0
 23
0.0
 33
0.0
 40
0.0
 40
0.0
 40
0.0
 40
0.0
 40
1.0
 40
1.0
 40
1.0
 40
2.0
 40
2.0
 40
2.0
 40
3.0
 40
3.0
 40
3.0
 40
4.0
 40
4.0
 40
4.0
 40
4.0
 10
83.54045675759427
 20
-131.588192467103
 30
0.0
 10
83.54045675759427
 20
-131.5330533004499
 30
0.0
 10
83.49568925873639
 20
-131.4882858004614
 30
0.0
 10
83.44055009347645
 20
-131.4882858004614
 30
0.0
 10
83.3850934282246
 20
-131.4882858004614
 30
0.0
 10
83.34029065158983
 20
-131.5330533004499
 30
0.0
 10
83.34029065158983
 20
-131.588192467103
 30
0.0
 10
83.34029065158983
 20
-131.6432963559779
 30
0.0
 10
83.3850934282246
 20
-131.6880991337446
 30
0.0
 10
83.44055009347645
 20
-131.6880991337446
 30
0.0
 10
83.49568925873639
 20
-131.6880991337446
 30
0.0
 10
83.54045675759427
 20
-131.6432963559779
 30
0.0
 10
83.54045675759427
 20
-131.588192467103
 30
0.0
  0
SPLINE
  5
E0
330
1F
100
AcDbEntity
  8
_U+30EC_U+30A4_U+30E4_U+30FC 1
 62
   179
420
  2234388
370
     9
100
AcDbSpline
210
0.0
220
0.0
230
1.0
 70
    11
 71
     3
 72
    17
 73
    13
 74
     0
 42
0.0000000001
 43
0.0000000001
 12
1.0
 22
0.0
 32
0.0
 13
1.0
 23
0.0
 33
0.0
 40
0.0
 40
0.0
 40
0.0
 40
0.0
 40
1.0
 40
1.0
 40
1.0
 40
2.0
 40
2.0
 40
2.0
 40
3.0
 40
3.0
 40
3.0
 40
4.0
 40
4.0
 40
4.0
 40
4.0
 10
84.54058173207896
 20
-131.588192467103
 30
0.0
 10
84.54058173207896
 20
-131.5330533004499
 30
0.0
 10
84.4957789554442
 20
-131.4882858004614
 30
0.0
 10
84.44067506796112
 20
-131.4882858004614
 30
0.0
 10
84.38553590270118
 20
-131.4882858004614
 30
0.0
 10
84.3407684038433
 20
-131.5330533004499
 30
0.0
 10
84.3407684038433
 20
-131.588192467103
 30
0.0
 10
84.3407684038433
 20
-131.6432963559779
 30
0.0
 10
84.38553590270118
 20
-131.6880991337446
 30
0.0
 10
84.44067506796112
 20
-131.6880991337446
 30
0.0
 10
84.4957789554442
 20
-131.6880991337446
 30
0.0
 10
84.54058173207896
 20
-131.6432963559779
 30
0.0
 10
84.54058173207896
 20
-131.588192467103
 30
0.0
  0
POLYLINE
  5
E1
330
1F
100
AcDbEntity
  8
_U+30EC_U+30A4_U+30E4_U+30FC 1
 62
   179
420
  2234388
370
     9
100
AcDb2dPolyline
 66
     1
 10
0.0
 20
0.0
 30
0.0
  0
VERTEX
  5
E2
330
E1
100
AcDbEntity
  8
_U+30EC_U+30A4_U+30E4_U+30FC 1
 62
   179
420
  2234388
370
     9
100
AcDbVertex
100
AcDb2dVertex
 10
84.44067506796112
 20
-131.588192467103
 30
0.0
  0
VERTEX
  5
E3
330
E1
100
AcDbEntity
  8
_U+30EC_U+30A4_U+30E4_U+30FC 1
 62
   179
420
  2234388
370
     9
100
AcDbVertex
100
AcDb2dVertex
 10
88.21098747177244
 20
-131.588192467103
 30
0.0
  0
SEQEND
  5
E4
330
E1
100
AcDbEntity
  8
_U+30EC_U+30A4_U+30E4_U+30FC 1
 62
   179
420
  2234388
370
     9
  0
POLYLINE
  5
E5
330
1F
100
AcDbEntity
  8
_U+30EC_U+30A4_U+30E4_U+30FC 1
 62
   179
420
  2234388
370
     9
100
AcDb2dPolyline
 66
     1
 10
0.0
 20
0.0
 30
0.0
  0
VERTEX
  5
E6
330
E5
100
AcDbEntity
  8
_U+30EC_U+30A4_U+30E4_U+30FC 1
 62
   179
420
  2234388
370
     9
100
AcDbVertex
100
AcDb2dVertex
 10
82.44046039676863
 20
-131.588192467103
 30
0.0
  0
VERTEX
  5
E7
330
E5
100
AcDbEntity
  8
_U+30EC_U+30A4_U+30E4_U+30FC 1
 62
   179
420
  2234388
370
     9
100
AcDbVertex
100
AcDb2dVertex
 10
84.44067506796112
 20
-131.588192467103
 30
0.0
  0
SEQEND
  5
E8
330
E5
100
AcDbEntity
  8
_U+30EC_U+30A4_U+30E4_U+30FC 1
 62
   179
420
  2234388
370
     9
  0
INSERT
  5
EA
330
1F
100
AcDbEntity
  8
_U+30EC_U+30A4_U+30E4_U+30FC 1
100
AcDbBlockReference
  2
block 6
 10
0.0
 20
0.0
 30
0.0
  0
ENDSEC
  0
SECTION
  2
OBJECTS
  0
DICTIONARY
  5
C
330
0
100
AcDbDictionary
281
     1
  3
ACAD_GROUP
350
D
  3
ACAD_LAYOUT
350
1A
  3
ACAD_MATERIAL
350
3B
  3
ACAD_MLEADERSTYLE
350
F0
  3
ACAD_MLINESTYLE
350
17
  3
ACAD_PLOTSETTINGS
350
19
  3
ACAD_PLOTSTYLENAME
350
E
  3
ACAD_TABLESTYLE
350
EF
  3
ACAD_VISUALSTYLE
350
2A
  0
SUN
  5
3F
330
29
100
AcDbSun
 90
        1
290
     0
 63
     7
421
 16777215
 40
1.0
291
     1
 91
  2455826
 92
 54000000
292
     0
 70
     2
 71
   256
280
     1
  0
DICTIONARY
  5
D
102
{ACAD_REACTORS
330
C
102
}
330
C
100
AcDbDictionary
281
     1
  0
DICTIONARY
  5
1A
102
{ACAD_REACTORS
330
C
102
}
330
C
100
AcDbDictionary
281
     1
  3
Layout1
350
1E
  3
Layout2
350
26
  3
Model
350
22
  0
DICTIONARY
  5
3B
102
{ACAD_REACTORS
330
C
102
}
330
C
100
AcDbDictionary
281
     1
  3
ByBlock
350
3D
  3
ByLayer
350
3C
  3
Global
350
3E
  0
DICTIONARY
  5
F0
102
{ACAD_REACTORS
330
C
102
}
330
C
100
AcDbDictionary
281
     1
  0
DICTIONARY
  5
17
102
{ACAD_REACTORS
330
C
102
}
330
C
100
AcDbDictionary
281
     1
  3
Standard
350
18
  0
DICTIONARY
  5
19
102
{ACAD_REACTORS
330
C
102
}
330
C
100
AcDbDictionary
281
     1
  0
ACDBDICTIONARYWDFLT
  5
E
102
{ACAD_REACTORS
330
C
102
}
330
C
100
AcDbDictionary
281
     1
  3
Normal
350
F
100
AcDbDictionaryWithDefault
340
F
  0
DICTIONARY
  5
EF
102
{ACAD_REACTORS
330
C
102
}
330
C
100
AcDbDictionary
281
     1
  0
DICTIONARY
  5
2A
102
{ACAD_REACTORS
330
C
102
}
330
C
100
AcDbDictionary
281
     1
  3
2dWireframe
350
2F
  3
3D Hidden
350
31
  3
3dWireframe
350
30
  3
Basic
350
32
  3
Brighten
350
36
  3
ColorChange
350
3A
  3
Conceptual
350
34
  3
Dim
350
35
  3
Facepattern
350
39
  3
Flat
350
2B
  3
FlatWithEdges
350
2C
  3
Gouraud
350
2D
  3
GouraudWithEdges
350
2E
  3
Linepattern
350
38
  3
Realistic
350
33
  3
Thicken
350
37
  0
LAYOUT
  5
1E
102
{ACAD_REACTORS
330
1A
102
}
330
1A
100
AcDbPlotSettings
  1

  2
none_device
  4

  6

 40
0.0
 41
0.0
 42
0.0
 43
0.0
 44
0.0
 45
0.0
 46
0.0
 47
0.0
 48
0.0
 49
0.0
140
0.0
141
0.0
142
1.0
143
1.0
 70
   688
 72
     0
 73
     0
 74
     5
  7

 75
    16
 76
     0
 77
     2
 78
   300
147
1.0
148
0.0
149
0.0
100
AcDbLayout
  1
Layout1
 70
     1
 71
     1
 10
0.0
 20
0.0
 11
12.0
 21
9.0
 12
0.0
 22
0.0
 32
0.0
 14
1.000000000000000E+20
 24
1.000000000000000E+20
 34
1.000000000000000E+20
 15
-1.000000000000000E+20
 25
-1.000000000000000E+20
 35
-1.000000000000000E+20
146
0.0
 13
0.0
 23
0.0
 33
0.0
 16
1.0
 26
0.0
 36
0.0
 17
0.0
 27
1.0
 37
0.0
 76
     0
330
1B
  0
LAYOUT
  5
26
102
{ACAD_REACTORS
330
1A
102
}
330
1A
100
AcDbPlotSettings
  1

  2
none_device
  4

  6

 40
0.0
 41
0.0
 42
0.0
 43
0.0
 44
0.0
 45
0.0
 46
0.0
 47
0.0
 48
0.0
 49
0.0
140
0.0
141
0.0
142
1.0
143
1.0
 70
   688
 72
     0
 73
     0
 74
     5
  7

 75
    16
 76
     0
 77
     2
 78
   300
147
1.0
148
0.0
149
0.0
100
AcDbLayout
  1
Layout2
 70
     1
 71
     2
 10
0.0
 20
0.0
 11
0.0
 21
0.0
 12
0.0
 22
0.0
 32
0.0
 14
0.0
 24
0.0
 34
0.0
 15
0.0
 25
0.0
 35
0.0
146
0.0
 13
0.0
 23
0.0
 33
0.0
 16
1.0
 26
0.0
 36
0.0
 17
0.0
 27
1.0
 37
0.0
 76
     0
330
23
  0
LAYOUT
  5
22
102
{ACAD_REACTORS
330
1A
102
}
330
1A
100
AcDbPlotSettings
  1

  2
none_device
  4

  6

 40
0.0
 41
0.0
 42
0.0
 43
0.0
 44
0.0
 45
0.0
 46
0.0
 47
0.0
 48
0.0
 49
0.0
140
0.0
141
0.0
142
1.0
143
1.0
 70
  1712
 72
     0
 73
     0
 74
     0
  7

 75
     0
 76
     0
 77
     2
 78
   300
147
1.0
148
0.0
149
0.0
100
AcDbLayout
  1
Model
 70
     1
 71
     0
 10
0.0
 20
0.0
 11
12.0
 21
9.0
 12
0.0
 22
0.0
 32
0.0
 14
1.000000000000000E+20
 24
1.000000000000000E+20
 34
1.000000000000000E+20
 15
-1.000000000000000E+20
 25
-1.000000000000000E+20
 35
-1.000000000000000E+20
146
0.0
 13
0.0
 23
0.0
 33
0.0
 16
1.0
 26
0.0
 36
0.0
 17
0.0
 27
1.0
 37
0.0
 76
     0
330
1F
331
29
  0
MATERIAL
  5
3D
102
{ACAD_REACTORS
330
3B
102
}
330
3B
100
AcDbMaterial
  1
ByBlock
 72
     1
 94
      127
  0
MATERIAL
  5
3C
102
{ACAD_REACTORS
330
3B
102
}
330
3B
100
AcDbMaterial
  1
ByLayer
 72
     1
 94
      127
  0
MATERIAL
  5
3E
102
{ACAD_REACTORS
330
3B
102
}
330
3B
100
AcDbMaterial
  1
Global
 72
     1
 94
      127
  0
MLINESTYLE
  5
18
102
{ACAD_REACTORS
330
17
102
}
330
17
100
AcDbMlineStyle
  2
Standard
 70
     0
  3

 62
   256
 51
90.0
 52
90.0
 71
     2
 49
0.5
 62
   256
  6
BYLAYER
 49
-0.5
 62
   256
  6
BYLAYER
  0
ACDBPLACEHOLDER
  5
F
102
{ACAD_REACTORS
330
E
102
}
330
E
  0
VISUALSTYLE
  5
2F
102
{ACAD_REACTORS
330
2A
102
}
330
2A
100
AcDbVisualStyle
  2
2dWireframe
 70
     4
177
     2
291
     0
 71
     0
176
     1
 72
     2
176
     1
 73
     0
176
     1
 90
        0
176
     1
 40
-0.6
176
     1
 41
-30.0
176
     1
 62
     5
 63
     7
421
 16777215
176
     1
 74
     1
176
     1
 91
        4
176
     1
 64
     7
176
     1
 65
   257
176
     1
 75
     1
176
     1
175
     1
176
     1
 42
1.0
176
     1
 92
        0
176
     1
 66
   257
176
     1
 43
1.0
176
     1
 76
     1
176
     1
 77
     6
176
     1
 78
     2
176
     1
 67
     7
176
     1
 79
     5
176
     1
170
     0
176
     1
171
     0
176
     1
290
     0
176
     1
 93
        1
176
     1
 44
0.0
176
     1
173
     0
176
     1
  0
VISUALSTYLE
  5
31
102
{ACAD_REACTORS
330
2A
102
}
330
2A
100
AcDbVisualStyle
  2
3D Hidden
 70
     6
177
     2
291
     0
 71
     1
176
     1
 72
     2
176
     1
 73
     2
176
     1
 90
        0
176
     1
 40
-0.6
176
     1
 41
-30.0
176
     1
 62
     5
 63
     7
421
 16777215
176
     1
 74
     2
176
     1
 91
        2
176
     1
 64
     7
176
     1
 65
   257
176
     1
 75
     2
176
     1
175
     1
176
     1
 42
40.0
176
     1
 92
        0
176
     1
 66
   257
176
     1
 43
1.0
176
     1
 76
     1
176
     1
 77
     6
176
     1
 78
     2
176
     1
 67
     7
176
     1
 79
     3
176
     1
170
     0
176
     1
171
     0
176
     1
290
     0
176
     1
 93
        1
176
     1
 44
0.0
176
     1
173
     0
176
     1
  0
VISUALSTYLE
  5
30
102
{ACAD_REACTORS
330
2A
102
}
330
2A
100
AcDbVisualStyle
  2
3dWireframe
 70
     5
177
     2
291
     0
 71
     0
176
     1
 72
     2
176
     1
 73
     0
176
     1
 90
        0
176
     1
 40
-0.6
176
     1
 41
-30.0
176
     1
 62
     5
 63
     7
421
 16777215
176
     1
 74
     1
176
     1
 91
        4
176
     1
 64
     7
176
     1
 65
   257
176
     1
 75
     1
176
     1
175
     1
176
     1
 42
1.0
176
     1
 92
        0
176
     1
 66
   257
176
     1
 43
1.0
176
     1
 76
     1
176
     1
 77
     6
176
     1
 78
     2
176
     1
 67
     7
176
     1
 79
     5
176
     1
170
     0
176
     1
171
     0
176
     1
290
     0
176
     1
 93
        1
176
     1
 44
0.0
176
     1
173
     0
176
     1
  0
VISUALSTYLE
  5
32
102
{ACAD_REACTORS
330
2A
102
}
330
2A
100
AcDbVisualStyle
  2
Basic
 70
     7
177
     2
291
     1
 71
     1
176
     1
 72
     0
176
     1
 73
     1
176
     1
 90
        0
176
     1
 40
-0.6
176
     1
 41
-30.0
176
     1
 62
     5
 63
     7
421
 16777215
176
     1
 74
     0
176
     1
 91
        4
176
     1
 64
     7
176
     1
 65
   257
176
     1
 75
     1
176
     1
175
     1
176
     1
 42
1.0
176
     1
 92
        8
176
     1
 66
     7
176
     1
 43
1.0
176
     1
 76
     1
176
     1
 77
     6
176
     1
 78
     2
176
     1
 67
     7
176
     1
 79
     5
176
     1
170
     0
176
     1
171
     0
176
     1
290
     0
176
     1
 93
        1
176
     1
 44
0.0
176
     1
173
     0
176
     1
  0
VISUALSTYLE
  5
36
102
{ACAD_REACTORS
330
2A
102
}
330
2A
100
AcDbVisualStyle
  2
Brighten
 70
    12
177
     2
291
     1
 71
     2
176
     1
 72
     2
176
     1
 73
     0
176
     1
 90
        0
176
     1
 40
-0.6
176
     1
 41
-30.0
176
     1
 62
     5
 63
     7
421
 16777215
176
     1
 74
     1
176
     1
 91
        4
176
     1
 64
     7
176
     1
 65
   257
176
     1
 75
     1
176
     1
175
     1
176
     1
 42
1.0
176
     1
 92
        8
176
     1
 66
     7
176
     1
 43
1.0
176
     1
 76
     1
176
     1
 77
     6
176
     1
 78
     2
176
     1
 67
     7
176
     1
 79
     5
176
     1
170
     0
176
     1
171
     0
176
     1
290
     0
176
     1
 93
        1
176
     1
 44
50.0
176
     1
173
     0
176
     1
  0
VISUALSTYLE
  5
3A
102
{ACAD_REACTORS
330
2A
102
}
330
2A
100
AcDbVisualStyle
  2
ColorChange
 70
    16
177
     2
291
     1
 71
     2
176
     1
 72
     2
176
     1
 73
     3
176
     1
 90
        0
176
     1
 40
-0.6
176
     1
 41
-30.0
176
     1
 62
     5
 63
     8
421
  8421504
176
     1
 74
     1
176
     1
 91
        4
176
     1
 64
     7
176
     1
 65
   257
176
     1
 75
     1
176
     1
175
     1
176
     1
 42
1.0
176
     1
 92
        8
176
     1
 66
     8
424
  8421504
176
     1
 43
1.0
176
     1
 76
     1
176
     1
 77
     6
176
     1
 78
     2
176
     1
 67
     7
176
     1
 79
     5
176
     1
170
     0
176
     1
171
     0
176
     1
290
     0
176
     1
 93
        1
176
     1
 44
0.0
176
     1
173
     0
176
     1
  0
VISUALSTYLE
  5
34
102
{ACAD_REACTORS
330
2A
102
}
330
2A
100
AcDbVisualStyle
  2
Conceptual
 70
     9
177
     2
291
     0
 71
     3
176
     1
 72
     2
176
     1
 73
     0
176
     1
 90
        0
176
     1
 40
-0.6
176
     1
 41
-30.0
176
     1
 62
     5
 63
     7
421
 16777215
176
     1
 74
     2
176
     1
 91
        2
176
     1
 64
     7
176
     1
 65
   257
176
     1
 75
     1
176
     1
175
     1
176
     1
 42
40.0
176
     1
 92
        8
176
     1
 66
     7
176
     1
 43
1.0
176
     1
 76
     1
176
     1
 77
     6
176
     1
 78
     2
176
     1
 67
     7
176
     1
 79
     3
176
     1
170
     0
176
     1
171
     0
176
     1
290
     0
176
     1
 93
        1
176
     1
 44
0.0
176
     1
173
     0
176
     1
  0
VISUALSTYLE
  5
35
102
{ACAD_REACTORS
330
2A
102
}
330
2A
100
AcDbVisualStyle
  2
Dim
 70
    11
177
     2
291
     1
 71
     2
176
     1
 72
     2
176
     1
 73
     0
176
     1
 90
        0
176
     1
 40
-0.6
176
     1
 41
-30.0
176
     1
 62
     5
 63
     7
421
 16777215
176
     1
 74
     1
176
     1
 91
        4
176
     1
 64
     7
176
     1
 65
   257
176
     1
 75
     1
176
     1
175
     1
176
     1
 42
1.0
176
     1
 92
        8
176
     1
 66
     7
176
     1
 43
1.0
176
     1
 76
     1
176
     1
 77
     6
176
     1
 78
     2
176
     1
 67
     7
176
     1
 79
     5
176
     1
170
     0
176
     1
171
     0
176
     1
290
     0
176
     1
 93
        1
176
     1
 44
-50.0
176
     1
173
     0
176
     1
  0
VISUALSTYLE
  5
39
102
{ACAD_REACTORS
330
2A
102
}
330
2A
100
AcDbVisualStyle
  2
Facepattern
 70
    15
177
     2
291
     1
 71
     2
176
     1
 72
     2
176
     1
 73
     0
176
     1
 90
        0
176
     1
 40
-0.6
176
     1
 41
-30.0
176
     1
 62
     5
 63
     7
421
 16777215
176
     1
 74
     1
176
     1
 91
        4
176
     1
 64
     7
176
     1
 65
   257
176
     1
 75
     1
176
     1
175
     1
176
     1
 42
1.0
176
     1
 92
        8
176
     1
 66
     7
176
     1
 43
1.0
176
     1
 76
     1
176
     1
 77
     6
176
     1
 78
     2
176
     1
 67
     7
176
     1
 79
     5
176
     1
170
     0
176
     1
171
     0
176
     1
290
     0
176
     1
 93
        1
176
     1
 44
0.0
176
     1
173
     0
176
     1
  0
VISUALSTYLE
  5
2B
102
{ACAD_REACTORS
330
2A
102
}
330
2A
100
AcDbVisualStyle
  2
Flat
 70
     0
177
     2
291
     1
 71
     2
176
     1
 72
     1
176
     1
 73
     1
176
     1
 90
        2
176
     1
 40
-0.6
176
     1
 41
30.0
176
     1
 62
     5
 63
     7
421
 16777215
176
     1
 74
     0
176
     1
 91
        4
176
     1
 64
     7
176
     1
 65
   257
176
     1
 75
     1
176
     1
175
     1
176
     1
 42
1.0
176
     1
 92
        8
176
     1
 66
     7
176
     1
 43
1.0
176
     1
 76
     1
176
     1
 77
     6
176
     1
 78
     2
176
     1
 67
     7
176
     1
 79
     5
176
     1
170
     0
176
     1
171
     0
176
     1
290
     0
176
     1
 93
       13
176
     1
 44
0.0
176
     1
173
     0
176
     1
  0
VISUALSTYLE
  5
2C
102
{ACAD_REACTORS
330
2A
102
}
330
2A
100
AcDbVisualStyle
  2
FlatWithEdges
 70
     1
177
     2
291
     1
 71
     2
176
     1
 72
     1
176
     1
 73
     1
176
     1
 90
        2
176
     1
 40
-0.6
176
     1
 41
30.0
176
     1
 62
     5
 63
     7
421
 16777215
176
     1
 74
     1
176
     1
 91
        4
176
     1
 64
     7
176
     1
 65
   257
176
     1
 75
     1
176
     1
175
     1
176
     1
 42
1.0
176
     1
 92
        0
176
     1
 66
   257
176
     1
 43
1.0
176
     1
 76
     1
176
     1
 77
     6
176
     1
 78
     2
176
     1
 67
     7
176
     1
 79
     5
176
     1
170
     0
176
     1
171
     0
176
     1
290
     0
176
     1
 93
       13
176
     1
 44
0.0
176
     1
173
     0
176
     1
  0
VISUALSTYLE
  5
2D
102
{ACAD_REACTORS
330
2A
102
}
330
2A
100
AcDbVisualStyle
  2
Gouraud
 70
     2
177
     2
291
     1
 71
     2
176
     1
 72
     2
176
     1
 73
     1
176
     1
 90
        2
176
     1
 40
-0.6
176
     1
 41
30.0
176
     1
 62
     5
 63
     7
421
 16777215
176
     1
 74
     0
176
     1
 91
        4
176
     1
 64
     7
176
     1
 65
   257
176
     1
 75
     1
176
     1
175
     1
176
     1
 42
1.0
176
     1
 92
        0
176
     1
 66
     7
176
     1
 43
1.0
176
     1
 76
     1
176
     1
 77
     6
176
     1
 78
     2
176
     1
 67
     7
176
     1
 79
     5
176
     1
170
     0
176
     1
171
     0
176
     1
290
     0
176
     1
 93
       13
176
     1
 44
0.0
176
     1
173
     0
176
     1
  0
VISUALSTYLE
  5
2E
102
{ACAD_REACTORS
330
2A
102
}
330
2A
100
AcDbVisualStyle
  2
GouraudWithEdges
 70
     3
177
     2
291
     1
 71
     2
176
     1
 72
     2
176
     1
 73
     1
176
     1
 90
        2
176
     1
 40
-0.6
176
     1
 41
30.0
176
     1
 62
     5
 63
     7
421
 16777215
176
     1
 74
     1
176
     1
 91
        4
176
     1
 64
     7
176
     1
 65
   257
176
     1
 75
     1
176
     1
175
     1
176
     1
 42
1.0
176
     1
 92
        0
176
     1
 66
   257
176
     1
 43
1.0
176
     1
 76
     1
176
     1
 77
     6
176
     1
 78
     2
176
     1
 67
     7
176
     1
 79
     5
176
     1
170
     0
176
     1
171
     0
176
     1
290
     0
176
     1
 93
       13
176
     1
 44
0.0
176
     1
173
     0
176
     1
  0
VISUALSTYLE
  5
38
102
{ACAD_REACTORS
330
2A
102
}
330
2A
100
AcDbVisualStyle
  2
Linepattern
 70
    14
177
     2
291
     1
 71
     2
176
     1
 72
     2
176
     1
 73
     0
176
     1
 90
        0
176
     1
 40
-0.6
176
     1
 41
-30.0
176
     1
 62
     5
 63
     7
421
 16777215
176
     1
 74
     1
176
     1
 91
        4
176
     1
 64
     7
176
     1
 65
   257
176
     1
 75
     7
176
     1
175
     7
176
     1
 42
1.0
176
     1
 92
        8
176
     1
 66
     7
176
     1
 43
1.0
176
     1
 76
     1
176
     1
 77
     6
176
     1
 78
     2
176
     1
 67
     7
176
     1
 79
     5
176
     1
170
     0
176
     1
171
     0
176
     1
290
     0
176
     1
 93
        1
176
     1
 44
0.0
176
     1
173
     0
176
     1
  0
VISUALSTYLE
  5
33
102
{ACAD_REACTORS
330
2A
102
}
330
2A
100
AcDbVisualStyle
  2
Realistic
 70
     8
177
     2
291
     0
 71
     2
176
     1
 72
     2
176
     1
 73
     0
176
     1
 90
        0
176
     1
 40
-0.6
176
     1
 41
-30.0
176
     1
 62
     5
 63
     7
421
 16777215
176
     1
 74
     1
176
     1
 91
        0
176
     1
 64
     7
176
     1
 65
   257
176
     1
 75
     1
176
     1
175
     1
176
     1
 42
1.0
176
     1
 92
        8
176
     1
 66
     8
424
  7895160
176
     1
 43
1.0
176
     1
 76
     1
176
     1
 77
     6
176
     1
 78
     2
176
     1
 67
     7
176
     1
 79
     5
176
     1
170
     0
176
     1
171
     0
176
     1
290
     0
176
     1
 93
       13
176
     1
 44
0.0
176
     1
173
     0
176
     1
  0
VISUALSTYLE
  5
37
102
{ACAD_REACTORS
330
2A
102
}
330
2A
100
AcDbVisualStyle
  2
Thicken
 70
    13
177
     2
291
     1
 71
     2
176
     1
 72
     2
176
     1
 73
     0
176
     1
 90
        0
176
     1
 40
-0.6
176
     1
 41
-30.0
176
     1
 62
     5
 63
     7
421
 16777215
176
     1
 74
     1
176
     1
 91
        4
176
     1
 64
     7
176
     1
 65
   257
176
     1
 75
     1
176
     1
175
     1
176
     1
 42
1.0
176
     1
 92
       12
176
     1
 66
     7
176
     1
 43
1.0
176
     1
 76
     1
176
     1
 77
     6
176
     1
 78
     2
176
     1
 67
     7
176
     1
 79
     5
176
     1
170
     0
176
     1
171
     0
176
     1
290
     0
176
     1
 93
        1
176
     1
 44
0.0
176
     1
173
     0
176
     1
  0
ENDSEC
  0
EOF
