  0
SECTION
  2
HEADER
  9
$ACADVER
  1
AC1024
  9
$ACADMAINTVER
 70
     6
  9
$DWGCODEPAGE
  3
UNDEFINED
  9
$INSBASE
 10
0.0
 20
0.0
 30
0.0
  9
$EXTMIN
 10
1.000000000000000E+20
 20
1.000000000000000E+20
 30
1.000000000000000E+20
  9
$EXTMAX
 10
-1.000000000000000E+20
 20
-1.000000000000000E+20
 30
-1.000000000000000E+20
  9
$LIMMIN
 10
0.0
 20
0.0
  9
$LIMMAX
 10
12.0
 20
9.0
  9
$ORTHOMODE
 70
     0
  9
$REGENMODE
 70
     1
  9
$FILLMODE
 70
     1
  9
$QTEXTMODE
 70
     0
  9
$MIRRTEXT
 70
     1
  9
$LTSCALE
 40
1.0
  9
$ATTMODE
 70
     1
  9
$TEXTSIZE
 40
0.2
  9
$TRACEWID
 40
0.05
  9
$TEXTSTYLE
  7
Standard
  9
$CLAYER
  8
0
  9
$CELTYPE
  6
ByLayer
  9
$CECOLOR
 62
   256
  9
$CELTSCALE
 40
1.0
  9
$DISPSILH
 70
     0
  9
$DIMSCALE
 40
1.0
  9
$DIMASZ
 40
0.18
  9
$DIMEXO
 40
0.0625
  9
$DIMDLI
 40
0.38
  9
$DIMRND
 40
0.0
  9
$DIMDLE
 40
0.0
  9
$DIMEXE
 40
0.18
  9
$DIMTP
 40
0.0
  9
$DIMTM
 40
0.0
  9
$DIMTXT
 40
0.18
  9
$DIMCEN
 40
0.09
  9
$DIMTSZ
 40
0.0
  9
$DIMTOL
 70
     0
  9
$DIMLIM
 70
     0
  9
$DIMTIH
 70
     1
  9
$DIMTOH
 70
     1
  9
$DIMSE1
 70
     0
  9
$DIMSE2
 70
     0
  9
$DIMTAD
 70
     0
  9
$DIMZIN
 70
     0
  9
$DIMBLK
  1

  9
$DIMASO
 70
     1
  9
$DIMSHO
 70
     1
  9
$DIMPOST
  1

  9
$DIMAPOST
  1

  9
$DIMALT
 70
     0
  9
$DIMALTD
 70
     2
  9
$DIMALTF
 40
25.4
  9
$DIMLFAC
 40
1.0
  9
$DIMTOFL
 70
     0
  9
$DIMTVP
 40
0.0
  9
$DIMTIX
 70
     0
  9
$DIMSOXD
 70
     0
  9
$DIMSAH
 70
     0
  9
$DIMBLK1
  1

  9
$DIMBLK2
  1

  9
$DIMSTYLE
  2
Standard
  9
$DIMCLRD
 70
     0
  9
$DIMCLRE
 70
     0
  9
$DIMCLRT
 70
     0
  9
$DIMTFAC
 40
1.0
  9
$DIMGAP
 40
0.09
  9
$DIMJUST
 70
     0
  9
$DIMSD1
 70
     0
  9
$DIMSD2
 70
     0
  9
$DIMTOLJ
 70
     1
  9
$DIMTZIN
 70
     0
  9
$DIMALTZ
 70
     0
  9
$DIMALTTZ
 70
     0
  9
$DIMUPT
 70
     0
  9
$DIMDEC
 70
     4
  9
$DIMTDEC
 70
     4
  9
$DIMALTU
 70
     2
  9
$DIMALTTD
 70
     2
  9
$DIMTXSTY
  7
Standard
  9
$DIMAUNIT
 70
     0
  9
$DIMADEC
 70
     0
  9
$DIMALTRND
 40
0.0
  9
$DIMAZIN
 70
     0
  9
$DIMDSEP
 70
    46
  9
$DIMATFIT
 70
     3
  9
$DIMFRAC
 70
     0
  9
$DIMLDRBLK
  1

  9
$DIMLUNIT
 70
     2
  9
$DIMLWD
 70
    -2
  9
$DIMLWE
 70
    -2
  9
$DIMTMOVE
 70
     0
  9
$DIMFXL
 40
1.0
  9
$DIMFXLON
 70
     0
  9
$DIMJOGANG
 40
0.7853981633974483
  9
$DIMTFILL
 70
     0
  9
$DIMTFILLCLR
 70
     0
  9
$DIMARCSYM
 70
     0
  9
$DIMLTYPE
  6

  9
$DIMLTEX1
  6

  9
$DIMLTEX2
  6

  9
$DIMTXTDIRECTION
 70
     0
  9
$LUNITS
 70
     2
  9
$LUPREC
 70
     4
  9
$SKETCHINC
 40
0.1
  9
$FILLETRAD
 40
0.5
  9
$AUNITS
 70
     0
  9
$AUPREC
 70
     0
  9
$MENU
  1
.
  9
$ELEVATION
 40
0.0
  9
$PELEVATION
 40
0.0
  9
$THICKNESS
 40
0.0
  9
$LIMCHECK
 70
     0
  9
$CHAMFERA
 40
0.5
  9
$CHAMFERB
 40
0.5
  9
$CHAMFERC
 40
1.0
  9
$CHAMFERD
 40
0.0
  9
$SKPOLY
 70
     0
  9
$TDCREATE
 40
2457917.623460636
  9
$TDUCREATE
 40
2457917.248460648
  9
$TDUPDATE
 40
2457917.623460636
  9
$TDUUPDATE
 40
2457917.248460648
  9
$TDINDWG
 40
0.0000000116
  9
$TDUSRTIMER
 40
0.0000000116
  9
$USRTIMER
 70
     1
  9
$ANGBASE
 50
0.0
  9
$ANGDIR
 70
     0
  9
$PDMODE
 70
     0
  9
$PDSIZE
 40
0.0
  9
$PLINEWID
 40
0.0
  9
$SPLFRAME
 70
     0
  9
$SPLINETYPE
 70
     6
  9
$SPLINESEGS
 70
     8
  9
$HANDSEED
  5
D7
  9
$SURFTAB1
 70
     6
  9
$SURFTAB2
 70
     6
  9
$SURFTYPE
 70
     6
  9
$SURFU
 70
     6
  9
$SURFV
 70
     6
  9
$UCSBASE
  2

  9
$UCSNAME
  2

  9
$UCSORG
 10
0.0
 20
0.0
 30
0.0
  9
$UCSXDIR
 10
1.0
 20
0.0
 30
0.0
  9
$UCSYDIR
 10
0.0
 20
1.0
 30
0.0
  9
$UCSORTHOREF
  2

  9
$UCSORTHOVIEW
 70
     0
  9
$UCSORGTOP
 10
0.0
 20
0.0
 30
0.0
  9
$UCSORGBOTTOM
 10
0.0
 20
0.0
 30
0.0
  9
$UCSORGLEFT
 10
0.0
 20
0.0
 30
0.0
  9
$UCSORGRIGHT
 10
0.0
 20
0.0
 30
0.0
  9
$UCSORGFRONT
 10
0.0
 20
0.0
 30
0.0
  9
$UCSORGBACK
 10
0.0
 20
0.0
 30
0.0
  9
$PUCSBASE
  2

  9
$PUCSNAME
  2

  9
$PUCSORG
 10
0.0
 20
0.0
 30
0.0
  9
$PUCSXDIR
 10
1.0
 20
0.0
 30
0.0
  9
$PUCSYDIR
 10
0.0
 20
1.0
 30
0.0
  9
$PUCSORTHOREF
  2

  9
$PUCSORTHOVIEW
 70
     0
  9
$PUCSORGTOP
 10
0.0
 20
0.0
 30
0.0
  9
$PUCSORGBOTTOM
 10
0.0
 20
0.0
 30
0.0
  9
$PUCSORGLEFT
 10
0.0
 20
0.0
 30
0.0
  9
$PUCSORGRIGHT
 10
0.0
 20
0.0
 30
0.0
  9
$PUCSORGFRONT
 10
0.0
 20
0.0
 30
0.0
  9
$PUCSORGBACK
 10
0.0
 20
0.0
 30
0.0
  9
$USERI1
 70
     0
  9
$USERI2
 70
     0
  9
$USERI3
 70
     0
  9
$USERI4
 70
     0
  9
$USERI5
 70
     0
  9
$USERR1
 40
0.0
  9
$USERR2
 40
0.0
  9
$USERR3
 40
0.0
  9
$USERR4
 40
0.0
  9
$USERR5
 40
0.0
  9
$WORLDVIEW
 70
     1
  9
$SHADEDGE
 70
     3
  9
$SHADEDIF
 70
    70
  9
$TILEMODE
 70
     1
  9
$MAXACTVP
 70
    64
  9
$PINSBASE
 10
0.0
 20
0.0
 30
0.0
  9
$PLIMCHECK
 70
     0
  9
$PEXTMIN
 10
1.000000000000000E+20
 20
1.000000000000000E+20
 30
1.000000000000000E+20
  9
$PEXTMAX
 10
-1.000000000000000E+20
 20
-1.000000000000000E+20
 30
-1.000000000000000E+20
  9
$PLIMMIN
 10
0.0
 20
0.0
  9
$PLIMMAX
 10
12.0
 20
9.0
  9
$UNITMODE
 70
     0
  9
$VISRETAIN
 70
     1
  9
$PLINEGEN
 70
     0
  9
$PSLTSCALE
 70
     1
  9
$TREEDEPTH
 70
  3020
  9
$CMLSTYLE
  2
Standard
  9
$CMLJUST
 70
     0
  9
$CMLSCALE
 40
1.0
  9
$PROXYGRAPHICS
 70
     1
  9
$MEASUREMENT
 70
     0
  9
$CELWEIGHT
370
    -1
  9
$ENDCAPS
280
     0
  9
$JOINSTYLE
280
     0
  9
$LWDISPLAY
290
     1
  9
$INSUNITS
 70
     1
  9
$HYPERLINKBASE
  1

  9
$STYLESHEET
  1

  9
$XEDIT
290
     1
  9
$CEPSNTYPE
380
     0
  9
$PSTYLEMODE
290
     1
  9
$FINGERPRINTGUID
  2
{8F38C6F2-DE58-880F-B149-EF3455AD30AB}
  9
$VERSIONGUID
  2
{FAEB1C32-E019-11D5-929B-00C0DF256EC4}
  9
$EXTNAMES
290
     1
  9
$PSVPSCALE
 40
0.0
  9
$OLESTARTUP
290
     0
  9
$SORTENTS
280
   127
  9
$INDEXCTL
280
     0
  9
$HIDETEXT
280
     1
  9
$XCLIPFRAME
280
     2
  9
$HALOGAP
280
     0
  9
$OBSCOLOR
 70
   257
  9
$OBSLTYPE
280
     0
  9
$INTERSECTIONDISPLAY
280
     0
  9
$INTERSECTIONCOLOR
 70
   257
  9
$DIMASSOC
280
     2
  9
$PROJECTNAME
  1

  9
$CAMERADISPLAY
290
     0
  9
$LENSLENGTH
 40
50.0
  9
$CAMERAHEIGHT
 40
0.0
  9
$STEPSPERSEC
 40
2.0
  9
$STEPSIZE
 40
6.0
  9
$3DDWFPREC
 40
2.0
  9
$PSOLWIDTH
 40
0.25
  9
$PSOLHEIGHT
 40
4.0
  9
$LOFTANG1
 40
1.570796326794897
  9
$LOFTANG2
 40
1.570796326794897
  9
$LOFTMAG1
 40
0.0
  9
$LOFTMAG2
 40
0.0
  9
$LOFTPARAM
 70
     7
  9
$LOFTNORMALS
280
     1
  9
$LATITUDE
 40
37.795
  9
$LONGITUDE
 40
-122.394
  9
$NORTHDIRECTION
 40
0.0
  9
$TIMEZONE
 70
 -8000
  9
$LIGHTGLYPHDISPLAY
280
     1
  9
$TILEMODELIGHTSYNCH
280
     1
  9
$CMATERIAL
347
3C
  9
$SOLIDHIST
280
     1
  9
$SHOWHIST
280
     1
  9
$DWFFRAME
280
     2
  9
$DGNFRAME
280
     2
  9
$REALWORLDSCALE
290
     1
  9
$INTERFERECOLOR
 62
   256
  9
$CSHADOW
280
     0
  9
$SHADOWPLANELOCATION
 40
0.0
  0
ENDSEC
  0
SECTION
  2
CLASSES
  0
CLASS
  1
ACDBDICTIONARYWDFLT
  2
AcDbDictionaryWithDefault
  3
ObjectDBX Classes
 90
        0
 91
        4
280
     0
281
     0
  0
CLASS
  1
VISUALSTYLE
  2
AcDbVisualStyle
  3
ObjectDBX Classes
 90
     4095
 91
        4
280
     0
281
     0
  0
CLASS
  1
MATERIAL
  2
AcDbMaterial
  3
ObjectDBX Classes
 90
     1153
 91
        4
280
     0
281
     0
  0
CLASS
  1
SUN
  2
AcDbSun
  3
SCENEOE
 90
     1024
 91
        4
280
     0
281
     0
  0
ENDSEC
  0
SECTION
  2
TABLES
  0
TABLE
  2
VPORT
  5
8
330
0
100
AcDbSymbolTable
 70
     1
  0
VPORT
  5
29
330
8
100
AcDbSymbolTableRecord
100
AcDbViewportTableRecord
  2
*Active
 70
     0
 10
0.0
 20
0.0
 11
1.0
 21
1.0
 12
0.0
 22
0.0
 13
0.0
 23
0.0
 14
0.5
 24
0.5
 15
0.5
 25
0.5
 16
0.0
 26
0.0
 36
1.0
 17
91.00082462281999
 27
-128.4993055234307
 37
0.0
 40
256.9986110468615
 41
0.7081814508812795
 42
50.0
 43
0.0
 44
0.0
 50
0.0
 51
0.0
 71
     0
 72
   100
 73
     1
 74
     3
 75
     0
 76
     0
 77
     0
 78
     0
281
     0
 65
     1
110
0.0
120
0.0
130
0.0
111
1.0
121
0.0
131
0.0
112
0.0
122
1.0
132
0.0
 79
     0
146
0.0
 60
     3
 61
     5
292
     1
282
     1
141
0.0
142
0.0
 63
   250
361
3F
  0
ENDTAB
  0
TABLE
  2
LTYPE
  5
5
330
0
100
AcDbSymbolTable
 70
     1
  0
LTYPE
  5
14
330
5
100
AcDbSymbolTableRecord
100
AcDbLinetypeTableRecord
  2
ByBlock
 70
     0
  3

 72
    65
 73
     0
 40
0.0
  0
LTYPE
  5
15
330
5
100
AcDbSymbolTableRecord
100
AcDbLinetypeTableRecord
  2
ByLayer
 70
     0
  3

 72
    65
 73
     0
 40
0.0
  0
LTYPE
  5
16
330
5
100
AcDbSymbolTableRecord
100
AcDbLinetypeTableRecord
  2
Continuous
 70
     0
  3
Solid line
 72
    65
 73
     0
 40
0.0
  0
ENDTAB
  0
TABLE
  2
LAYER
  5
2
330
0
100
AcDbSymbolTable
 70
     2
  0
LAYER
  5
10
330
2
100
AcDbSymbolTableRecord
100
AcDbLayerTableRecord
  2
0
 70
     0
 62
     7
  6
Continuous
370
    -3
390
F
347
3E
  0
LAYER
  5
40
330
2
100
AcDbSymbolTableRecord
100
AcDbLayerTableRecord
  2
_U+30EC_U+30A4_U+30E4_U+30FC 1
 70
     0
 62
     7
  6
Continuous
370
    -3
390
F
347
3E
  0
ENDTAB
  0
TABLE
  2
STYLE
  5
3
330
0
100
AcDbSymbolTable
 70
     1
  0
STYLE
  5
11
330
3
100
AcDbSymbolTableRecord
100
AcDbTextStyleTableRecord
  2
Standard
 70
     0
 40
0.0
 41
1.0
 50
0.0
 71
     0
 42
0.2
  3
txt
  4

  0
ENDTAB
  0
TABLE
  2
VIEW
  5
6
330
0
100
AcDbSymbolTable
 70
     0
  0
ENDTAB
  0
TABLE
  2
UCS
  5
7
330
0
100
AcDbSymbolTable
 70
     0
  0
ENDTAB
  0
TABLE
  2
APPID
  5
9
330
0
100
AcDbSymbolTable
 70
     1
  0
APPID
  5
12
330
9
100
AcDbSymbolTableRecord
100
AcDbRegAppTableRecord
  2
ACAD
 70
     0
  0
ENDTAB
  0
TABLE
  2
DIMSTYLE
  5
A
330
0
100
AcDbSymbolTable
 70
     1
100
AcDbDimStyleTable
  0
DIMSTYLE
105
27
330
A
100
AcDbSymbolTableRecord
100
AcDbDimStyleTableRecord
  2
Standard
 70
     0
178
     0
340
11
  0
ENDTAB
  0
TABLE
  2
BLOCK_RECORD
  5
1
330
0
100
AcDbSymbolTable
 70
     7
  0
BLOCK_RECORD
  5
1F
330
1
100
AcDbSymbolTableRecord
100
AcDbBlockTableRecord
  2
*Model_Space
340
22
 70
     0
280
     1
281
     0
  0
BLOCK_RECORD
  5
1B
330
1
100
AcDbSymbolTableRecord
100
AcDbBlockTableRecord
  2
*Paper_Space
340
1E
 70
     0
280
     1
281
     0
  0
BLOCK_RECORD
  5
23
330
1
100
AcDbSymbolTableRecord
100
AcDbBlockTableRecord
  2
*Paper_Space0
340
26
 70
     0
280
     1
281
     0
  0
BLOCK_RECORD
  5
5B
330
1
100
AcDbSymbolTableRecord
100
AcDbBlockTableRecord
  2
block 2
340
0
102
{BLKREFS
331
5C
102
}
 70
     0
280
     1
281
     0
  0
BLOCK_RECORD
  5
8A
330
1
100
AcDbSymbolTableRecord
100
AcDbBlockTableRecord
  2
block 3
340
0
102
{BLKREFS
331
8B
102
}
 70
     0
280
     1
281
     0
  0
BLOCK_RECORD
  5
9E
330
1
100
AcDbSymbolTableRecord
100
AcDbBlockTableRecord
  2
block 4
340
0
102
{BLKREFS
331
9F
102
}
 70
     0
280
     1
281
     0
  0
BLOCK_RECORD
  5
B0
330
1
100
AcDbSymbolTableRecord
100
AcDbBlockTableRecord
  2
block 5
340
0
102
{BLKREFS
331
B1
102
}
 70
     0
280
     1
281
     0
  0
BLOCK_RECORD
  5
BF
330
1
100
AcDbSymbolTableRecord
100
AcDbBlockTableRecord
  2
block 6
340
0
102
{BLKREFS
331
C0
102
}
 70
     0
280
     1
281
     0
  0
BLOCK_RECORD
  5
CF
330
1
100
AcDbSymbolTableRecord
100
AcDbBlockTableRecord
  2
block 7
340
0
102
{BLKREFS
331
D0
102
}
 70
     0
280
     1
281
     0
  0
ENDTAB
  0
ENDSEC
  0
SECTION
  2
BLOCKS
  0
BLOCK
  5
20
330
1F
100
AcDbEntity
  8
0
100
AcDbBlockBegin
  2
*Model_Space
 70
     0
 10
0.0
 20
0.0
 30
0.0
  3
*Model_Space
  1

  0
ENDBLK
  5
21
330
1F
100
AcDbEntity
  8
0
100
AcDbBlockEnd
  0
BLOCK
  5
1C
330
1B
100
AcDbEntity
 67
     1
  8
0
100
AcDbBlockBegin
  2
*Paper_Space
 70
     0
 10
0.0
 20
0.0
 30
0.0
  3
*Paper_Space
  1

  0
ENDBLK
  5
1D
330
1B
100
AcDbEntity
 67
     1
  8
0
100
AcDbBlockEnd
  0
BLOCK
  5
24
330
23
100
AcDbEntity
  8
0
100
AcDbBlockBegin
  2
*Paper_Space0
 70
     0
 10
0.0
 20
0.0
 30
0.0
  3
*Paper_Space0
  1

  0
ENDBLK
  5
25
330
23
100
AcDbEntity
  8
0
100
AcDbBlockEnd
  0
BLOCK
  5
5D
330
5B
100
AcDbEntity
  8
0
100
AcDbBlockBegin
  2
block 2
 70
     0
 10
0.0
 20
0.0
 30
0.0
  3
block 2
  1

  0
POLYLINE
  5
5F
330
5B
100
AcDbEntity
  8
_U+30EC_U+30A4_U+30E4_U+30FC 1
370
     0
100
AcDb2dPolyline
 66
     1
 10
0.0
 20
0.0
 30
0.0
  0
VERTEX
  5
60
330
5F
100
AcDbEntity
  8
_U+30EC_U+30A4_U+30E4_U+30FC 1
370
     0
100
AcDbVertex
100
AcDb2dVertex
 10
102.6004557035166
 20
-125.1038194131685
 30
0.0
  0
VERTEX
  5
61
330
5F
100
AcDbEntity
  8
_U+30EC_U+30A4_U+30E4_U+30FC 1
370
     0
100
AcDbVertex
100
AcDb2dVertex
 10
102.9473768188812
 20
-125.1038194131685
 30
0.0
  0
VERTEX
  5
62
330
5F
100
AcDbEntity
  8
_U+30EC_U+30A4_U+30E4_U+30FC 1
370
     0
100
AcDbVertex
100
AcDb2dVertex
 10
102.9473768188812
 20
-125.3367078679714
 30
0.0
  0
VERTEX
  5
63
330
5F
100
AcDbEntity
  8
_U+30EC_U+30A4_U+30E4_U+30FC 1
370
     0
100
AcDbVertex
100
AcDb2dVertex
 10
102.6004557035166
 20
-125.3367078679714
 30
0.0
  0
VERTEX
  5
64
330
5F
100
AcDbEntity
  8
_U+30EC_U+30A4_U+30E4_U+30FC 1
370
     0
100
AcDbVertex
100
AcDb2dVertex
 10
102.6004557035166
 20
-126.0377847992197
 30
0.0
  0
VERTEX
  5
65
330
5F
100
AcDbEntity
  8
_U+30EC_U+30A4_U+30E4_U+30FC 1
370
     0
100
AcDbVertex
100
AcDb2dVertex
 10
102.3761799874268
 20
-126.0377847992197
 30
0.0
  0
VERTEX
  5
66
330
5F
100
AcDbEntity
  8
_U+30EC_U+30A4_U+30E4_U+30FC 1
370
     0
100
AcDbVertex
100
AcDb2dVertex
 10
101.4029405128437
 20
-125.3119031804776
 30
0.0
  0
VERTEX
  5
67
330
5F
100
AcDbEntity
  8
_U+30EC_U+30A4_U+30E4_U+30FC 1
370
     0
100
AcDbVertex
100
AcDb2dVertex
 10
101.4029405128437
 20
-125.1038194131685
 30
0.0
  0
VERTEX
  5
68
330
5F
100
AcDbEntity
  8
_U+30EC_U+30A4_U+30E4_U+30FC 1
370
     0
100
AcDbVertex
100
AcDb2dVertex
 10
102.4016736940176
 20
-125.1038194131685
 30
0.0
  0
VERTEX
  5
69
330
5F
100
AcDbEntity
  8
_U+30EC_U+30A4_U+30E4_U+30FC 1
370
     0
100
AcDbVertex
100
AcDb2dVertex
 10
102.4016736940176
 20
-124.8822997734669
 30
0.0
  0
VERTEX
  5
6A
330
5F
100
AcDbEntity
  8
_U+30EC_U+30A4_U+30E4_U+30FC 1
370
     0
100
AcDbVertex
100
AcDb2dVertex
 10
102.6004557035166
 20
-124.8822997734669
 30
0.0
  0
VERTEX
  5
6B
330
5F
100
AcDbEntity
  8
_U+30EC_U+30A4_U+30E4_U+30FC 1
370
     0
100
AcDbVertex
100
AcDb2dVertex
 10
102.6004557035166
 20
-125.1038194131685
 30
0.0
  0
SEQEND
  5
6C
330
5F
100
AcDbEntity
  8
_U+30EC_U+30A4_U+30E4_U+30FC 1
370
     0
  0
POLYLINE
  5
6D
330
5B
100
AcDbEntity
  8
_U+30EC_U+30A4_U+30E4_U+30FC 1
370
     0
100
AcDb2dPolyline
 66
     1
 10
0.0
 20
0.0
 30
0.0
  0
VERTEX
  5
6E
330
6D
100
AcDbEntity
  8
_U+30EC_U+30A4_U+30E4_U+30FC 1
370
     0
100
AcDbVertex
100
AcDb2dVertex
 10
101.7457275136261
 20
-125.3367078679714
 30
0.0
  0
VERTEX
  5
6F
330
6D
100
AcDbEntity
  8
_U+30EC_U+30A4_U+30E4_U+30FC 1
370
     0
100
AcDbVertex
100
AcDb2dVertex
 10
102.4016736940176
 20
-125.8252224077798
 30
0.0
  0
VERTEX
  5
70
330
6D
100
AcDbEntity
  8
_U+30EC_U+30A4_U+30E4_U+30FC 1
370
     0
100
AcDbVertex
100
AcDb2dVertex
 10
102.4016736940176
 20
-125.3367078679714
 30
0.0
  0
VERTEX
  5
71
330
6D
100
AcDbEntity
  8
_U+30EC_U+30A4_U+30E4_U+30FC 1
370
     0
100
AcDbVertex
100
AcDb2dVertex
 10
101.7457275136261
 20
-125.3367078679714
 30
0.0
  0
SEQEND
  5
72
330
6D
100
AcDbEntity
  8
_U+30EC_U+30A4_U+30E4_U+30FC 1
370
     0
  0
HATCH
  5
73
330
5B
100
AcDbEntity
  8
_U+30EC_U+30A4_U+30E4_U+30FC 1
 62
   179
420
  2234388
100
AcDbHatch
 10
0.0
 20
0.0
 30
0.0
210
0.0
220
0.0
230
1.0
  2
SOLID
 70
     1
 71
     0
 91
        2
 92
        1
 93
       11
 72
     1
 10
102.6004557035166
 20
-125.1038194131685
 11
102.9473768188812
 21
-125.1038194131685
 72
     1
 10
102.9473768188812
 20
-125.1038194131685
 11
102.9473768188812
 21
-125.3367078679714
 72
     1
 10
102.9473768188812
 20
-125.3367078679714
 11
102.6004557035166
 21
-125.3367078679714
 72
     1
 10
102.6004557035166
 20
-125.3367078679714
 11
102.6004557035166
 21
-126.0377847992197
 72
     1
 10
102.6004557035166
 20
-126.0377847992197
 11
102.3761799874268
 21
-126.0377847992197
 72
     1
 10
102.3761799874268
 20
-126.0377847992197
 11
101.4029405128437
 21
-125.3119031804776
 72
     1
 10
101.4029405128437
 20
-125.3119031804776
 11
101.4029405128437
 21
-125.1038194131685
 72
     1
 10
101.4029405128437
 20
-125.1038194131685
 11
102.4016736940176
 21
-125.1038194131685
 72
     1
 10
102.4016736940176
 20
-125.1038194131685
 11
102.4016736940176
 21
-124.8822997734669
 72
     1
 10
102.4016736940176
 20
-124.8822997734669
 11
102.6004557035166
 21
-124.8822997734669
 72
     1
 10
102.6004557035166
 20
-124.8822997734669
 11
102.6004557035166
 21
-125.1038194131685
 97
        0
 92
        1
 93
        3
 72
     1
 10
101.7457275136261
 20
-125.3367078679714
 11
102.4016736940176
 21
-125.8252224077798
 72
     1
 10
102.4016736940176
 20
-125.8252224077798
 11
102.4016736940176
 21
-125.3367078679714
 72
     1
 10
102.4016736940176
 20
-125.3367078679714
 11
101.7457275136261
 21
-125.3367078679714
 97
        0
 75
     2
 76
     1
 98
        0
  0
POLYLINE
  5
74
330
5B
100
AcDbEntity
  8
_U+30EC_U+30A4_U+30E4_U+30FC 1
370
     0
100
AcDb2dPolyline
 66
     1
 10
0.0
 20
0.0
 30
0.0
  0
VERTEX
  5
75
330
74
100
AcDbEntity
  8
_U+30EC_U+30A4_U+30E4_U+30FC 1
370
     0
100
AcDbVertex
100
AcDb2dVertex
 10
102.9473768188812
 20
-124.6714599297696
 30
0.0
  0
VERTEX
  5
76
330
74
100
AcDbEntity
  8
_U+30EC_U+30A4_U+30E4_U+30FC 1
370
     0
100
AcDbVertex
100
AcDb2dVertex
 10
102.6955403389095
 20
-124.6714599297696
 30
0.0
  0
VERTEX
  5
77
330
74
100
AcDbEntity
  8
_U+30EC_U+30A4_U+30E4_U+30FC 1
370
     0
100
AcDbVertex
100
AcDb2dVertex
 10
102.6955403389095
 20
-124.4023979723716
 30
0.0
  0
VERTEX
  5
78
330
74
100
AcDbEntity
  8
_U+30EC_U+30A4_U+30E4_U+30FC 1
370
     0
100
AcDbVertex
100
AcDb2dVertex
 10
102.9473768188812
 20
-124.4023979723716
 30
0.0
  0
VERTEX
  5
79
330
74
100
AcDbEntity
  8
_U+30EC_U+30A4_U+30E4_U+30FC 1
370
     0
100
AcDbVertex
100
AcDb2dVertex
 10
102.9473768188812
 20
-124.6714599297696
 30
0.0
  0
SEQEND
  5
7A
330
74
100
AcDbEntity
  8
_U+30EC_U+30A4_U+30E4_U+30FC 1
370
     0
  0
HATCH
  5
7B
330
5B
100
AcDbEntity
  8
_U+30EC_U+30A4_U+30E4_U+30FC 1
 62
   179
420
  2234388
100
AcDbHatch
 10
0.0
 20
0.0
 30
0.0
210
0.0
220
0.0
230
1.0
  2
SOLID
 70
     1
 71
     0
 91
        1
 92
        1
 93
        4
 72
     1
 10
102.9473768188812
 20
-124.6714599297696
 11
102.6955403389095
 21
-124.6714599297696
 72
     1
 10
102.6955403389095
 20
-124.6714599297696
 11
102.6955403389095
 21
-124.4023979723716
 72
     1
 10
102.6955403389095
 20
-124.4023979723716
 11
102.9473768188812
 21
-124.4023979723716
 72
     1
 10
102.9473768188812
 20
-124.4023979723716
 11
102.9473768188812
 21
-124.6714599297696
 97
        0
 75
     2
 76
     1
 98
        0
  0
SPLINE
  5
7C
330
5B
100
AcDbEntity
  8
_U+30EC_U+30A4_U+30E4_U+30FC 1
370
     0
100
AcDbSpline
210
0.0
220
0.0
230
1.0
 70
    11
 71
     3
 72
    53
 73
    49
 74
     0
 42
0.0000000001
 43
0.0000000001
 12
1.0
 22
0.0
 32
0.0
 13
1.0
 23
0.0
 33
0.0
 40
0.0
 40
0.0
 40
0.0
 40
0.0
 40
1.0
 40
1.0
 40
1.0
 40
2.0
 40
2.0
 40
2.0
 40
3.0
 40
3.0
 40
3.0
 40
4.0
 40
4.0
 40
4.0
 40
5.0
 40
5.0
 40
5.0
 40
6.0
 40
6.0
 40
6.0
 40
7.0
 40
7.0
 40
7.0
 40
8.0
 40
8.0
 40
8.0
 40
9.0
 40
9.0
 40
9.0
 40
10.0
 40
10.0
 40
10.0
 40
11.0
 40
11.0
 40
11.0
 40
12.0
 40
12.0
 40
12.0
 40
13.0
 40
13.0
 40
13.0
 40
14.0
 40
14.0
 40
14.0
 40
15.0
 40
15.0
 40
15.0
 40
16.0
 40
16.0
 40
16.0
 40
16.0
 10
102.9980197225144
 20
-123.635519717355
 30
0.0
 10
102.9980197225144
 20
-123.7188910280981
 30
0.0
 10
102.9811387546367
 20
-123.827756045432
 30
0.0
 10
102.9177489977081
 20
-123.9359320436688
 30
0.0
 10
102.8078504517286
 20
-124.1216226903238
 30
0.0
 10
102.6765923137406
 20
-124.1440158109779
 30
0.0
 10
102.5687608250523
 20
-124.1643418743409
 30
0.0
 10
102.5687608250523
 20
-124.1643418743409
 30
0.0
 10
102.5687608250523
 20
-123.9269747954071
 30
0.0
 10
102.5687608250523
 20
-123.9269747954071
 30
0.0
 10
102.7675428345512
 20
-123.8684081721579
 30
0.0
 10
102.7971706557243
 20
-123.7326714100391
 30
0.0
 10
102.7971706557243
 20
-123.6331081505153
 30
0.0
 10
102.7971706557243
 20
-123.483935516004
 30
0.0
 10
102.6976073962006
 20
-123.3213270091002
 30
0.0
 10
102.4650634509462
 20
-123.3213270091002
 30
0.0
 10
102.2090928563922
 20
-123.3213270091002
 30
0.0
 10
102.1391574180416
 20
-123.5132188276286
 30
0.0
 10
102.1391574180416
 20
-123.642065398777
 30
0.0
 10
102.1391574180416
 20
-123.676171844081
 30
0.0
 10
102.1391574180416
 20
-123.827756045432
 30
0.0
 10
102.2683484987385
 20
-123.9224961712763
 30
0.0
 10
102.2683484987385
 20
-123.9224961712763
 30
0.0
 10
102.2494004735696
 20
-124.1102538752224
 30
0.0
 10
102.2494004735696
 20
-124.1102538752224
 30
0.0
 10
102.2494004735696
 20
-124.1102538752224
 30
0.0
 10
101.4029405128437
 20
-123.9814073040741
 30
0.0
 10
101.4029405128437
 20
-123.9814073040741
 30
0.0
 10
101.4029405128437
 20
-123.9814073040741
 30
0.0
 10
101.4029405128437
 20
-123.1494167443863
 30
0.0
 10
101.4029405128437
 20
-123.1494167443863
 30
0.0
 10
101.4029405128437
 20
-123.1494167443863
 30
0.0
 10
101.5975884077603
 20
-123.1494167443863
 30
0.0
 10
101.5975884077603
 20
-123.1494167443863
 30
0.0
 10
101.5975884077603
 20
-123.1494167443863
 30
0.0
 10
101.5975884077603
 20
-123.8070854725205
 30
0.0
 10
101.5975884077603
 20
-123.8070854725205
 30
0.0
 10
101.5975884077603
 20
-123.8070854725205
 30
0.0
 10
102.020646133349
 20
-123.8773654204196
 30
0.0
 10
102.020646133349
 20
-123.8773654204196
 30
0.0
 10
101.9868841975936
 20
-123.8119086061998
 30
0.0
 10
101.9465765804161
 20
-123.7237141617774
 30
0.0
 10
101.9465765804161
 20
-123.5969346479202
 30
0.0
 10
101.9465765804161
 20
-123.3258056332311
 30
0.0
 10
102.1329562461681
 20
-123.0725911150652
 30
0.0
 10
102.4461154257774
 20
-123.0725911150652
 30
0.0
 10
102.7634087199689
 20
-123.0725911150652
 30
0.0
 10
102.9980197225144
 20
-123.3120252512901
 30
0.0
 10
102.9980197225144
 20
-123.635519717355
 30
0.0
  0
HATCH
  5
7D
330
5B
100
AcDbEntity
  8
_U+30EC_U+30A4_U+30E4_U+30FC 1
 62
   179
420
  2234388
100
AcDbHatch
 10
0.0
 20
0.0
 30
0.0
210
0.0
220
0.0
230
1.0
  2
SOLID
 70
     1
 71
     0
 91
        1
 92
        1
 93
        1
 72
     4
 94
        3
 73
     0
 74
     1
 95
       53
 96
       49
 40
0.0
 40
0.0
 40
0.0
 40
0.0
 40
1.0
 40
1.0
 40
1.0
 40
2.0
 40
2.0
 40
2.0
 40
3.0
 40
3.0
 40
3.0
 40
4.0
 40
4.0
 40
4.0
 40
5.0
 40
5.0
 40
5.0
 40
6.0
 40
6.0
 40
6.0
 40
7.0
 40
7.0
 40
7.0
 40
8.0
 40
8.0
 40
8.0
 40
9.0
 40
9.0
 40
9.0
 40
10.0
 40
10.0
 40
10.0
 40
11.0
 40
11.0
 40
11.0
 40
12.0
 40
12.0
 40
12.0
 40
13.0
 40
13.0
 40
13.0
 40
14.0
 40
14.0
 40
14.0
 40
15.0
 40
15.0
 40
15.0
 40
16.0
 40
16.0
 40
16.0
 40
16.0
 10
102.9980197225144
 20
-123.635519717355
 10
102.9980197225144
 20
-123.7188910280981
 10
102.9811387546367
 20
-123.827756045432
 10
102.9177489977081
 20
-123.9359320436688
 10
102.8078504517286
 20
-124.1216226903238
 10
102.6765923137406
 20
-124.1440158109779
 10
102.5687608250523
 20
-124.1643418743409
 10
102.5687608250523
 20
-124.1643418743409
 10
102.5687608250523
 20
-123.9269747954071
 10
102.5687608250523
 20
-123.9269747954071
 10
102.7675428345512
 20
-123.8684081721579
 10
102.7971706557243
 20
-123.7326714100391
 10
102.7971706557243
 20
-123.6331081505153
 10
102.7971706557243
 20
-123.483935516004
 10
102.6976073962006
 20
-123.3213270091002
 10
102.4650634509462
 20
-123.3213270091002
 10
102.2090928563922
 20
-123.3213270091002
 10
102.1391574180416
 20
-123.5132188276286
 10
102.1391574180416
 20
-123.642065398777
 10
102.1391574180416
 20
-123.676171844081
 10
102.1391574180416
 20
-123.827756045432
 10
102.2683484987385
 20
-123.9224961712763
 10
102.2683484987385
 20
-123.9224961712763
 10
102.2494004735696
 20
-124.1102538752224
 10
102.2494004735696
 20
-124.1102538752224
 10
102.2494004735696
 20
-124.1102538752224
 10
101.4029405128437
 20
-123.9814073040741
 10
101.4029405128437
 20
-123.9814073040741
 10
101.4029405128437
 20
-123.9814073040741
 10
101.4029405128437
 20
-123.1494167443863
 10
101.4029405128437
 20
-123.1494167443863
 10
101.4029405128437
 20
-123.1494167443863
 10
101.5975884077603
 20
-123.1494167443863
 10
101.5975884077603
 20
-123.1494167443863
 10
101.5975884077603
 20
-123.1494167443863
 10
101.5975884077603
 20
-123.8070854725205
 10
101.5975884077603
 20
-123.8070854725205
 10
101.5975884077603
 20
-123.8070854725205
 10
102.020646133349
 20
-123.8773654204196
 10
102.020646133349
 20
-123.8773654204196
 10
101.9868841975936
 20
-123.8119086061998
 10
101.9465765804161
 20
-123.7237141617774
 10
101.9465765804161
 20
-123.5969346479202
 10
101.9465765804161
 20
-123.3258056332311
 10
102.1329562461681
 20
-123.0725911150652
 10
102.4461154257774
 20
-123.0725911150652
 10
102.7634087199689
 20
-123.0725911150652
 10
102.9980197225144
 20
-123.3120252512901
 10
102.9980197225144
 20
-123.635519717355
 97
        0
 97
        0
 75
     2
 76
     1
 98
        0
  0
ENDBLK
  5
5E
330
5B
100
AcDbEntity
  8
0
100
AcDbBlockEnd
  0
BLOCK
  5
8C
330
8A
100
AcDbEntity
  8
0
100
AcDbBlockBegin
  2
block 3
 70
     0
 10
0.0
 20
0.0
 30
0.0
  3
block 3
  1

  0
SPLINE
  5
8E
330
8A
100
AcDbEntity
  8
_U+30EC_U+30A4_U+30E4_U+30FC 1
370
     0
100
AcDbSpline
210
0.0
220
0.0
230
1.0
 70
    11
 71
     3
 72
    44
 73
    40
 74
     0
 42
0.0000000001
 43
0.0000000001
 12
1.0
 22
0.0
 32
0.0
 13
1.0
 23
0.0
 33
0.0
 40
0.0
 40
0.0
 40
0.0
 40
0.0
 40
1.0
 40
1.0
 40
1.0
 40
2.0
 40
2.0
 40
2.0
 40
3.0
 40
3.0
 40
3.0
 40
4.0
 40
4.0
 40
4.0
 40
5.0
 40
5.0
 40
5.0
 40
6.0
 40
6.0
 40
6.0
 40
7.0
 40
7.0
 40
7.0
 40
8.0
 40
8.0
 40
8.0
 40
9.0
 40
9.0
 40
9.0
 40
10.0
 40
10.0
 40
10.0
 40
11.0
 40
11.0
 40
11.0
 40
12.0
 40
12.0
 40
12.0
 40
13.0
 40
13.0
 40
13.0
 40
13.0
 10
88.06335853918208
 20
-135.8087646144853
 30
0.0
 10
87.83047008437919
 20
-135.9675835163553
 30
0.0
 10
87.73090682485547
 20
-136.0416530692882
 30
0.0
 10
87.6788858830282
 20
-136.1853135510231
 30
0.0
 10
87.6788858830282
 20
-136.1853135510231
 30
0.0
 10
88.51122095226457
 20
-136.1853135510231
 30
0.0
 10
88.51122095226457
 20
-136.1853135510231
 30
0.0
 10
88.51122095226457
 20
-136.1853135510231
 30
0.0
 10
88.51122095226457
 20
-136.390641241944
 30
0.0
 10
88.51122095226457
 20
-136.390641241944
 30
0.0
 10
88.51122095226457
 20
-136.390641241944
 30
0.0
 10
87.41223549246986
 20
-136.390641241944
 30
0.0
 10
87.41223549246986
 20
-136.390641241944
 30
0.0
 10
87.44634193777384
 20
-136.0330403305751
 30
0.0
 10
87.5162773761244
 20
-135.9548366630599
 30
0.0
 10
87.92762177706324
 20
-135.6564913940373
 30
0.0
 10
88.20116235859207
 20
-135.4577093845384
 30
0.0
 10
88.27144230649117
 20
-135.3898410034789
 30
0.0
 10
88.27144230649117
 20
-135.2523816936175
 30
0.0
 10
88.27144230649117
 20
-135.1338704089249
 30
0.0
 10
88.1946166771701
 20
-135.0029567804854
 30
0.0
 10
87.98412134302133
 20
-135.0029567804854
 30
0.0
 10
87.70610213736167
 20
-135.0029567804854
 30
0.0
 10
87.69714488910002
 20
-135.2334336684486
 30
0.0
 10
87.6926662649692
 20
-135.34987789585
 30
0.0
 10
87.6926662649692
 20
-135.34987789585
 30
0.0
 10
87.4528876191958
 20
-135.34987789585
 30
0.0
 10
87.4528876191958
 20
-135.34987789585
 30
0.0
 10
87.46184486745746
 20
-135.2227538724443
 30
0.0
 10
87.47321368255878
 20
-135.1107882691737
 30
0.0
 10
87.55934106969003
 20
-134.9922769844811
 30
0.0
 10
87.67681882573704
 20
-134.8313910253199
 30
0.0
 10
87.87560083523597
 20
-134.7976290895645
 30
0.0
 10
87.99996878225349
 20
-134.7976290895645
 30
0.0
 10
88.29624699398497
 20
-134.7976290895645
 30
0.0
 10
88.51776663368653
 20
-134.9815971884768
 30
0.0
 10
88.51776663368653
 20
-135.2544487509086
 30
0.0
 10
88.51776663368653
 20
-135.4832030911292
 30
0.0
 10
88.39339868666902
 20
-135.5824218411044
 30
0.0
 10
88.06335853918208
 20
-135.8087646144853
 30
0.0
  0
HATCH
  5
8F
330
8A
100
AcDbEntity
  8
_U+30EC_U+30A4_U+30E4_U+30FC 1
 62
   179
420
  2234388
100
AcDbHatch
 10
0.0
 20
0.0
 30
0.0
210
0.0
220
0.0
230
1.0
  2
SOLID
 70
     1
 71
     0
 91
        1
 92
        1
 93
        1
 72
     4
 94
        3
 73
     0
 74
     1
 95
       44
 96
       40
 40
0.0
 40
0.0
 40
0.0
 40
0.0
 40
1.0
 40
1.0
 40
1.0
 40
2.0
 40
2.0
 40
2.0
 40
3.0
 40
3.0
 40
3.0
 40
4.0
 40
4.0
 40
4.0
 40
5.0
 40
5.0
 40
5.0
 40
6.0
 40
6.0
 40
6.0
 40
7.0
 40
7.0
 40
7.0
 40
8.0
 40
8.0
 40
8.0
 40
9.0
 40
9.0
 40
9.0
 40
10.0
 40
10.0
 40
10.0
 40
11.0
 40
11.0
 40
11.0
 40
12.0
 40
12.0
 40
12.0
 40
13.0
 40
13.0
 40
13.0
 40
13.0
 10
88.06335853918208
 20
-135.8087646144853
 10
87.83047008437919
 20
-135.9675835163553
 10
87.73090682485547
 20
-136.0416530692882
 10
87.6788858830282
 20
-136.1853135510231
 10
87.6788858830282
 20
-136.1853135510231
 10
88.51122095226457
 20
-136.1853135510231
 10
88.51122095226457
 20
-136.1853135510231
 10
88.51122095226457
 20
-136.1853135510231
 10
88.51122095226457
 20
-136.390641241944
 10
88.51122095226457
 20
-136.390641241944
 10
88.51122095226457
 20
-136.390641241944
 10
87.41223549246986
 20
-136.390641241944
 10
87.41223549246986
 20
-136.390641241944
 10
87.44634193777384
 20
-136.0330403305751
 10
87.5162773761244
 20
-135.9548366630599
 10
87.92762177706324
 20
-135.6564913940373
 10
88.20116235859207
 20
-135.4577093845384
 10
88.27144230649117
 20
-135.3898410034789
 10
88.27144230649117
 20
-135.2523816936175
 10
88.27144230649117
 20
-135.1338704089249
 10
88.1946166771701
 20
-135.0029567804854
 10
87.98412134302133
 20
-135.0029567804854
 10
87.70610213736167
 20
-135.0029567804854
 10
87.69714488910002
 20
-135.2334336684486
 10
87.6926662649692
 20
-135.34987789585
 10
87.6926662649692
 20
-135.34987789585
 10
87.4528876191958
 20
-135.34987789585
 10
87.4528876191958
 20
-135.34987789585
 10
87.46184486745746
 20
-135.2227538724443
 10
87.47321368255878
 20
-135.1107882691737
 10
87.55934106969003
 20
-134.9922769844811
 10
87.67681882573704
 20
-134.8313910253199
 10
87.87560083523597
 20
-134.7976290895645
 10
87.99996878225349
 20
-134.7976290895645
 10
88.29624699398497
 20
-134.7976290895645
 10
88.51776663368653
 20
-134.9815971884768
 10
88.51776663368653
 20
-135.2544487509086
 10
88.51776663368653
 20
-135.4832030911292
 10
88.39339868666902
 20
-135.5824218411044
 10
88.06335853918208
 20
-135.8087646144853
 97
        0
 97
        0
 75
     2
 76
     1
 98
        0
  0
SPLINE
  5
90
330
8A
100
AcDbEntity
  8
_U+30EC_U+30A4_U+30E4_U+30FC 1
370
     0
100
AcDbSpline
210
0.0
220
0.0
230
1.0
 70
    11
 71
     3
 72
    62
 73
    58
 74
     0
 42
0.0000000001
 43
0.0000000001
 12
1.0
 22
0.0
 32
0.0
 13
1.0
 23
0.0
 33
0.0
 40
0.0
 40
0.0
 40
0.0
 40
0.0
 40
1.0
 40
1.0
 40
1.0
 40
2.0
 40
2.0
 40
2.0
 40
3.0
 40
3.0
 40
3.0
 40
4.0
 40
4.0
 40
4.0
 40
5.0
 40
5.0
 40
5.0
 40
6.0
 40
6.0
 40
6.0
 40
7.0
 40
7.0
 40
7.0
 40
8.0
 40
8.0
 40
8.0
 40
9.0
 40
9.0
 40
9.0
 40
10.0
 40
10.0
 40
10.0
 40
11.0
 40
11.0
 40
11.0
 40
12.0
 40
12.0
 40
12.0
 40
13.0
 40
13.0
 40
13.0
 40
14.0
 40
14.0
 40
14.0
 40
15.0
 40
15.0
 40
15.0
 40
16.0
 40
16.0
 40
16.0
 40
17.0
 40
17.0
 40
17.0
 40
18.0
 40
18.0
 40
18.0
 40
19.0
 40
19.0
 40
19.0
 40
19.0
 10
89.21264239306143
 20
-136.4412841455772
 30
0.0
 10
89.11101207624655
 20
-136.4412841455772
 30
0.0
 10
88.87812362144366
 20
-136.4202690631172
 30
0.0
 10
88.7447984261645
 20
-136.2342339069137
 30
0.0
 10
88.66556123000375
 20
-136.1219237940945
 30
0.0
 10
88.66108260587293
 20
-136.0227050441193
 30
0.0
 10
88.65660398174211
 20
-135.9379556951822
 30
0.0
 10
88.65660398174211
 20
-135.9379556951822
 30
0.0
 10
88.89155949383614
 20
-135.9379556951822
 30
0.0
 10
88.89155949383614
 20
-135.9379556951822
 30
0.0
 10
88.89397106067581
 20
-136.0120252481151
 30
0.0
 10
88.90533987577714
 20
-136.2466362506606
 30
0.0
 10
89.2081637689306
 20
-136.2466362506606
 30
0.0
 10
89.35526934615076
 20
-136.2466362506606
 30
0.0
 10
89.51787785305456
 20
-136.1770453218585
 30
0.0
 10
89.51787785305456
 20
-135.9486354911865
 30
0.0
 10
89.51787785305456
 20
-135.832191263785
 30
0.0
 10
89.47722572632861
 20
-135.783615417443
 30
0.0
 10
89.44346379057316
 20
-135.7519205389787
 30
0.0
 10
89.36422659441241
 20
-135.6778509860458
 30
0.0
 10
89.2398586473949
 20
-135.6651041327504
 30
0.0
 10
89.18094751459712
 20
-135.6651041327504
 30
0.0
 10
89.16062145123415
 20
-135.6651041327504
 30
0.0
 10
89.12238089134789
 20
-135.6671711900416
 30
0.0
 10
89.09275307017474
 20
-135.6713053046238
 30
0.0
 10
89.09275307017474
 20
-135.6713053046238
 30
0.0
 10
89.09275307017474
 20
-135.4766574097072
 30
0.0
 10
89.09275307017474
 20
-135.4766574097072
 30
0.0
 10
89.13340519690068
 20
-135.4832030911292
 30
0.0
 10
89.17888045730598
 20
-135.4852701484204
 30
0.0
 10
89.18542613872795
 20
-135.4852701484204
 30
0.0
 10
89.25570608662704
 20
-135.4852701484204
 30
0.0
 10
89.46826847806696
 20
-135.4639105564118
 30
0.0
 10
89.46826847806696
 20
-135.2272324965751
 30
0.0
 10
89.46826847806696
 20
-135.0494655695362
 30
0.0
 10
89.3280530918173
 20
-134.9943440417723
 30
0.0
 10
89.21057533577027
 20
-134.9943440417723
 30
0.0
 10
88.92773299643126
 20
-134.9943440417723
 30
0.0
 10
88.91877574816962
 20
-135.2272324965751
 30
0.0
 10
88.9142971240388
 20
-135.2988904826683
 30
0.0
 10
88.9142971240388
 20
-135.2988904826683
 30
0.0
 10
88.69725610846805
 20
-135.2988904826683
 30
0.0
 10
88.69725610846805
 20
-135.2988904826683
 30
0.0
 10
88.7062133567297
 20
-135.1741780261023
 30
0.0
 10
88.73549666835433
 20
-134.7976290895645
 30
0.0
 10
89.22401120816275
 20
-134.7976290895645
 30
0.0
 10
89.46378985393613
 20
-134.7976290895645
 30
0.0
 10
89.72148299623282
 20
-134.9247531129702
 30
0.0
 10
89.72148299623282
 20
-135.2206868151532
 30
0.0
 10
89.72148299623282
 20
-135.4070664809052
 30
0.0
 10
89.61950816986943
 20
-135.4894042630027
 30
0.0
 10
89.51339922892373
 20
-135.5507269626401
 30
0.0
 10
89.57885604314349
 20
-135.5782877265221
 30
0.0
 10
89.7735039380601
 20
-135.6585584513284
 30
0.0
 10
89.7735039380601
 20
-135.935888637891
 30
0.0
 10
89.7735039380601
 20
-136.2741970145426
 30
0.0
 10
89.50892060479292
 20
-136.4412841455772
 30
0.0
 10
89.21264239306143
 20
-136.4412841455772
 30
0.0
  0
HATCH
  5
91
330
8A
100
AcDbEntity
  8
_U+30EC_U+30A4_U+30E4_U+30FC 1
 62
   179
420
  2234388
100
AcDbHatch
 10
0.0
 20
0.0
 30
0.0
210
0.0
220
0.0
230
1.0
  2
SOLID
 70
     1
 71
     0
 91
        1
 92
        1
 93
        1
 72
     4
 94
        3
 73
     0
 74
     1
 95
       62
 96
       58
 40
0.0
 40
0.0
 40
0.0
 40
0.0
 40
1.0
 40
1.0
 40
1.0
 40
2.0
 40
2.0
 40
2.0
 40
3.0
 40
3.0
 40
3.0
 40
4.0
 40
4.0
 40
4.0
 40
5.0
 40
5.0
 40
5.0
 40
6.0
 40
6.0
 40
6.0
 40
7.0
 40
7.0
 40
7.0
 40
8.0
 40
8.0
 40
8.0
 40
9.0
 40
9.0
 40
9.0
 40
10.0
 40
10.0
 40
10.0
 40
11.0
 40
11.0
 40
11.0
 40
12.0
 40
12.0
 40
12.0
 40
13.0
 40
13.0
 40
13.0
 40
14.0
 40
14.0
 40
14.0
 40
15.0
 40
15.0
 40
15.0
 40
16.0
 40
16.0
 40
16.0
 40
17.0
 40
17.0
 40
17.0
 40
18.0
 40
18.0
 40
18.0
 40
19.0
 40
19.0
 40
19.0
 40
19.0
 10
89.21264239306143
 20
-136.4412841455772
 10
89.11101207624655
 20
-136.4412841455772
 10
88.87812362144366
 20
-136.4202690631172
 10
88.7447984261645
 20
-136.2342339069137
 10
88.66556123000375
 20
-136.1219237940945
 10
88.66108260587293
 20
-136.0227050441193
 10
88.65660398174211
 20
-135.9379556951822
 10
88.65660398174211
 20
-135.9379556951822
 10
88.89155949383614
 20
-135.9379556951822
 10
88.89155949383614
 20
-135.9379556951822
 10
88.89397106067581
 20
-136.0120252481151
 10
88.90533987577714
 20
-136.2466362506606
 10
89.2081637689306
 20
-136.2466362506606
 10
89.35526934615076
 20
-136.2466362506606
 10
89.51787785305456
 20
-136.1770453218585
 10
89.51787785305456
 20
-135.9486354911865
 10
89.51787785305456
 20
-135.832191263785
 10
89.47722572632861
 20
-135.783615417443
 10
89.44346379057316
 20
-135.7519205389787
 10
89.36422659441241
 20
-135.6778509860458
 10
89.2398586473949
 20
-135.6651041327504
 10
89.18094751459712
 20
-135.6651041327504
 10
89.16062145123415
 20
-135.6651041327504
 10
89.12238089134789
 20
-135.6671711900416
 10
89.09275307017474
 20
-135.6713053046238
 10
89.09275307017474
 20
-135.6713053046238
 10
89.09275307017474
 20
-135.4766574097072
 10
89.09275307017474
 20
-135.4766574097072
 10
89.13340519690068
 20
-135.4832030911292
 10
89.17888045730598
 20
-135.4852701484204
 10
89.18542613872795
 20
-135.4852701484204
 10
89.25570608662704
 20
-135.4852701484204
 10
89.46826847806696
 20
-135.4639105564118
 10
89.46826847806696
 20
-135.2272324965751
 10
89.46826847806696
 20
-135.0494655695362
 10
89.3280530918173
 20
-134.9943440417723
 10
89.21057533577027
 20
-134.9943440417723
 10
88.92773299643126
 20
-134.9943440417723
 10
88.91877574816962
 20
-135.2272324965751
 10
88.9142971240388
 20
-135.2988904826683
 10
88.9142971240388
 20
-135.2988904826683
 10
88.69725610846805
 20
-135.2988904826683
 10
88.69725610846805
 20
-135.2988904826683
 10
88.7062133567297
 20
-135.1741780261023
 10
88.73549666835433
 20
-134.7976290895645
 10
89.22401120816275
 20
-134.7976290895645
 10
89.46378985393613
 20
-134.7976290895645
 10
89.72148299623282
 20
-134.9247531129702
 10
89.72148299623282
 20
-135.2206868151532
 10
89.72148299623282
 20
-135.4070664809052
 10
89.61950816986943
 20
-135.4894042630027
 10
89.51339922892373
 20
-135.5507269626401
 10
89.57885604314349
 20
-135.5782877265221
 10
89.7735039380601
 20
-135.6585584513284
 10
89.7735039380601
 20
-135.935888637891
 10
89.7735039380601
 20
-136.2741970145426
 10
89.50892060479292
 20
-136.4412841455772
 10
89.21264239306143
 20
-136.4412841455772
 97
        0
 97
        0
 75
     2
 76
     1
 98
        0
  0
ENDBLK
  5
8D
330
8A
100
AcDbEntity
  8
0
100
AcDbBlockEnd
  0
BLOCK
  5
A0
330
9E
100
AcDbEntity
  8
0
100
AcDbBlockBegin
  2
block 4
 70
     0
 10
0.0
 20
0.0
 30
0.0
  3
block 4
  1

  0
SPLINE
  5
A2
330
9E
100
AcDbEntity
  8
_U+30EC_U+30A4_U+30E4_U+30FC 1
370
     0
100
AcDbSpline
210
0.0
220
0.0
230
1.0
 70
    11
 71
     3
 72
    53
 73
    49
 74
     0
 42
0.0000000001
 43
0.0000000001
 12
1.0
 22
0.0
 32
0.0
 13
1.0
 23
0.0
 33
0.0
 40
0.0
 40
0.0
 40
0.0
 40
0.0
 40
1.0
 40
1.0
 40
1.0
 40
2.0
 40
2.0
 40
2.0
 40
3.0
 40
3.0
 40
3.0
 40
4.0
 40
4.0
 40
4.0
 40
5.0
 40
5.0
 40
5.0
 40
6.0
 40
6.0
 40
6.0
 40
7.0
 40
7.0
 40
7.0
 40
8.0
 40
8.0
 40
8.0
 40
9.0
 40
9.0
 40
9.0
 40
10.0
 40
10.0
 40
10.0
 40
11.0
 40
11.0
 40
11.0
 40
12.0
 40
12.0
 40
12.0
 40
13.0
 40
13.0
 40
13.0
 40
14.0
 40
14.0
 40
14.0
 40
15.0
 40
15.0
 40
15.0
 40
16.0
 40
16.0
 40
16.0
 40
16.0
 10
81.57279864497139
 20
-121.9413940124834
 30
0.0
 10
81.48908282467981
 20
-121.9413940124834
 30
0.0
 10
81.38056231689444
 20
-121.9243407898314
 30
0.0
 10
81.27204180910908
 20
-121.8609510329028
 30
0.0
 10
81.08669567200263
 20
-121.7508802321491
 30
0.0
 10
81.06395804179999
 20
-121.6197943489353
 30
0.0
 10
81.043631978437
 20
-121.511962860247
 30
0.0
 10
81.043631978437
 20
-121.511962860247
 30
0.0
 10
81.28099905737072
 20
-121.511962860247
 30
0.0
 10
81.28099905737072
 20
-121.511962860247
 30
0.0
 10
81.3399101901685
 20
-121.7107448697459
 30
0.0
 10
81.47547469751308
 20
-121.7403726909191
 30
0.0
 10
81.5750379570368
 20
-121.7403726909191
 30
0.0
 10
81.72421059154811
 20
-121.7403726909191
 30
0.0
 10
81.88699135322618
 20
-121.6409816861696
 30
0.0
 10
81.88699135322618
 20
-121.408265486141
 30
0.0
 10
81.88699135322618
 20
-121.1522948915869
 30
0.0
 10
81.69475502514923
 20
-121.0825317080106
 30
0.0
 10
81.56590845400089
 20
-121.0825317080106
 30
0.0
 10
81.53197426347117
 20
-121.0825317080106
 30
0.0
 10
81.38056231689444
 20
-121.0825317080106
 30
0.0
 10
81.28564993627582
 20
-121.2115505339332
 30
0.0
 10
81.28564993627582
 20
-121.2115505339332
 30
0.0
 10
81.0978922323297
 20
-121.1924302539901
 30
0.0
 10
81.0978922323297
 20
-121.1924302539901
 30
0.0
 10
81.0978922323297
 20
-121.1924302539901
 30
0.0
 10
81.2269110582523
 20
-120.3463148028127
 30
0.0
 10
81.2269110582523
 20
-120.3463148028127
 30
0.0
 10
81.2269110582523
 20
-120.3463148028127
 30
0.0
 10
82.05890161794014
 20
-120.3463148028127
 30
0.0
 10
82.05890161794014
 20
-120.3463148028127
 30
0.0
 10
82.05890161794014
 20
-120.3463148028127
 30
0.0
 10
82.05890161794014
 20
-120.5409626977293
 30
0.0
 10
82.05890161794014
 20
-120.5409626977293
 30
0.0
 10
82.05890161794014
 20
-120.5409626977293
 30
0.0
 10
81.40088838025743
 20
-120.5409626977293
 30
0.0
 10
81.40088838025743
 20
-120.5409626977293
 30
0.0
 10
81.40088838025743
 20
-120.5409626977293
 30
0.0
 10
81.33078068713259
 20
-120.964020423318
 30
0.0
 10
81.33078068713259
 20
-120.964020423318
 30
0.0
 10
81.3964097561266
 20
-120.9300862327883
 30
0.0
 10
81.48460420054899
 20
-120.8899508703852
 30
0.0
 10
81.61121145963192
 20
-120.8899508703852
 30
0.0
 10
81.88251272909535
 20
-120.8899508703852
 30
0.0
 10
82.13572724726122
 20
-121.0761582813629
 30
0.0
 10
82.13572724726122
 20
-121.3891452061979
 30
0.0
 10
82.13572724726122
 20
-121.7066107551636
 30
0.0
 10
81.89594860148782
 20
-121.9413940124834
 30
0.0
 10
81.57279864497139
 20
-121.9413940124834
 30
0.0
  0
HATCH
  5
A3
330
9E
100
AcDbEntity
  8
_U+30EC_U+30A4_U+30E4_U+30FC 1
 62
   179
420
  2234388
100
AcDbHatch
 10
0.0
 20
0.0
 30
0.0
210
0.0
220
0.0
230
1.0
  2
SOLID
 70
     1
 71
     0
 91
        1
 92
        1
 93
        1
 72
     4
 94
        3
 73
     0
 74
     1
 95
       53
 96
       49
 40
0.0
 40
0.0
 40
0.0
 40
0.0
 40
1.0
 40
1.0
 40
1.0
 40
2.0
 40
2.0
 40
2.0
 40
3.0
 40
3.0
 40
3.0
 40
4.0
 40
4.0
 40
4.0
 40
5.0
 40
5.0
 40
5.0
 40
6.0
 40
6.0
 40
6.0
 40
7.0
 40
7.0
 40
7.0
 40
8.0
 40
8.0
 40
8.0
 40
9.0
 40
9.0
 40
9.0
 40
10.0
 40
10.0
 40
10.0
 40
11.0
 40
11.0
 40
11.0
 40
12.0
 40
12.0
 40
12.0
 40
13.0
 40
13.0
 40
13.0
 40
14.0
 40
14.0
 40
14.0
 40
15.0
 40
15.0
 40
15.0
 40
16.0
 40
16.0
 40
16.0
 40
16.0
 10
81.57279864497139
 20
-121.9413940124834
 10
81.48908282467981
 20
-121.9413940124834
 10
81.38056231689444
 20
-121.9243407898314
 10
81.27204180910908
 20
-121.8609510329028
 10
81.08669567200263
 20
-121.7508802321491
 10
81.06395804179999
 20
-121.6197943489353
 10
81.043631978437
 20
-121.511962860247
 10
81.043631978437
 20
-121.511962860247
 10
81.28099905737072
 20
-121.511962860247
 10
81.28099905737072
 20
-121.511962860247
 10
81.3399101901685
 20
-121.7107448697459
 10
81.47547469751308
 20
-121.7403726909191
 10
81.5750379570368
 20
-121.7403726909191
 10
81.72421059154811
 20
-121.7403726909191
 10
81.88699135322618
 20
-121.6409816861696
 10
81.88699135322618
 20
-121.408265486141
 10
81.88699135322618
 20
-121.1522948915869
 10
81.69475502514923
 20
-121.0825317080106
 10
81.56590845400089
 20
-121.0825317080106
 10
81.53197426347117
 20
-121.0825317080106
 10
81.38056231689444
 20
-121.0825317080106
 10
81.28564993627582
 20
-121.2115505339332
 10
81.28564993627582
 20
-121.2115505339332
 10
81.0978922323297
 20
-121.1924302539901
 10
81.0978922323297
 20
-121.1924302539901
 10
81.0978922323297
 20
-121.1924302539901
 10
81.2269110582523
 20
-120.3463148028127
 10
81.2269110582523
 20
-120.3463148028127
 10
81.2269110582523
 20
-120.3463148028127
 10
82.05890161794014
 20
-120.3463148028127
 10
82.05890161794014
 20
-120.3463148028127
 10
82.05890161794014
 20
-120.3463148028127
 10
82.05890161794014
 20
-120.5409626977293
 10
82.05890161794014
 20
-120.5409626977293
 10
82.05890161794014
 20
-120.5409626977293
 10
81.40088838025743
 20
-120.5409626977293
 10
81.40088838025743
 20
-120.5409626977293
 10
81.40088838025743
 20
-120.5409626977293
 10
81.33078068713259
 20
-120.964020423318
 10
81.33078068713259
 20
-120.964020423318
 10
81.3964097561266
 20
-120.9300862327883
 10
81.48460420054899
 20
-120.8899508703852
 10
81.61121145963192
 20
-120.8899508703852
 10
81.88251272909535
 20
-120.8899508703852
 10
82.13572724726122
 20
-121.0761582813629
 10
82.13572724726122
 20
-121.3891452061979
 10
82.13572724726122
 20
-121.7066107551636
 10
81.89594860148782
 20
-121.9413940124834
 10
81.57279864497139
 20
-121.9413940124834
 97
        0
 97
        0
 75
     2
 76
     1
 98
        0
  0
ENDBLK
  5
A1
330
9E
100
AcDbEntity
  8
0
100
AcDbBlockEnd
  0
BLOCK
  5
B2
330
B0
100
AcDbEntity
  8
0
100
AcDbBlockBegin
  2
block 5
 70
     0
 10
0.0
 20
0.0
 30
0.0
  3
block 5
  1

  0
SPLINE
  5
B4
330
B0
100
AcDbEntity
  8
_U+30EC_U+30A4_U+30E4_U+30FC 1
370
     0
100
AcDbSpline
210
0.0
220
0.0
230
1.0
 70
    11
 71
     3
 72
    32
 73
    28
 74
     0
 42
0.0000000001
 43
0.0000000001
 12
1.0
 22
0.0
 32
0.0
 13
1.0
 23
0.0
 33
0.0
 40
0.0
 40
0.0
 40
0.0
 40
0.0
 40
1.0
 40
1.0
 40
1.0
 40
2.0
 40
2.0
 40
2.0
 40
3.0
 40
3.0
 40
3.0
 40
4.0
 40
4.0
 40
4.0
 40
5.0
 40
5.0
 40
5.0
 40
6.0
 40
6.0
 40
6.0
 40
7.0
 40
7.0
 40
7.0
 40
8.0
 40
8.0
 40
8.0
 40
9.0
 40
9.0
 40
9.0
 40
9.0
 10
87.09735376511803
 20
-121.9413940124834
 30
0.0
 10
86.54579397792953
 20
-121.9413940124834
 30
0.0
 10
86.53683672966788
 20
-121.3870781489067
 30
0.0
 10
86.53683672966788
 20
-121.1734822288212
 30
0.0
 10
86.53683672966788
 20
-120.9428330860837
 30
0.0
 10
86.55716279303086
 20
-120.2954996444053
 30
0.0
 10
87.1383504013925
 20
-120.2954996444053
 30
0.0
 10
87.32369653849894
 20
-120.2954996444053
 30
0.0
 10
87.58586830492645
 20
-120.3652628279816
 30
0.0
 10
87.6265204316524
 20
-120.6973700327597
 30
0.0
 10
87.6265204316524
 20
-120.6973700327597
 30
0.0
 10
87.39811060098033
 20
-120.6973700327597
 30
0.0
 10
87.39811060098033
 20
-120.6973700327597
 30
0.0
 10
87.38674178587901
 20
-120.6403537024788
 30
0.0
 10
87.35297985012356
 20
-120.4922145966131
 30
0.0
 10
87.13593883455283
 20
-120.4922145966131
 30
0.0
 10
86.8238131835892
 20
-120.4922145966131
 30
0.0
 10
86.7810939995721
 20
-120.8201876868089
 30
0.0
 10
86.76731361763109
 20
-121.0253431229555
 30
0.0
 10
86.86687687715481
 20
-120.9471394554403
 30
0.0
 10
86.93922388234506
 20
-120.887883813094
 30
0.0
 10
87.13387177726167
 20
-120.887883813094
 30
0.0
 10
87.3257635957901
 20
-120.887883813094
 30
0.0
 10
87.64925806185505
 20
-120.9957153017823
 30
0.0
 10
87.64925806185505
 20
-121.4018920594933
 30
0.0
 10
87.64925806185505
 20
-121.7214246657502
 30
0.0
 10
87.43669567041513
 20
-121.9413940124834
 30
0.0
 10
87.09735376511803
 20
-121.9413940124834
 30
0.0
  0
SPLINE
  5
B5
330
B0
100
AcDbEntity
  8
_U+30EC_U+30A4_U+30E4_U+30FC 1
370
     0
100
AcDbSpline
210
0.0
220
0.0
230
1.0
 70
    11
 71
     3
 72
    17
 73
    13
 74
     0
 42
0.0000000001
 43
0.0000000001
 12
1.0
 22
0.0
 32
0.0
 13
1.0
 23
0.0
 33
0.0
 40
0.0
 40
0.0
 40
0.0
 40
0.0
 40
1.0
 40
1.0
 40
1.0
 40
2.0
 40
2.0
 40
2.0
 40
3.0
 40
3.0
 40
3.0
 40
4.0
 40
4.0
 40
4.0
 40
4.0
 10
87.11561277118984
 20
-121.0825317080106
 30
0.0
 10
86.83518199869052
 20
-121.0825317080106
 30
0.0
 10
86.79452987196457
 20
-121.294060570805
 30
0.0
 10
86.79452987196457
 20
-121.4103325434321
 30
0.0
 10
86.79452987196457
 20
-121.5860324131799
 30
0.0
 10
86.89616018877943
 20
-121.7488131748579
 30
0.0
 10
87.0928751409872
 20
-121.7488131748579
 30
0.0
 10
87.22172171213555
 20
-121.7488131748579
 30
0.0
 10
87.40947941608167
 20
-121.6895575325116
 30
0.0
 10
87.40947941608167
 20
-121.4039591167844
 30
0.0
 10
87.40947941608167
 20
-121.1798556554689
 30
0.0
 10
87.26030678157035
 20
-121.0825317080106
 30
0.0
 10
87.11561277118984
 20
-121.0825317080106
 30
0.0
  0
HATCH
  5
B6
330
B0
100
AcDbEntity
  8
_U+30EC_U+30A4_U+30E4_U+30FC 1
 62
   179
420
  2234388
100
AcDbHatch
 10
0.0
 20
0.0
 30
0.0
210
0.0
220
0.0
230
1.0
  2
SOLID
 70
     1
 71
     0
 91
        2
 92
        1
 93
        1
 72
     4
 94
        3
 73
     0
 74
     1
 95
       32
 96
       28
 40
0.0
 40
0.0
 40
0.0
 40
0.0
 40
1.0
 40
1.0
 40
1.0
 40
2.0
 40
2.0
 40
2.0
 40
3.0
 40
3.0
 40
3.0
 40
4.0
 40
4.0
 40
4.0
 40
5.0
 40
5.0
 40
5.0
 40
6.0
 40
6.0
 40
6.0
 40
7.0
 40
7.0
 40
7.0
 40
8.0
 40
8.0
 40
8.0
 40
9.0
 40
9.0
 40
9.0
 40
9.0
 10
87.09735376511803
 20
-121.9413940124834
 10
86.54579397792953
 20
-121.9413940124834
 10
86.53683672966788
 20
-121.3870781489067
 10
86.53683672966788
 20
-121.1734822288212
 10
86.53683672966788
 20
-120.9428330860837
 10
86.55716279303086
 20
-120.2954996444053
 10
87.1383504013925
 20
-120.2954996444053
 10
87.32369653849894
 20
-120.2954996444053
 10
87.58586830492645
 20
-120.3652628279816
 10
87.6265204316524
 20
-120.6973700327597
 10
87.6265204316524
 20
-120.6973700327597
 10
87.39811060098033
 20
-120.6973700327597
 10
87.39811060098033
 20
-120.6973700327597
 10
87.38674178587901
 20
-120.6403537024788
 10
87.35297985012356
 20
-120.4922145966131
 10
87.13593883455283
 20
-120.4922145966131
 10
86.8238131835892
 20
-120.4922145966131
 10
86.7810939995721
 20
-120.8201876868089
 10
86.76731361763109
 20
-121.0253431229555
 10
86.86687687715481
 20
-120.9471394554403
 10
86.93922388234506
 20
-120.887883813094
 10
87.13387177726167
 20
-120.887883813094
 10
87.3257635957901
 20
-120.887883813094
 10
87.64925806185505
 20
-120.9957153017823
 10
87.64925806185505
 20
-121.4018920594933
 10
87.64925806185505
 20
-121.7214246657502
 10
87.43669567041513
 20
-121.9413940124834
 10
87.09735376511803
 20
-121.9413940124834
 97
        0
 97
        0
 92
        1
 93
        1
 72
     4
 94
        3
 73
     0
 74
     1
 95
       17
 96
       13
 40
0.0
 40
0.0
 40
0.0
 40
0.0
 40
1.0
 40
1.0
 40
1.0
 40
2.0
 40
2.0
 40
2.0
 40
3.0
 40
3.0
 40
3.0
 40
4.0
 40
4.0
 40
4.0
 40
4.0
 10
87.11561277118984
 20
-121.0825317080106
 10
86.83518199869052
 20
-121.0825317080106
 10
86.79452987196457
 20
-121.294060570805
 10
86.79452987196457
 20
-121.4103325434321
 10
86.79452987196457
 20
-121.5860324131799
 10
86.89616018877943
 20
-121.7488131748579
 10
87.0928751409872
 20
-121.7488131748579
 10
87.22172171213555
 20
-121.7488131748579
 10
87.40947941608167
 20
-121.6895575325116
 10
87.40947941608167
 20
-121.4039591167844
 10
87.40947941608167
 20
-121.1798556554689
 10
87.26030678157035
 20
-121.0825317080106
 10
87.11561277118984
 20
-121.0825317080106
 97
        0
 97
        0
 75
     2
 76
     1
 98
        0
  0
ENDBLK
  5
B3
330
B0
100
AcDbEntity
  8
0
100
AcDbBlockEnd
  0
BLOCK
  5
C1
330
BF
100
AcDbEntity
  8
0
100
AcDbBlockBegin
  2
block 6
 70
     0
 10
0.0
 20
0.0
 30
0.0
  3
block 6
  1

  0
SPLINE
  5
C3
330
BF
100
AcDbEntity
  8
_U+30EC_U+30A4_U+30E4_U+30FC 1
370
     0
100
AcDbSpline
210
0.0
220
0.0
230
1.0
 70
    11
 71
     3
 72
    53
 73
    49
 74
     0
 42
0.0000000001
 43
0.0000000001
 12
1.0
 22
0.0
 32
0.0
 13
1.0
 23
0.0
 33
0.0
 40
0.0
 40
0.0
 40
0.0
 40
0.0
 40
1.0
 40
1.0
 40
1.0
 40
2.0
 40
2.0
 40
2.0
 40
3.0
 40
3.0
 40
3.0
 40
4.0
 40
4.0
 40
4.0
 40
5.0
 40
5.0
 40
5.0
 40
6.0
 40
6.0
 40
6.0
 40
7.0
 40
7.0
 40
7.0
 40
8.0
 40
8.0
 40
8.0
 40
9.0
 40
9.0
 40
9.0
 40
10.0
 40
10.0
 40
10.0
 40
11.0
 40
11.0
 40
11.0
 40
12.0
 40
12.0
 40
12.0
 40
13.0
 40
13.0
 40
13.0
 40
14.0
 40
14.0
 40
14.0
 40
15.0
 40
15.0
 40
15.0
 40
16.0
 40
16.0
 40
16.0
 40
16.0
 10
92.57247176505133
 20
-121.9413940124834
 30
0.0
 10
92.48875594475976
 20
-121.9413940124834
 30
0.0
 10
92.38057994652291
 20
-121.9243407898314
 30
0.0
 10
92.27171492918902
 20
-121.8609510329028
 30
0.0
 10
92.08636879208258
 20
-121.7508802321491
 30
0.0
 10
92.06397567142845
 20
-121.6197943489353
 30
0.0
 10
92.04364960806548
 20
-121.511962860247
 30
0.0
 10
92.04364960806548
 20
-121.511962860247
 30
0.0
 10
92.2810166869992
 20
-121.511962860247
 30
0.0
 10
92.2810166869992
 20
-121.511962860247
 30
0.0
 10
92.33958331024844
 20
-121.7107448697459
 30
0.0
 10
92.47532007236728
 20
-121.7403726909191
 30
0.0
 10
92.574883331891
 20
-121.7403726909191
 30
0.0
 10
92.72405596640232
 20
-121.7403726909191
 30
0.0
 10
92.88700898285464
 20
-121.6409816861696
 30
0.0
 10
92.88700898285464
 20
-121.408265486141
 30
0.0
 10
92.88700898285464
 20
-121.1522948915869
 30
0.0
 10
92.6947726547777
 20
-121.0825317080106
 30
0.0
 10
92.56592608362935
 20
-121.0825317080106
 30
0.0
 10
92.53181963832539
 20
-121.0825317080106
 30
0.0
 10
92.38057994652291
 20
-121.0825317080106
 30
0.0
 10
92.28549531113002
 20
-121.2115505339332
 30
0.0
 10
92.28549531113002
 20
-121.2115505339332
 30
0.0
 10
92.0977376071839
 20
-121.1924302539901
 30
0.0
 10
92.0977376071839
 20
-121.1924302539901
 30
0.0
 10
92.0977376071839
 20
-121.1924302539901
 30
0.0
 10
92.22658417833225
 20
-120.3463148028127
 30
0.0
 10
92.22658417833225
 20
-120.3463148028127
 30
0.0
 10
92.22658417833225
 20
-120.3463148028127
 30
0.0
 10
93.05857473802008
 20
-120.3463148028127
 30
0.0
 10
93.05857473802008
 20
-120.3463148028127
 30
0.0
 10
93.05857473802008
 20
-120.3463148028127
 30
0.0
 10
93.05857473802008
 20
-120.5409626977293
 30
0.0
 10
93.05857473802008
 20
-120.5409626977293
 30
0.0
 10
93.05857473802008
 20
-120.5409626977293
 30
0.0
 10
92.40090600988589
 20
-120.5409626977293
 30
0.0
 10
92.40090600988589
 20
-120.5409626977293
 30
0.0
 10
92.40090600988589
 20
-120.5409626977293
 30
0.0
 10
92.33062606198679
 20
-120.964020423318
 30
0.0
 10
92.33062606198679
 20
-120.964020423318
 30
0.0
 10
92.39608287620653
 20
-120.9300862327883
 30
0.0
 10
92.48427732062893
 20
-120.8899508703852
 30
0.0
 10
92.61105683448613
 20
-120.8899508703852
 30
0.0
 10
92.88218584917529
 20
-120.8899508703852
 30
0.0
 10
93.13540036734115
 20
-121.0761582813629
 30
0.0
 10
93.13540036734115
 20
-121.3891452061979
 30
0.0
 10
93.13540036734115
 20
-121.7066107551636
 30
0.0
 10
92.89596623111629
 20
-121.9413940124834
 30
0.0
 10
92.57247176505133
 20
-121.9413940124834
 30
0.0
  0
HATCH
  5
C4
330
BF
100
AcDbEntity
  8
_U+30EC_U+30A4_U+30E4_U+30FC 1
 62
   179
420
  2234388
100
AcDbHatch
 10
0.0
 20
0.0
 30
0.0
210
0.0
220
0.0
230
1.0
  2
SOLID
 70
     1
 71
     0
 91
        1
 92
        1
 93
        1
 72
     4
 94
        3
 73
     0
 74
     1
 95
       53
 96
       49
 40
0.0
 40
0.0
 40
0.0
 40
0.0
 40
1.0
 40
1.0
 40
1.0
 40
2.0
 40
2.0
 40
2.0
 40
3.0
 40
3.0
 40
3.0
 40
4.0
 40
4.0
 40
4.0
 40
5.0
 40
5.0
 40
5.0
 40
6.0
 40
6.0
 40
6.0
 40
7.0
 40
7.0
 40
7.0
 40
8.0
 40
8.0
 40
8.0
 40
9.0
 40
9.0
 40
9.0
 40
10.0
 40
10.0
 40
10.0
 40
11.0
 40
11.0
 40
11.0
 40
12.0
 40
12.0
 40
12.0
 40
13.0
 40
13.0
 40
13.0
 40
14.0
 40
14.0
 40
14.0
 40
15.0
 40
15.0
 40
15.0
 40
16.0
 40
16.0
 40
16.0
 40
16.0
 10
92.57247176505133
 20
-121.9413940124834
 10
92.48875594475976
 20
-121.9413940124834
 10
92.38057994652291
 20
-121.9243407898314
 10
92.27171492918902
 20
-121.8609510329028
 10
92.08636879208258
 20
-121.7508802321491
 10
92.06397567142845
 20
-121.6197943489353
 10
92.04364960806548
 20
-121.511962860247
 10
92.04364960806548
 20
-121.511962860247
 10
92.2810166869992
 20
-121.511962860247
 10
92.2810166869992
 20
-121.511962860247
 10
92.33958331024844
 20
-121.7107448697459
 10
92.47532007236728
 20
-121.7403726909191
 10
92.574883331891
 20
-121.7403726909191
 10
92.72405596640232
 20
-121.7403726909191
 10
92.88700898285464
 20
-121.6409816861696
 10
92.88700898285464
 20
-121.408265486141
 10
92.88700898285464
 20
-121.1522948915869
 10
92.6947726547777
 20
-121.0825317080106
 10
92.56592608362935
 20
-121.0825317080106
 10
92.53181963832539
 20
-121.0825317080106
 10
92.38057994652291
 20
-121.0825317080106
 10
92.28549531113002
 20
-121.2115505339332
 10
92.28549531113002
 20
-121.2115505339332
 10
92.0977376071839
 20
-121.1924302539901
 10
92.0977376071839
 20
-121.1924302539901
 10
92.0977376071839
 20
-121.1924302539901
 10
92.22658417833225
 20
-120.3463148028127
 10
92.22658417833225
 20
-120.3463148028127
 10
92.22658417833225
 20
-120.3463148028127
 10
93.05857473802008
 20
-120.3463148028127
 10
93.05857473802008
 20
-120.3463148028127
 10
93.05857473802008
 20
-120.3463148028127
 10
93.05857473802008
 20
-120.5409626977293
 10
93.05857473802008
 20
-120.5409626977293
 10
93.05857473802008
 20
-120.5409626977293
 10
92.40090600988589
 20
-120.5409626977293
 10
92.40090600988589
 20
-120.5409626977293
 10
92.40090600988589
 20
-120.5409626977293
 10
92.33062606198679
 20
-120.964020423318
 10
92.33062606198679
 20
-120.964020423318
 10
92.39608287620653
 20
-120.9300862327883
 10
92.48427732062893
 20
-120.8899508703852
 10
92.61105683448613
 20
-120.8899508703852
 10
92.88218584917529
 20
-120.8899508703852
 10
93.13540036734115
 20
-121.0761582813629
 10
93.13540036734115
 20
-121.3891452061979
 10
93.13540036734115
 20
-121.7066107551636
 10
92.89596623111629
 20
-121.9413940124834
 10
92.57247176505133
 20
-121.9413940124834
 97
        0
 97
        0
 75
     2
 76
     1
 98
        0
  0
ENDBLK
  5
C2
330
BF
100
AcDbEntity
  8
0
100
AcDbBlockEnd
  0
BLOCK
  5
D1
330
CF
100
AcDbEntity
  8
0
100
AcDbBlockBegin
  2
block 7
 70
     0
 10
0.0
 20
0.0
 30
0.0
  3
block 7
  1

  0
SPLINE
  5
D3
330
CF
100
AcDbEntity
  8
_U+30EC_U+30A4_U+30E4_U+30FC 1
370
     0
100
AcDbSpline
210
0.0
220
0.0
230
1.0
 70
    11
 71
     3
 72
    26
 73
    22
 74
     0
 42
0.0000000001
 43
0.0000000001
 12
1.0
 22
0.0
 32
0.0
 13
1.0
 23
0.0
 33
0.0
 40
0.0
 40
0.0
 40
0.0
 40
0.0
 40
1.0
 40
1.0
 40
1.0
 40
2.0
 40
2.0
 40
2.0
 40
3.0
 40
3.0
 40
3.0
 40
4.0
 40
4.0
 40
4.0
 40
5.0
 40
5.0
 40
5.0
 40
6.0
 40
6.0
 40
6.0
 40
7.0
 40
7.0
 40
7.0
 40
7.0
 10
87.03310273431812
 20
-128.1200005105047
 30
0.0
 10
87.03310273431812
 20
-128.1200005105047
 30
0.0
 10
87.03310273431812
 20
-127.0156751527079
 30
0.0
 10
87.03310273431812
 20
-127.0156751527079
 30
0.0
 10
87.03310273431812
 20
-127.0156751527079
 30
0.0
 10
86.6804972114028
 20
-127.0156751527079
 30
0.0
 10
86.6804972114028
 20
-127.0156751527079
 30
0.0
 10
86.6804972114028
 20
-127.0156751527079
 30
0.0
 10
86.6804972114028
 20
-126.8677083016164
 30
0.0
 10
86.6804972114028
 20
-126.8677083016164
 30
0.0
 10
87.03551430115779
 20
-126.8528943910298
 30
0.0
 10
87.08512367614539
 20
-126.6899413745775
 30
0.0
 10
87.1168185546097
 20
-126.5757364592415
 30
0.0
 10
87.1168185546097
 20
-126.5757364592415
 30
0.0
 10
87.2728813800915
 20
-126.5757364592415
 30
0.0
 10
87.2728813800915
 20
-126.5757364592415
 30
0.0
 10
87.2728813800915
 20
-126.5757364592415
 30
0.0
 10
87.2728813800915
 20
-128.1200005105047
 30
0.0
 10
87.2728813800915
 20
-128.1200005105047
 30
0.0
 10
87.2728813800915
 20
-128.1200005105047
 30
0.0
 10
87.03310273431812
 20
-128.1200005105047
 30
0.0
 10
87.03310273431812
 20
-128.1200005105047
 30
0.0
  0
HATCH
  5
D4
330
CF
100
AcDbEntity
  8
_U+30EC_U+30A4_U+30E4_U+30FC 1
 62
   179
420
  2234388
100
AcDbHatch
 10
0.0
 20
0.0
 30
0.0
210
0.0
220
0.0
230
1.0
  2
SOLID
 70
     1
 71
     0
 91
        1
 92
        1
 93
        1
 72
     4
 94
        3
 73
     0
 74
     1
 95
       26
 96
       22
 40
0.0
 40
0.0
 40
0.0
 40
0.0
 40
1.0
 40
1.0
 40
1.0
 40
2.0
 40
2.0
 40
2.0
 40
3.0
 40
3.0
 40
3.0
 40
4.0
 40
4.0
 40
4.0
 40
5.0
 40
5.0
 40
5.0
 40
6.0
 40
6.0
 40
6.0
 40
7.0
 40
7.0
 40
7.0
 40
7.0
 10
87.03310273431812
 20
-128.1200005105047
 10
87.03310273431812
 20
-128.1200005105047
 10
87.03310273431812
 20
-127.0156751527079
 10
87.03310273431812
 20
-127.0156751527079
 10
87.03310273431812
 20
-127.0156751527079
 10
86.6804972114028
 20
-127.0156751527079
 10
86.6804972114028
 20
-127.0156751527079
 10
86.6804972114028
 20
-127.0156751527079
 10
86.6804972114028
 20
-126.8677083016164
 10
86.6804972114028
 20
-126.8677083016164
 10
87.03551430115779
 20
-126.8528943910298
 10
87.08512367614539
 20
-126.6899413745775
 10
87.1168185546097
 20
-126.5757364592415
 10
87.1168185546097
 20
-126.5757364592415
 10
87.2728813800915
 20
-126.5757364592415
 10
87.2728813800915
 20
-126.5757364592415
 10
87.2728813800915
 20
-126.5757364592415
 10
87.2728813800915
 20
-128.1200005105047
 10
87.2728813800915
 20
-128.1200005105047
 10
87.2728813800915
 20
-128.1200005105047
 10
87.03310273431812
 20
-128.1200005105047
 10
87.03310273431812
 20
-128.1200005105047
 97
        0
 97
        0
 75
     2
 76
     1
 98
        0
  0
ENDBLK
  5
D2
330
CF
100
AcDbEntity
  8
0
100
AcDbBlockEnd
  0
ENDSEC
  0
SECTION
  2
ENTITIES
  0
SPLINE
  5
41
330
1F
100
AcDbEntity
  8
_U+30EC_U+30A4_U+30E4_U+30FC 1
 62
   179
420
  2234388
370
    25
100
AcDbSpline
210
0.0
220
0.0
230
1.0
 70
    11
 71
     3
 72
    65
 73
    61
 74
     0
 42
0.0000000001
 43
0.0000000001
 12
1.0
 22
0.0
 32
0.0
 13
1.0
 23
0.0
 33
0.0
 40
0.0
 40
0.0
 40
0.0
 40
0.0
 40
1.0
 40
1.0
 40
1.0
 40
2.0
 40
2.0
 40
2.0
 40
3.0
 40
3.0
 40
3.0
 40
4.0
 40
4.0
 40
4.0
 40
5.0
 40
5.0
 40
5.0
 40
6.0
 40
6.0
 40
6.0
 40
7.0
 40
7.0
 40
7.0
 40
8.0
 40
8.0
 40
8.0
 40
9.0
 40
9.0
 40
9.0
 40
10.0
 40
10.0
 40
10.0
 40
11.0
 40
11.0
 40
11.0
 40
12.0
 40
12.0
 40
12.0
 40
13.0
 40
13.0
 40
13.0
 40
14.0
 40
14.0
 40
14.0
 40
15.0
 40
15.0
 40
15.0
 40
16.0
 40
16.0
 40
16.0
 40
17.0
 40
17.0
 40
17.0
 40
18.0
 40
18.0
 40
18.0
 40
19.0
 40
19.0
 40
19.0
 40
20.0
 40
20.0
 40
20.0
 40
20.0
 10
90.0933743681932
 20
-127.2864555237339
 30
0.0
 10
90.0933743681932
 20
-126.8721885793932
 30
0.0
 10
90.4291129707389
 20
-126.5366263572547
 30
0.0
 10
90.84337990461452
 20
-126.5366263572547
 30
0.0
 10
90.84337990461452
 20
-126.5366263572547
 30
0.0
 10
94.09313343281751
 20
-126.5366263572547
 30
0.0
 10
94.09313343281751
 20
-126.5366263572547
 30
0.0
 10
94.09313343281751
 20
-126.5366263572547
 30
0.0
 10
95.0935759072941
 20
-127.5367513570046
 30
0.0
 10
95.0935759072941
 20
-127.5367513570046
 30
0.0
 10
95.0935759072941
 20
-127.5367513570046
 30
0.0
 10
91.09332295379349
 20
-127.5367513570046
 30
0.0
 10
91.09332295379349
 20
-127.5367513570046
 30
0.0
 10
91.09332295379349
 20
-127.5367513570046
 30
0.0
 10
91.09332295379349
 20
-132.0367141336574
 30
0.0
 10
91.09332295379349
 20
-132.0367141336574
 30
0.0
 10
91.09332295379349
 20
-132.0367141336574
 30
0.0
 10
95.0935759072941
 20
-132.0367141336574
 30
0.0
 10
95.0935759072941
 20
-132.0367141336574
 30
0.0
 10
95.0935759072941
 20
-132.0367141336574
 30
0.0
 10
95.59314450566015
 20
-132.5366002446434
 30
0.0
 10
95.59314450566015
 20
-132.5366002446434
 30
0.0
 10
95.59314450566015
 20
-132.5366002446434
 30
0.0
 10
99.59357384804514
 20
-132.5366002446434
 30
0.0
 10
99.59357384804514
 20
-132.5366002446434
 30
0.0
 10
99.59357384804514
 20
-132.5366002446434
 30
0.0
 10
100.0931071686343
 20
-133.0364863556299
 30
0.0
 10
100.0931071686343
 20
-133.0364863556299
 30
0.0
 10
100.0931071686343
 20
-133.0364863556299
 30
0.0
 10
77.0933019220749
 20
-133.0364863556299
 30
0.0
 10
77.0933019220749
 20
-133.0364863556299
 30
0.0
 10
77.0933019220749
 20
-133.0364863556299
 30
0.0
 10
78.0932505076752
 20
-132.0367141336574
 30
0.0
 10
78.0932505076752
 20
-132.0367141336574
 30
0.0
 10
78.0932505076752
 20
-132.0367141336574
 30
0.0
 10
83.0934520467761
 20
-132.0367141336574
 30
0.0
 10
83.0934520467761
 20
-132.0367141336574
 30
0.0
 10
83.0934520467761
 20
-132.0367141336574
 30
0.0
 10
83.0934520467761
 20
-127.5367513570046
 30
0.0
 10
83.0934520467761
 20
-127.5367513570046
 30
0.0
 10
83.0934520467761
 20
-127.5367513570046
 30
0.0
 10
79.09337548215989
 20
-127.5367513570046
 30
0.0
 10
79.09337548215989
 20
-127.5367513570046
 30
0.0
 10
79.09337548215989
 20
-127.5367513570046
 30
0.0
 10
80.0932887899833
 20
-126.5366263572547
 30
0.0
 10
80.0932887899833
 20
-126.5366263572547
 30
0.0
 10
80.0932887899833
 20
-126.5366263572547
 30
0.0
 10
83.34304442360855
 20
-126.5366263572547
 30
0.0
 10
83.34304442360855
 20
-126.5366263572547
 30
0.0
 10
83.75752091872317
 20
-126.5366263572547
 30
0.0
 10
84.093224243492
 20
-126.8721885793932
 30
0.0
 10
84.093224243492
 20
-127.2864555237339
 30
0.0
 10
84.093224243492
 20
-127.2864555237339
 30
0.0
 10
84.093224243492
 20
-132.0367141336574
 30
0.0
 10
84.093224243492
 20
-132.0367141336574
 30
0.0
 10
84.093224243492
 20
-132.0367141336574
 30
0.0
 10
90.09319797930881
 20
-132.0367141336574
 30
0.0
 10
90.09319797930881
 20
-132.0367141336574
 30
0.0
 10
90.09319797930881
 20
-132.0367141336574
 30
0.0
 10
90.0933743681932
 20
-127.2864555237339
 30
0.0
 10
90.0933743681932
 20
-127.2864555237339
 30
0.0
  0
HATCH
  5
42
330
1F
100
AcDbEntity
  8
_U+30EC_U+30A4_U+30E4_U+30FC 1
 62
   253
420
 11711154
100
AcDbHatch
 10
0.0
 20
0.0
 30
0.0
210
0.0
220
0.0
230
1.0
  2
SOLID
 70
     1
 71
     0
 91
        1
 92
        1
 93
        1
 72
     4
 94
        3
 73
     0
 74
     1
 95
       65
 96
       61
 40
0.0
 40
0.0
 40
0.0
 40
0.0
 40
1.0
 40
1.0
 40
1.0
 40
2.0
 40
2.0
 40
2.0
 40
3.0
 40
3.0
 40
3.0
 40
4.0
 40
4.0
 40
4.0
 40
5.0
 40
5.0
 40
5.0
 40
6.0
 40
6.0
 40
6.0
 40
7.0
 40
7.0
 40
7.0
 40
8.0
 40
8.0
 40
8.0
 40
9.0
 40
9.0
 40
9.0
 40
10.0
 40
10.0
 40
10.0
 40
11.0
 40
11.0
 40
11.0
 40
12.0
 40
12.0
 40
12.0
 40
13.0
 40
13.0
 40
13.0
 40
14.0
 40
14.0
 40
14.0
 40
15.0
 40
15.0
 40
15.0
 40
16.0
 40
16.0
 40
16.0
 40
17.0
 40
17.0
 40
17.0
 40
18.0
 40
18.0
 40
18.0
 40
19.0
 40
19.0
 40
19.0
 40
20.0
 40
20.0
 40
20.0
 40
20.0
 10
90.0933743681932
 20
-127.2864555237339
 10
90.0933743681932
 20
-126.8721885793932
 10
90.4291129707389
 20
-126.5366263572547
 10
90.84337990461452
 20
-126.5366263572547
 10
90.84337990461452
 20
-126.5366263572547
 10
94.09313343281751
 20
-126.5366263572547
 10
94.09313343281751
 20
-126.5366263572547
 10
94.09313343281751
 20
-126.5366263572547
 10
95.0935759072941
 20
-127.5367513570046
 10
95.0935759072941
 20
-127.5367513570046
 10
95.0935759072941
 20
-127.5367513570046
 10
91.09332295379349
 20
-127.5367513570046
 10
91.09332295379349
 20
-127.5367513570046
 10
91.09332295379349
 20
-127.5367513570046
 10
91.09332295379349
 20
-132.0367141336574
 10
91.09332295379349
 20
-132.0367141336574
 10
91.09332295379349
 20
-132.0367141336574
 10
95.0935759072941
 20
-132.0367141336574
 10
95.0935759072941
 20
-132.0367141336574
 10
95.0935759072941
 20
-132.0367141336574
 10
95.59314450566015
 20
-132.5366002446434
 10
95.59314450566015
 20
-132.5366002446434
 10
95.59314450566015
 20
-132.5366002446434
 10
99.59357384804514
 20
-132.5366002446434
 10
99.59357384804514
 20
-132.5366002446434
 10
99.59357384804514
 20
-132.5366002446434
 10
100.0931071686343
 20
-133.0364863556299
 10
100.0931071686343
 20
-133.0364863556299
 10
100.0931071686343
 20
-133.0364863556299
 10
77.0933019220749
 20
-133.0364863556299
 10
77.0933019220749
 20
-133.0364863556299
 10
77.0933019220749
 20
-133.0364863556299
 10
78.0932505076752
 20
-132.0367141336574
 10
78.0932505076752
 20
-132.0367141336574
 10
78.0932505076752
 20
-132.0367141336574
 10
83.0934520467761
 20
-132.0367141336574
 10
83.0934520467761
 20
-132.0367141336574
 10
83.0934520467761
 20
-132.0367141336574
 10
83.0934520467761
 20
-127.5367513570046
 10
83.0934520467761
 20
-127.5367513570046
 10
83.0934520467761
 20
-127.5367513570046
 10
79.09337548215989
 20
-127.5367513570046
 10
79.09337548215989
 20
-127.5367513570046
 10
79.09337548215989
 20
-127.5367513570046
 10
80.0932887899833
 20
-126.5366263572547
 10
80.0932887899833
 20
-126.5366263572547
 10
80.0932887899833
 20
-126.5366263572547
 10
83.34304442360855
 20
-126.5366263572547
 10
83.34304442360855
 20
-126.5366263572547
 10
83.75752091872317
 20
-126.5366263572547
 10
84.093224243492
 20
-126.8721885793932
 10
84.093224243492
 20
-127.2864555237339
 10
84.093224243492
 20
-127.2864555237339
 10
84.093224243492
 20
-132.0367141336574
 10
84.093224243492
 20
-132.0367141336574
 10
84.093224243492
 20
-132.0367141336574
 10
90.09319797930881
 20
-132.0367141336574
 10
90.09319797930881
 20
-132.0367141336574
 10
90.09319797930881
 20
-132.0367141336574
 10
90.0933743681932
 20
-127.2864555237339
 10
90.0933743681932
 20
-127.2864555237339
 97
        0
 97
        0
 75
     2
 76
     1
 98
        0
  0
SPLINE
  5
43
330
1F
100
AcDbEntity
  8
_U+30EC_U+30A4_U+30E4_U+30FC 1
 62
   179
420
  2234388
370
     9
100
AcDbSpline
210
0.0
220
0.0
230
1.0
 70
    11
 71
     3
 72
    17
 73
    13
 74
     0
 42
0.0000000001
 43
0.0000000001
 12
1.0
 22
0.0
 32
0.0
 13
1.0
 23
0.0
 33
0.0
 40
0.0
 40
0.0
 40
0.0
 40
0.0
 40
1.0
 40
1.0
 40
1.0
 40
2.0
 40
2.0
 40
2.0
 40
3.0
 40
3.0
 40
3.0
 40
4.0
 40
4.0
 40
4.0
 40
4.0
 10
79.19328214627772
 20
-122.5368671915881
 30
0.0
 10
79.19328214627772
 20
-122.4814105249351
 30
0.0
 10
79.14847936964296
 20
-122.4366430249465
 30
0.0
 10
79.09337548215989
 20
-122.4366430249465
 30
0.0
 10
79.03805992801554
 20
-122.4366430249465
 30
0.0
 10
78.993294424696
 20
-122.4814105249351
 30
0.0
 10
78.993294424696
 20
-122.5368671915881
 30
0.0
 10
78.993294424696
 20
-122.5920063582409
 30
0.0
 10
79.03805992801554
 20
-122.6367738582297
 30
0.0
 10
79.09337548215989
 20
-122.6367738582297
 30
0.0
 10
79.14847936964296
 20
-122.6367738582297
 30
0.0
 10
79.19328214627772
 20
-122.5920063582409
 30
0.0
 10
79.19328214627772
 20
-122.5368671915881
 30
0.0
  0
SPLINE
  5
44
330
1F
100
AcDbEntity
  8
_U+30EC_U+30A4_U+30E4_U+30FC 1
 62
   179
420
  2234388
370
     9
100
AcDbSpline
210
0.0
220
0.0
230
1.0
 70
    11
 71
     3
 72
    17
 73
    13
 74
     0
 42
0.0000000001
 43
0.0000000001
 12
1.0
 22
0.0
 32
0.0
 13
1.0
 23
0.0
 33
0.0
 40
0.0
 40
0.0
 40
0.0
 40
0.0
 40
1.0
 40
1.0
 40
1.0
 40
2.0
 40
2.0
 40
2.0
 40
3.0
 40
3.0
 40
3.0
 40
4.0
 40
4.0
 40
4.0
 40
4.0
 10
84.19313090760984
 20
-122.5368671915881
 30
0.0
 10
84.19313090760984
 20
-122.4814105249351
 30
0.0
 10
84.14836340875195
 20
-122.4366430249465
 30
0.0
 10
84.093224243492
 20
-122.4366430249465
 30
0.0
 10
84.03812035600893
 20
-122.4366430249465
 30
0.0
 10
83.99331757937416
 20
-122.4814105249351
 30
0.0
 10
83.99331757937416
 20
-122.5368671915881
 30
0.0
 10
83.99331757937416
 20
-122.5920063582409
 30
0.0
 10
84.03812035600893
 20
-122.6367738582297
 30
0.0
 10
84.093224243492
 20
-122.6367738582297
 30
0.0
 10
84.14836340875195
 20
-122.6367738582297
 30
0.0
 10
84.19313090760984
 20
-122.5920063582409
 30
0.0
 10
84.19313090760984
 20
-122.5368671915881
 30
0.0
  0
SPLINE
  5
45
330
1F
100
AcDbEntity
  8
_U+30EC_U+30A4_U+30E4_U+30FC 1
 62
   179
420
  2234388
370
     9
100
AcDbSpline
210
0.0
220
0.0
230
1.0
 70
    11
 71
     3
 72
    17
 73
    13
 74
     0
 42
0.0000000001
 43
0.0000000001
 12
1.0
 22
0.0
 32
0.0
 13
1.0
 23
0.0
 33
0.0
 40
0.0
 40
0.0
 40
0.0
 40
0.0
 40
1.0
 40
1.0
 40
1.0
 40
2.0
 40
2.0
 40
2.0
 40
3.0
 40
3.0
 40
3.0
 40
4.0
 40
4.0
 40
4.0
 40
4.0
 10
90.19345742119542
 20
-122.5368671915881
 30
0.0
 10
90.19345742119542
 20
-122.4814105249351
 30
0.0
 10
90.14868992233754
 20
-122.4366430249465
 30
0.0
 10
90.09319797930881
 20
-122.4366430249465
 30
0.0
 10
90.03809409182574
 20
-122.4366430249465
 30
0.0
 10
89.99329131519097
 20
-122.4814105249351
 30
0.0
 10
89.99329131519097
 20
-122.5368671915881
 30
0.0
 10
89.99329131519097
 20
-122.5920063582409
 30
0.0
 10
90.03809409182574
 20
-122.6367738582297
 30
0.0
 10
90.09319797930881
 20
-122.6367738582297
 30
0.0
 10
90.14868992233754
 20
-122.6367738582297
 30
0.0
 10
90.19345742119542
 20
-122.5920063582409
 30
0.0
 10
90.19345742119542
 20
-122.5368671915881
 30
0.0
  0
SPLINE
  5
46
330
1F
100
AcDbEntity
  8
_U+30EC_U+30A4_U+30E4_U+30FC 1
 62
   179
420
  2234388
370
     9
100
AcDbSpline
210
0.0
220
0.0
230
1.0
 70
    11
 71
     3
 72
    17
 73
    13
 74
     0
 42
0.0000000001
 43
0.0000000001
 12
1.0
 22
0.0
 32
0.0
 13
1.0
 23
0.0
 33
0.0
 40
0.0
 40
0.0
 40
0.0
 40
0.0
 40
1.0
 40
1.0
 40
1.0
 40
2.0
 40
2.0
 40
2.0
 40
3.0
 40
3.0
 40
3.0
 40
4.0
 40
4.0
 40
4.0
 40
4.0
 10
95.19348257141193
 20
-122.5368671915881
 30
0.0
 10
95.19348257141193
 20
-122.4814105249351
 30
0.0
 10
95.14871507255404
 20
-122.4366430249465
 30
0.0
 10
95.0935759072941
 20
-122.4366430249465
 30
0.0
 10
95.03776646427347
 20
-122.4366430249465
 30
0.0
 10
94.99299896541558
 20
-122.4814105249351
 30
0.0
 10
94.99299896541558
 20
-122.5368671915881
 30
0.0
 10
94.99299896541558
 20
-122.5920063582409
 30
0.0
 10
95.03776646427347
 20
-122.6367738582297
 30
0.0
 10
95.0935759072941
 20
-122.6367738582297
 30
0.0
 10
95.14871507255404
 20
-122.6367738582297
 30
0.0
 10
95.19348257141193
 20
-122.5920063582409
 30
0.0
 10
95.19348257141193
 20
-122.5368671915881
 30
0.0
  0
SPLINE
  5
47
330
1F
100
AcDbEntity
  8
_U+30EC_U+30A4_U+30E4_U+30FC 1
 62
   179
420
  2234388
370
     9
100
AcDbSpline
210
0.0
220
0.0
230
1.0
 70
    11
 71
     3
 72
    17
 73
    13
 74
     0
 42
0.0000000001
 43
0.0000000001
 12
1.0
 22
0.0
 32
0.0
 13
1.0
 23
0.0
 33
0.0
 40
0.0
 40
0.0
 40
0.0
 40
0.0
 40
1.0
 40
1.0
 40
1.0
 40
2.0
 40
2.0
 40
2.0
 40
3.0
 40
3.0
 40
3.0
 40
4.0
 40
4.0
 40
4.0
 40
4.0
 10
103.6932395767873
 20
-132.0367141336574
 30
0.0
 10
103.6932395767873
 20
-131.9812574670047
 30
0.0
 10
103.6484368001525
 20
-131.9364899670162
 30
0.0
 10
103.5933329126695
 20
-131.9364899670162
 30
0.0
 10
103.5381937474095
 20
-131.9364899670162
 30
0.0
 10
103.4934262485516
 20
-131.9812574670047
 30
0.0
 10
103.4934262485516
 20
-132.0367141336574
 30
0.0
 10
103.4934262485516
 20
-132.0918533003105
 30
0.0
 10
103.5381937474095
 20
-132.136620800299
 30
0.0
 10
103.5933329126695
 20
-132.136620800299
 30
0.0
 10
103.6484368001525
 20
-132.136620800299
 30
0.0
 10
103.6932395767873
 20
-132.0918533003105
 30
0.0
 10
103.6932395767873
 20
-132.0367141336574
 30
0.0
  0
SPLINE
  5
48
330
1F
100
AcDbEntity
  8
_U+30EC_U+30A4_U+30E4_U+30FC 1
 62
   179
420
  2234388
370
     9
100
AcDbSpline
210
0.0
220
0.0
230
1.0
 70
    11
 71
     3
 72
    17
 73
    13
 74
     0
 42
0.0000000001
 43
0.0000000001
 12
1.0
 22
0.0
 32
0.0
 13
1.0
 23
0.0
 33
0.0
 40
0.0
 40
0.0
 40
0.0
 40
0.0
 40
1.0
 40
1.0
 40
1.0
 40
2.0
 40
2.0
 40
2.0
 40
3.0
 40
3.0
 40
3.0
 40
4.0
 40
4.0
 40
4.0
 40
4.0
 10
100.1930138327522
 20
-137.0365982990739
 30
0.0
 10
100.1930138327522
 20
-136.9814591324215
 30
0.0
 10
100.1482463338943
 20
-136.9366916324323
 30
0.0
 10
100.0931071686343
 20
-136.9366916324323
 30
0.0
 10
100.0380032811512
 20
-136.9366916324323
 30
0.0
 10
99.99320050451648
 20
-136.9814591324215
 30
0.0
 10
99.99320050451648
 20
-137.0365982990739
 30
0.0
 10
99.99320050451648
 20
-137.0920549657273
 30
0.0
 10
100.0380032811512
 20
-137.1365049657156
 30
0.0
 10
100.0931071686343
 20
-137.1365049657156
 30
0.0
 10
100.1482463338943
 20
-137.1365049657156
 30
0.0
 10
100.1930138327522
 20
-137.0920549657273
 30
0.0
 10
100.1930138327522
 20
-137.0365982990739
 30
0.0
  0
SPLINE
  5
49
330
1F
100
AcDbEntity
  8
_U+30EC_U+30A4_U+30E4_U+30FC 1
 62
   179
420
  2234388
370
     9
100
AcDbSpline
210
0.0
220
0.0
230
1.0
 70
    11
 71
     3
 72
    17
 73
    13
 74
     0
 42
0.0000000001
 43
0.0000000001
 12
1.0
 22
0.0
 32
0.0
 13
1.0
 23
0.0
 33
0.0
 40
0.0
 40
0.0
 40
0.0
 40
0.0
 40
1.0
 40
1.0
 40
1.0
 40
2.0
 40
2.0
 40
2.0
 40
3.0
 40
3.0
 40
3.0
 40
4.0
 40
4.0
 40
4.0
 40
4.0
 10
103.6932395767873
 20
-127.5367513570046
 30
0.0
 10
103.6932395767873
 20
-127.481294690352
 30
0.0
 10
103.6484368001525
 20
-127.4364919125853
 30
0.0
 10
103.5933329126695
 20
-127.4364919125853
 30
0.0
 10
103.5381937474095
 20
-127.4364919125853
 30
0.0
 10
103.4934262485516
 20
-127.481294690352
 30
0.0
 10
103.4934262485516
 20
-127.5367513570046
 30
0.0
 10
103.4934262485516
 20
-127.5918552458799
 30
0.0
 10
103.5381937474095
 20
-127.6366580236463
 30
0.0
 10
103.5933329126695
 20
-127.6366580236463
 30
0.0
 10
103.6484368001525
 20
-127.6366580236463
 30
0.0
 10
103.6932395767873
 20
-127.5918552458799
 30
0.0
 10
103.6932395767873
 20
-127.5367513570046
 30
0.0
  0
SPLINE
  5
4A
330
1F
100
AcDbEntity
  8
_U+30EC_U+30A4_U+30E4_U+30FC 1
 62
   179
420
  2234388
370
     9
100
AcDbSpline
210
0.0
220
0.0
230
1.0
 70
    11
 71
     3
 72
    17
 73
    13
 74
     0
 42
0.0000000001
 43
0.0000000001
 12
1.0
 22
0.0
 32
0.0
 13
1.0
 23
0.0
 33
0.0
 40
0.0
 40
0.0
 40
0.0
 40
0.0
 40
1.0
 40
1.0
 40
1.0
 40
2.0
 40
2.0
 40
2.0
 40
3.0
 40
3.0
 40
3.0
 40
4.0
 40
4.0
 40
4.0
 40
4.0
 10
77.19338497507712
 20
-137.0365982990739
 30
0.0
 10
77.19338497507712
 20
-136.9814591324215
 30
0.0
 10
77.1486194251574
 20
-136.9366916324323
 30
0.0
 10
77.0933019220749
 20
-136.9366916324323
 30
0.0
 10
77.03802164570745
 20
-136.9366916324323
 30
0.0
 10
76.99321886907268
 20
-136.9814591324215
 30
0.0
 10
76.99321886907268
 20
-137.0365982990739
 30
0.0
 10
76.99321886907268
 20
-137.0920549657273
 30
0.0
 10
77.03802164570745
 20
-137.1365049657156
 30
0.0
 10
77.0933019220749
 20
-137.1365049657156
 30
0.0
 10
77.1486194251574
 20
-137.1365049657156
 30
0.0
 10
77.19338497507712
 20
-137.0920549657273
 30
0.0
 10
77.19338497507712
 20
-137.0365982990739
 30
0.0
  0
POLYLINE
  5
4B
330
1F
100
AcDbEntity
  8
_U+30EC_U+30A4_U+30E4_U+30FC 1
 62
   179
420
  2234388
370
     9
100
AcDb2dPolyline
 66
     1
 10
0.0
 20
0.0
 30
0.0
  0
VERTEX
  5
4C
330
4B
100
AcDbEntity
  8
_U+30EC_U+30A4_U+30E4_U+30FC 1
 62
   179
420
  2234388
370
     9
100
AcDbVertex
100
AcDb2dVertex
 10
103.5933329126695
 20
-127.5367513570046
 30
0.0
  0
VERTEX
  5
4D
330
4B
100
AcDbEntity
  8
_U+30EC_U+30A4_U+30E4_U+30FC 1
 62
   179
420
  2234388
370
     9
100
AcDbVertex
100
AcDb2dVertex
 10
103.5933329126695
 20
-122.2788455249857
 30
0.0
  0
SEQEND
  5
4E
330
4B
100
AcDbEntity
  8
_U+30EC_U+30A4_U+30E4_U+30FC 1
 62
   179
420
  2234388
370
     9
  0
POLYLINE
  5
4F
330
1F
100
AcDbEntity
  8
_U+30EC_U+30A4_U+30E4_U+30FC 1
 62
   179
420
  2234388
370
     9
100
AcDb2dPolyline
 66
     1
 10
0.0
 20
0.0
 30
0.0
  0
VERTEX
  5
50
330
4F
100
AcDbEntity
  8
_U+30EC_U+30A4_U+30E4_U+30FC 1
 62
   179
420
  2234388
370
     9
100
AcDbVertex
100
AcDb2dVertex
 10
103.5933329126695
 20
-133.0364863556299
 30
0.0
  0
VERTEX
  5
51
330
4F
100
AcDbEntity
  8
_U+30EC_U+30A4_U+30E4_U+30FC 1
 62
   179
420
  2234388
370
     9
100
AcDbVertex
100
AcDb2dVertex
 10
103.5933329126695
 20
-127.5367513570046
 30
0.0
  0
SEQEND
  5
52
330
4F
100
AcDbEntity
  8
_U+30EC_U+30A4_U+30E4_U+30FC 1
 62
   179
420
  2234388
370
     9
  0
POLYLINE
  5
53
330
1F
100
AcDbEntity
  8
_U+30EC_U+30A4_U+30E4_U+30FC 1
 62
   179
420
  2234388
370
     9
100
AcDb2dPolyline
 66
     1
 10
0.0
 20
0.0
 30
0.0
  0
VERTEX
  5
54
330
53
100
AcDbEntity
  8
_U+30EC_U+30A4_U+30E4_U+30FC 1
 62
   179
420
  2234388
370
     9
100
AcDbVertex
100
AcDb2dVertex
 10
97.63332889805515
 20
-132.0367141336574
 30
0.0
  0
VERTEX
  5
55
330
53
100
AcDbEntity
  8
_U+30EC_U+30A4_U+30E4_U+30FC 1
 62
   179
420
  2234388
370
     9
100
AcDbVertex
100
AcDb2dVertex
 10
104.5931051093854
 20
-132.0367141336574
 30
0.0
  0
SEQEND
  5
56
330
53
100
AcDbEntity
  8
_U+30EC_U+30A4_U+30E4_U+30FC 1
 62
   179
420
  2234388
370
     9
  0
POLYLINE
  5
57
330
1F
100
AcDbEntity
  8
_U+30EC_U+30A4_U+30E4_U+30FC 1
 62
   179
420
  2234388
370
     9
100
AcDb2dPolyline
 66
     1
 10
0.0
 20
0.0
 30
0.0
  0
VERTEX
  5
58
330
57
100
AcDbEntity
  8
_U+30EC_U+30A4_U+30E4_U+30FC 1
 62
   179
420
  2234388
370
     9
100
AcDbVertex
100
AcDb2dVertex
 10
97.63332889805515
 20
-127.5367513570046
 30
0.0
  0
VERTEX
  5
59
330
57
100
AcDbEntity
  8
_U+30EC_U+30A4_U+30E4_U+30FC 1
 62
   179
420
  2234388
370
     9
100
AcDbVertex
100
AcDb2dVertex
 10
104.5931051093854
 20
-127.5367513570046
 30
0.0
  0
SEQEND
  5
5A
330
57
100
AcDbEntity
  8
_U+30EC_U+30A4_U+30E4_U+30FC 1
 62
   179
420
  2234388
370
     9
  0
INSERT
  5
5C
330
1F
100
AcDbEntity
  8
_U+30EC_U+30A4_U+30E4_U+30FC 1
100
AcDbBlockReference
  2
block 2
 10
0.0
 20
0.0
 30
0.0
  0
POLYLINE
  5
7E
330
1F
100
AcDbEntity
  8
_U+30EC_U+30A4_U+30E4_U+30FC 1
 62
   179
420
  2234388
370
     9
100
AcDb2dPolyline
 66
     1
 10
0.0
 20
0.0
 30
0.0
  0
VERTEX
  5
7F
330
7E
100
AcDbEntity
  8
_U+30EC_U+30A4_U+30E4_U+30FC 1
 62
   179
420
  2234388
370
     9
100
AcDbVertex
100
AcDb2dVertex
 10
77.0933019220749
 20
-137.0365982990739
 30
0.0
  0
VERTEX
  5
80
330
7E
100
AcDbEntity
  8
_U+30EC_U+30A4_U+30E4_U+30FC 1
 62
   179
420
  2234388
370
     9
100
AcDbVertex
100
AcDb2dVertex
 10
100.0931071686343
 20
-137.0365982990739
 30
0.0
  0
SEQEND
  5
81
330
7E
100
AcDbEntity
  8
_U+30EC_U+30A4_U+30E4_U+30FC 1
 62
   179
420
  2234388
370
     9
  0
POLYLINE
  5
82
330
1F
100
AcDbEntity
  8
_U+30EC_U+30A4_U+30E4_U+30FC 1
 62
   179
420
  2234388
370
     9
100
AcDb2dPolyline
 66
     1
 10
0.0
 20
0.0
 30
0.0
  0
VERTEX
  5
83
330
82
100
AcDbEntity
  8
_U+30EC_U+30A4_U+30E4_U+30FC 1
 62
   179
420
  2234388
370
     9
100
AcDbVertex
100
AcDb2dVertex
 10
77.0933019220749
 20
-135.5765569105502
 30
0.0
  0
VERTEX
  5
84
330
82
100
AcDbEntity
  8
_U+30EC_U+30A4_U+30E4_U+30FC 1
 62
   179
420
  2234388
370
     9
100
AcDbVertex
100
AcDb2dVertex
 10
77.0933019220749
 20
-138.0367232988243
 30
0.0
  0
SEQEND
  5
85
330
82
100
AcDbEntity
  8
_U+30EC_U+30A4_U+30E4_U+30FC 1
 62
   179
420
  2234388
370
     9
  0
POLYLINE
  5
86
330
1F
100
AcDbEntity
  8
_U+30EC_U+30A4_U+30E4_U+30FC 1
 62
   179
420
  2234388
370
     9
100
AcDb2dPolyline
 66
     1
 10
0.0
 20
0.0
 30
0.0
  0
VERTEX
  5
87
330
86
100
AcDbEntity
  8
_U+30EC_U+30A4_U+30E4_U+30FC 1
 62
   179
420
  2234388
370
     9
100
AcDbVertex
100
AcDb2dVertex
 10
100.0931071686343
 20
-135.5765569105502
 30
0.0
  0
VERTEX
  5
88
330
86
100
AcDbEntity
  8
_U+30EC_U+30A4_U+30E4_U+30FC 1
 62
   179
420
  2234388
370
     9
100
AcDbVertex
100
AcDb2dVertex
 10
100.0931071686343
 20
-138.0367232988243
 30
0.0
  0
SEQEND
  5
89
330
86
100
AcDbEntity
  8
_U+30EC_U+30A4_U+30E4_U+30FC 1
 62
   179
420
  2234388
370
     9
  0
INSERT
  5
8B
330
1F
100
AcDbEntity
  8
_U+30EC_U+30A4_U+30E4_U+30FC 1
100
AcDbBlockReference
  2
block 3
 10
0.0
 20
0.0
 30
0.0
  0
POLYLINE
  5
92
330
1F
100
AcDbEntity
  8
_U+30EC_U+30A4_U+30E4_U+30FC 1
 62
   179
420
  2234388
370
     9
100
AcDb2dPolyline
 66
     1
 10
0.0
 20
0.0
 30
0.0
  0
VERTEX
  5
93
330
92
100
AcDbEntity
  8
_U+30EC_U+30A4_U+30E4_U+30FC 1
 62
   179
420
  2234388
370
     9
100
AcDbVertex
100
AcDb2dVertex
 10
79.09337548215989
 20
-122.5368671915881
 30
0.0
  0
VERTEX
  5
94
330
92
100
AcDbEntity
  8
_U+30EC_U+30A4_U+30E4_U+30FC 1
 62
   179
420
  2234388
370
     9
100
AcDbVertex
100
AcDb2dVertex
 10
84.093224243492
 20
-122.5368671915881
 30
0.0
  0
SEQEND
  5
95
330
92
100
AcDbEntity
  8
_U+30EC_U+30A4_U+30E4_U+30FC 1
 62
   179
420
  2234388
370
     9
  0
POLYLINE
  5
96
330
1F
100
AcDbEntity
  8
_U+30EC_U+30A4_U+30E4_U+30FC 1
 62
   179
420
  2234388
370
     9
100
AcDb2dPolyline
 66
     1
 10
0.0
 20
0.0
 30
0.0
  0
VERTEX
  5
97
330
96
100
AcDbEntity
  8
_U+30EC_U+30A4_U+30E4_U+30FC 1
 62
   179
420
  2234388
370
     9
100
AcDbVertex
100
AcDb2dVertex
 10
79.09337548215989
 20
-124.996680802084
 30
0.0
  0
VERTEX
  5
98
330
96
100
AcDbEntity
  8
_U+30EC_U+30A4_U+30E4_U+30FC 1
 62
   179
420
  2234388
370
     9
100
AcDbVertex
100
AcDb2dVertex
 10
79.09337548215989
 20
-121.5364246918382
 30
0.0
  0
SEQEND
  5
99
330
96
100
AcDbEntity
  8
_U+30EC_U+30A4_U+30E4_U+30FC 1
 62
   179
420
  2234388
370
     9
  0
POLYLINE
  5
9A
330
1F
100
AcDbEntity
  8
_U+30EC_U+30A4_U+30E4_U+30FC 1
 62
   179
420
  2234388
370
     9
100
AcDb2dPolyline
 66
     1
 10
0.0
 20
0.0
 30
0.0
  0
VERTEX
  5
9B
330
9A
100
AcDbEntity
  8
_U+30EC_U+30A4_U+30E4_U+30FC 1
 62
   179
420
  2234388
370
     9
100
AcDbVertex
100
AcDb2dVertex
 10
84.093224243492
 20
-123.9969085801118
 30
0.0
  0
VERTEX
  5
9C
330
9A
100
AcDbEntity
  8
_U+30EC_U+30A4_U+30E4_U+30FC 1
 62
   179
420
  2234388
370
     9
100
AcDbVertex
100
AcDb2dVertex
 10
84.093224243492
 20
-121.5364246918382
 30
0.0
  0
SEQEND
  5
9D
330
9A
100
AcDbEntity
  8
_U+30EC_U+30A4_U+30E4_U+30FC 1
 62
   179
420
  2234388
370
     9
  0
INSERT
  5
9F
330
1F
100
AcDbEntity
  8
_U+30EC_U+30A4_U+30E4_U+30FC 1
100
AcDbBlockReference
  2
block 4
 10
0.0
 20
0.0
 30
0.0
  0
POLYLINE
  5
A4
330
1F
100
AcDbEntity
  8
_U+30EC_U+30A4_U+30E4_U+30FC 1
 62
   179
420
  2234388
370
     9
100
AcDb2dPolyline
 66
     1
 10
0.0
 20
0.0
 30
0.0
  0
VERTEX
  5
A5
330
A4
100
AcDbEntity
  8
_U+30EC_U+30A4_U+30E4_U+30FC 1
 62
   179
420
  2234388
370
     9
100
AcDbVertex
100
AcDb2dVertex
 10
84.093224243492
 20
-122.5368671915881
 30
0.0
  0
VERTEX
  5
A6
330
A4
100
AcDbEntity
  8
_U+30EC_U+30A4_U+30E4_U+30FC 1
 62
   179
420
  2234388
370
     9
100
AcDbVertex
100
AcDb2dVertex
 10
90.09319797930881
 20
-122.5368671915881
 30
0.0
  0
SEQEND
  5
A7
330
A4
100
AcDbEntity
  8
_U+30EC_U+30A4_U+30E4_U+30FC 1
 62
   179
420
  2234388
370
     9
  0
POLYLINE
  5
A8
330
1F
100
AcDbEntity
  8
_U+30EC_U+30A4_U+30E4_U+30FC 1
 62
   179
420
  2234388
370
     9
100
AcDb2dPolyline
 66
     1
 10
0.0
 20
0.0
 30
0.0
  0
VERTEX
  5
A9
330
A8
100
AcDbEntity
  8
_U+30EC_U+30A4_U+30E4_U+30FC 1
 62
   179
420
  2234388
370
     9
100
AcDbVertex
100
AcDb2dVertex
 10
84.093224243492
 20
-123.9969085801118
 30
0.0
  0
VERTEX
  5
AA
330
A8
100
AcDbEntity
  8
_U+30EC_U+30A4_U+30E4_U+30FC 1
 62
   179
420
  2234388
370
     9
100
AcDbVertex
100
AcDb2dVertex
 10
84.093224243492
 20
-121.5364246918382
 30
0.0
  0
SEQEND
  5
AB
330
A8
100
AcDbEntity
  8
_U+30EC_U+30A4_U+30E4_U+30FC 1
 62
   179
420
  2234388
370
     9
  0
POLYLINE
  5
AC
330
1F
100
AcDbEntity
  8
_U+30EC_U+30A4_U+30E4_U+30FC 1
 62
   179
420
  2234388
370
     9
100
AcDb2dPolyline
 66
     1
 10
0.0
 20
0.0
 30
0.0
  0
VERTEX
  5
AD
330
AC
100
AcDbEntity
  8
_U+30EC_U+30A4_U+30E4_U+30FC 1
 62
   179
420
  2234388
370
     9
100
AcDbVertex
100
AcDb2dVertex
 10
90.09319797930881
 20
-123.9969085801118
 30
0.0
  0
VERTEX
  5
AE
330
AC
100
AcDbEntity
  8
_U+30EC_U+30A4_U+30E4_U+30FC 1
 62
   179
420
  2234388
370
     9
100
AcDbVertex
100
AcDb2dVertex
 10
90.09319797930881
 20
-121.5364246918382
 30
0.0
  0
SEQEND
  5
AF
330
AC
100
AcDbEntity
  8
_U+30EC_U+30A4_U+30E4_U+30FC 1
 62
   179
420
  2234388
370
     9
  0
INSERT
  5
B1
330
1F
100
AcDbEntity
  8
_U+30EC_U+30A4_U+30E4_U+30FC 1
100
AcDbBlockReference
  2
block 5
 10
0.0
 20
0.0
 30
0.0
  0
POLYLINE
  5
B7
330
1F
100
AcDbEntity
  8
_U+30EC_U+30A4_U+30E4_U+30FC 1
 62
   179
420
  2234388
370
     9
100
AcDb2dPolyline
 66
     1
 10
0.0
 20
0.0
 30
0.0
  0
VERTEX
  5
B8
330
B7
100
AcDbEntity
  8
_U+30EC_U+30A4_U+30E4_U+30FC 1
 62
   179
420
  2234388
370
     9
100
AcDbVertex
100
AcDb2dVertex
 10
90.09319797930881
 20
-122.5368671915881
 30
0.0
  0
VERTEX
  5
B9
330
B7
100
AcDbEntity
  8
_U+30EC_U+30A4_U+30E4_U+30FC 1
 62
   179
420
  2234388
370
     9
100
AcDbVertex
100
AcDb2dVertex
 10
95.0935759072941
 20
-122.5368671915881
 30
0.0
  0
SEQEND
  5
BA
330
B7
100
AcDbEntity
  8
_U+30EC_U+30A4_U+30E4_U+30FC 1
 62
   179
420
  2234388
370
     9
  0
POLYLINE
  5
BB
330
1F
100
AcDbEntity
  8
_U+30EC_U+30A4_U+30E4_U+30FC 1
 62
   179
420
  2234388
370
     9
100
AcDb2dPolyline
 66
     1
 10
0.0
 20
0.0
 30
0.0
  0
VERTEX
  5
BC
330
BB
100
AcDbEntity
  8
_U+30EC_U+30A4_U+30E4_U+30FC 1
 62
   179
420
  2234388
370
     9
100
AcDbVertex
100
AcDb2dVertex
 10
95.0935759072941
 20
-124.996680802084
 30
0.0
  0
VERTEX
  5
BD
330
BB
100
AcDbEntity
  8
_U+30EC_U+30A4_U+30E4_U+30FC 1
 62
   179
420
  2234388
370
     9
100
AcDbVertex
100
AcDb2dVertex
 10
95.0935759072941
 20
-121.5364246918382
 30
0.0
  0
SEQEND
  5
BE
330
BB
100
AcDbEntity
  8
_U+30EC_U+30A4_U+30E4_U+30FC 1
 62
   179
420
  2234388
370
     9
  0
INSERT
  5
C0
330
1F
100
AcDbEntity
  8
_U+30EC_U+30A4_U+30E4_U+30FC 1
100
AcDbBlockReference
  2
block 6
 10
0.0
 20
0.0
 30
0.0
  0
SPLINE
  5
C5
330
1F
100
AcDbEntity
  8
_U+30EC_U+30A4_U+30E4_U+30FC 1
 62
   179
420
  2234388
370
     9
100
AcDbSpline
210
0.0
220
0.0
230
1.0
 70
    11
 71
     3
 72
    17
 73
    13
 74
     0
 42
0.0000000001
 43
0.0000000001
 12
1.0
 22
0.0
 32
0.0
 13
1.0
 23
0.0
 33
0.0
 40
0.0
 40
0.0
 40
0.0
 40
0.0
 40
1.0
 40
1.0
 40
1.0
 40
2.0
 40
2.0
 40
2.0
 40
3.0
 40
3.0
 40
3.0
 40
4.0
 40
4.0
 40
4.0
 40
4.0
 10
83.1856328777577
 20
-128.7659702455863
 30
0.0
 10
83.1856328777577
 20
-128.7108310789332
 30
0.0
 10
83.14083010112293
 20
-128.6660635789447
 30
0.0
 10
83.08572621363986
 20
-128.6660635789447
 30
0.0
 10
83.03023427061113
 20
-128.6660635789447
 30
0.0
 10
82.98546677175325
 20
-128.7108310789332
 30
0.0
 10
82.98546677175325
 20
-128.7659702455863
 30
0.0
 10
82.98546677175325
 20
-128.8210741344612
 30
0.0
 10
83.03023427061113
 20
-128.865876912228
 30
0.0
 10
83.08572621363986
 20
-128.865876912228
 30
0.0
 10
83.14083010112293
 20
-128.865876912228
 30
0.0
 10
83.1856328777577
 20
-128.8210741344612
 30
0.0
 10
83.1856328777577
 20
-128.7659702455863
 30
0.0
  0
SPLINE
  5
C6
330
1F
100
AcDbEntity
  8
_U+30EC_U+30A4_U+30E4_U+30FC 1
 62
   179
420
  2234388
370
     9
100
AcDbSpline
210
0.0
220
0.0
230
1.0
 70
    11
 71
     3
 72
    17
 73
    13
 74
     0
 42
0.0000000001
 43
0.0000000001
 12
1.0
 22
0.0
 32
0.0
 13
1.0
 23
0.0
 33
0.0
 40
0.0
 40
0.0
 40
0.0
 40
0.0
 40
1.0
 40
1.0
 40
1.0
 40
2.0
 40
2.0
 40
2.0
 40
3.0
 40
3.0
 40
3.0
 40
4.0
 40
4.0
 40
4.0
 40
4.0
 10
84.1857225744655
 20
-128.7659702455863
 30
0.0
 10
84.1857225744655
 20
-128.7108310789332
 30
0.0
 10
84.14095507560762
 20
-128.6660635789447
 30
0.0
 10
84.08581591034768
 20
-128.6660635789447
 30
0.0
 10
84.0307120228646
 20
-128.6660635789447
 30
0.0
 10
83.98590924622984
 20
-128.7108310789332
 30
0.0
 10
83.98590924622984
 20
-128.7659702455863
 30
0.0
 10
83.98590924622984
 20
-128.8210741344612
 30
0.0
 10
84.0307120228646
 20
-128.865876912228
 30
0.0
 10
84.08581591034768
 20
-128.865876912228
 30
0.0
 10
84.14095507560762
 20
-128.865876912228
 30
0.0
 10
84.1857225744655
 20
-128.8210741344612
 30
0.0
 10
84.1857225744655
 20
-128.7659702455863
 30
0.0
  0
POLYLINE
  5
C7
330
1F
100
AcDbEntity
  8
_U+30EC_U+30A4_U+30E4_U+30FC 1
 62
   179
420
  2234388
370
     9
100
AcDb2dPolyline
 66
     1
 10
0.0
 20
0.0
 30
0.0
  0
VERTEX
  5
C8
330
C7
100
AcDbEntity
  8
_U+30EC_U+30A4_U+30E4_U+30FC 1
 62
   179
420
  2234388
370
     9
100
AcDbVertex
100
AcDb2dVertex
 10
84.08581591034768
 20
-128.7659702455863
 30
0.0
  0
VERTEX
  5
C9
330
C7
100
AcDbEntity
  8
_U+30EC_U+30A4_U+30E4_U+30FC 1
 62
   179
420
  2234388
370
     9
100
AcDbVertex
100
AcDb2dVertex
 10
87.85613053359158
 20
-128.7659702455863
 30
0.0
  0
SEQEND
  5
CA
330
C7
100
AcDbEntity
  8
_U+30EC_U+30A4_U+30E4_U+30FC 1
 62
   179
420
  2234388
370
     9
  0
POLYLINE
  5
CB
330
1F
100
AcDbEntity
  8
_U+30EC_U+30A4_U+30E4_U+30FC 1
 62
   179
420
  2234388
370
     9
100
AcDb2dPolyline
 66
     1
 10
0.0
 20
0.0
 30
0.0
  0
VERTEX
  5
CC
330
CB
100
AcDbEntity
  8
_U+30EC_U+30A4_U+30E4_U+30FC 1
 62
   179
420
  2234388
370
     9
100
AcDbVertex
100
AcDb2dVertex
 10
82.08560123915518
 20
-128.7659702455863
 30
0.0
  0
VERTEX
  5
CD
330
CB
100
AcDbEntity
  8
_U+30EC_U+30A4_U+30E4_U+30FC 1
 62
   179
420
  2234388
370
     9
100
AcDbVertex
100
AcDb2dVertex
 10
84.08581591034768
 20
-128.7659702455863
 30
0.0
  0
SEQEND
  5
CE
330
CB
100
AcDbEntity
  8
_U+30EC_U+30A4_U+30E4_U+30FC 1
 62
   179
420
  2234388
370
     9
  0
INSERT
  5
D0
330
1F
100
AcDbEntity
  8
_U+30EC_U+30A4_U+30E4_U+30FC 1
100
AcDbBlockReference
  2
block 7
 10
0.0
 20
0.0
 30
0.0
  0
ENDSEC
  0
SECTION
  2
OBJECTS
  0
DICTIONARY
  5
C
330
0
100
AcDbDictionary
281
     1
  3
ACAD_GROUP
350
D
  3
ACAD_LAYOUT
350
1A
  3
ACAD_MATERIAL
350
3B
  3
ACAD_MLEADERSTYLE
350
D6
  3
ACAD_MLINESTYLE
350
17
  3
ACAD_PLOTSETTINGS
350
19
  3
ACAD_PLOTSTYLENAME
350
E
  3
ACAD_TABLESTYLE
350
D5
  3
ACAD_VISUALSTYLE
350
2A
  0
SUN
  5
3F
330
29
100
AcDbSun
 90
        1
290
     0
 63
     7
421
 16777215
 40
1.0
291
     1
 91
  2455826
 92
 54000000
292
     0
 70
     2
 71
   256
280
     1
  0
DICTIONARY
  5
D
102
{ACAD_REACTORS
330
C
102
}
330
C
100
AcDbDictionary
281
     1
  0
DICTIONARY
  5
1A
102
{ACAD_REACTORS
330
C
102
}
330
C
100
AcDbDictionary
281
     1
  3
Layout1
350
1E
  3
Layout2
350
26
  3
Model
350
22
  0
DICTIONARY
  5
3B
102
{ACAD_REACTORS
330
C
102
}
330
C
100
AcDbDictionary
281
     1
  3
ByBlock
350
3D
  3
ByLayer
350
3C
  3
Global
350
3E
  0
DICTIONARY
  5
D6
102
{ACAD_REACTORS
330
C
102
}
330
C
100
AcDbDictionary
281
     1
  0
DICTIONARY
  5
17
102
{ACAD_REACTORS
330
C
102
}
330
C
100
AcDbDictionary
281
     1
  3
Standard
350
18
  0
DICTIONARY
  5
19
102
{ACAD_REACTORS
330
C
102
}
330
C
100
AcDbDictionary
281
     1
  0
ACDBDICTIONARYWDFLT
  5
E
102
{ACAD_REACTORS
330
C
102
}
330
C
100
AcDbDictionary
281
     1
  3
Normal
350
F
100
AcDbDictionaryWithDefault
340
F
  0
DICTIONARY
  5
D5
102
{ACAD_REACTORS
330
C
102
}
330
C
100
AcDbDictionary
281
     1
  0
DICTIONARY
  5
2A
102
{ACAD_REACTORS
330
C
102
}
330
C
100
AcDbDictionary
281
     1
  3
2dWireframe
350
2F
  3
3D Hidden
350
31
  3
3dWireframe
350
30
  3
Basic
350
32
  3
Brighten
350
36
  3
ColorChange
350
3A
  3
Conceptual
350
34
  3
Dim
350
35
  3
Facepattern
350
39
  3
Flat
350
2B
  3
FlatWithEdges
350
2C
  3
Gouraud
350
2D
  3
GouraudWithEdges
350
2E
  3
Linepattern
350
38
  3
Realistic
350
33
  3
Thicken
350
37
  0
LAYOUT
  5
1E
102
{ACAD_REACTORS
330
1A
102
}
330
1A
100
AcDbPlotSettings
  1

  2
none_device
  4

  6

 40
0.0
 41
0.0
 42
0.0
 43
0.0
 44
0.0
 45
0.0
 46
0.0
 47
0.0
 48
0.0
 49
0.0
140
0.0
141
0.0
142
1.0
143
1.0
 70
   688
 72
     0
 73
     0
 74
     5
  7

 75
    16
 76
     0
 77
     2
 78
   300
147
1.0
148
0.0
149
0.0
100
AcDbLayout
  1
Layout1
 70
     1
 71
     1
 10
0.0
 20
0.0
 11
12.0
 21
9.0
 12
0.0
 22
0.0
 32
0.0
 14
1.000000000000000E+20
 24
1.000000000000000E+20
 34
1.000000000000000E+20
 15
-1.000000000000000E+20
 25
-1.000000000000000E+20
 35
-1.000000000000000E+20
146
0.0
 13
0.0
 23
0.0
 33
0.0
 16
1.0
 26
0.0
 36
0.0
 17
0.0
 27
1.0
 37
0.0
 76
     0
330
1B
  0
LAYOUT
  5
26
102
{ACAD_REACTORS
330
1A
102
}
330
1A
100
AcDbPlotSettings
  1

  2
none_device
  4

  6

 40
0.0
 41
0.0
 42
0.0
 43
0.0
 44
0.0
 45
0.0
 46
0.0
 47
0.0
 48
0.0
 49
0.0
140
0.0
141
0.0
142
1.0
143
1.0
 70
   688
 72
     0
 73
     0
 74
     5
  7

 75
    16
 76
     0
 77
     2
 78
   300
147
1.0
148
0.0
149
0.0
100
AcDbLayout
  1
Layout2
 70
     1
 71
     2
 10
0.0
 20
0.0
 11
0.0
 21
0.0
 12
0.0
 22
0.0
 32
0.0
 14
0.0
 24
0.0
 34
0.0
 15
0.0
 25
0.0
 35
0.0
146
0.0
 13
0.0
 23
0.0
 33
0.0
 16
1.0
 26
0.0
 36
0.0
 17
0.0
 27
1.0
 37
0.0
 76
     0
330
23
  0
LAYOUT
  5
22
102
{ACAD_REACTORS
330
1A
102
}
330
1A
100
AcDbPlotSettings
  1

  2
none_device
  4

  6

 40
0.0
 41
0.0
 42
0.0
 43
0.0
 44
0.0
 45
0.0
 46
0.0
 47
0.0
 48
0.0
 49
0.0
140
0.0
141
0.0
142
1.0
143
1.0
 70
  1712
 72
     0
 73
     0
 74
     0
  7

 75
     0
 76
     0
 77
     2
 78
   300
147
1.0
148
0.0
149
0.0
100
AcDbLayout
  1
Model
 70
     1
 71
     0
 10
0.0
 20
0.0
 11
12.0
 21
9.0
 12
0.0
 22
0.0
 32
0.0
 14
1.000000000000000E+20
 24
1.000000000000000E+20
 34
1.000000000000000E+20
 15
-1.000000000000000E+20
 25
-1.000000000000000E+20
 35
-1.000000000000000E+20
146
0.0
 13
0.0
 23
0.0
 33
0.0
 16
1.0
 26
0.0
 36
0.0
 17
0.0
 27
1.0
 37
0.0
 76
     0
330
1F
331
29
  0
MATERIAL
  5
3D
102
{ACAD_REACTORS
330
3B
102
}
330
3B
100
AcDbMaterial
  1
ByBlock
 72
     1
 94
      127
  0
MATERIAL
  5
3C
102
{ACAD_REACTORS
330
3B
102
}
330
3B
100
AcDbMaterial
  1
ByLayer
 72
     1
 94
      127
  0
MATERIAL
  5
3E
102
{ACAD_REACTORS
330
3B
102
}
330
3B
100
AcDbMaterial
  1
Global
 72
     1
 94
      127
  0
MLINESTYLE
  5
18
102
{ACAD_REACTORS
330
17
102
}
330
17
100
AcDbMlineStyle
  2
Standard
 70
     0
  3

 62
   256
 51
90.0
 52
90.0
 71
     2
 49
0.5
 62
   256
  6
BYLAYER
 49
-0.5
 62
   256
  6
BYLAYER
  0
ACDBPLACEHOLDER
  5
F
102
{ACAD_REACTORS
330
E
102
}
330
E
  0
VISUALSTYLE
  5
2F
102
{ACAD_REACTORS
330
2A
102
}
330
2A
100
AcDbVisualStyle
  2
2dWireframe
 70
     4
177
     2
291
     0
 71
     0
176
     1
 72
     2
176
     1
 73
     0
176
     1
 90
        0
176
     1
 40
-0.6
176
     1
 41
-30.0
176
     1
 62
     5
 63
     7
421
 16777215
176
     1
 74
     1
176
     1
 91
        4
176
     1
 64
     7
176
     1
 65
   257
176
     1
 75
     1
176
     1
175
     1
176
     1
 42
1.0
176
     1
 92
        0
176
     1
 66
   257
176
     1
 43
1.0
176
     1
 76
     1
176
     1
 77
     6
176
     1
 78
     2
176
     1
 67
     7
176
     1
 79
     5
176
     1
170
     0
176
     1
171
     0
176
     1
290
     0
176
     1
 93
        1
176
     1
 44
0.0
176
     1
173
     0
176
     1
  0
VISUALSTYLE
  5
31
102
{ACAD_REACTORS
330
2A
102
}
330
2A
100
AcDbVisualStyle
  2
3D Hidden
 70
     6
177
     2
291
     0
 71
     1
176
     1
 72
     2
176
     1
 73
     2
176
     1
 90
        0
176
     1
 40
-0.6
176
     1
 41
-30.0
176
     1
 62
     5
 63
     7
421
 16777215
176
     1
 74
     2
176
     1
 91
        2
176
     1
 64
     7
176
     1
 65
   257
176
     1
 75
     2
176
     1
175
     1
176
     1
 42
40.0
176
     1
 92
        0
176
     1
 66
   257
176
     1
 43
1.0
176
     1
 76
     1
176
     1
 77
     6
176
     1
 78
     2
176
     1
 67
     7
176
     1
 79
     3
176
     1
170
     0
176
     1
171
     0
176
     1
290
     0
176
     1
 93
        1
176
     1
 44
0.0
176
     1
173
     0
176
     1
  0
VISUALSTYLE
  5
30
102
{ACAD_REACTORS
330
2A
102
}
330
2A
100
AcDbVisualStyle
  2
3dWireframe
 70
     5
177
     2
291
     0
 71
     0
176
     1
 72
     2
176
     1
 73
     0
176
     1
 90
        0
176
     1
 40
-0.6
176
     1
 41
-30.0
176
     1
 62
     5
 63
     7
421
 16777215
176
     1
 74
     1
176
     1
 91
        4
176
     1
 64
     7
176
     1
 65
   257
176
     1
 75
     1
176
     1
175
     1
176
     1
 42
1.0
176
     1
 92
        0
176
     1
 66
   257
176
     1
 43
1.0
176
     1
 76
     1
176
     1
 77
     6
176
     1
 78
     2
176
     1
 67
     7
176
     1
 79
     5
176
     1
170
     0
176
     1
171
     0
176
     1
290
     0
176
     1
 93
        1
176
     1
 44
0.0
176
     1
173
     0
176
     1
  0
VISUALSTYLE
  5
32
102
{ACAD_REACTORS
330
2A
102
}
330
2A
100
AcDbVisualStyle
  2
Basic
 70
     7
177
     2
291
     1
 71
     1
176
     1
 72
     0
176
     1
 73
     1
176
     1
 90
        0
176
     1
 40
-0.6
176
     1
 41
-30.0
176
     1
 62
     5
 63
     7
421
 16777215
176
     1
 74
     0
176
     1
 91
        4
176
     1
 64
     7
176
     1
 65
   257
176
     1
 75
     1
176
     1
175
     1
176
     1
 42
1.0
176
     1
 92
        8
176
     1
 66
     7
176
     1
 43
1.0
176
     1
 76
     1
176
     1
 77
     6
176
     1
 78
     2
176
     1
 67
     7
176
     1
 79
     5
176
     1
170
     0
176
     1
171
     0
176
     1
290
     0
176
     1
 93
        1
176
     1
 44
0.0
176
     1
173
     0
176
     1
  0
VISUALSTYLE
  5
36
102
{ACAD_REACTORS
330
2A
102
}
330
2A
100
AcDbVisualStyle
  2
Brighten
 70
    12
177
     2
291
     1
 71
     2
176
     1
 72
     2
176
     1
 73
     0
176
     1
 90
        0
176
     1
 40
-0.6
176
     1
 41
-30.0
176
     1
 62
     5
 63
     7
421
 16777215
176
     1
 74
     1
176
     1
 91
        4
176
     1
 64
     7
176
     1
 65
   257
176
     1
 75
     1
176
     1
175
     1
176
     1
 42
1.0
176
     1
 92
        8
176
     1
 66
     7
176
     1
 43
1.0
176
     1
 76
     1
176
     1
 77
     6
176
     1
 78
     2
176
     1
 67
     7
176
     1
 79
     5
176
     1
170
     0
176
     1
171
     0
176
     1
290
     0
176
     1
 93
        1
176
     1
 44
50.0
176
     1
173
     0
176
     1
  0
VISUALSTYLE
  5
3A
102
{ACAD_REACTORS
330
2A
102
}
330
2A
100
AcDbVisualStyle
  2
ColorChange
 70
    16
177
     2
291
     1
 71
     2
176
     1
 72
     2
176
     1
 73
     3
176
     1
 90
        0
176
     1
 40
-0.6
176
     1
 41
-30.0
176
     1
 62
     5
 63
     8
421
  8421504
176
     1
 74
     1
176
     1
 91
        4
176
     1
 64
     7
176
     1
 65
   257
176
     1
 75
     1
176
     1
175
     1
176
     1
 42
1.0
176
     1
 92
        8
176
     1
 66
     8
424
  8421504
176
     1
 43
1.0
176
     1
 76
     1
176
     1
 77
     6
176
     1
 78
     2
176
     1
 67
     7
176
     1
 79
     5
176
     1
170
     0
176
     1
171
     0
176
     1
290
     0
176
     1
 93
        1
176
     1
 44
0.0
176
     1
173
     0
176
     1
  0
VISUALSTYLE
  5
34
102
{ACAD_REACTORS
330
2A
102
}
330
2A
100
AcDbVisualStyle
  2
Conceptual
 70
     9
177
     2
291
     0
 71
     3
176
     1
 72
     2
176
     1
 73
     0
176
     1
 90
        0
176
     1
 40
-0.6
176
     1
 41
-30.0
176
     1
 62
     5
 63
     7
421
 16777215
176
     1
 74
     2
176
     1
 91
        2
176
     1
 64
     7
176
     1
 65
   257
176
     1
 75
     1
176
     1
175
     1
176
     1
 42
40.0
176
     1
 92
        8
176
     1
 66
     7
176
     1
 43
1.0
176
     1
 76
     1
176
     1
 77
     6
176
     1
 78
     2
176
     1
 67
     7
176
     1
 79
     3
176
     1
170
     0
176
     1
171
     0
176
     1
290
     0
176
     1
 93
        1
176
     1
 44
0.0
176
     1
173
     0
176
     1
  0
VISUALSTYLE
  5
35
102
{ACAD_REACTORS
330
2A
102
}
330
2A
100
AcDbVisualStyle
  2
Dim
 70
    11
177
     2
291
     1
 71
     2
176
     1
 72
     2
176
     1
 73
     0
176
     1
 90
        0
176
     1
 40
-0.6
176
     1
 41
-30.0
176
     1
 62
     5
 63
     7
421
 16777215
176
     1
 74
     1
176
     1
 91
        4
176
     1
 64
     7
176
     1
 65
   257
176
     1
 75
     1
176
     1
175
     1
176
     1
 42
1.0
176
     1
 92
        8
176
     1
 66
     7
176
     1
 43
1.0
176
     1
 76
     1
176
     1
 77
     6
176
     1
 78
     2
176
     1
 67
     7
176
     1
 79
     5
176
     1
170
     0
176
     1
171
     0
176
     1
290
     0
176
     1
 93
        1
176
     1
 44
-50.0
176
     1
173
     0
176
     1
  0
VISUALSTYLE
  5
39
102
{ACAD_REACTORS
330
2A
102
}
330
2A
100
AcDbVisualStyle
  2
Facepattern
 70
    15
177
     2
291
     1
 71
     2
176
     1
 72
     2
176
     1
 73
     0
176
     1
 90
        0
176
     1
 40
-0.6
176
     1
 41
-30.0
176
     1
 62
     5
 63
     7
421
 16777215
176
     1
 74
     1
176
     1
 91
        4
176
     1
 64
     7
176
     1
 65
   257
176
     1
 75
     1
176
     1
175
     1
176
     1
 42
1.0
176
     1
 92
        8
176
     1
 66
     7
176
     1
 43
1.0
176
     1
 76
     1
176
     1
 77
     6
176
     1
 78
     2
176
     1
 67
     7
176
     1
 79
     5
176
     1
170
     0
176
     1
171
     0
176
     1
290
     0
176
     1
 93
        1
176
     1
 44
0.0
176
     1
173
     0
176
     1
  0
VISUALSTYLE
  5
2B
102
{ACAD_REACTORS
330
2A
102
}
330
2A
100
AcDbVisualStyle
  2
Flat
 70
     0
177
     2
291
     1
 71
     2
176
     1
 72
     1
176
     1
 73
     1
176
     1
 90
        2
176
     1
 40
-0.6
176
     1
 41
30.0
176
     1
 62
     5
 63
     7
421
 16777215
176
     1
 74
     0
176
     1
 91
        4
176
     1
 64
     7
176
     1
 65
   257
176
     1
 75
     1
176
     1
175
     1
176
     1
 42
1.0
176
     1
 92
        8
176
     1
 66
     7
176
     1
 43
1.0
176
     1
 76
     1
176
     1
 77
     6
176
     1
 78
     2
176
     1
 67
     7
176
     1
 79
     5
176
     1
170
     0
176
     1
171
     0
176
     1
290
     0
176
     1
 93
       13
176
     1
 44
0.0
176
     1
173
     0
176
     1
  0
VISUALSTYLE
  5
2C
102
{ACAD_REACTORS
330
2A
102
}
330
2A
100
AcDbVisualStyle
  2
FlatWithEdges
 70
     1
177
     2
291
     1
 71
     2
176
     1
 72
     1
176
     1
 73
     1
176
     1
 90
        2
176
     1
 40
-0.6
176
     1
 41
30.0
176
     1
 62
     5
 63
     7
421
 16777215
176
     1
 74
     1
176
     1
 91
        4
176
     1
 64
     7
176
     1
 65
   257
176
     1
 75
     1
176
     1
175
     1
176
     1
 42
1.0
176
     1
 92
        0
176
     1
 66
   257
176
     1
 43
1.0
176
     1
 76
     1
176
     1
 77
     6
176
     1
 78
     2
176
     1
 67
     7
176
     1
 79
     5
176
     1
170
     0
176
     1
171
     0
176
     1
290
     0
176
     1
 93
       13
176
     1
 44
0.0
176
     1
173
     0
176
     1
  0
VISUALSTYLE
  5
2D
102
{ACAD_REACTORS
330
2A
102
}
330
2A
100
AcDbVisualStyle
  2
Gouraud
 70
     2
177
     2
291
     1
 71
     2
176
     1
 72
     2
176
     1
 73
     1
176
     1
 90
        2
176
     1
 40
-0.6
176
     1
 41
30.0
176
     1
 62
     5
 63
     7
421
 16777215
176
     1
 74
     0
176
     1
 91
        4
176
     1
 64
     7
176
     1
 65
   257
176
     1
 75
     1
176
     1
175
     1
176
     1
 42
1.0
176
     1
 92
        0
176
     1
 66
     7
176
     1
 43
1.0
176
     1
 76
     1
176
     1
 77
     6
176
     1
 78
     2
176
     1
 67
     7
176
     1
 79
     5
176
     1
170
     0
176
     1
171
     0
176
     1
290
     0
176
     1
 93
       13
176
     1
 44
0.0
176
     1
173
     0
176
     1
  0
VISUALSTYLE
  5
2E
102
{ACAD_REACTORS
330
2A
102
}
330
2A
100
AcDbVisualStyle
  2
GouraudWithEdges
 70
     3
177
     2
291
     1
 71
     2
176
     1
 72
     2
176
     1
 73
     1
176
     1
 90
        2
176
     1
 40
-0.6
176
     1
 41
30.0
176
     1
 62
     5
 63
     7
421
 16777215
176
     1
 74
     1
176
     1
 91
        4
176
     1
 64
     7
176
     1
 65
   257
176
     1
 75
     1
176
     1
175
     1
176
     1
 42
1.0
176
     1
 92
        0
176
     1
 66
   257
176
     1
 43
1.0
176
     1
 76
     1
176
     1
 77
     6
176
     1
 78
     2
176
     1
 67
     7
176
     1
 79
     5
176
     1
170
     0
176
     1
171
     0
176
     1
290
     0
176
     1
 93
       13
176
     1
 44
0.0
176
     1
173
     0
176
     1
  0
VISUALSTYLE
  5
38
102
{ACAD_REACTORS
330
2A
102
}
330
2A
100
AcDbVisualStyle
  2
Linepattern
 70
    14
177
     2
291
     1
 71
     2
176
     1
 72
     2
176
     1
 73
     0
176
     1
 90
        0
176
     1
 40
-0.6
176
     1
 41
-30.0
176
     1
 62
     5
 63
     7
421
 16777215
176
     1
 74
     1
176
     1
 91
        4
176
     1
 64
     7
176
     1
 65
   257
176
     1
 75
     7
176
     1
175
     7
176
     1
 42
1.0
176
     1
 92
        8
176
     1
 66
     7
176
     1
 43
1.0
176
     1
 76
     1
176
     1
 77
     6
176
     1
 78
     2
176
     1
 67
     7
176
     1
 79
     5
176
     1
170
     0
176
     1
171
     0
176
     1
290
     0
176
     1
 93
        1
176
     1
 44
0.0
176
     1
173
     0
176
     1
  0
VISUALSTYLE
  5
33
102
{ACAD_REACTORS
330
2A
102
}
330
2A
100
AcDbVisualStyle
  2
Realistic
 70
     8
177
     2
291
     0
 71
     2
176
     1
 72
     2
176
     1
 73
     0
176
     1
 90
        0
176
     1
 40
-0.6
176
     1
 41
-30.0
176
     1
 62
     5
 63
     7
421
 16777215
176
     1
 74
     1
176
     1
 91
        0
176
     1
 64
     7
176
     1
 65
   257
176
     1
 75
     1
176
     1
175
     1
176
     1
 42
1.0
176
     1
 92
        8
176
     1
 66
     8
424
  7895160
176
     1
 43
1.0
176
     1
 76
     1
176
     1
 77
     6
176
     1
 78
     2
176
     1
 67
     7
176
     1
 79
     5
176
     1
170
     0
176
     1
171
     0
176
     1
290
     0
176
     1
 93
       13
176
     1
 44
0.0
176
     1
173
     0
176
     1
  0
VISUALSTYLE
  5
37
102
{ACAD_REACTORS
330
2A
102
}
330
2A
100
AcDbVisualStyle
  2
Thicken
 70
    13
177
     2
291
     1
 71
     2
176
     1
 72
     2
176
     1
 73
     0
176
     1
 90
        0
176
     1
 40
-0.6
176
     1
 41
-30.0
176
     1
 62
     5
 63
     7
421
 16777215
176
     1
 74
     1
176
     1
 91
        4
176
     1
 64
     7
176
     1
 65
   257
176
     1
 75
     1
176
     1
175
     1
176
     1
 42
1.0
176
     1
 92
       12
176
     1
 66
     7
176
     1
 43
1.0
176
     1
 76
     1
176
     1
 77
     6
176
     1
 78
     2
176
     1
 67
     7
176
     1
 79
     5
176
     1
170
     0
176
     1
171
     0
176
     1
290
     0
176
     1
 93
        1
176
     1
 44
0.0
176
     1
173
     0
176
     1
  0
ENDSEC
  0
EOF
