  0
SECTION
  2
HEADER
  9
$ACADVER
  1
AC1024
  9
$ACADMAINTVER
 70
     6
  9
$DWGCODEPAGE
  3
UNDEFINED
  9
$INSBASE
 10
0.0
 20
0.0
 30
0.0
  9
$EXTMIN
 10
1.000000000000000E+20
 20
1.000000000000000E+20
 30
1.000000000000000E+20
  9
$EXTMAX
 10
-1.000000000000000E+20
 20
-1.000000000000000E+20
 30
-1.000000000000000E+20
  9
$LIMMIN
 10
0.0
 20
0.0
  9
$LIMMAX
 10
12.0
 20
9.0
  9
$ORTHOMODE
 70
     0
  9
$REGENMODE
 70
     1
  9
$FILLMODE
 70
     1
  9
$QTEXTMODE
 70
     0
  9
$MIRRTEXT
 70
     1
  9
$LTSCALE
 40
1.0
  9
$ATTMODE
 70
     1
  9
$TEXTSIZE
 40
0.2
  9
$TRACEWID
 40
0.05
  9
$TEXTSTYLE
  7
Standard
  9
$CLAYER
  8
0
  9
$CELTYPE
  6
ByLayer
  9
$CECOLOR
 62
   256
  9
$CELTSCALE
 40
1.0
  9
$DISPSILH
 70
     0
  9
$DIMSCALE
 40
1.0
  9
$DIMASZ
 40
0.18
  9
$DIMEXO
 40
0.0625
  9
$DIMDLI
 40
0.38
  9
$DIMRND
 40
0.0
  9
$DIMDLE
 40
0.0
  9
$DIMEXE
 40
0.18
  9
$DIMTP
 40
0.0
  9
$DIMTM
 40
0.0
  9
$DIMTXT
 40
0.18
  9
$DIMCEN
 40
0.09
  9
$DIMTSZ
 40
0.0
  9
$DIMTOL
 70
     0
  9
$DIMLIM
 70
     0
  9
$DIMTIH
 70
     1
  9
$DIMTOH
 70
     1
  9
$DIMSE1
 70
     0
  9
$DIMSE2
 70
     0
  9
$DIMTAD
 70
     0
  9
$DIMZIN
 70
     0
  9
$DIMBLK
  1

  9
$DIMASO
 70
     1
  9
$DIMSHO
 70
     1
  9
$DIMPOST
  1

  9
$DIMAPOST
  1

  9
$DIMALT
 70
     0
  9
$DIMALTD
 70
     2
  9
$DIMALTF
 40
25.4
  9
$DIMLFAC
 40
1.0
  9
$DIMTOFL
 70
     0
  9
$DIMTVP
 40
0.0
  9
$DIMTIX
 70
     0
  9
$DIMSOXD
 70
     0
  9
$DIMSAH
 70
     0
  9
$DIMBLK1
  1

  9
$DIMBLK2
  1

  9
$DIMSTYLE
  2
Standard
  9
$DIMCLRD
 70
     0
  9
$DIMCLRE
 70
     0
  9
$DIMCLRT
 70
     0
  9
$DIMTFAC
 40
1.0
  9
$DIMGAP
 40
0.09
  9
$DIMJUST
 70
     0
  9
$DIMSD1
 70
     0
  9
$DIMSD2
 70
     0
  9
$DIMTOLJ
 70
     1
  9
$DIMTZIN
 70
     0
  9
$DIMALTZ
 70
     0
  9
$DIMALTTZ
 70
     0
  9
$DIMUPT
 70
     0
  9
$DIMDEC
 70
     4
  9
$DIMTDEC
 70
     4
  9
$DIMALTU
 70
     2
  9
$DIMALTTD
 70
     2
  9
$DIMTXSTY
  7
Standard
  9
$DIMAUNIT
 70
     0
  9
$DIMADEC
 70
     0
  9
$DIMALTRND
 40
0.0
  9
$DIMAZIN
 70
     0
  9
$DIMDSEP
 70
    46
  9
$DIMATFIT
 70
     3
  9
$DIMFRAC
 70
     0
  9
$DIMLDRBLK
  1

  9
$DIMLUNIT
 70
     2
  9
$DIMLWD
 70
    -2
  9
$DIMLWE
 70
    -2
  9
$DIMTMOVE
 70
     0
  9
$DIMFXL
 40
1.0
  9
$DIMFXLON
 70
     0
  9
$DIMJOGANG
 40
0.7853981633974483
  9
$DIMTFILL
 70
     0
  9
$DIMTFILLCLR
 70
     0
  9
$DIMARCSYM
 70
     0
  9
$DIMLTYPE
  6

  9
$DIMLTEX1
  6

  9
$DIMLTEX2
  6

  9
$DIMTXTDIRECTION
 70
     0
  9
$LUNITS
 70
     2
  9
$LUPREC
 70
     4
  9
$SKETCHINC
 40
0.1
  9
$FILLETRAD
 40
0.5
  9
$AUNITS
 70
     0
  9
$AUPREC
 70
     0
  9
$MENU
  1
.
  9
$ELEVATION
 40
0.0
  9
$PELEVATION
 40
0.0
  9
$THICKNESS
 40
0.0
  9
$LIMCHECK
 70
     0
  9
$CHAMFERA
 40
0.5
  9
$CHAMFERB
 40
0.5
  9
$CHAMFERC
 40
1.0
  9
$CHAMFERD
 40
0.0
  9
$SKPOLY
 70
     0
  9
$TDCREATE
 40
2457917.636909722
  9
$TDUCREATE
 40
2457917.261909722
  9
$TDUPDATE
 40
2457917.636909722
  9
$TDUUPDATE
 40
2457917.261909722
  9
$TDINDWG
 40
0.0000000116
  9
$TDUSRTIMER
 40
0.0000000116
  9
$USRTIMER
 70
     1
  9
$ANGBASE
 50
0.0
  9
$ANGDIR
 70
     0
  9
$PDMODE
 70
     0
  9
$PDSIZE
 40
0.0
  9
$PLINEWID
 40
0.0
  9
$SPLFRAME
 70
     0
  9
$SPLINETYPE
 70
     6
  9
$SPLINESEGS
 70
     8
  9
$HANDSEED
  5
9E
  9
$SURFTAB1
 70
     6
  9
$SURFTAB2
 70
     6
  9
$SURFTYPE
 70
     6
  9
$SURFU
 70
     6
  9
$SURFV
 70
     6
  9
$UCSBASE
  2

  9
$UCSNAME
  2

  9
$UCSORG
 10
0.0
 20
0.0
 30
0.0
  9
$UCSXDIR
 10
1.0
 20
0.0
 30
0.0
  9
$UCSYDIR
 10
0.0
 20
1.0
 30
0.0
  9
$UCSORTHOREF
  2

  9
$UCSORTHOVIEW
 70
     0
  9
$UCSORGTOP
 10
0.0
 20
0.0
 30
0.0
  9
$UCSORGBOTTOM
 10
0.0
 20
0.0
 30
0.0
  9
$UCSORGLEFT
 10
0.0
 20
0.0
 30
0.0
  9
$UCSORGRIGHT
 10
0.0
 20
0.0
 30
0.0
  9
$UCSORGFRONT
 10
0.0
 20
0.0
 30
0.0
  9
$UCSORGBACK
 10
0.0
 20
0.0
 30
0.0
  9
$PUCSBASE
  2

  9
$PUCSNAME
  2

  9
$PUCSORG
 10
0.0
 20
0.0
 30
0.0
  9
$PUCSXDIR
 10
1.0
 20
0.0
 30
0.0
  9
$PUCSYDIR
 10
0.0
 20
1.0
 30
0.0
  9
$PUCSORTHOREF
  2

  9
$PUCSORTHOVIEW
 70
     0
  9
$PUCSORGTOP
 10
0.0
 20
0.0
 30
0.0
  9
$PUCSORGBOTTOM
 10
0.0
 20
0.0
 30
0.0
  9
$PUCSORGLEFT
 10
0.0
 20
0.0
 30
0.0
  9
$PUCSORGRIGHT
 10
0.0
 20
0.0
 30
0.0
  9
$PUCSORGFRONT
 10
0.0
 20
0.0
 30
0.0
  9
$PUCSORGBACK
 10
0.0
 20
0.0
 30
0.0
  9
$USERI1
 70
     0
  9
$USERI2
 70
     0
  9
$USERI3
 70
     0
  9
$USERI4
 70
     0
  9
$USERI5
 70
     0
  9
$USERR1
 40
0.0
  9
$USERR2
 40
0.0
  9
$USERR3
 40
0.0
  9
$USERR4
 40
0.0
  9
$USERR5
 40
0.0
  9
$WORLDVIEW
 70
     1
  9
$SHADEDGE
 70
     3
  9
$SHADEDIF
 70
    70
  9
$TILEMODE
 70
     1
  9
$MAXACTVP
 70
    64
  9
$PINSBASE
 10
0.0
 20
0.0
 30
0.0
  9
$PLIMCHECK
 70
     0
  9
$PEXTMIN
 10
1.000000000000000E+20
 20
1.000000000000000E+20
 30
1.000000000000000E+20
  9
$PEXTMAX
 10
-1.000000000000000E+20
 20
-1.000000000000000E+20
 30
-1.000000000000000E+20
  9
$PLIMMIN
 10
0.0
 20
0.0
  9
$PLIMMAX
 10
12.0
 20
9.0
  9
$UNITMODE
 70
     0
  9
$VISRETAIN
 70
     1
  9
$PLINEGEN
 70
     0
  9
$PSLTSCALE
 70
     1
  9
$TREEDEPTH
 70
  3020
  9
$CMLSTYLE
  2
Standard
  9
$CMLJUST
 70
     0
  9
$CMLSCALE
 40
1.0
  9
$PROXYGRAPHICS
 70
     1
  9
$MEASUREMENT
 70
     0
  9
$CELWEIGHT
370
    -1
  9
$ENDCAPS
280
     0
  9
$JOINSTYLE
280
     0
  9
$LWDISPLAY
290
     1
  9
$INSUNITS
 70
     1
  9
$HYPERLINKBASE
  1

  9
$STYLESHEET
  1

  9
$XEDIT
290
     1
  9
$CEPSNTYPE
380
     0
  9
$PSTYLEMODE
290
     1
  9
$FINGERPRINTGUID
  2
{35EA98BA-5C05-D657-BE9E-7B8939F606FA}
  9
$VERSIONGUID
  2
{FAEB1C32-E019-11D5-929B-00C0DF256EC4}
  9
$EXTNAMES
290
     1
  9
$PSVPSCALE
 40
0.0
  9
$OLESTARTUP
290
     0
  9
$SORTENTS
280
   127
  9
$INDEXCTL
280
     0
  9
$HIDETEXT
280
     1
  9
$XCLIPFRAME
280
     2
  9
$HALOGAP
280
     0
  9
$OBSCOLOR
 70
   257
  9
$OBSLTYPE
280
     0
  9
$INTERSECTIONDISPLAY
280
     0
  9
$INTERSECTIONCOLOR
 70
   257
  9
$DIMASSOC
280
     2
  9
$PROJECTNAME
  1

  9
$CAMERADISPLAY
290
     0
  9
$LENSLENGTH
 40
50.0
  9
$CAMERAHEIGHT
 40
0.0
  9
$STEPSPERSEC
 40
2.0
  9
$STEPSIZE
 40
6.0
  9
$3DDWFPREC
 40
2.0
  9
$PSOLWIDTH
 40
0.25
  9
$PSOLHEIGHT
 40
4.0
  9
$LOFTANG1
 40
1.570796326794897
  9
$LOFTANG2
 40
1.570796326794897
  9
$LOFTMAG1
 40
0.0
  9
$LOFTMAG2
 40
0.0
  9
$LOFTPARAM
 70
     7
  9
$LOFTNORMALS
280
     1
  9
$LATITUDE
 40
37.795
  9
$LONGITUDE
 40
-122.394
  9
$NORTHDIRECTION
 40
0.0
  9
$TIMEZONE
 70
 -8000
  9
$LIGHTGLYPHDISPLAY
280
     1
  9
$TILEMODELIGHTSYNCH
280
     1
  9
$CMATERIAL
347
3C
  9
$SOLIDHIST
280
     1
  9
$SHOWHIST
280
     1
  9
$DWFFRAME
280
     2
  9
$DGNFRAME
280
     2
  9
$REALWORLDSCALE
290
     1
  9
$INTERFERECOLOR
 62
   256
  9
$CSHADOW
280
     0
  9
$SHADOWPLANELOCATION
 40
0.0
  0
ENDSEC
  0
SECTION
  2
CLASSES
  0
CLASS
  1
ACDBDICTIONARYWDFLT
  2
AcDbDictionaryWithDefault
  3
ObjectDBX Classes
 90
        0
 91
        4
280
     0
281
     0
  0
CLASS
  1
VISUALSTYLE
  2
AcDbVisualStyle
  3
ObjectDBX Classes
 90
     4095
 91
        4
280
     0
281
     0
  0
CLASS
  1
MATERIAL
  2
AcDbMaterial
  3
ObjectDBX Classes
 90
     1153
 91
        4
280
     0
281
     0
  0
CLASS
  1
SUN
  2
AcDbSun
  3
SCENEOE
 90
     1024
 91
        4
280
     0
281
     0
  0
ENDSEC
  0
SECTION
  2
TABLES
  0
TABLE
  2
VPORT
  5
8
330
0
100
AcDbSymbolTable
 70
     1
  0
VPORT
  5
29
330
8
100
AcDbSymbolTableRecord
100
AcDbViewportTableRecord
  2
*Active
 70
     0
 10
0.0
 20
0.0
 11
1.0
 21
1.0
 12
0.0
 22
0.0
 13
0.0
 23
0.0
 14
0.5
 24
0.5
 15
0.5
 25
0.5
 16
0.0
 26
0.0
 36
1.0
 17
91.00082462281999
 27
-128.4993055234307
 37
0.0
 40
256.9986110468615
 41
0.7081814508812795
 42
50.0
 43
0.0
 44
0.0
 50
0.0
 51
0.0
 71
     0
 72
   100
 73
     1
 74
     3
 75
     0
 76
     0
 77
     0
 78
     0
281
     0
 65
     1
110
0.0
120
0.0
130
0.0
111
1.0
121
0.0
131
0.0
112
0.0
122
1.0
132
0.0
 79
     0
146
0.0
 60
     3
 61
     5
292
     1
282
     1
141
0.0
142
0.0
 63
   250
361
3F
  0
ENDTAB
  0
TABLE
  2
LTYPE
  5
5
330
0
100
AcDbSymbolTable
 70
     1
  0
LTYPE
  5
14
330
5
100
AcDbSymbolTableRecord
100
AcDbLinetypeTableRecord
  2
ByBlock
 70
     0
  3

 72
    65
 73
     0
 40
0.0
  0
LTYPE
  5
15
330
5
100
AcDbSymbolTableRecord
100
AcDbLinetypeTableRecord
  2
ByLayer
 70
     0
  3

 72
    65
 73
     0
 40
0.0
  0
LTYPE
  5
16
330
5
100
AcDbSymbolTableRecord
100
AcDbLinetypeTableRecord
  2
Continuous
 70
     0
  3
Solid line
 72
    65
 73
     0
 40
0.0
  0
ENDTAB
  0
TABLE
  2
LAYER
  5
2
330
0
100
AcDbSymbolTable
 70
     2
  0
LAYER
  5
10
330
2
100
AcDbSymbolTableRecord
100
AcDbLayerTableRecord
  2
0
 70
     0
 62
     7
  6
Continuous
370
    -3
390
F
347
3E
  0
LAYER
  5
40
330
2
100
AcDbSymbolTableRecord
100
AcDbLayerTableRecord
  2
_U+30EC_U+30A4_U+30E4_U+30FC 1
 70
     0
 62
     7
  6
Continuous
370
    -3
390
F
347
3E
  0
ENDTAB
  0
TABLE
  2
STYLE
  5
3
330
0
100
AcDbSymbolTable
 70
     1
  0
STYLE
  5
11
330
3
100
AcDbSymbolTableRecord
100
AcDbTextStyleTableRecord
  2
Standard
 70
     0
 40
0.0
 41
1.0
 50
0.0
 71
     0
 42
0.2
  3
txt
  4

  0
ENDTAB
  0
TABLE
  2
VIEW
  5
6
330
0
100
AcDbSymbolTable
 70
     0
  0
ENDTAB
  0
TABLE
  2
UCS
  5
7
330
0
100
AcDbSymbolTable
 70
     0
  0
ENDTAB
  0
TABLE
  2
APPID
  5
9
330
0
100
AcDbSymbolTable
 70
     1
  0
APPID
  5
12
330
9
100
AcDbSymbolTableRecord
100
AcDbRegAppTableRecord
  2
ACAD
 70
     0
  0
ENDTAB
  0
TABLE
  2
DIMSTYLE
  5
A
330
0
100
AcDbSymbolTable
 70
     1
100
AcDbDimStyleTable
  0
DIMSTYLE
105
27
330
A
100
AcDbSymbolTableRecord
100
AcDbDimStyleTableRecord
  2
Standard
 70
     0
178
     0
340
11
  0
ENDTAB
  0
TABLE
  2
BLOCK_RECORD
  5
1
330
0
100
AcDbSymbolTable
 70
     4
  0
BLOCK_RECORD
  5
1F
330
1
100
AcDbSymbolTableRecord
100
AcDbBlockTableRecord
  2
*Model_Space
340
22
 70
     0
280
     1
281
     0
  0
BLOCK_RECORD
  5
1B
330
1
100
AcDbSymbolTableRecord
100
AcDbBlockTableRecord
  2
*Paper_Space
340
1E
 70
     0
280
     1
281
     0
  0
BLOCK_RECORD
  5
23
330
1
100
AcDbSymbolTableRecord
100
AcDbBlockTableRecord
  2
*Paper_Space0
340
26
 70
     0
280
     1
281
     0
  0
BLOCK_RECORD
  5
63
330
1
100
AcDbSymbolTableRecord
100
AcDbBlockTableRecord
  2
block 2
340
0
102
{BLKREFS
331
64
102
}
 70
     0
280
     1
281
     0
  0
BLOCK_RECORD
  5
77
330
1
100
AcDbSymbolTableRecord
100
AcDbBlockTableRecord
  2
block 3
340
0
102
{BLKREFS
331
78
102
}
 70
     0
280
     1
281
     0
  0
BLOCK_RECORD
  5
8C
330
1
100
AcDbSymbolTableRecord
100
AcDbBlockTableRecord
  2
block 4
340
0
102
{BLKREFS
331
8D
102
}
 70
     0
280
     1
281
     0
  0
ENDTAB
  0
ENDSEC
  0
SECTION
  2
BLOCKS
  0
BLOCK
  5
20
330
1F
100
AcDbEntity
  8
0
100
AcDbBlockBegin
  2
*Model_Space
 70
     0
 10
0.0
 20
0.0
 30
0.0
  3
*Model_Space
  1

  0
ENDBLK
  5
21
330
1F
100
AcDbEntity
  8
0
100
AcDbBlockEnd
  0
BLOCK
  5
1C
330
1B
100
AcDbEntity
 67
     1
  8
0
100
AcDbBlockBegin
  2
*Paper_Space
 70
     0
 10
0.0
 20
0.0
 30
0.0
  3
*Paper_Space
  1

  0
ENDBLK
  5
1D
330
1B
100
AcDbEntity
 67
     1
  8
0
100
AcDbBlockEnd
  0
BLOCK
  5
24
330
23
100
AcDbEntity
  8
0
100
AcDbBlockBegin
  2
*Paper_Space0
 70
     0
 10
0.0
 20
0.0
 30
0.0
  3
*Paper_Space0
  1

  0
ENDBLK
  5
25
330
23
100
AcDbEntity
  8
0
100
AcDbBlockEnd
  0
BLOCK
  5
65
330
63
100
AcDbEntity
  8
0
100
AcDbBlockBegin
  2
block 2
 70
     0
 10
0.0
 20
0.0
 30
0.0
  3
block 2
  1

  0
SPLINE
  5
67
330
63
100
AcDbEntity
  8
_U+30EC_U+30A4_U+30E4_U+30FC 1
370
     0
100
AcDbSpline
210
0.0
220
0.0
230
1.0
 70
    11
 71
     3
 72
    26
 73
    22
 74
     0
 42
0.0000000001
 43
0.0000000001
 12
1.0
 22
0.0
 32
0.0
 13
1.0
 23
0.0
 33
0.0
 40
0.0
 40
0.0
 40
0.0
 40
0.0
 40
1.0
 40
1.0
 40
1.0
 40
2.0
 40
2.0
 40
2.0
 40
3.0
 40
3.0
 40
3.0
 40
4.0
 40
4.0
 40
4.0
 40
5.0
 40
5.0
 40
5.0
 40
6.0
 40
6.0
 40
6.0
 40
7.0
 40
7.0
 40
7.0
 40
7.0
 10
105.5184515795232
 20
-130.3548339517863
 30
0.0
 10
105.5184515795232
 20
-130.3548339517863
 30
0.0
 10
104.4142984765006
 20
-130.3548339517863
 30
0.0
 10
104.4142984765006
 20
-130.3548339517863
 30
0.0
 10
104.4142984765006
 20
-130.3548339517863
 30
0.0
 10
104.4142984765006
 20
-130.6848740992732
 30
0.0
 10
104.4142984765006
 20
-130.6848740992732
 30
0.0
 10
104.4142984765006
 20
-130.6848740992732
 30
0.0
 10
104.2661593706349
 20
-130.6848740992732
 30
0.0
 10
104.2661593706349
 20
-130.6848740992732
 30
0.0
 10
104.2513454600483
 20
-130.3527668944951
 30
0.0
 10
104.088392443596
 20
-130.3062581054443
 30
0.0
 10
103.9740152734857
 20
-130.2766302842711
 30
0.0
 10
103.9740152734857
 20
-130.2766302842711
 30
0.0
 10
103.9740152734857
 20
-130.1305582356965
 30
0.0
 10
103.9740152734857
 20
-130.1305582356965
 30
0.0
 10
103.9740152734857
 20
-130.1305582356965
 30
0.0
 10
105.5184515795232
 20
-130.1305582356965
 30
0.0
 10
105.5184515795232
 20
-130.1305582356965
 30
0.0
 10
105.5184515795232
 20
-130.1305582356965
 30
0.0
 10
105.5184515795232
 20
-130.3548339517863
 30
0.0
 10
105.5184515795232
 20
-130.3548339517863
 30
0.0
  0
HATCH
  5
68
330
63
100
AcDbEntity
  8
_U+30EC_U+30A4_U+30E4_U+30FC 1
 62
   179
420
  2234388
100
AcDbHatch
 10
0.0
 20
0.0
 30
0.0
210
0.0
220
0.0
230
1.0
  2
SOLID
 70
     1
 71
     0
 91
        1
 92
        1
 93
        1
 72
     4
 94
        3
 73
     0
 74
     1
 95
       26
 96
       22
 40
0.0
 40
0.0
 40
0.0
 40
0.0
 40
1.0
 40
1.0
 40
1.0
 40
2.0
 40
2.0
 40
2.0
 40
3.0
 40
3.0
 40
3.0
 40
4.0
 40
4.0
 40
4.0
 40
5.0
 40
5.0
 40
5.0
 40
6.0
 40
6.0
 40
6.0
 40
7.0
 40
7.0
 40
7.0
 40
7.0
 10
105.5184515795232
 20
-130.3548339517863
 10
105.5184515795232
 20
-130.3548339517863
 10
104.4142984765006
 20
-130.3548339517863
 10
104.4142984765006
 20
-130.3548339517863
 10
104.4142984765006
 20
-130.3548339517863
 10
104.4142984765006
 20
-130.6848740992732
 10
104.4142984765006
 20
-130.6848740992732
 10
104.4142984765006
 20
-130.6848740992732
 10
104.2661593706349
 20
-130.6848740992732
 10
104.2661593706349
 20
-130.6848740992732
 10
104.2513454600483
 20
-130.3527668944951
 10
104.088392443596
 20
-130.3062581054443
 10
103.9740152734857
 20
-130.2766302842711
 10
103.9740152734857
 20
-130.2766302842711
 10
103.9740152734857
 20
-130.1305582356965
 10
103.9740152734857
 20
-130.1305582356965
 10
103.9740152734857
 20
-130.1305582356965
 10
105.5184515795232
 20
-130.1305582356965
 10
105.5184515795232
 20
-130.1305582356965
 10
105.5184515795232
 20
-130.1305582356965
 10
105.5184515795232
 20
-130.3548339517863
 10
105.5184515795232
 20
-130.3548339517863
 97
        0
 97
        0
 75
     2
 76
     1
 98
        0
  0
SPLINE
  5
69
330
63
100
AcDbEntity
  8
_U+30EC_U+30A4_U+30E4_U+30FC 1
370
     0
100
AcDbSpline
210
0.0
220
0.0
230
1.0
 70
    11
 71
     3
 72
    53
 73
    49
 74
     0
 42
0.0000000001
 43
0.0000000001
 12
1.0
 22
0.0
 32
0.0
 13
1.0
 23
0.0
 33
0.0
 40
0.0
 40
0.0
 40
0.0
 40
0.0
 40
1.0
 40
1.0
 40
1.0
 40
2.0
 40
2.0
 40
2.0
 40
3.0
 40
3.0
 40
3.0
 40
4.0
 40
4.0
 40
4.0
 40
5.0
 40
5.0
 40
5.0
 40
6.0
 40
6.0
 40
6.0
 40
7.0
 40
7.0
 40
7.0
 40
8.0
 40
8.0
 40
8.0
 40
9.0
 40
9.0
 40
9.0
 40
10.0
 40
10.0
 40
10.0
 40
11.0
 40
11.0
 40
11.0
 40
12.0
 40
12.0
 40
12.0
 40
13.0
 40
13.0
 40
13.0
 40
14.0
 40
14.0
 40
14.0
 40
15.0
 40
15.0
 40
15.0
 40
16.0
 40
16.0
 40
16.0
 40
16.0
 10
105.5690944831563
 20
-129.1483615128518
 30
0.0
 10
105.5690944831563
 20
-129.226565180367
 30
0.0
 10
105.5522135152786
 20
-129.3281954971818
 30
0.0
 10
105.48882375835
 20
-129.4298258139967
 30
0.0
 10
105.3789252123705
 20
-129.6031141169048
 30
0.0
 10
105.2476670743825
 20
-129.6244737089133
 30
0.0
 10
105.1398355856942
 20
-129.6434217340822
 30
0.0
 10
105.1398355856942
 20
-129.6434217340822
 30
0.0
 10
105.1398355856942
 20
-129.4212130752836
 30
0.0
 10
105.1398355856942
 20
-129.4212130752836
 30
0.0
 10
105.3386175951931
 20
-129.3664360570681
 30
0.0
 10
105.3682454163663
 20
-129.2393120336624
 30
0.0
 10
105.3682454163663
 20
-129.1462944555606
 30
0.0
 10
105.3682454163663
 20
-129.006768088408
 30
0.0
 10
105.2686821568426
 20
-128.85449486796
 30
0.0
 10
105.0361382115882
 20
-128.85449486796
 30
0.0
 10
104.7801676170341
 20
-128.85449486796
 30
0.0
 10
104.7102321786836
 20
-129.03432885229
 30
0.0
 10
104.7102321786836
 20
-129.1549071942738
 30
0.0
 10
104.7102321786836
 20
-129.1866020727381
 30
0.0
 10
104.7102321786836
 20
-129.3281954971818
 30
0.0
 10
104.8394232593804
 20
-129.4170789607013
 30
0.0
 10
104.8394232593804
 20
-129.4170789607013
 30
0.0
 10
104.8204752342116
 20
-129.592778830449
 30
0.0
 10
104.8204752342116
 20
-129.592778830449
 30
0.0
 10
104.8204752342116
 20
-129.592778830449
 30
0.0
 10
103.9740152734857
 20
-129.4722004884653
 30
0.0
 10
103.9740152734857
 20
-129.4722004884653
 30
0.0
 10
103.9740152734857
 20
-129.4722004884653
 30
0.0
 10
103.9740152734857
 20
-128.6936089087988
 30
0.0
 10
103.9740152734857
 20
-128.6936089087988
 30
0.0
 10
103.9740152734857
 20
-128.6936089087988
 30
0.0
 10
104.1686631684023
 20
-128.6936089087988
 30
0.0
 10
104.1686631684023
 20
-128.6936089087988
 30
0.0
 10
104.1686631684023
 20
-128.6936089087988
 30
0.0
 10
104.1686631684023
 20
-129.309247472013
 30
0.0
 10
104.1686631684023
 20
-129.309247472013
 30
0.0
 10
104.1686631684023
 20
-129.309247472013
 30
0.0
 10
104.591720893991
 20
-129.3747042862327
 30
0.0
 10
104.591720893991
 20
-129.3747042862327
 30
0.0
 10
104.5579589582355
 20
-129.3133815865953
 30
0.0
 10
104.5176513410581
 20
-129.2310438044978
 30
0.0
 10
104.5176513410581
 20
-129.1125325198052
 30
0.0
 10
104.5176513410581
 20
-128.8586289825423
 30
0.0
 10
104.7040310068101
 20
-128.6216064131571
 30
0.0
 10
105.0171901864193
 20
-128.6216064131571
 30
0.0
 10
105.3344834806108
 20
-128.6216064131571
 30
0.0
 10
105.5690944831563
 20
-128.8458821292469
 30
0.0
 10
105.5690944831563
 20
-129.1483615128518
 30
0.0
  0
HATCH
  5
6A
330
63
100
AcDbEntity
  8
_U+30EC_U+30A4_U+30E4_U+30FC 1
 62
   179
420
  2234388
100
AcDbHatch
 10
0.0
 20
0.0
 30
0.0
210
0.0
220
0.0
230
1.0
  2
SOLID
 70
     1
 71
     0
 91
        1
 92
        1
 93
        1
 72
     4
 94
        3
 73
     0
 74
     1
 95
       53
 96
       49
 40
0.0
 40
0.0
 40
0.0
 40
0.0
 40
1.0
 40
1.0
 40
1.0
 40
2.0
 40
2.0
 40
2.0
 40
3.0
 40
3.0
 40
3.0
 40
4.0
 40
4.0
 40
4.0
 40
5.0
 40
5.0
 40
5.0
 40
6.0
 40
6.0
 40
6.0
 40
7.0
 40
7.0
 40
7.0
 40
8.0
 40
8.0
 40
8.0
 40
9.0
 40
9.0
 40
9.0
 40
10.0
 40
10.0
 40
10.0
 40
11.0
 40
11.0
 40
11.0
 40
12.0
 40
12.0
 40
12.0
 40
13.0
 40
13.0
 40
13.0
 40
14.0
 40
14.0
 40
14.0
 40
15.0
 40
15.0
 40
15.0
 40
16.0
 40
16.0
 40
16.0
 40
16.0
 10
105.5690944831563
 20
-129.1483615128518
 10
105.5690944831563
 20
-129.226565180367
 10
105.5522135152786
 20
-129.3281954971818
 10
105.48882375835
 20
-129.4298258139967
 10
105.3789252123705
 20
-129.6031141169048
 10
105.2476670743825
 20
-129.6244737089133
 10
105.1398355856942
 20
-129.6434217340822
 10
105.1398355856942
 20
-129.6434217340822
 10
105.1398355856942
 20
-129.4212130752836
 10
105.1398355856942
 20
-129.4212130752836
 10
105.3386175951931
 20
-129.3664360570681
 10
105.3682454163663
 20
-129.2393120336624
 10
105.3682454163663
 20
-129.1462944555606
 10
105.3682454163663
 20
-129.006768088408
 10
105.2686821568426
 20
-128.85449486796
 10
105.0361382115882
 20
-128.85449486796
 10
104.7801676170341
 20
-128.85449486796
 10
104.7102321786836
 20
-129.03432885229
 10
104.7102321786836
 20
-129.1549071942738
 10
104.7102321786836
 20
-129.1866020727381
 10
104.7102321786836
 20
-129.3281954971818
 10
104.8394232593804
 20
-129.4170789607013
 10
104.8394232593804
 20
-129.4170789607013
 10
104.8204752342116
 20
-129.592778830449
 10
104.8204752342116
 20
-129.592778830449
 10
104.8204752342116
 20
-129.592778830449
 10
103.9740152734857
 20
-129.4722004884653
 10
103.9740152734857
 20
-129.4722004884653
 10
103.9740152734857
 20
-129.4722004884653
 10
103.9740152734857
 20
-128.6936089087988
 10
103.9740152734857
 20
-128.6936089087988
 10
103.9740152734857
 20
-128.6936089087988
 10
104.1686631684023
 20
-128.6936089087988
 10
104.1686631684023
 20
-128.6936089087988
 10
104.1686631684023
 20
-128.6936089087988
 10
104.1686631684023
 20
-129.309247472013
 10
104.1686631684023
 20
-129.309247472013
 10
104.1686631684023
 20
-129.309247472013
 10
104.591720893991
 20
-129.3747042862327
 10
104.591720893991
 20
-129.3747042862327
 10
104.5579589582355
 20
-129.3133815865953
 10
104.5176513410581
 20
-129.2310438044978
 10
104.5176513410581
 20
-129.1125325198052
 10
104.5176513410581
 20
-128.8586289825423
 10
104.7040310068101
 20
-128.6216064131571
 10
105.0171901864193
 20
-128.6216064131571
 10
105.3344834806108
 20
-128.6216064131571
 10
105.5690944831563
 20
-128.8458821292469
 10
105.5690944831563
 20
-129.1483615128518
 97
        0
 97
        0
 75
     2
 76
     1
 98
        0
  0
ENDBLK
  5
66
330
63
100
AcDbEntity
  8
0
100
AcDbBlockEnd
  0
BLOCK
  5
79
330
77
100
AcDbEntity
  8
0
100
AcDbBlockBegin
  2
block 3
 70
     0
 10
0.0
 20
0.0
 30
0.0
  3
block 3
  1

  0
SPLINE
  5
7B
330
77
100
AcDbEntity
  8
_U+30EC_U+30A4_U+30E4_U+30FC 1
370
     0
100
AcDbSpline
210
0.0
220
0.0
230
1.0
 70
    11
 71
     3
 72
    62
 73
    58
 74
     0
 42
0.0000000001
 43
0.0000000001
 12
1.0
 22
0.0
 32
0.0
 13
1.0
 23
0.0
 33
0.0
 40
0.0
 40
0.0
 40
0.0
 40
0.0
 40
1.0
 40
1.0
 40
1.0
 40
2.0
 40
2.0
 40
2.0
 40
3.0
 40
3.0
 40
3.0
 40
4.0
 40
4.0
 40
4.0
 40
5.0
 40
5.0
 40
5.0
 40
6.0
 40
6.0
 40
6.0
 40
7.0
 40
7.0
 40
7.0
 40
8.0
 40
8.0
 40
8.0
 40
9.0
 40
9.0
 40
9.0
 40
10.0
 40
10.0
 40
10.0
 40
11.0
 40
11.0
 40
11.0
 40
12.0
 40
12.0
 40
12.0
 40
13.0
 40
13.0
 40
13.0
 40
14.0
 40
14.0
 40
14.0
 40
15.0
 40
15.0
 40
15.0
 40
16.0
 40
16.0
 40
16.0
 40
17.0
 40
17.0
 40
17.0
 40
18.0
 40
18.0
 40
18.0
 40
19.0
 40
19.0
 40
19.0
 40
19.0
 10
87.97895369979346
 20
-140.9746852946174
 30
0.0
 10
87.8836968096263
 20
-140.9746852946174
 30
0.0
 10
87.66579452018425
 20
-140.9536702121574
 30
0.0
 10
87.5410820636182
 20
-140.7676350559539
 30
0.0
 10
87.46701251068534
 20
-140.6553249431348
 30
0.0
 10
87.46270614132877
 20
-140.5561061931596
 30
0.0
 10
87.45857202674647
 20
-140.4713568442224
 30
0.0
 10
87.45857202674647
 20
-140.4713568442224
 30
0.0
 10
87.67854137347967
 20
-140.4713568442224
 30
0.0
 10
87.67854137347967
 20
-140.4713568442224
 30
0.0
 10
87.68060843077082
 20
-140.5454263971553
 30
0.0
 10
87.6912882267751
 20
-140.7800373997008
 30
0.0
 10
87.9746473304369
 20
-140.7800373997008
 30
0.0
 10
88.11227889507263
 20
-140.7800373997008
 30
0.0
 10
88.26455211552067
 20
-140.7104464708988
 30
0.0
 10
88.26455211552067
 20
-140.4820366402267
 30
0.0
 10
88.26455211552067
 20
-140.3655924128253
 30
0.0
 10
88.22648381040867
 20
-140.3170165664833
 30
0.0
 10
88.19478893194436
 20
-140.285321688019
 30
0.0
 10
88.12071937901149
 20
-140.2112521350861
 30
0.0
 10
88.00427515161005
 20
-140.1985052817907
 30
0.0
 10
87.94932587862031
 20
-140.1985052817907
 30
0.0
 10
87.93037785345143
 20
-140.1985052817907
 30
0.0
 10
87.89437660563058
 20
-140.2005723390818
 30
0.0
 10
87.86681584174858
 20
-140.2047064536641
 30
0.0
 10
87.86681584174858
 20
-140.2047064536641
 30
0.0
 10
87.86681584174858
 20
-140.0100585587475
 30
0.0
 10
87.86681584174858
 20
-140.0100585587475
 30
0.0
 10
87.90488414686058
 20
-140.0166042401695
 30
0.0
 10
87.94725882132916
 20
-140.0186712974606
 30
0.0
 10
87.95363224797687
 20
-140.0186712974606
 30
0.0
 10
88.01908906219663
 20
-140.0186712974606
 30
0.0
 10
88.2180433264698
 20
-139.9973117054521
 30
0.0
 10
88.2180433264698
 20
-139.7606336456154
 30
0.0
 10
88.2180433264698
 20
-139.5828667185765
 30
0.0
 10
88.08678518848178
 20
-139.5277451908125
 30
0.0
 10
87.97688664250231
 20
-139.5277451908125
 30
0.0
 10
87.71247556400938
 20
-139.5277451908125
 30
0.0
 10
87.70386282529626
 20
-139.7606336456154
 30
0.0
 10
87.69972871071396
 20
-139.8322916317086
 30
0.0
 10
87.69972871071396
 20
-139.8322916317086
 30
0.0
 10
87.49664033185849
 20
-139.8322916317086
 30
0.0
 10
87.49664033185849
 20
-139.8322916317086
 30
0.0
 10
87.50508081579734
 20
-139.7075791751426
 30
0.0
 10
87.53264157967935
 20
-139.3310302386047
 30
0.0
 10
87.98946124102348
 20
-139.3310302386047
 30
0.0
 10
88.21373695711324
 20
-139.3310302386047
 30
0.0
 10
88.45489364108073
 20
-139.4581542620105
 30
0.0
 10
88.45489364108073
 20
-139.7540879641934
 30
0.0
 10
88.45489364108073
 20
-139.9404676299454
 30
0.0
 10
88.35980900568784
 20
-140.0228054120429
 30
0.0
 10
88.2602457461641
 20
-140.0841281116804
 30
0.0
 10
88.32174070057582
 20
-140.1116888755624
 30
0.0
 10
88.503641742197
 20
-140.1919596003687
 30
0.0
 10
88.503641742197
 20
-140.4692897869313
 30
0.0
 10
88.503641742197
 20
-140.8075981635828
 30
0.0
 10
88.2561116315818
 20
-140.9746852946174
 30
0.0
 10
87.97895369979346
 20
-140.9746852946174
 30
0.0
  0
HATCH
  5
7C
330
77
100
AcDbEntity
  8
_U+30EC_U+30A4_U+30E4_U+30FC 1
 62
   179
420
  2234388
100
AcDbHatch
 10
0.0
 20
0.0
 30
0.0
210
0.0
220
0.0
230
1.0
  2
SOLID
 70
     1
 71
     0
 91
        1
 92
        1
 93
        1
 72
     4
 94
        3
 73
     0
 74
     1
 95
       62
 96
       58
 40
0.0
 40
0.0
 40
0.0
 40
0.0
 40
1.0
 40
1.0
 40
1.0
 40
2.0
 40
2.0
 40
2.0
 40
3.0
 40
3.0
 40
3.0
 40
4.0
 40
4.0
 40
4.0
 40
5.0
 40
5.0
 40
5.0
 40
6.0
 40
6.0
 40
6.0
 40
7.0
 40
7.0
 40
7.0
 40
8.0
 40
8.0
 40
8.0
 40
9.0
 40
9.0
 40
9.0
 40
10.0
 40
10.0
 40
10.0
 40
11.0
 40
11.0
 40
11.0
 40
12.0
 40
12.0
 40
12.0
 40
13.0
 40
13.0
 40
13.0
 40
14.0
 40
14.0
 40
14.0
 40
15.0
 40
15.0
 40
15.0
 40
16.0
 40
16.0
 40
16.0
 40
17.0
 40
17.0
 40
17.0
 40
18.0
 40
18.0
 40
18.0
 40
19.0
 40
19.0
 40
19.0
 40
19.0
 10
87.97895369979346
 20
-140.9746852946174
 10
87.8836968096263
 20
-140.9746852946174
 10
87.66579452018425
 20
-140.9536702121574
 10
87.5410820636182
 20
-140.7676350559539
 10
87.46701251068534
 20
-140.6553249431348
 10
87.46270614132877
 20
-140.5561061931596
 10
87.45857202674647
 20
-140.4713568442224
 10
87.45857202674647
 20
-140.4713568442224
 10
87.67854137347967
 20
-140.4713568442224
 10
87.67854137347967
 20
-140.4713568442224
 10
87.68060843077082
 20
-140.5454263971553
 10
87.6912882267751
 20
-140.7800373997008
 10
87.9746473304369
 20
-140.7800373997008
 10
88.11227889507263
 20
-140.7800373997008
 10
88.26455211552067
 20
-140.7104464708988
 10
88.26455211552067
 20
-140.4820366402267
 10
88.26455211552067
 20
-140.3655924128253
 10
88.22648381040867
 20
-140.3170165664833
 10
88.19478893194436
 20
-140.285321688019
 10
88.12071937901149
 20
-140.2112521350861
 10
88.00427515161005
 20
-140.1985052817907
 10
87.94932587862031
 20
-140.1985052817907
 10
87.93037785345143
 20
-140.1985052817907
 10
87.89437660563058
 20
-140.2005723390818
 10
87.86681584174858
 20
-140.2047064536641
 10
87.86681584174858
 20
-140.2047064536641
 10
87.86681584174858
 20
-140.0100585587475
 10
87.86681584174858
 20
-140.0100585587475
 10
87.90488414686058
 20
-140.0166042401695
 10
87.94725882132916
 20
-140.0186712974606
 10
87.95363224797687
 20
-140.0186712974606
 10
88.01908906219663
 20
-140.0186712974606
 10
88.2180433264698
 20
-139.9973117054521
 10
88.2180433264698
 20
-139.7606336456154
 10
88.2180433264698
 20
-139.5828667185765
 10
88.08678518848178
 20
-139.5277451908125
 10
87.97688664250231
 20
-139.5277451908125
 10
87.71247556400938
 20
-139.5277451908125
 10
87.70386282529626
 20
-139.7606336456154
 10
87.69972871071396
 20
-139.8322916317086
 10
87.69972871071396
 20
-139.8322916317086
 10
87.49664033185849
 20
-139.8322916317086
 10
87.49664033185849
 20
-139.8322916317086
 10
87.50508081579734
 20
-139.7075791751426
 10
87.53264157967935
 20
-139.3310302386047
 10
87.98946124102348
 20
-139.3310302386047
 10
88.21373695711324
 20
-139.3310302386047
 10
88.45489364108073
 20
-139.4581542620105
 10
88.45489364108073
 20
-139.7540879641934
 10
88.45489364108073
 20
-139.9404676299454
 10
88.35980900568784
 20
-140.0228054120429
 10
88.2602457461641
 20
-140.0841281116804
 10
88.32174070057582
 20
-140.1116888755624
 10
88.503641742197
 20
-140.1919596003687
 10
88.503641742197
 20
-140.4692897869313
 10
88.503641742197
 20
-140.8075981635828
 10
88.2561116315818
 20
-140.9746852946174
 10
87.97895369979346
 20
-140.9746852946174
 97
        0
 97
        0
 75
     2
 76
     1
 98
        0
  0
SPLINE
  5
7D
330
77
100
AcDbEntity
  8
_U+30EC_U+30A4_U+30E4_U+30FC 1
370
     0
100
AcDbSpline
210
0.0
220
0.0
230
1.0
 70
    11
 71
     3
 72
    29
 73
    25
 74
     0
 42
0.0000000001
 43
0.0000000001
 12
1.0
 22
0.0
 32
0.0
 13
1.0
 23
0.0
 33
0.0
 40
0.0
 40
0.0
 40
0.0
 40
0.0
 40
1.0
 40
1.0
 40
1.0
 40
2.0
 40
2.0
 40
2.0
 40
3.0
 40
3.0
 40
3.0
 40
4.0
 40
4.0
 40
4.0
 40
5.0
 40
5.0
 40
5.0
 40
6.0
 40
6.0
 40
6.0
 40
7.0
 40
7.0
 40
7.0
 40
8.0
 40
8.0
 40
8.0
 40
8.0
 10
89.56214733004002
 20
-140.7462754639454
 30
0.0
 10
89.45397133180317
 20
-140.9557372694486
 30
0.0
 10
89.28068302889511
 20
-140.9746852946174
 30
0.0
 10
89.16423880149367
 20
-140.9746852946174
 30
0.0
 10
89.00352509710676
 20
-140.9746852946174
 30
0.0
 10
88.86175941788873
 20
-140.9281765055666
 30
0.0
 10
88.76650252772157
 20
-140.7462754639454
 30
0.0
 10
88.66297740838982
 20
-140.5516275690288
 30
0.0
 10
88.64385712844668
 20
-140.3146049996436
 30
0.0
 10
88.64385712844668
 20
-140.1519964927398
 30
0.0
 10
88.64385712844668
 20
-140.0079915014563
 30
0.0
 10
88.66073809632441
 20
-139.7561550214846
 30
0.0
 10
88.76650252772157
 20
-139.5573730119857
 30
0.0
 10
88.87450627118416
 20
-139.3544568879045
 30
0.0
 10
89.03521997557107
 20
-139.3310302386047
 30
0.0
 10
89.16423880149367
 20
-139.3310302386047
 30
0.0
 10
89.32305770336369
 20
-139.3310302386047
 30
0.0
 10
89.4667181850986
 20
-139.3754719703645
 30
0.0
 10
89.56214733004002
 20
-139.5573730119857
 30
0.0
 10
89.66136608001521
 20
-139.7499538496111
 30
0.0
 10
89.68479272931492
 20
-139.9783636802832
 30
0.0
 10
89.68479272931492
 20
-140.1519964927398
 30
0.0
 10
89.68479272931492
 20
-140.3232177383567
 30
0.0
 10
89.66343313730637
 20
-140.5536946263199
 30
0.0
 10
89.56214733004002
 20
-140.7462754639454
 30
0.0
  0
SPLINE
  5
7E
330
77
100
AcDbEntity
  8
_U+30EC_U+30A4_U+30E4_U+30FC 1
370
     0
100
AcDbSpline
210
0.0
220
0.0
230
1.0
 70
    11
 71
     3
 72
    17
 73
    13
 74
     0
 42
0.0000000001
 43
0.0000000001
 12
1.0
 22
0.0
 32
0.0
 13
1.0
 23
0.0
 33
0.0
 40
0.0
 40
0.0
 40
0.0
 40
0.0
 40
1.0
 40
1.0
 40
1.0
 40
2.0
 40
2.0
 40
2.0
 40
3.0
 40
3.0
 40
3.0
 40
4.0
 40
4.0
 40
4.0
 40
4.0
 10
89.16423880149367
 20
-139.5236110762302
 30
0.0
 10
88.91464163358732
 20
-139.5236110762302
 30
0.0
 10
88.86813284453645
 20
-139.8071424346663
 30
0.0
 10
88.86813284453645
 20
-140.1519964927398
 30
0.0
 10
88.86813284453645
 20
-140.4713568442224
 30
0.0
 10
88.90413409235731
 20
-140.7800373997008
 30
0.0
 10
89.16423880149367
 20
-140.7800373997008
 30
0.0
 10
89.41194116688312
 20
-140.7800373997008
 30
0.0
 10
89.46051701322516
 20
-140.4989176081044
 30
0.0
 10
89.46051701322516
 20
-140.1519964927398
 30
0.0
 10
89.46051701322516
 20
-139.8322916317086
 30
0.0
 10
89.42227645333888
 20
-139.5236110762302
 30
0.0
 10
89.16423880149367
 20
-139.5236110762302
 30
0.0
  0
HATCH
  5
7F
330
77
100
AcDbEntity
  8
_U+30EC_U+30A4_U+30E4_U+30FC 1
 62
   179
420
  2234388
100
AcDbHatch
 10
0.0
 20
0.0
 30
0.0
210
0.0
220
0.0
230
1.0
  2
SOLID
 70
     1
 71
     0
 91
        2
 92
        1
 93
        1
 72
     4
 94
        3
 73
     0
 74
     1
 95
       29
 96
       25
 40
0.0
 40
0.0
 40
0.0
 40
0.0
 40
1.0
 40
1.0
 40
1.0
 40
2.0
 40
2.0
 40
2.0
 40
3.0
 40
3.0
 40
3.0
 40
4.0
 40
4.0
 40
4.0
 40
5.0
 40
5.0
 40
5.0
 40
6.0
 40
6.0
 40
6.0
 40
7.0
 40
7.0
 40
7.0
 40
8.0
 40
8.0
 40
8.0
 40
8.0
 10
89.56214733004002
 20
-140.7462754639454
 10
89.45397133180317
 20
-140.9557372694486
 10
89.28068302889511
 20
-140.9746852946174
 10
89.16423880149367
 20
-140.9746852946174
 10
89.00352509710676
 20
-140.9746852946174
 10
88.86175941788873
 20
-140.9281765055666
 10
88.76650252772157
 20
-140.7462754639454
 10
88.66297740838982
 20
-140.5516275690288
 10
88.64385712844668
 20
-140.3146049996436
 10
88.64385712844668
 20
-140.1519964927398
 10
88.64385712844668
 20
-140.0079915014563
 10
88.66073809632441
 20
-139.7561550214846
 10
88.76650252772157
 20
-139.5573730119857
 10
88.87450627118416
 20
-139.3544568879045
 10
89.03521997557107
 20
-139.3310302386047
 10
89.16423880149367
 20
-139.3310302386047
 10
89.32305770336369
 20
-139.3310302386047
 10
89.4667181850986
 20
-139.3754719703645
 10
89.56214733004002
 20
-139.5573730119857
 10
89.66136608001521
 20
-139.7499538496111
 10
89.68479272931492
 20
-139.9783636802832
 10
89.68479272931492
 20
-140.1519964927398
 10
89.68479272931492
 20
-140.3232177383567
 10
89.66343313730637
 20
-140.5536946263199
 10
89.56214733004002
 20
-140.7462754639454
 97
        0
 97
        0
 92
        1
 93
        1
 72
     4
 94
        3
 73
     0
 74
     1
 95
       17
 96
       13
 40
0.0
 40
0.0
 40
0.0
 40
0.0
 40
1.0
 40
1.0
 40
1.0
 40
2.0
 40
2.0
 40
2.0
 40
3.0
 40
3.0
 40
3.0
 40
4.0
 40
4.0
 40
4.0
 40
4.0
 10
89.16423880149367
 20
-139.5236110762302
 10
88.91464163358732
 20
-139.5236110762302
 10
88.86813284453645
 20
-139.8071424346663
 10
88.86813284453645
 20
-140.1519964927398
 10
88.86813284453645
 20
-140.4713568442224
 10
88.90413409235731
 20
-140.7800373997008
 10
89.16423880149367
 20
-140.7800373997008
 10
89.41194116688312
 20
-140.7800373997008
 10
89.46051701322516
 20
-140.4989176081044
 10
89.46051701322516
 20
-140.1519964927398
 10
89.46051701322516
 20
-139.8322916317086
 10
89.42227645333888
 20
-139.5236110762302
 10
89.16423880149367
 20
-139.5236110762302
 97
        0
 97
        0
 75
     2
 76
     1
 98
        0
  0
ENDBLK
  5
7A
330
77
100
AcDbEntity
  8
0
100
AcDbBlockEnd
  0
BLOCK
  5
8E
330
8C
100
AcDbEntity
  8
0
100
AcDbBlockBegin
  2
block 4
 70
     0
 10
0.0
 20
0.0
 30
0.0
  3
block 4
  1

  0
SPLINE
  5
90
330
8C
100
AcDbEntity
  8
_U+30EC_U+30A4_U+30E4_U+30FC 1
370
     0
100
AcDbSpline
210
0.0
220
0.0
230
1.0
 70
    11
 71
     3
 72
    44
 73
    40
 74
     0
 42
0.0000000001
 43
0.0000000001
 12
1.0
 22
0.0
 32
0.0
 13
1.0
 23
0.0
 33
0.0
 40
0.0
 40
0.0
 40
0.0
 40
0.0
 40
1.0
 40
1.0
 40
1.0
 40
2.0
 40
2.0
 40
2.0
 40
3.0
 40
3.0
 40
3.0
 40
4.0
 40
4.0
 40
4.0
 40
5.0
 40
5.0
 40
5.0
 40
6.0
 40
6.0
 40
6.0
 40
7.0
 40
7.0
 40
7.0
 40
8.0
 40
8.0
 40
8.0
 40
9.0
 40
9.0
 40
9.0
 40
10.0
 40
10.0
 40
10.0
 40
11.0
 40
11.0
 40
11.0
 40
12.0
 40
12.0
 40
12.0
 40
13.0
 40
13.0
 40
13.0
 40
13.0
 10
88.08058401660833
 20
-117.3425360492234
 30
0.0
 10
87.86268172716628
 20
-117.5011826963191
 30
0.0
 10
87.76949189429027
 20
-117.575252249252
 30
0.0
 10
87.72091604794825
 20
-117.7190849857612
 30
0.0
 10
87.72091604794825
 20
-117.7190849857612
 30
0.0
 10
88.49933537284045
 20
-117.7190849857612
 30
0.0
 10
88.49933537284045
 20
-117.7190849857612
 30
0.0
 10
88.49933537284045
 20
-117.7190849857612
 30
0.0
 10
88.49933537284045
 20
-117.9242404219078
 30
0.0
 10
88.49933537284045
 20
-117.9242404219078
 30
0.0
 10
88.49933537284045
 20
-117.9242404219078
 30
0.0
 10
87.47131888004189
 20
-117.9242404219078
 30
0.0
 10
87.47131888004189
 20
-117.9242404219078
 30
0.0
 10
87.5030137585062
 20
-117.5666395105389
 30
0.0
 10
87.56847057272594
 20
-117.4884358430237
 30
0.0
 10
87.95363224797687
 20
-117.1900905740011
 30
0.0
 10
88.20960284253094
 20
-116.9913085645022
 30
0.0
 10
88.27505965675068
 20
-116.923612438217
 30
0.0
 10
88.27505965675068
 20
-116.7861531283556
 30
0.0
 10
88.27505965675068
 20
-116.6676418436629
 30
0.0
 10
88.20322941588323
 20
-116.5365559604492
 30
0.0
 10
88.00651446367546
 20
-116.5365559604492
 30
0.0
 10
87.74623749976483
 20
-116.5365559604492
 30
0.0
 10
87.73779701582598
 20
-116.7670328484124
 30
0.0
 10
87.7334906464694
 20
-116.8834770758139
 30
0.0
 10
87.7334906464694
 20
-116.8834770758139
 30
0.0
 10
87.50938718515391
 20
-116.8834770758139
 30
0.0
 10
87.50938718515391
 20
-116.8834770758139
 30
0.0
 10
87.51782766909277
 20
-116.7565253071824
 30
0.0
 10
87.52833521032278
 20
-116.6443874491375
 30
0.0
 10
87.60877818990336
 20
-116.5258761644449
 30
0.0
 10
87.71867673588284
 20
-116.365162460058
 30
0.0
 10
87.90488414686058
 20
-116.3312282695283
 30
0.0
 10
88.02132837426203
 20
-116.3312282695283
 30
0.0
 10
88.29848630605038
 20
-116.3312282695283
 30
0.0
 10
88.50570879948816
 20
-116.5153686232149
 30
0.0
 10
88.50570879948816
 20
-116.7882201856467
 30
0.0
 10
88.50570879948816
 20
-117.0166300163188
 30
0.0
 10
88.38943682686097
 20
-117.1161932758425
 30
0.0
 10
88.08058401660833
 20
-117.3425360492234
 30
0.0
  0
HATCH
  5
91
330
8C
100
AcDbEntity
  8
_U+30EC_U+30A4_U+30E4_U+30FC 1
 62
   179
420
  2234388
100
AcDbHatch
 10
0.0
 20
0.0
 30
0.0
210
0.0
220
0.0
230
1.0
  2
SOLID
 70
     1
 71
     0
 91
        1
 92
        1
 93
        1
 72
     4
 94
        3
 73
     0
 74
     1
 95
       44
 96
       40
 40
0.0
 40
0.0
 40
0.0
 40
0.0
 40
1.0
 40
1.0
 40
1.0
 40
2.0
 40
2.0
 40
2.0
 40
3.0
 40
3.0
 40
3.0
 40
4.0
 40
4.0
 40
4.0
 40
5.0
 40
5.0
 40
5.0
 40
6.0
 40
6.0
 40
6.0
 40
7.0
 40
7.0
 40
7.0
 40
8.0
 40
8.0
 40
8.0
 40
9.0
 40
9.0
 40
9.0
 40
10.0
 40
10.0
 40
10.0
 40
11.0
 40
11.0
 40
11.0
 40
12.0
 40
12.0
 40
12.0
 40
13.0
 40
13.0
 40
13.0
 40
13.0
 10
88.08058401660833
 20
-117.3425360492234
 10
87.86268172716628
 20
-117.5011826963191
 10
87.76949189429027
 20
-117.575252249252
 10
87.72091604794825
 20
-117.7190849857612
 10
87.72091604794825
 20
-117.7190849857612
 10
88.49933537284045
 20
-117.7190849857612
 10
88.49933537284045
 20
-117.7190849857612
 10
88.49933537284045
 20
-117.7190849857612
 10
88.49933537284045
 20
-117.9242404219078
 10
88.49933537284045
 20
-117.9242404219078
 10
88.49933537284045
 20
-117.9242404219078
 10
87.47131888004189
 20
-117.9242404219078
 10
87.47131888004189
 20
-117.9242404219078
 10
87.5030137585062
 20
-117.5666395105389
 10
87.56847057272594
 20
-117.4884358430237
 10
87.95363224797687
 20
-117.1900905740011
 10
88.20960284253094
 20
-116.9913085645022
 10
88.27505965675068
 20
-116.923612438217
 10
88.27505965675068
 20
-116.7861531283556
 10
88.27505965675068
 20
-116.6676418436629
 10
88.20322941588323
 20
-116.5365559604492
 10
88.00651446367546
 20
-116.5365559604492
 10
87.74623749976483
 20
-116.5365559604492
 10
87.73779701582598
 20
-116.7670328484124
 10
87.7334906464694
 20
-116.8834770758139
 10
87.7334906464694
 20
-116.8834770758139
 10
87.50938718515391
 20
-116.8834770758139
 10
87.50938718515391
 20
-116.8834770758139
 10
87.51782766909277
 20
-116.7565253071824
 10
87.52833521032278
 20
-116.6443874491375
 10
87.60877818990336
 20
-116.5258761644449
 10
87.71867673588284
 20
-116.365162460058
 10
87.90488414686058
 20
-116.3312282695283
 10
88.02132837426203
 20
-116.3312282695283
 10
88.29848630605038
 20
-116.3312282695283
 10
88.50570879948816
 20
-116.5153686232149
 10
88.50570879948816
 20
-116.7882201856467
 10
88.50570879948816
 20
-117.0166300163188
 10
88.38943682686097
 20
-117.1161932758425
 10
88.08058401660833
 20
-117.3425360492234
 97
        0
 97
        0
 75
     2
 76
     1
 98
        0
  0
SPLINE
  5
92
330
8C
100
AcDbEntity
  8
_U+30EC_U+30A4_U+30E4_U+30FC 1
370
     0
100
AcDbSpline
210
0.0
220
0.0
230
1.0
 70
    11
 71
     3
 72
    53
 73
    49
 74
     0
 42
0.0000000001
 43
0.0000000001
 12
1.0
 22
0.0
 32
0.0
 13
1.0
 23
0.0
 33
0.0
 40
0.0
 40
0.0
 40
0.0
 40
0.0
 40
1.0
 40
1.0
 40
1.0
 40
2.0
 40
2.0
 40
2.0
 40
3.0
 40
3.0
 40
3.0
 40
4.0
 40
4.0
 40
4.0
 40
5.0
 40
5.0
 40
5.0
 40
6.0
 40
6.0
 40
6.0
 40
7.0
 40
7.0
 40
7.0
 40
8.0
 40
8.0
 40
8.0
 40
9.0
 40
9.0
 40
9.0
 40
10.0
 40
10.0
 40
10.0
 40
11.0
 40
11.0
 40
11.0
 40
12.0
 40
12.0
 40
12.0
 40
13.0
 40
13.0
 40
13.0
 40
14.0
 40
14.0
 40
14.0
 40
15.0
 40
15.0
 40
15.0
 40
16.0
 40
16.0
 40
16.0
 40
16.0
 10
89.1452907763248
 20
-117.9750555803153
 30
0.0
 10
89.06708710880962
 20
-117.9750555803153
 30
0.0
 10
88.96545679199475
 20
-117.9580023576633
 30
0.0
 10
88.86382647517988
 20
-117.8946126007347
 30
0.0
 10
88.69036591749754
 20
-117.784541799981
 30
0.0
 10
88.66917858026326
 20
-117.6534559167672
 30
0.0
 10
88.6502305550944
 20
-117.5456244280789
 30
0.0
 10
88.6502305550944
 20
-117.5456244280789
 30
0.0
 10
88.87226695911875
 20
-117.5456244280789
 30
0.0
 10
88.87226695911875
 20
-117.5456244280789
 30
0.0
 10
88.92738848688273
 20
-117.7444064375778
 30
0.0
 10
89.05434025551419
 20
-117.7740342587509
 30
0.0
 10
89.14735783361594
 20
-117.7740342587509
 30
0.0
 10
89.28688420076855
 20
-117.7740342587509
 30
0.0
 10
89.4391574212166
 20
-117.6746432540015
 30
0.0
 10
89.4391574212166
 20
-117.4419270539729
 30
0.0
 10
89.4391574212166
 20
-117.1859564594188
 30
0.0
 10
89.25932343688656
 20
-117.1161932758425
 30
0.0
 10
89.13874509490282
 20
-117.1161932758425
 30
0.0
 10
89.10705021643852
 20
-117.1161932758425
 30
0.0
 10
88.96545679199475
 20
-117.1161932758425
 30
0.0
 10
88.8765733284753
 20
-117.2452121017651
 30
0.0
 10
88.8765733284753
 20
-117.2452121017651
 30
0.0
 10
88.70104571350183
 20
-117.226091821822
 30
0.0
 10
88.70104571350183
 20
-117.226091821822
 30
0.0
 10
88.70104571350183
 20
-117.226091821822
 30
0.0
 10
88.82162405548557
 20
-116.3799763706446
 30
0.0
 10
88.82162405548557
 20
-116.3799763706446
 30
0.0
 10
88.82162405548557
 20
-116.3799763706446
 30
0.0
 10
89.60004338037777
 20
-116.3799763706446
 30
0.0
 10
89.60004338037777
 20
-116.3799763706446
 30
0.0
 10
89.60004338037777
 20
-116.3799763706446
 30
0.0
 10
89.60004338037777
 20
-116.5746242655612
 30
0.0
 10
89.60004338037777
 20
-116.5746242655612
 30
0.0
 10
89.60004338037777
 20
-116.5746242655612
 30
0.0
 10
88.98440481716362
 20
-116.5746242655612
 30
0.0
 10
88.98440481716362
 20
-116.5746242655612
 30
0.0
 10
88.98440481716362
 20
-116.5746242655612
 30
0.0
 10
88.91894800294388
 20
-116.9976819911499
 30
0.0
 10
88.91894800294388
 20
-116.9976819911499
 30
0.0
 10
88.98027070258132
 20
-116.9637478006202
 30
0.0
 10
89.06260848467879
 20
-116.923612438217
 30
0.0
 10
89.18111976937139
 20
-116.923612438217
 30
0.0
 10
89.4350233066343
 20
-116.923612438217
 30
0.0
 10
89.6720458760195
 20
-117.1098198491948
 30
0.0
 10
89.6720458760195
 20
-117.4228067740297
 30
0.0
 10
89.6720458760195
 20
-117.7402723229955
 30
0.0
 10
89.44777015992973
 20
-117.9750555803153
 30
0.0
 10
89.1452907763248
 20
-117.9750555803153
 30
0.0
  0
HATCH
  5
93
330
8C
100
AcDbEntity
  8
_U+30EC_U+30A4_U+30E4_U+30FC 1
 62
   179
420
  2234388
100
AcDbHatch
 10
0.0
 20
0.0
 30
0.0
210
0.0
220
0.0
230
1.0
  2
SOLID
 70
     1
 71
     0
 91
        1
 92
        1
 93
        1
 72
     4
 94
        3
 73
     0
 74
     1
 95
       53
 96
       49
 40
0.0
 40
0.0
 40
0.0
 40
0.0
 40
1.0
 40
1.0
 40
1.0
 40
2.0
 40
2.0
 40
2.0
 40
3.0
 40
3.0
 40
3.0
 40
4.0
 40
4.0
 40
4.0
 40
5.0
 40
5.0
 40
5.0
 40
6.0
 40
6.0
 40
6.0
 40
7.0
 40
7.0
 40
7.0
 40
8.0
 40
8.0
 40
8.0
 40
9.0
 40
9.0
 40
9.0
 40
10.0
 40
10.0
 40
10.0
 40
11.0
 40
11.0
 40
11.0
 40
12.0
 40
12.0
 40
12.0
 40
13.0
 40
13.0
 40
13.0
 40
14.0
 40
14.0
 40
14.0
 40
15.0
 40
15.0
 40
15.0
 40
16.0
 40
16.0
 40
16.0
 40
16.0
 10
89.1452907763248
 20
-117.9750555803153
 10
89.06708710880962
 20
-117.9750555803153
 10
88.96545679199475
 20
-117.9580023576633
 10
88.86382647517988
 20
-117.8946126007347
 10
88.69036591749754
 20
-117.784541799981
 10
88.66917858026326
 20
-117.6534559167672
 10
88.6502305550944
 20
-117.5456244280789
 10
88.6502305550944
 20
-117.5456244280789
 10
88.87226695911875
 20
-117.5456244280789
 10
88.87226695911875
 20
-117.5456244280789
 10
88.92738848688273
 20
-117.7444064375778
 10
89.05434025551419
 20
-117.7740342587509
 10
89.14735783361594
 20
-117.7740342587509
 10
89.28688420076855
 20
-117.7740342587509
 10
89.4391574212166
 20
-117.6746432540015
 10
89.4391574212166
 20
-117.4419270539729
 10
89.4391574212166
 20
-117.1859564594188
 10
89.25932343688656
 20
-117.1161932758425
 10
89.13874509490282
 20
-117.1161932758425
 10
89.10705021643852
 20
-117.1161932758425
 10
88.96545679199475
 20
-117.1161932758425
 10
88.8765733284753
 20
-117.2452121017651
 10
88.8765733284753
 20
-117.2452121017651
 10
88.70104571350183
 20
-117.226091821822
 10
88.70104571350183
 20
-117.226091821822
 10
88.70104571350183
 20
-117.226091821822
 10
88.82162405548557
 20
-116.3799763706446
 10
88.82162405548557
 20
-116.3799763706446
 10
88.82162405548557
 20
-116.3799763706446
 10
89.60004338037777
 20
-116.3799763706446
 10
89.60004338037777
 20
-116.3799763706446
 10
89.60004338037777
 20
-116.3799763706446
 10
89.60004338037777
 20
-116.5746242655612
 10
89.60004338037777
 20
-116.5746242655612
 10
89.60004338037777
 20
-116.5746242655612
 10
88.98440481716362
 20
-116.5746242655612
 10
88.98440481716362
 20
-116.5746242655612
 10
88.98440481716362
 20
-116.5746242655612
 10
88.91894800294388
 20
-116.9976819911499
 10
88.91894800294388
 20
-116.9976819911499
 10
88.98027070258132
 20
-116.9637478006202
 10
89.06260848467879
 20
-116.923612438217
 10
89.18111976937139
 20
-116.923612438217
 10
89.4350233066343
 20
-116.923612438217
 10
89.6720458760195
 20
-117.1098198491948
 10
89.6720458760195
 20
-117.4228067740297
 10
89.6720458760195
 20
-117.7402723229955
 10
89.44777015992973
 20
-117.9750555803153
 10
89.1452907763248
 20
-117.9750555803153
 97
        0
 97
        0
 75
     2
 76
     1
 98
        0
  0
ENDBLK
  5
8F
330
8C
100
AcDbEntity
  8
0
100
AcDbBlockEnd
  0
ENDSEC
  0
SECTION
  2
ENTITIES
  0
POLYLINE
  5
41
330
1F
100
AcDbEntity
  8
_U+30EC_U+30A4_U+30E4_U+30FC 1
 62
   179
420
  2234388
370
    25
100
AcDb2dPolyline
 66
     1
 10
0.0
 20
0.0
 30
0.0
  0
VERTEX
  5
42
330
41
100
AcDbEntity
  8
_U+30EC_U+30A4_U+30E4_U+30FC 1
 62
   179
420
  2234388
370
    25
100
AcDbVertex
100
AcDb2dVertex
 10
73.57586062292341
 20
-137.2174674656958
 30
0.0
  0
VERTEX
  5
43
330
41
100
AcDbEntity
  8
_U+30EC_U+30A4_U+30E4_U+30FC 1
 62
   179
420
  2234388
370
    25
100
AcDbVertex
100
AcDb2dVertex
 10
103.5757645797843
 20
-137.2174674656958
 30
0.0
  0
SEQEND
  5
44
330
41
100
AcDbEntity
  8
_U+30EC_U+30A4_U+30E4_U+30FC 1
 62
   179
420
  2234388
370
    25
  0
POLYLINE
  5
45
330
1F
100
AcDbEntity
  8
_U+30EC_U+30A4_U+30E4_U+30FC 1
 62
   179
420
  2234388
370
    25
100
AcDb2dPolyline
 66
     1
 10
0.0
 20
0.0
 30
0.0
  0
VERTEX
  5
46
330
45
100
AcDbEntity
  8
_U+30EC_U+30A4_U+30E4_U+30FC 1
 62
   179
420
  2234388
370
    25
100
AcDbVertex
100
AcDb2dVertex
 10
76.07564389248196
 20
-122.2175327472234
 30
0.0
  0
VERTEX
  5
47
330
45
100
AcDbEntity
  8
_U+30EC_U+30A4_U+30E4_U+30FC 1
 62
   179
420
  2234388
370
    25
100
AcDbVertex
100
AcDb2dVertex
 10
101.0759813102258
 20
-122.2175327472234
 30
0.0
  0
SEQEND
  5
48
330
45
100
AcDbEntity
  8
_U+30EC_U+30A4_U+30E4_U+30FC 1
 62
   179
420
  2234388
370
    25
  0
POLYLINE
  5
49
330
1F
100
AcDbEntity
  8
_U+30EC_U+30A4_U+30E4_U+30FC 1
 62
   179
420
  2234388
370
    25
100
AcDb2dPolyline
 66
     1
 10
0.0
 20
0.0
 30
0.0
  0
VERTEX
  5
4A
330
49
100
AcDbEntity
  8
_U+30EC_U+30A4_U+30E4_U+30FC 1
 62
   179
420
  2234388
370
    25
100
AcDbVertex
100
AcDb2dVertex
 10
76.07564389248196
 20
-122.2175327472234
 30
0.0
  0
VERTEX
  5
4B
330
49
100
AcDbEntity
  8
_U+30EC_U+30A4_U+30E4_U+30FC 1
 62
   179
420
  2234388
370
    25
100
AcDbVertex
100
AcDb2dVertex
 10
73.57586062292341
 20
-137.2174674656958
 30
0.0
  0
SEQEND
  5
4C
330
49
100
AcDbEntity
  8
_U+30EC_U+30A4_U+30E4_U+30FC 1
 62
   179
420
  2234388
370
    25
  0
POLYLINE
  5
4D
330
1F
100
AcDbEntity
  8
_U+30EC_U+30A4_U+30E4_U+30FC 1
 62
   179
420
  2234388
370
    25
100
AcDb2dPolyline
 66
     1
 10
0.0
 20
0.0
 30
0.0
  0
VERTEX
  5
4E
330
4D
100
AcDbEntity
  8
_U+30EC_U+30A4_U+30E4_U+30FC 1
 62
   179
420
  2234388
370
    25
100
AcDbVertex
100
AcDb2dVertex
 10
101.0759813102258
 20
-122.2175327472234
 30
0.0
  0
VERTEX
  5
4F
330
4D
100
AcDbEntity
  8
_U+30EC_U+30A4_U+30E4_U+30FC 1
 62
   179
420
  2234388
370
    25
100
AcDbVertex
100
AcDb2dVertex
 10
103.5757645797843
 20
-137.2174674656958
 30
0.0
  0
SEQEND
  5
50
330
4D
100
AcDbEntity
  8
_U+30EC_U+30A4_U+30E4_U+30FC 1
 62
   179
420
  2234388
370
    25
  0
SPLINE
  5
51
330
1F
100
AcDbEntity
  8
_U+30EC_U+30A4_U+30E4_U+30FC 1
 62
   179
420
  2234388
370
     9
100
AcDbSpline
210
0.0
220
0.0
230
1.0
 70
    11
 71
     3
 72
    17
 73
    13
 74
     0
 42
0.0000000001
 43
0.0000000001
 12
1.0
 22
0.0
 32
0.0
 13
1.0
 23
0.0
 33
0.0
 40
0.0
 40
0.0
 40
0.0
 40
0.0
 40
1.0
 40
1.0
 40
1.0
 40
2.0
 40
2.0
 40
2.0
 40
3.0
 40
3.0
 40
3.0
 40
4.0
 40
4.0
 40
4.0
 40
4.0
 10
73.67576728704125
 20
-141.2172266313627
 30
0.0
 10
73.67576728704125
 20
-141.1620874647096
 30
0.0
 10
73.63099978818336
 20
-141.1173199647204
 30
0.0
 10
73.57586062292341
 20
-141.1173199647204
 30
0.0
 10
73.52075673544034
 20
-141.1173199647204
 30
0.0
 10
73.47595395880558
 20
-141.1620874647096
 30
0.0
 10
73.47595395880558
 20
-141.2172266313627
 30
0.0
 10
73.47595395880558
 20
-141.2730360757931
 30
0.0
 10
73.52075673544034
 20
-141.3171332980043
 30
0.0
 10
73.57586062292341
 20
-141.3171332980043
 30
0.0
 10
73.63099978818336
 20
-141.3171332980043
 30
0.0
 10
73.67576728704125
 20
-141.2730360757931
 30
0.0
 10
73.67576728704125
 20
-141.2172266313627
 30
0.0
  0
SPLINE
  5
52
330
1F
100
AcDbEntity
  8
_U+30EC_U+30A4_U+30E4_U+30FC 1
 62
   179
420
  2234388
370
     9
100
AcDbSpline
210
0.0
220
0.0
230
1.0
 70
    11
 71
     3
 72
    17
 73
    13
 74
     0
 42
0.0000000001
 43
0.0000000001
 12
1.0
 22
0.0
 32
0.0
 13
1.0
 23
0.0
 33
0.0
 40
0.0
 40
0.0
 40
0.0
 40
0.0
 40
1.0
 40
1.0
 40
1.0
 40
2.0
 40
2.0
 40
2.0
 40
3.0
 40
3.0
 40
3.0
 40
4.0
 40
4.0
 40
4.0
 40
4.0
 10
103.6763415216628
 20
-141.2172266313627
 30
0.0
 10
103.6763415216628
 20
-141.1620874647096
 30
0.0
 10
103.631574022805
 20
-141.1173199647204
 30
0.0
 10
103.5757645797843
 20
-141.1173199647204
 30
0.0
 10
103.5206254145244
 20
-141.1173199647204
 30
0.0
 10
103.4758579156665
 20
-141.1620874647096
 30
0.0
 10
103.4758579156665
 20
-141.2172266313627
 30
0.0
 10
103.4758579156665
 20
-141.2730360757931
 30
0.0
 10
103.5206254145244
 20
-141.3171332980043
 30
0.0
 10
103.5757645797843
 20
-141.3171332980043
 30
0.0
 10
103.631574022805
 20
-141.3171332980043
 30
0.0
 10
103.6763415216628
 20
-141.2730360757931
 30
0.0
 10
103.6763415216628
 20
-141.2172266313627
 30
0.0
  0
SPLINE
  5
53
330
1F
100
AcDbEntity
  8
_U+30EC_U+30A4_U+30E4_U+30FC 1
 62
   179
420
  2234388
370
     9
100
AcDbSpline
210
0.0
220
0.0
230
1.0
 70
    11
 71
     3
 72
    17
 73
    13
 74
     0
 42
0.0000000001
 43
0.0000000001
 12
1.0
 22
0.0
 32
0.0
 13
1.0
 23
0.0
 33
0.0
 40
0.0
 40
0.0
 40
0.0
 40
0.0
 40
1.0
 40
1.0
 40
1.0
 40
2.0
 40
2.0
 40
2.0
 40
3.0
 40
3.0
 40
3.0
 40
4.0
 40
4.0
 40
4.0
 40
4.0
 10
105.9122117423988
 20
-137.2174674656958
 30
0.0
 10
105.9122117423988
 20
-137.1623282990427
 30
0.0
 10
105.8674442435409
 20
-137.1175607990542
 30
0.0
 10
105.812305078281
 20
-137.1175607990542
 30
0.0
 10
105.7572011907979
 20
-137.1175607990542
 30
0.0
 10
105.7123984141631
 20
-137.1623282990427
 30
0.0
 10
105.7123984141631
 20
-137.2174674656958
 30
0.0
 10
105.7123984141631
 20
-137.2725713545707
 30
0.0
 10
105.7572011907979
 20
-137.3173741323374
 30
0.0
 10
105.812305078281
 20
-137.3173741323374
 30
0.0
 10
105.8674442435409
 20
-137.3173741323374
 30
0.0
 10
105.9122117423988
 20
-137.2725713545707
 30
0.0
 10
105.9122117423988
 20
-137.2174674656958
 30
0.0
  0
SPLINE
  5
54
330
1F
100
AcDbEntity
  8
_U+30EC_U+30A4_U+30E4_U+30FC 1
 62
   179
420
  2234388
370
     9
100
AcDbSpline
210
0.0
220
0.0
230
1.0
 70
    11
 71
     3
 72
    17
 73
    13
 74
     0
 42
0.0000000001
 43
0.0000000001
 12
1.0
 22
0.0
 32
0.0
 13
1.0
 23
0.0
 33
0.0
 40
0.0
 40
0.0
 40
0.0
 40
0.0
 40
1.0
 40
1.0
 40
1.0
 40
2.0
 40
2.0
 40
2.0
 40
3.0
 40
3.0
 40
3.0
 40
4.0
 40
4.0
 40
4.0
 40
4.0
 10
105.9122117423988
 20
-122.2175327472234
 30
0.0
 10
105.9122117423988
 20
-122.1623935805704
 30
0.0
 10
105.8674442435409
 20
-122.1176260805818
 30
0.0
 10
105.812305078281
 20
-122.1176260805818
 30
0.0
 10
105.7572011907979
 20
-122.1176260805818
 30
0.0
 10
105.7123984141631
 20
-122.1623935805704
 30
0.0
 10
105.7123984141631
 20
-122.2175327472234
 30
0.0
 10
105.7123984141631
 20
-122.2726366360984
 30
0.0
 10
105.7572011907979
 20
-122.3174394138651
 30
0.0
 10
105.812305078281
 20
-122.3174394138651
 30
0.0
 10
105.8674442435409
 20
-122.3174394138651
 30
0.0
 10
105.9122117423988
 20
-122.2726366360984
 30
0.0
 10
105.9122117423988
 20
-122.2175327472234
 30
0.0
  0
SPLINE
  5
55
330
1F
100
AcDbEntity
  8
_U+30EC_U+30A4_U+30E4_U+30FC 1
 62
   179
420
  2234388
370
     9
100
AcDbSpline
210
0.0
220
0.0
230
1.0
 70
    11
 71
     3
 72
    17
 73
    13
 74
     0
 42
0.0000000001
 43
0.0000000001
 12
1.0
 22
0.0
 32
0.0
 13
1.0
 23
0.0
 33
0.0
 40
0.0
 40
0.0
 40
0.0
 40
0.0
 40
1.0
 40
1.0
 40
1.0
 40
2.0
 40
2.0
 40
2.0
 40
3.0
 40
3.0
 40
3.0
 40
4.0
 40
4.0
 40
4.0
 40
4.0
 10
76.17622083436048
 20
-118.2177735815566
 30
0.0
 10
76.17622083436048
 20
-118.1626344149038
 30
0.0
 10
76.13145333550258
 20
-118.1178669149149
 30
0.0
 10
76.07564389248196
 20
-118.1178669149149
 30
0.0
 10
76.02050472722202
 20
-118.1178669149149
 30
0.0
 10
75.97573722836412
 20
-118.1626344149038
 30
0.0
 10
75.97573722836412
 20
-118.2177735815566
 30
0.0
 10
75.97573722836412
 20
-118.2728774704318
 30
0.0
 10
76.02050472722202
 20
-118.3176802481985
 30
0.0
 10
76.07564389248196
 20
-118.3176802481985
 30
0.0
 10
76.13145333550258
 20
-118.3176802481985
 30
0.0
 10
76.17622083436048
 20
-118.2728774704318
 30
0.0
 10
76.17622083436048
 20
-118.2177735815566
 30
0.0
  0
SPLINE
  5
56
330
1F
100
AcDbEntity
  8
_U+30EC_U+30A4_U+30E4_U+30FC 1
 62
   179
420
  2234388
370
     9
100
AcDbSpline
210
0.0
220
0.0
230
1.0
 70
    11
 71
     3
 72
    17
 73
    13
 74
     0
 42
0.0000000001
 43
0.0000000001
 12
1.0
 22
0.0
 32
0.0
 13
1.0
 23
0.0
 33
0.0
 40
0.0
 40
0.0
 40
0.0
 40
0.0
 40
1.0
 40
1.0
 40
1.0
 40
2.0
 40
2.0
 40
2.0
 40
3.0
 40
3.0
 40
3.0
 40
4.0
 40
4.0
 40
4.0
 40
4.0
 10
101.1759232521205
 20
-118.2177735815566
 30
0.0
 10
101.1759232521205
 20
-118.1626344149038
 30
0.0
 10
101.1311204754857
 20
-118.1178669149149
 30
0.0
 10
101.0759813102258
 20
-118.1178669149149
 30
0.0
 10
101.0208774227427
 20
-118.1178669149149
 30
0.0
 10
100.9760746461079
 20
-118.1626344149038
 30
0.0
 10
100.9760746461079
 20
-118.2177735815566
 30
0.0
 10
100.9760746461079
 20
-118.2728774704318
 30
0.0
 10
101.0208774227427
 20
-118.3176802481985
 30
0.0
 10
101.0759813102258
 20
-118.3176802481985
 30
0.0
 10
101.1311204754857
 20
-118.3176802481985
 30
0.0
 10
101.1759232521205
 20
-118.2728774704318
 30
0.0
 10
101.1759232521205
 20
-118.2177735815566
 30
0.0
  0
POLYLINE
  5
57
330
1F
100
AcDbEntity
  8
_U+30EC_U+30A4_U+30E4_U+30FC 1
 62
   179
420
  2234388
370
     9
100
AcDb2dPolyline
 66
     1
 10
0.0
 20
0.0
 30
0.0
  0
VERTEX
  5
58
330
57
100
AcDbEntity
  8
_U+30EC_U+30A4_U+30E4_U+30FC 1
 62
   179
420
  2234388
370
     9
100
AcDbVertex
100
AcDb2dVertex
 10
105.812305078281
 20
-122.2175327472234
 30
0.0
  0
VERTEX
  5
59
330
57
100
AcDbEntity
  8
_U+30EC_U+30A4_U+30E4_U+30FC 1
 62
   179
420
  2234388
370
     9
100
AcDbVertex
100
AcDb2dVertex
 10
105.812305078281
 20
-137.2174674656958
 30
0.0
  0
SEQEND
  5
5A
330
57
100
AcDbEntity
  8
_U+30EC_U+30A4_U+30E4_U+30FC 1
 62
   179
420
  2234388
370
     9
  0
POLYLINE
  5
5B
330
1F
100
AcDbEntity
  8
_U+30EC_U+30A4_U+30E4_U+30FC 1
 62
   179
420
  2234388
370
     9
100
AcDb2dPolyline
 66
     1
 10
0.0
 20
0.0
 30
0.0
  0
VERTEX
  5
5C
330
5B
100
AcDbEntity
  8
_U+30EC_U+30A4_U+30E4_U+30FC 1
 62
   179
420
  2234388
370
     9
100
AcDbVertex
100
AcDb2dVertex
 10
102.5574009946538
 20
-122.2175327472234
 30
0.0
  0
VERTEX
  5
5D
330
5B
100
AcDbEntity
  8
_U+30EC_U+30A4_U+30E4_U+30FC 1
 62
   179
420
  2234388
370
     9
100
AcDbVertex
100
AcDb2dVertex
 10
106.8120772749969
 20
-122.2175327472234
 30
0.0
  0
SEQEND
  5
5E
330
5B
100
AcDbEntity
  8
_U+30EC_U+30A4_U+30E4_U+30FC 1
 62
   179
420
  2234388
370
     9
  0
POLYLINE
  5
5F
330
1F
100
AcDbEntity
  8
_U+30EC_U+30A4_U+30E4_U+30FC 1
 62
   179
420
  2234388
370
     9
100
AcDb2dPolyline
 66
     1
 10
0.0
 20
0.0
 30
0.0
  0
VERTEX
  5
60
330
5F
100
AcDbEntity
  8
_U+30EC_U+30A4_U+30E4_U+30FC 1
 62
   179
420
  2234388
370
     9
100
AcDbVertex
100
AcDb2dVertex
 10
104.3522990044177
 20
-137.2174674656958
 30
0.0
  0
VERTEX
  5
61
330
5F
100
AcDbEntity
  8
_U+30EC_U+30A4_U+30E4_U+30FC 1
 62
   179
420
  2234388
370
     9
100
AcDbVertex
100
AcDb2dVertex
 10
106.8120772749969
 20
-137.2174674656958
 30
0.0
  0
SEQEND
  5
62
330
5F
100
AcDbEntity
  8
_U+30EC_U+30A4_U+30E4_U+30FC 1
 62
   179
420
  2234388
370
     9
  0
INSERT
  5
64
330
1F
100
AcDbEntity
  8
_U+30EC_U+30A4_U+30E4_U+30FC 1
100
AcDbBlockReference
  2
block 2
 10
0.0
 20
0.0
 30
0.0
  0
POLYLINE
  5
6B
330
1F
100
AcDbEntity
  8
_U+30EC_U+30A4_U+30E4_U+30FC 1
 62
   179
420
  2234388
370
     9
100
AcDb2dPolyline
 66
     1
 10
0.0
 20
0.0
 30
0.0
  0
VERTEX
  5
6C
330
6B
100
AcDbEntity
  8
_U+30EC_U+30A4_U+30E4_U+30FC 1
 62
   179
420
  2234388
370
     9
100
AcDbVertex
100
AcDb2dVertex
 10
73.57586062292341
 20
-141.2172266313627
 30
0.0
  0
VERTEX
  5
6D
330
6B
100
AcDbEntity
  8
_U+30EC_U+30A4_U+30E4_U+30FC 1
 62
   179
420
  2234388
370
     9
100
AcDbVertex
100
AcDb2dVertex
 10
103.5757645797843
 20
-141.2172266313627
 30
0.0
  0
SEQEND
  5
6E
330
6B
100
AcDbEntity
  8
_U+30EC_U+30A4_U+30E4_U+30FC 1
 62
   179
420
  2234388
370
     9
  0
POLYLINE
  5
6F
330
1F
100
AcDbEntity
  8
_U+30EC_U+30A4_U+30E4_U+30FC 1
 62
   179
420
  2234388
370
     9
100
AcDb2dPolyline
 66
     1
 10
0.0
 20
0.0
 30
0.0
  0
VERTEX
  5
70
330
6F
100
AcDbEntity
  8
_U+30EC_U+30A4_U+30E4_U+30FC 1
 62
   179
420
  2234388
370
     9
100
AcDbVertex
100
AcDb2dVertex
 10
73.57586062292341
 20
-139.7571852428383
 30
0.0
  0
VERTEX
  5
71
330
6F
100
AcDbEntity
  8
_U+30EC_U+30A4_U+30E4_U+30FC 1
 62
   179
420
  2234388
370
     9
100
AcDbVertex
100
AcDb2dVertex
 10
73.57586062292341
 20
-142.2176691311119
 30
0.0
  0
SEQEND
  5
72
330
6F
100
AcDbEntity
  8
_U+30EC_U+30A4_U+30E4_U+30FC 1
 62
   179
420
  2234388
370
     9
  0
POLYLINE
  5
73
330
1F
100
AcDbEntity
  8
_U+30EC_U+30A4_U+30E4_U+30FC 1
 62
   179
420
  2234388
370
     9
100
AcDb2dPolyline
 66
     1
 10
0.0
 20
0.0
 30
0.0
  0
VERTEX
  5
74
330
73
100
AcDbEntity
  8
_U+30EC_U+30A4_U+30E4_U+30FC 1
 62
   179
420
  2234388
370
     9
100
AcDbVertex
100
AcDb2dVertex
 10
103.5757645797843
 20
-139.7571852428383
 30
0.0
  0
VERTEX
  5
75
330
73
100
AcDbEntity
  8
_U+30EC_U+30A4_U+30E4_U+30FC 1
 62
   179
420
  2234388
370
     9
100
AcDbVertex
100
AcDb2dVertex
 10
103.5757645797843
 20
-142.2176691311119
 30
0.0
  0
SEQEND
  5
76
330
73
100
AcDbEntity
  8
_U+30EC_U+30A4_U+30E4_U+30FC 1
 62
   179
420
  2234388
370
     9
  0
INSERT
  5
78
330
1F
100
AcDbEntity
  8
_U+30EC_U+30A4_U+30E4_U+30FC 1
100
AcDbBlockReference
  2
block 3
 10
0.0
 20
0.0
 30
0.0
  0
POLYLINE
  5
80
330
1F
100
AcDbEntity
  8
_U+30EC_U+30A4_U+30E4_U+30FC 1
 62
   179
420
  2234388
370
     9
100
AcDb2dPolyline
 66
     1
 10
0.0
 20
0.0
 30
0.0
  0
VERTEX
  5
81
330
80
100
AcDbEntity
  8
_U+30EC_U+30A4_U+30E4_U+30FC 1
 62
   179
420
  2234388
370
     9
100
AcDbVertex
100
AcDb2dVertex
 10
76.07564389248196
 20
-118.2177735815566
 30
0.0
  0
VERTEX
  5
82
330
80
100
AcDbEntity
  8
_U+30EC_U+30A4_U+30E4_U+30FC 1
 62
   179
420
  2234388
370
     9
100
AcDbVertex
100
AcDb2dVertex
 10
101.0759813102258
 20
-118.2177735815566
 30
0.0
  0
SEQEND
  5
83
330
80
100
AcDbEntity
  8
_U+30EC_U+30A4_U+30E4_U+30FC 1
 62
   179
420
  2234388
370
     9
  0
POLYLINE
  5
84
330
1F
100
AcDbEntity
  8
_U+30EC_U+30A4_U+30E4_U+30FC 1
 62
   179
420
  2234388
370
     9
100
AcDb2dPolyline
 66
     1
 10
0.0
 20
0.0
 30
0.0
  0
VERTEX
  5
85
330
84
100
AcDbEntity
  8
_U+30EC_U+30A4_U+30E4_U+30FC 1
 62
   179
420
  2234388
370
     9
100
AcDbVertex
100
AcDb2dVertex
 10
76.07564389248196
 20
-119.6777796923027
 30
0.0
  0
VERTEX
  5
86
330
84
100
AcDbEntity
  8
_U+30EC_U+30A4_U+30E4_U+30FC 1
 62
   179
420
  2234388
370
     9
100
AcDbVertex
100
AcDb2dVertex
 10
76.07564389248196
 20
-117.2176485818066
 30
0.0
  0
SEQEND
  5
87
330
84
100
AcDbEntity
  8
_U+30EC_U+30A4_U+30E4_U+30FC 1
 62
   179
420
  2234388
370
     9
  0
POLYLINE
  5
88
330
1F
100
AcDbEntity
  8
_U+30EC_U+30A4_U+30E4_U+30FC 1
 62
   179
420
  2234388
370
     9
100
AcDb2dPolyline
 66
     1
 10
0.0
 20
0.0
 30
0.0
  0
VERTEX
  5
89
330
88
100
AcDbEntity
  8
_U+30EC_U+30A4_U+30E4_U+30FC 1
 62
   179
420
  2234388
370
     9
100
AcDbVertex
100
AcDb2dVertex
 10
101.0759813102258
 20
-119.6777796923027
 30
0.0
  0
VERTEX
  5
8A
330
88
100
AcDbEntity
  8
_U+30EC_U+30A4_U+30E4_U+30FC 1
 62
   179
420
  2234388
370
     9
100
AcDbVertex
100
AcDb2dVertex
 10
101.0759813102258
 20
-117.2176485818066
 30
0.0
  0
SEQEND
  5
8B
330
88
100
AcDbEntity
  8
_U+30EC_U+30A4_U+30E4_U+30FC 1
 62
   179
420
  2234388
370
     9
  0
INSERT
  5
8D
330
1F
100
AcDbEntity
  8
_U+30EC_U+30A4_U+30E4_U+30FC 1
100
AcDbBlockReference
  2
block 4
 10
0.0
 20
0.0
 30
0.0
  0
POLYLINE
  5
94
330
1F
100
AcDbEntity
  8
_U+30EC_U+30A4_U+30E4_U+30FC 1
370
     0
100
AcDb2dPolyline
 66
     1
 10
0.0
 20
0.0
 30
0.0
  0
VERTEX
  5
95
330
94
100
AcDbEntity
  8
_U+30EC_U+30A4_U+30E4_U+30FC 1
370
     0
100
AcDbVertex
100
AcDb2dVertex
 10
73.61547756635714
 20
-137.0996396879472
 30
0.0
  0
VERTEX
  5
96
330
94
100
AcDbEntity
  8
_U+30EC_U+30A4_U+30E4_U+30FC 1
370
     0
100
AcDbVertex
100
AcDb2dVertex
 10
103.5133934702644
 20
-137.1878341323696
 30
0.0
  0
VERTEX
  5
97
330
94
100
AcDbEntity
  8
_U+30EC_U+30A4_U+30E4_U+30FC 1
370
     0
100
AcDbVertex
100
AcDb2dVertex
 10
101.0439490888208
 20
-122.1949549694512
 30
0.0
  0
VERTEX
  5
98
330
94
100
AcDbEntity
  8
_U+30EC_U+30A4_U+30E4_U+30FC 1
370
     0
100
AcDbVertex
100
AcDb2dVertex
 10
76.08492194780082
 20
-122.2831494138736
 30
0.0
  0
VERTEX
  5
99
330
94
100
AcDbEntity
  8
_U+30EC_U+30A4_U+30E4_U+30FC 1
370
     0
100
AcDbVertex
100
AcDb2dVertex
 10
73.61547756635714
 20
-137.0996396879472
 30
0.0
  0
SEQEND
  5
9B
330
94
100
AcDbEntity
  8
_U+30EC_U+30A4_U+30E4_U+30FC 1
370
     0
  0
HATCH
  5
9A
330
1F
100
AcDbEntity
  8
_U+30EC_U+30A4_U+30E4_U+30FC 1
 62
   178
420
        0
100
AcDbHatch
 10
0.0
 20
0.0
 30
0.0
210
0.0
220
0.0
230
1.0
  2
AI_USER_DEFINED_HATCH
 70
     0
 71
     0
 91
        1
 92
        1
 93
        4
 72
     1
 10
73.61547756635714
 20
-137.0996396879472
 11
103.5133934702644
 21
-137.1878341323696
 72
     1
 10
103.5133934702644
 20
-137.1878341323696
 11
101.0439490888208
 21
-122.1949549694512
 72
     1
 10
101.0439490888208
 20
-122.1949549694512
 11
76.08492194780082
 21
-122.2831494138736
 72
     1
 10
76.08492194780082
 20
-122.2831494138736
 11
73.61547756635714
 21
-137.0996396879472
 97
        0
 75
     2
 76
     0
 52
45.0
 41
10.0
 77
     0
 78
     1
 53
45.0
 43
0.0
 44
0.0
 45
-7.071067811865475
 46
7.071067811865476
 79
     0
 98
        0
  0
ENDSEC
  0
SECTION
  2
OBJECTS
  0
DICTIONARY
  5
C
330
0
100
AcDbDictionary
281
     1
  3
ACAD_GROUP
350
D
  3
ACAD_LAYOUT
350
1A
  3
ACAD_MATERIAL
350
3B
  3
ACAD_MLEADERSTYLE
350
9D
  3
ACAD_MLINESTYLE
350
17
  3
ACAD_PLOTSETTINGS
350
19
  3
ACAD_PLOTSTYLENAME
350
E
  3
ACAD_TABLESTYLE
350
9C
  3
ACAD_VISUALSTYLE
350
2A
  0
SUN
  5
3F
330
29
100
AcDbSun
 90
        1
290
     0
 63
     7
421
 16777215
 40
1.0
291
     1
 91
  2455826
 92
 54000000
292
     0
 70
     2
 71
   256
280
     1
  0
DICTIONARY
  5
D
102
{ACAD_REACTORS
330
C
102
}
330
C
100
AcDbDictionary
281
     1
  0
DICTIONARY
  5
1A
102
{ACAD_REACTORS
330
C
102
}
330
C
100
AcDbDictionary
281
     1
  3
Layout1
350
1E
  3
Layout2
350
26
  3
Model
350
22
  0
DICTIONARY
  5
3B
102
{ACAD_REACTORS
330
C
102
}
330
C
100
AcDbDictionary
281
     1
  3
ByBlock
350
3D
  3
ByLayer
350
3C
  3
Global
350
3E
  0
DICTIONARY
  5
9D
102
{ACAD_REACTORS
330
C
102
}
330
C
100
AcDbDictionary
281
     1
  0
DICTIONARY
  5
17
102
{ACAD_REACTORS
330
C
102
}
330
C
100
AcDbDictionary
281
     1
  3
Standard
350
18
  0
DICTIONARY
  5
19
102
{ACAD_REACTORS
330
C
102
}
330
C
100
AcDbDictionary
281
     1
  0
ACDBDICTIONARYWDFLT
  5
E
102
{ACAD_REACTORS
330
C
102
}
330
C
100
AcDbDictionary
281
     1
  3
Normal
350
F
100
AcDbDictionaryWithDefault
340
F
  0
DICTIONARY
  5
9C
102
{ACAD_REACTORS
330
C
102
}
330
C
100
AcDbDictionary
281
     1
  0
DICTIONARY
  5
2A
102
{ACAD_REACTORS
330
C
102
}
330
C
100
AcDbDictionary
281
     1
  3
2dWireframe
350
2F
  3
3D Hidden
350
31
  3
3dWireframe
350
30
  3
Basic
350
32
  3
Brighten
350
36
  3
ColorChange
350
3A
  3
Conceptual
350
34
  3
Dim
350
35
  3
Facepattern
350
39
  3
Flat
350
2B
  3
FlatWithEdges
350
2C
  3
Gouraud
350
2D
  3
GouraudWithEdges
350
2E
  3
Linepattern
350
38
  3
Realistic
350
33
  3
Thicken
350
37
  0
LAYOUT
  5
1E
102
{ACAD_REACTORS
330
1A
102
}
330
1A
100
AcDbPlotSettings
  1

  2
none_device
  4

  6

 40
0.0
 41
0.0
 42
0.0
 43
0.0
 44
0.0
 45
0.0
 46
0.0
 47
0.0
 48
0.0
 49
0.0
140
0.0
141
0.0
142
1.0
143
1.0
 70
   688
 72
     0
 73
     0
 74
     5
  7

 75
    16
 76
     0
 77
     2
 78
   300
147
1.0
148
0.0
149
0.0
100
AcDbLayout
  1
Layout1
 70
     1
 71
     1
 10
0.0
 20
0.0
 11
12.0
 21
9.0
 12
0.0
 22
0.0
 32
0.0
 14
1.000000000000000E+20
 24
1.000000000000000E+20
 34
1.000000000000000E+20
 15
-1.000000000000000E+20
 25
-1.000000000000000E+20
 35
-1.000000000000000E+20
146
0.0
 13
0.0
 23
0.0
 33
0.0
 16
1.0
 26
0.0
 36
0.0
 17
0.0
 27
1.0
 37
0.0
 76
     0
330
1B
  0
LAYOUT
  5
26
102
{ACAD_REACTORS
330
1A
102
}
330
1A
100
AcDbPlotSettings
  1

  2
none_device
  4

  6

 40
0.0
 41
0.0
 42
0.0
 43
0.0
 44
0.0
 45
0.0
 46
0.0
 47
0.0
 48
0.0
 49
0.0
140
0.0
141
0.0
142
1.0
143
1.0
 70
   688
 72
     0
 73
     0
 74
     5
  7

 75
    16
 76
     0
 77
     2
 78
   300
147
1.0
148
0.0
149
0.0
100
AcDbLayout
  1
Layout2
 70
     1
 71
     2
 10
0.0
 20
0.0
 11
0.0
 21
0.0
 12
0.0
 22
0.0
 32
0.0
 14
0.0
 24
0.0
 34
0.0
 15
0.0
 25
0.0
 35
0.0
146
0.0
 13
0.0
 23
0.0
 33
0.0
 16
1.0
 26
0.0
 36
0.0
 17
0.0
 27
1.0
 37
0.0
 76
     0
330
23
  0
LAYOUT
  5
22
102
{ACAD_REACTORS
330
1A
102
}
330
1A
100
AcDbPlotSettings
  1

  2
none_device
  4

  6

 40
0.0
 41
0.0
 42
0.0
 43
0.0
 44
0.0
 45
0.0
 46
0.0
 47
0.0
 48
0.0
 49
0.0
140
0.0
141
0.0
142
1.0
143
1.0
 70
  1712
 72
     0
 73
     0
 74
     0
  7

 75
     0
 76
     0
 77
     2
 78
   300
147
1.0
148
0.0
149
0.0
100
AcDbLayout
  1
Model
 70
     1
 71
     0
 10
0.0
 20
0.0
 11
12.0
 21
9.0
 12
0.0
 22
0.0
 32
0.0
 14
1.000000000000000E+20
 24
1.000000000000000E+20
 34
1.000000000000000E+20
 15
-1.000000000000000E+20
 25
-1.000000000000000E+20
 35
-1.000000000000000E+20
146
0.0
 13
0.0
 23
0.0
 33
0.0
 16
1.0
 26
0.0
 36
0.0
 17
0.0
 27
1.0
 37
0.0
 76
     0
330
1F
331
29
  0
MATERIAL
  5
3D
102
{ACAD_REACTORS
330
3B
102
}
330
3B
100
AcDbMaterial
  1
ByBlock
 72
     1
 94
      127
  0
MATERIAL
  5
3C
102
{ACAD_REACTORS
330
3B
102
}
330
3B
100
AcDbMaterial
  1
ByLayer
 72
     1
 94
      127
  0
MATERIAL
  5
3E
102
{ACAD_REACTORS
330
3B
102
}
330
3B
100
AcDbMaterial
  1
Global
 72
     1
 94
      127
  0
MLINESTYLE
  5
18
102
{ACAD_REACTORS
330
17
102
}
330
17
100
AcDbMlineStyle
  2
Standard
 70
     0
  3

 62
   256
 51
90.0
 52
90.0
 71
     2
 49
0.5
 62
   256
  6
BYLAYER
 49
-0.5
 62
   256
  6
BYLAYER
  0
ACDBPLACEHOLDER
  5
F
102
{ACAD_REACTORS
330
E
102
}
330
E
  0
VISUALSTYLE
  5
2F
102
{ACAD_REACTORS
330
2A
102
}
330
2A
100
AcDbVisualStyle
  2
2dWireframe
 70
     4
177
     2
291
     0
 71
     0
176
     1
 72
     2
176
     1
 73
     0
176
     1
 90
        0
176
     1
 40
-0.6
176
     1
 41
-30.0
176
     1
 62
     5
 63
     7
421
 16777215
176
     1
 74
     1
176
     1
 91
        4
176
     1
 64
     7
176
     1
 65
   257
176
     1
 75
     1
176
     1
175
     1
176
     1
 42
1.0
176
     1
 92
        0
176
     1
 66
   257
176
     1
 43
1.0
176
     1
 76
     1
176
     1
 77
     6
176
     1
 78
     2
176
     1
 67
     7
176
     1
 79
     5
176
     1
170
     0
176
     1
171
     0
176
     1
290
     0
176
     1
 93
        1
176
     1
 44
0.0
176
     1
173
     0
176
     1
  0
VISUALSTYLE
  5
31
102
{ACAD_REACTORS
330
2A
102
}
330
2A
100
AcDbVisualStyle
  2
3D Hidden
 70
     6
177
     2
291
     0
 71
     1
176
     1
 72
     2
176
     1
 73
     2
176
     1
 90
        0
176
     1
 40
-0.6
176
     1
 41
-30.0
176
     1
 62
     5
 63
     7
421
 16777215
176
     1
 74
     2
176
     1
 91
        2
176
     1
 64
     7
176
     1
 65
   257
176
     1
 75
     2
176
     1
175
     1
176
     1
 42
40.0
176
     1
 92
        0
176
     1
 66
   257
176
     1
 43
1.0
176
     1
 76
     1
176
     1
 77
     6
176
     1
 78
     2
176
     1
 67
     7
176
     1
 79
     3
176
     1
170
     0
176
     1
171
     0
176
     1
290
     0
176
     1
 93
        1
176
     1
 44
0.0
176
     1
173
     0
176
     1
  0
VISUALSTYLE
  5
30
102
{ACAD_REACTORS
330
2A
102
}
330
2A
100
AcDbVisualStyle
  2
3dWireframe
 70
     5
177
     2
291
     0
 71
     0
176
     1
 72
     2
176
     1
 73
     0
176
     1
 90
        0
176
     1
 40
-0.6
176
     1
 41
-30.0
176
     1
 62
     5
 63
     7
421
 16777215
176
     1
 74
     1
176
     1
 91
        4
176
     1
 64
     7
176
     1
 65
   257
176
     1
 75
     1
176
     1
175
     1
176
     1
 42
1.0
176
     1
 92
        0
176
     1
 66
   257
176
     1
 43
1.0
176
     1
 76
     1
176
     1
 77
     6
176
     1
 78
     2
176
     1
 67
     7
176
     1
 79
     5
176
     1
170
     0
176
     1
171
     0
176
     1
290
     0
176
     1
 93
        1
176
     1
 44
0.0
176
     1
173
     0
176
     1
  0
VISUALSTYLE
  5
32
102
{ACAD_REACTORS
330
2A
102
}
330
2A
100
AcDbVisualStyle
  2
Basic
 70
     7
177
     2
291
     1
 71
     1
176
     1
 72
     0
176
     1
 73
     1
176
     1
 90
        0
176
     1
 40
-0.6
176
     1
 41
-30.0
176
     1
 62
     5
 63
     7
421
 16777215
176
     1
 74
     0
176
     1
 91
        4
176
     1
 64
     7
176
     1
 65
   257
176
     1
 75
     1
176
     1
175
     1
176
     1
 42
1.0
176
     1
 92
        8
176
     1
 66
     7
176
     1
 43
1.0
176
     1
 76
     1
176
     1
 77
     6
176
     1
 78
     2
176
     1
 67
     7
176
     1
 79
     5
176
     1
170
     0
176
     1
171
     0
176
     1
290
     0
176
     1
 93
        1
176
     1
 44
0.0
176
     1
173
     0
176
     1
  0
VISUALSTYLE
  5
36
102
{ACAD_REACTORS
330
2A
102
}
330
2A
100
AcDbVisualStyle
  2
Brighten
 70
    12
177
     2
291
     1
 71
     2
176
     1
 72
     2
176
     1
 73
     0
176
     1
 90
        0
176
     1
 40
-0.6
176
     1
 41
-30.0
176
     1
 62
     5
 63
     7
421
 16777215
176
     1
 74
     1
176
     1
 91
        4
176
     1
 64
     7
176
     1
 65
   257
176
     1
 75
     1
176
     1
175
     1
176
     1
 42
1.0
176
     1
 92
        8
176
     1
 66
     7
176
     1
 43
1.0
176
     1
 76
     1
176
     1
 77
     6
176
     1
 78
     2
176
     1
 67
     7
176
     1
 79
     5
176
     1
170
     0
176
     1
171
     0
176
     1
290
     0
176
     1
 93
        1
176
     1
 44
50.0
176
     1
173
     0
176
     1
  0
VISUALSTYLE
  5
3A
102
{ACAD_REACTORS
330
2A
102
}
330
2A
100
AcDbVisualStyle
  2
ColorChange
 70
    16
177
     2
291
     1
 71
     2
176
     1
 72
     2
176
     1
 73
     3
176
     1
 90
        0
176
     1
 40
-0.6
176
     1
 41
-30.0
176
     1
 62
     5
 63
     8
421
  8421504
176
     1
 74
     1
176
     1
 91
        4
176
     1
 64
     7
176
     1
 65
   257
176
     1
 75
     1
176
     1
175
     1
176
     1
 42
1.0
176
     1
 92
        8
176
     1
 66
     8
424
  8421504
176
     1
 43
1.0
176
     1
 76
     1
176
     1
 77
     6
176
     1
 78
     2
176
     1
 67
     7
176
     1
 79
     5
176
     1
170
     0
176
     1
171
     0
176
     1
290
     0
176
     1
 93
        1
176
     1
 44
0.0
176
     1
173
     0
176
     1
  0
VISUALSTYLE
  5
34
102
{ACAD_REACTORS
330
2A
102
}
330
2A
100
AcDbVisualStyle
  2
Conceptual
 70
     9
177
     2
291
     0
 71
     3
176
     1
 72
     2
176
     1
 73
     0
176
     1
 90
        0
176
     1
 40
-0.6
176
     1
 41
-30.0
176
     1
 62
     5
 63
     7
421
 16777215
176
     1
 74
     2
176
     1
 91
        2
176
     1
 64
     7
176
     1
 65
   257
176
     1
 75
     1
176
     1
175
     1
176
     1
 42
40.0
176
     1
 92
        8
176
     1
 66
     7
176
     1
 43
1.0
176
     1
 76
     1
176
     1
 77
     6
176
     1
 78
     2
176
     1
 67
     7
176
     1
 79
     3
176
     1
170
     0
176
     1
171
     0
176
     1
290
     0
176
     1
 93
        1
176
     1
 44
0.0
176
     1
173
     0
176
     1
  0
VISUALSTYLE
  5
35
102
{ACAD_REACTORS
330
2A
102
}
330
2A
100
AcDbVisualStyle
  2
Dim
 70
    11
177
     2
291
     1
 71
     2
176
     1
 72
     2
176
     1
 73
     0
176
     1
 90
        0
176
     1
 40
-0.6
176
     1
 41
-30.0
176
     1
 62
     5
 63
     7
421
 16777215
176
     1
 74
     1
176
     1
 91
        4
176
     1
 64
     7
176
     1
 65
   257
176
     1
 75
     1
176
     1
175
     1
176
     1
 42
1.0
176
     1
 92
        8
176
     1
 66
     7
176
     1
 43
1.0
176
     1
 76
     1
176
     1
 77
     6
176
     1
 78
     2
176
     1
 67
     7
176
     1
 79
     5
176
     1
170
     0
176
     1
171
     0
176
     1
290
     0
176
     1
 93
        1
176
     1
 44
-50.0
176
     1
173
     0
176
     1
  0
VISUALSTYLE
  5
39
102
{ACAD_REACTORS
330
2A
102
}
330
2A
100
AcDbVisualStyle
  2
Facepattern
 70
    15
177
     2
291
     1
 71
     2
176
     1
 72
     2
176
     1
 73
     0
176
     1
 90
        0
176
     1
 40
-0.6
176
     1
 41
-30.0
176
     1
 62
     5
 63
     7
421
 16777215
176
     1
 74
     1
176
     1
 91
        4
176
     1
 64
     7
176
     1
 65
   257
176
     1
 75
     1
176
     1
175
     1
176
     1
 42
1.0
176
     1
 92
        8
176
     1
 66
     7
176
     1
 43
1.0
176
     1
 76
     1
176
     1
 77
     6
176
     1
 78
     2
176
     1
 67
     7
176
     1
 79
     5
176
     1
170
     0
176
     1
171
     0
176
     1
290
     0
176
     1
 93
        1
176
     1
 44
0.0
176
     1
173
     0
176
     1
  0
VISUALSTYLE
  5
2B
102
{ACAD_REACTORS
330
2A
102
}
330
2A
100
AcDbVisualStyle
  2
Flat
 70
     0
177
     2
291
     1
 71
     2
176
     1
 72
     1
176
     1
 73
     1
176
     1
 90
        2
176
     1
 40
-0.6
176
     1
 41
30.0
176
     1
 62
     5
 63
     7
421
 16777215
176
     1
 74
     0
176
     1
 91
        4
176
     1
 64
     7
176
     1
 65
   257
176
     1
 75
     1
176
     1
175
     1
176
     1
 42
1.0
176
     1
 92
        8
176
     1
 66
     7
176
     1
 43
1.0
176
     1
 76
     1
176
     1
 77
     6
176
     1
 78
     2
176
     1
 67
     7
176
     1
 79
     5
176
     1
170
     0
176
     1
171
     0
176
     1
290
     0
176
     1
 93
       13
176
     1
 44
0.0
176
     1
173
     0
176
     1
  0
VISUALSTYLE
  5
2C
102
{ACAD_REACTORS
330
2A
102
}
330
2A
100
AcDbVisualStyle
  2
FlatWithEdges
 70
     1
177
     2
291
     1
 71
     2
176
     1
 72
     1
176
     1
 73
     1
176
     1
 90
        2
176
     1
 40
-0.6
176
     1
 41
30.0
176
     1
 62
     5
 63
     7
421
 16777215
176
     1
 74
     1
176
     1
 91
        4
176
     1
 64
     7
176
     1
 65
   257
176
     1
 75
     1
176
     1
175
     1
176
     1
 42
1.0
176
     1
 92
        0
176
     1
 66
   257
176
     1
 43
1.0
176
     1
 76
     1
176
     1
 77
     6
176
     1
 78
     2
176
     1
 67
     7
176
     1
 79
     5
176
     1
170
     0
176
     1
171
     0
176
     1
290
     0
176
     1
 93
       13
176
     1
 44
0.0
176
     1
173
     0
176
     1
  0
VISUALSTYLE
  5
2D
102
{ACAD_REACTORS
330
2A
102
}
330
2A
100
AcDbVisualStyle
  2
Gouraud
 70
     2
177
     2
291
     1
 71
     2
176
     1
 72
     2
176
     1
 73
     1
176
     1
 90
        2
176
     1
 40
-0.6
176
     1
 41
30.0
176
     1
 62
     5
 63
     7
421
 16777215
176
     1
 74
     0
176
     1
 91
        4
176
     1
 64
     7
176
     1
 65
   257
176
     1
 75
     1
176
     1
175
     1
176
     1
 42
1.0
176
     1
 92
        0
176
     1
 66
     7
176
     1
 43
1.0
176
     1
 76
     1
176
     1
 77
     6
176
     1
 78
     2
176
     1
 67
     7
176
     1
 79
     5
176
     1
170
     0
176
     1
171
     0
176
     1
290
     0
176
     1
 93
       13
176
     1
 44
0.0
176
     1
173
     0
176
     1
  0
VISUALSTYLE
  5
2E
102
{ACAD_REACTORS
330
2A
102
}
330
2A
100
AcDbVisualStyle
  2
GouraudWithEdges
 70
     3
177
     2
291
     1
 71
     2
176
     1
 72
     2
176
     1
 73
     1
176
     1
 90
        2
176
     1
 40
-0.6
176
     1
 41
30.0
176
     1
 62
     5
 63
     7
421
 16777215
176
     1
 74
     1
176
     1
 91
        4
176
     1
 64
     7
176
     1
 65
   257
176
     1
 75
     1
176
     1
175
     1
176
     1
 42
1.0
176
     1
 92
        0
176
     1
 66
   257
176
     1
 43
1.0
176
     1
 76
     1
176
     1
 77
     6
176
     1
 78
     2
176
     1
 67
     7
176
     1
 79
     5
176
     1
170
     0
176
     1
171
     0
176
     1
290
     0
176
     1
 93
       13
176
     1
 44
0.0
176
     1
173
     0
176
     1
  0
VISUALSTYLE
  5
38
102
{ACAD_REACTORS
330
2A
102
}
330
2A
100
AcDbVisualStyle
  2
Linepattern
 70
    14
177
     2
291
     1
 71
     2
176
     1
 72
     2
176
     1
 73
     0
176
     1
 90
        0
176
     1
 40
-0.6
176
     1
 41
-30.0
176
     1
 62
     5
 63
     7
421
 16777215
176
     1
 74
     1
176
     1
 91
        4
176
     1
 64
     7
176
     1
 65
   257
176
     1
 75
     7
176
     1
175
     7
176
     1
 42
1.0
176
     1
 92
        8
176
     1
 66
     7
176
     1
 43
1.0
176
     1
 76
     1
176
     1
 77
     6
176
     1
 78
     2
176
     1
 67
     7
176
     1
 79
     5
176
     1
170
     0
176
     1
171
     0
176
     1
290
     0
176
     1
 93
        1
176
     1
 44
0.0
176
     1
173
     0
176
     1
  0
VISUALSTYLE
  5
33
102
{ACAD_REACTORS
330
2A
102
}
330
2A
100
AcDbVisualStyle
  2
Realistic
 70
     8
177
     2
291
     0
 71
     2
176
     1
 72
     2
176
     1
 73
     0
176
     1
 90
        0
176
     1
 40
-0.6
176
     1
 41
-30.0
176
     1
 62
     5
 63
     7
421
 16777215
176
     1
 74
     1
176
     1
 91
        0
176
     1
 64
     7
176
     1
 65
   257
176
     1
 75
     1
176
     1
175
     1
176
     1
 42
1.0
176
     1
 92
        8
176
     1
 66
     8
424
  7895160
176
     1
 43
1.0
176
     1
 76
     1
176
     1
 77
     6
176
     1
 78
     2
176
     1
 67
     7
176
     1
 79
     5
176
     1
170
     0
176
     1
171
     0
176
     1
290
     0
176
     1
 93
       13
176
     1
 44
0.0
176
     1
173
     0
176
     1
  0
VISUALSTYLE
  5
37
102
{ACAD_REACTORS
330
2A
102
}
330
2A
100
AcDbVisualStyle
  2
Thicken
 70
    13
177
     2
291
     1
 71
     2
176
     1
 72
     2
176
     1
 73
     0
176
     1
 90
        0
176
     1
 40
-0.6
176
     1
 41
-30.0
176
     1
 62
     5
 63
     7
421
 16777215
176
     1
 74
     1
176
     1
 91
        4
176
     1
 64
     7
176
     1
 65
   257
176
     1
 75
     1
176
     1
175
     1
176
     1
 42
1.0
176
     1
 92
       12
176
     1
 66
     7
176
     1
 43
1.0
176
     1
 76
     1
176
     1
 77
     6
176
     1
 78
     2
176
     1
 67
     7
176
     1
 79
     5
176
     1
170
     0
176
     1
171
     0
176
     1
290
     0
176
     1
 93
        1
176
     1
 44
0.0
176
     1
173
     0
176
     1
  0
ENDSEC
  0
EOF
