  0
SECTION
  2
HEADER
  9
$ACADVER
  1
AC1024
  9
$ACADMAINTVER
 70
     6
  9
$DWGCODEPAGE
  3
UNDEFINED
  9
$INSBASE
 10
0.0
 20
0.0
 30
0.0
  9
$EXTMIN
 10
1.000000000000000E+20
 20
1.000000000000000E+20
 30
1.000000000000000E+20
  9
$EXTMAX
 10
-1.000000000000000E+20
 20
-1.000000000000000E+20
 30
-1.000000000000000E+20
  9
$LIMMIN
 10
0.0
 20
0.0
  9
$LIMMAX
 10
12.0
 20
9.0
  9
$ORTHOMODE
 70
     0
  9
$REGENMODE
 70
     1
  9
$FILLMODE
 70
     1
  9
$QTEXTMODE
 70
     0
  9
$MIRRTEXT
 70
     1
  9
$LTSCALE
 40
1.0
  9
$ATTMODE
 70
     1
  9
$TEXTSIZE
 40
0.2
  9
$TRACEWID
 40
0.05
  9
$TEXTSTYLE
  7
Standard
  9
$CLAYER
  8
0
  9
$CELTYPE
  6
ByLayer
  9
$CECOLOR
 62
   256
  9
$CELTSCALE
 40
1.0
  9
$DISPSILH
 70
     0
  9
$DIMSCALE
 40
1.0
  9
$DIMASZ
 40
0.18
  9
$DIMEXO
 40
0.0625
  9
$DIMDLI
 40
0.38
  9
$DIMRND
 40
0.0
  9
$DIMDLE
 40
0.0
  9
$DIMEXE
 40
0.18
  9
$DIMTP
 40
0.0
  9
$DIMTM
 40
0.0
  9
$DIMTXT
 40
0.18
  9
$DIMCEN
 40
0.09
  9
$DIMTSZ
 40
0.0
  9
$DIMTOL
 70
     0
  9
$DIMLIM
 70
     0
  9
$DIMTIH
 70
     1
  9
$DIMTOH
 70
     1
  9
$DIMSE1
 70
     0
  9
$DIMSE2
 70
     0
  9
$DIMTAD
 70
     0
  9
$DIMZIN
 70
     0
  9
$DIMBLK
  1

  9
$DIMASO
 70
     1
  9
$DIMSHO
 70
     1
  9
$DIMPOST
  1

  9
$DIMAPOST
  1

  9
$DIMALT
 70
     0
  9
$DIMALTD
 70
     2
  9
$DIMALTF
 40
25.4
  9
$DIMLFAC
 40
1.0
  9
$DIMTOFL
 70
     0
  9
$DIMTVP
 40
0.0
  9
$DIMTIX
 70
     0
  9
$DIMSOXD
 70
     0
  9
$DIMSAH
 70
     0
  9
$DIMBLK1
  1

  9
$DIMBLK2
  1

  9
$DIMSTYLE
  2
Standard
  9
$DIMCLRD
 70
     0
  9
$DIMCLRE
 70
     0
  9
$DIMCLRT
 70
     0
  9
$DIMTFAC
 40
1.0
  9
$DIMGAP
 40
0.09
  9
$DIMJUST
 70
     0
  9
$DIMSD1
 70
     0
  9
$DIMSD2
 70
     0
  9
$DIMTOLJ
 70
     1
  9
$DIMTZIN
 70
     0
  9
$DIMALTZ
 70
     0
  9
$DIMALTTZ
 70
     0
  9
$DIMUPT
 70
     0
  9
$DIMDEC
 70
     4
  9
$DIMTDEC
 70
     4
  9
$DIMALTU
 70
     2
  9
$DIMALTTD
 70
     2
  9
$DIMTXSTY
  7
Standard
  9
$DIMAUNIT
 70
     0
  9
$DIMADEC
 70
     0
  9
$DIMALTRND
 40
0.0
  9
$DIMAZIN
 70
     0
  9
$DIMDSEP
 70
    46
  9
$DIMATFIT
 70
     3
  9
$DIMFRAC
 70
     0
  9
$DIMLDRBLK
  1

  9
$DIMLUNIT
 70
     2
  9
$DIMLWD
 70
    -2
  9
$DIMLWE
 70
    -2
  9
$DIMTMOVE
 70
     0
  9
$DIMFXL
 40
1.0
  9
$DIMFXLON
 70
     0
  9
$DIMJOGANG
 40
0.7853981633974483
  9
$DIMTFILL
 70
     0
  9
$DIMTFILLCLR
 70
     0
  9
$DIMARCSYM
 70
     0
  9
$DIMLTYPE
  6

  9
$DIMLTEX1
  6

  9
$DIMLTEX2
  6

  9
$DIMTXTDIRECTION
 70
     0
  9
$LUNITS
 70
     2
  9
$LUPREC
 70
     4
  9
$SKETCHINC
 40
0.1
  9
$FILLETRAD
 40
0.5
  9
$AUNITS
 70
     0
  9
$AUPREC
 70
     0
  9
$MENU
  1
.
  9
$ELEVATION
 40
0.0
  9
$PELEVATION
 40
0.0
  9
$THICKNESS
 40
0.0
  9
$LIMCHECK
 70
     0
  9
$CHAMFERA
 40
0.5
  9
$CHAMFERB
 40
0.5
  9
$CHAMFERC
 40
1.0
  9
$CHAMFERD
 40
0.0
  9
$SKPOLY
 70
     0
  9
$TDCREATE
 40
2457917.636828704
  9
$TDUCREATE
 40
2457917.261828704
  9
$TDUPDATE
 40
2457917.636828704
  9
$TDUUPDATE
 40
2457917.261828704
  9
$TDINDWG
 40
0.0000000116
  9
$TDUSRTIMER
 40
0.0000000116
  9
$USRTIMER
 70
     1
  9
$ANGBASE
 50
0.0
  9
$ANGDIR
 70
     0
  9
$PDMODE
 70
     0
  9
$PDSIZE
 40
0.0
  9
$PLINEWID
 40
0.0
  9
$SPLFRAME
 70
     0
  9
$SPLINETYPE
 70
     6
  9
$SPLINESEGS
 70
     8
  9
$HANDSEED
  5
9F
  9
$SURFTAB1
 70
     6
  9
$SURFTAB2
 70
     6
  9
$SURFTYPE
 70
     6
  9
$SURFU
 70
     6
  9
$SURFV
 70
     6
  9
$UCSBASE
  2

  9
$UCSNAME
  2

  9
$UCSORG
 10
0.0
 20
0.0
 30
0.0
  9
$UCSXDIR
 10
1.0
 20
0.0
 30
0.0
  9
$UCSYDIR
 10
0.0
 20
1.0
 30
0.0
  9
$UCSORTHOREF
  2

  9
$UCSORTHOVIEW
 70
     0
  9
$UCSORGTOP
 10
0.0
 20
0.0
 30
0.0
  9
$UCSORGBOTTOM
 10
0.0
 20
0.0
 30
0.0
  9
$UCSORGLEFT
 10
0.0
 20
0.0
 30
0.0
  9
$UCSORGRIGHT
 10
0.0
 20
0.0
 30
0.0
  9
$UCSORGFRONT
 10
0.0
 20
0.0
 30
0.0
  9
$UCSORGBACK
 10
0.0
 20
0.0
 30
0.0
  9
$PUCSBASE
  2

  9
$PUCSNAME
  2

  9
$PUCSORG
 10
0.0
 20
0.0
 30
0.0
  9
$PUCSXDIR
 10
1.0
 20
0.0
 30
0.0
  9
$PUCSYDIR
 10
0.0
 20
1.0
 30
0.0
  9
$PUCSORTHOREF
  2

  9
$PUCSORTHOVIEW
 70
     0
  9
$PUCSORGTOP
 10
0.0
 20
0.0
 30
0.0
  9
$PUCSORGBOTTOM
 10
0.0
 20
0.0
 30
0.0
  9
$PUCSORGLEFT
 10
0.0
 20
0.0
 30
0.0
  9
$PUCSORGRIGHT
 10
0.0
 20
0.0
 30
0.0
  9
$PUCSORGFRONT
 10
0.0
 20
0.0
 30
0.0
  9
$PUCSORGBACK
 10
0.0
 20
0.0
 30
0.0
  9
$USERI1
 70
     0
  9
$USERI2
 70
     0
  9
$USERI3
 70
     0
  9
$USERI4
 70
     0
  9
$USERI5
 70
     0
  9
$USERR1
 40
0.0
  9
$USERR2
 40
0.0
  9
$USERR3
 40
0.0
  9
$USERR4
 40
0.0
  9
$USERR5
 40
0.0
  9
$WORLDVIEW
 70
     1
  9
$SHADEDGE
 70
     3
  9
$SHADEDIF
 70
    70
  9
$TILEMODE
 70
     1
  9
$MAXACTVP
 70
    64
  9
$PINSBASE
 10
0.0
 20
0.0
 30
0.0
  9
$PLIMCHECK
 70
     0
  9
$PEXTMIN
 10
1.000000000000000E+20
 20
1.000000000000000E+20
 30
1.000000000000000E+20
  9
$PEXTMAX
 10
-1.000000000000000E+20
 20
-1.000000000000000E+20
 30
-1.000000000000000E+20
  9
$PLIMMIN
 10
0.0
 20
0.0
  9
$PLIMMAX
 10
12.0
 20
9.0
  9
$UNITMODE
 70
     0
  9
$VISRETAIN
 70
     1
  9
$PLINEGEN
 70
     0
  9
$PSLTSCALE
 70
     1
  9
$TREEDEPTH
 70
  3020
  9
$CMLSTYLE
  2
Standard
  9
$CMLJUST
 70
     0
  9
$CMLSCALE
 40
1.0
  9
$PROXYGRAPHICS
 70
     1
  9
$MEASUREMENT
 70
     0
  9
$CELWEIGHT
370
    -1
  9
$ENDCAPS
280
     0
  9
$JOINSTYLE
280
     0
  9
$LWDISPLAY
290
     1
  9
$INSUNITS
 70
     1
  9
$HYPERLINKBASE
  1

  9
$STYLESHEET
  1

  9
$XEDIT
290
     1
  9
$CEPSNTYPE
380
     0
  9
$PSTYLEMODE
290
     1
  9
$FINGERPRINTGUID
  2
{BAE36AE0-FC51-3B8A-E46A-56C10B142AD4}
  9
$VERSIONGUID
  2
{FAEB1C32-E019-11D5-929B-00C0DF256EC4}
  9
$EXTNAMES
290
     1
  9
$PSVPSCALE
 40
0.0
  9
$OLESTARTUP
290
     0
  9
$SORTENTS
280
   127
  9
$INDEXCTL
280
     0
  9
$HIDETEXT
280
     1
  9
$XCLIPFRAME
280
     2
  9
$HALOGAP
280
     0
  9
$OBSCOLOR
 70
   257
  9
$OBSLTYPE
280
     0
  9
$INTERSECTIONDISPLAY
280
     0
  9
$INTERSECTIONCOLOR
 70
   257
  9
$DIMASSOC
280
     2
  9
$PROJECTNAME
  1

  9
$CAMERADISPLAY
290
     0
  9
$LENSLENGTH
 40
50.0
  9
$CAMERAHEIGHT
 40
0.0
  9
$STEPSPERSEC
 40
2.0
  9
$STEPSIZE
 40
6.0
  9
$3DDWFPREC
 40
2.0
  9
$PSOLWIDTH
 40
0.25
  9
$PSOLHEIGHT
 40
4.0
  9
$LOFTANG1
 40
1.570796326794897
  9
$LOFTANG2
 40
1.570796326794897
  9
$LOFTMAG1
 40
0.0
  9
$LOFTMAG2
 40
0.0
  9
$LOFTPARAM
 70
     7
  9
$LOFTNORMALS
280
     1
  9
$LATITUDE
 40
37.795
  9
$LONGITUDE
 40
-122.394
  9
$NORTHDIRECTION
 40
0.0
  9
$TIMEZONE
 70
 -8000
  9
$LIGHTGLYPHDISPLAY
280
     1
  9
$TILEMODELIGHTSYNCH
280
     1
  9
$CMATERIAL
347
3C
  9
$SOLIDHIST
280
     1
  9
$SHOWHIST
280
     1
  9
$DWFFRAME
280
     2
  9
$DGNFRAME
280
     2
  9
$REALWORLDSCALE
290
     1
  9
$INTERFERECOLOR
 62
   256
  9
$CSHADOW
280
     0
  9
$SHADOWPLANELOCATION
 40
0.0
  0
ENDSEC
  0
SECTION
  2
CLASSES
  0
CLASS
  1
ACDBDICTIONARYWDFLT
  2
AcDbDictionaryWithDefault
  3
ObjectDBX Classes
 90
        0
 91
        4
280
     0
281
     0
  0
CLASS
  1
VISUALSTYLE
  2
AcDbVisualStyle
  3
ObjectDBX Classes
 90
     4095
 91
        4
280
     0
281
     0
  0
CLASS
  1
MATERIAL
  2
AcDbMaterial
  3
ObjectDBX Classes
 90
     1153
 91
        4
280
     0
281
     0
  0
CLASS
  1
SUN
  2
AcDbSun
  3
SCENEOE
 90
     1024
 91
        4
280
     0
281
     0
  0
ENDSEC
  0
SECTION
  2
TABLES
  0
TABLE
  2
VPORT
  5
8
330
0
100
AcDbSymbolTable
 70
     1
  0
VPORT
  5
29
330
8
100
AcDbSymbolTableRecord
100
AcDbViewportTableRecord
  2
*Active
 70
     0
 10
0.0
 20
0.0
 11
1.0
 21
1.0
 12
0.0
 22
0.0
 13
0.0
 23
0.0
 14
0.5
 24
0.5
 15
0.5
 25
0.5
 16
0.0
 26
0.0
 36
1.0
 17
91.00082462281999
 27
-128.4993055234307
 37
0.0
 40
256.9986110468615
 41
0.7081814508812795
 42
50.0
 43
0.0
 44
0.0
 50
0.0
 51
0.0
 71
     0
 72
   100
 73
     1
 74
     3
 75
     0
 76
     0
 77
     0
 78
     0
281
     0
 65
     1
110
0.0
120
0.0
130
0.0
111
1.0
121
0.0
131
0.0
112
0.0
122
1.0
132
0.0
 79
     0
146
0.0
 60
     3
 61
     5
292
     1
282
     1
141
0.0
142
0.0
 63
   250
361
3F
  0
ENDTAB
  0
TABLE
  2
LTYPE
  5
5
330
0
100
AcDbSymbolTable
 70
     1
  0
LTYPE
  5
14
330
5
100
AcDbSymbolTableRecord
100
AcDbLinetypeTableRecord
  2
ByBlock
 70
     0
  3

 72
    65
 73
     0
 40
0.0
  0
LTYPE
  5
15
330
5
100
AcDbSymbolTableRecord
100
AcDbLinetypeTableRecord
  2
ByLayer
 70
     0
  3

 72
    65
 73
     0
 40
0.0
  0
LTYPE
  5
16
330
5
100
AcDbSymbolTableRecord
100
AcDbLinetypeTableRecord
  2
Continuous
 70
     0
  3
Solid line
 72
    65
 73
     0
 40
0.0
  0
ENDTAB
  0
TABLE
  2
LAYER
  5
2
330
0
100
AcDbSymbolTable
 70
     2
  0
LAYER
  5
10
330
2
100
AcDbSymbolTableRecord
100
AcDbLayerTableRecord
  2
0
 70
     0
 62
     7
  6
Continuous
370
    -3
390
F
347
3E
  0
LAYER
  5
40
330
2
100
AcDbSymbolTableRecord
100
AcDbLayerTableRecord
  2
_U+30EC_U+30A4_U+30E4_U+30FC 1
 70
     0
 62
     7
  6
Continuous
370
    -3
390
F
347
3E
  0
ENDTAB
  0
TABLE
  2
STYLE
  5
3
330
0
100
AcDbSymbolTable
 70
     1
  0
STYLE
  5
11
330
3
100
AcDbSymbolTableRecord
100
AcDbTextStyleTableRecord
  2
Standard
 70
     0
 40
0.0
 41
1.0
 50
0.0
 71
     0
 42
0.2
  3
txt
  4

  0
ENDTAB
  0
TABLE
  2
VIEW
  5
6
330
0
100
AcDbSymbolTable
 70
     0
  0
ENDTAB
  0
TABLE
  2
UCS
  5
7
330
0
100
AcDbSymbolTable
 70
     0
  0
ENDTAB
  0
TABLE
  2
APPID
  5
9
330
0
100
AcDbSymbolTable
 70
     1
  0
APPID
  5
12
330
9
100
AcDbSymbolTableRecord
100
AcDbRegAppTableRecord
  2
ACAD
 70
     0
  0
ENDTAB
  0
TABLE
  2
DIMSTYLE
  5
A
330
0
100
AcDbSymbolTable
 70
     1
100
AcDbDimStyleTable
  0
DIMSTYLE
105
27
330
A
100
AcDbSymbolTableRecord
100
AcDbDimStyleTableRecord
  2
Standard
 70
     0
178
     0
340
11
  0
ENDTAB
  0
TABLE
  2
BLOCK_RECORD
  5
1
330
0
100
AcDbSymbolTable
 70
     4
  0
BLOCK_RECORD
  5
1F
330
1
100
AcDbSymbolTableRecord
100
AcDbBlockTableRecord
  2
*Model_Space
340
22
 70
     0
280
     1
281
     0
  0
BLOCK_RECORD
  5
1B
330
1
100
AcDbSymbolTableRecord
100
AcDbBlockTableRecord
  2
*Paper_Space
340
1E
 70
     0
280
     1
281
     0
  0
BLOCK_RECORD
  5
23
330
1
100
AcDbSymbolTableRecord
100
AcDbBlockTableRecord
  2
*Paper_Space0
340
26
 70
     0
280
     1
281
     0
  0
BLOCK_RECORD
  5
63
330
1
100
AcDbSymbolTableRecord
100
AcDbBlockTableRecord
  2
block 2
340
0
102
{BLKREFS
331
64
102
}
 70
     0
280
     1
281
     0
  0
BLOCK_RECORD
  5
77
330
1
100
AcDbSymbolTableRecord
100
AcDbBlockTableRecord
  2
block 3
340
0
102
{BLKREFS
331
78
102
}
 70
     0
280
     1
281
     0
  0
BLOCK_RECORD
  5
8C
330
1
100
AcDbSymbolTableRecord
100
AcDbBlockTableRecord
  2
block 4
340
0
102
{BLKREFS
331
8D
102
}
 70
     0
280
     1
281
     0
  0
ENDTAB
  0
ENDSEC
  0
SECTION
  2
BLOCKS
  0
BLOCK
  5
20
330
1F
100
AcDbEntity
  8
0
100
AcDbBlockBegin
  2
*Model_Space
 70
     0
 10
0.0
 20
0.0
 30
0.0
  3
*Model_Space
  1

  0
ENDBLK
  5
21
330
1F
100
AcDbEntity
  8
0
100
AcDbBlockEnd
  0
BLOCK
  5
1C
330
1B
100
AcDbEntity
 67
     1
  8
0
100
AcDbBlockBegin
  2
*Paper_Space
 70
     0
 10
0.0
 20
0.0
 30
0.0
  3
*Paper_Space
  1

  0
ENDBLK
  5
1D
330
1B
100
AcDbEntity
 67
     1
  8
0
100
AcDbBlockEnd
  0
BLOCK
  5
24
330
23
100
AcDbEntity
  8
0
100
AcDbBlockBegin
  2
*Paper_Space0
 70
     0
 10
0.0
 20
0.0
 30
0.0
  3
*Paper_Space0
  1

  0
ENDBLK
  5
25
330
23
100
AcDbEntity
  8
0
100
AcDbBlockEnd
  0
BLOCK
  5
65
330
63
100
AcDbEntity
  8
0
100
AcDbBlockBegin
  2
block 2
 70
     0
 10
0.0
 20
0.0
 30
0.0
  3
block 2
  1

  0
SPLINE
  5
67
330
63
100
AcDbEntity
  8
_U+30EC_U+30A4_U+30E4_U+30FC 1
370
     0
100
AcDbSpline
210
0.0
220
0.0
230
1.0
 70
    11
 71
     3
 72
    26
 73
    22
 74
     0
 42
0.0000000001
 43
0.0000000001
 12
1.0
 22
0.0
 32
0.0
 13
1.0
 23
0.0
 33
0.0
 40
0.0
 40
0.0
 40
0.0
 40
0.0
 40
1.0
 40
1.0
 40
1.0
 40
2.0
 40
2.0
 40
2.0
 40
3.0
 40
3.0
 40
3.0
 40
4.0
 40
4.0
 40
4.0
 40
5.0
 40
5.0
 40
5.0
 40
6.0
 40
6.0
 40
6.0
 40
7.0
 40
7.0
 40
7.0
 40
7.0
 10
87.10734454202525
 20
-115.4603081308572
 30
0.0
 10
87.10734454202525
 20
-115.4603081308572
 30
0.0
 10
87.10734454202525
 20
-114.3559827730603
 30
0.0
 10
87.10734454202525
 20
-114.3559827730603
 30
0.0
 10
87.10734454202525
 20
-114.3559827730603
 30
0.0
 10
86.77730439453832
 20
-114.3559827730603
 30
0.0
 10
86.77730439453832
 20
-114.3559827730603
 30
0.0
 10
86.77730439453832
 20
-114.3559827730603
 30
0.0
 10
86.77730439453832
 20
-114.2080159219688
 30
0.0
 10
86.77730439453832
 20
-114.2080159219688
 30
0.0
 10
87.1094115993164
 20
-114.1932020113823
 30
0.0
 10
87.15592038836728
 20
-114.0302489949299
 30
0.0
 10
87.18554820954043
 20
-113.9160440795939
 30
0.0
 10
87.18554820954043
 20
-113.9160440795939
 30
0.0
 10
87.33162025811501
 20
-113.9160440795939
 30
0.0
 10
87.33162025811501
 20
-113.9160440795939
 30
0.0
 10
87.33162025811501
 20
-113.9160440795939
 30
0.0
 10
87.33162025811501
 20
-115.4603081308572
 30
0.0
 10
87.33162025811501
 20
-115.4603081308572
 30
0.0
 10
87.33162025811501
 20
-115.4603081308572
 30
0.0
 10
87.10734454202525
 20
-115.4603081308572
 30
0.0
 10
87.10734454202525
 20
-115.4603081308572
 30
0.0
  0
HATCH
  5
68
330
63
100
AcDbEntity
  8
_U+30EC_U+30A4_U+30E4_U+30FC 1
 62
   179
420
  2234388
100
AcDbHatch
 10
0.0
 20
0.0
 30
0.0
210
0.0
220
0.0
230
1.0
  2
SOLID
 70
     1
 71
     0
 91
        1
 92
        1
 93
        1
 72
     4
 94
        3
 73
     0
 74
     1
 95
       26
 96
       22
 40
0.0
 40
0.0
 40
0.0
 40
0.0
 40
1.0
 40
1.0
 40
1.0
 40
2.0
 40
2.0
 40
2.0
 40
3.0
 40
3.0
 40
3.0
 40
4.0
 40
4.0
 40
4.0
 40
5.0
 40
5.0
 40
5.0
 40
6.0
 40
6.0
 40
6.0
 40
7.0
 40
7.0
 40
7.0
 40
7.0
 10
87.10734454202525
 20
-115.4603081308572
 10
87.10734454202525
 20
-115.4603081308572
 10
87.10734454202525
 20
-114.3559827730603
 10
87.10734454202525
 20
-114.3559827730603
 10
87.10734454202525
 20
-114.3559827730603
 10
86.77730439453832
 20
-114.3559827730603
 10
86.77730439453832
 20
-114.3559827730603
 10
86.77730439453832
 20
-114.3559827730603
 10
86.77730439453832
 20
-114.2080159219688
 10
86.77730439453832
 20
-114.2080159219688
 10
87.1094115993164
 20
-114.1932020113823
 10
87.15592038836728
 20
-114.0302489949299
 10
87.18554820954043
 20
-113.9160440795939
 10
87.18554820954043
 20
-113.9160440795939
 10
87.33162025811501
 20
-113.9160440795939
 10
87.33162025811501
 20
-113.9160440795939
 10
87.33162025811501
 20
-113.9160440795939
 10
87.33162025811501
 20
-115.4603081308572
 10
87.33162025811501
 20
-115.4603081308572
 10
87.33162025811501
 20
-115.4603081308572
 10
87.10734454202525
 20
-115.4603081308572
 10
87.10734454202525
 20
-115.4603081308572
 97
        0
 97
        0
 75
     2
 76
     1
 98
        0
  0
SPLINE
  5
69
330
63
100
AcDbEntity
  8
_U+30EC_U+30A4_U+30E4_U+30FC 1
370
     0
100
AcDbSpline
210
0.0
220
0.0
230
1.0
 70
    11
 71
     3
 72
    53
 73
    49
 74
     0
 42
0.0000000001
 43
0.0000000001
 12
1.0
 22
0.0
 32
0.0
 13
1.0
 23
0.0
 33
0.0
 40
0.0
 40
0.0
 40
0.0
 40
0.0
 40
1.0
 40
1.0
 40
1.0
 40
2.0
 40
2.0
 40
2.0
 40
3.0
 40
3.0
 40
3.0
 40
4.0
 40
4.0
 40
4.0
 40
5.0
 40
5.0
 40
5.0
 40
6.0
 40
6.0
 40
6.0
 40
7.0
 40
7.0
 40
7.0
 40
8.0
 40
8.0
 40
8.0
 40
9.0
 40
9.0
 40
9.0
 40
10.0
 40
10.0
 40
10.0
 40
11.0
 40
11.0
 40
11.0
 40
12.0
 40
12.0
 40
12.0
 40
13.0
 40
13.0
 40
13.0
 40
14.0
 40
14.0
 40
14.0
 40
15.0
 40
15.0
 40
15.0
 40
16.0
 40
16.0
 40
16.0
 40
16.0
 10
88.31381698095974
 20
-115.5111232892646
 30
0.0
 10
88.23561331344457
 20
-115.5111232892646
 30
0.0
 10
88.1339829966297
 20
-115.4940700666126
 30
0.0
 10
88.03235267981484
 20
-115.430680309684
 30
0.0
 10
87.8588921221325
 20
-115.3206095089303
 30
0.0
 10
87.83770478489822
 20
-115.1895236257165
 30
0.0
 10
87.81875675972934
 20
-115.0816921370282
 30
0.0
 10
87.81875675972934
 20
-115.0816921370282
 30
0.0
 10
88.04079316375369
 20
-115.0816921370282
 30
0.0
 10
88.04079316375369
 20
-115.0816921370282
 30
0.0
 10
88.09591469151769
 20
-115.2804741465271
 30
0.0
 10
88.22286646014915
 20
-115.3101019677003
 30
0.0
 10
88.3158840382509
 20
-115.3101019677003
 30
0.0
 10
88.45541040540351
 20
-115.3101019677003
 30
0.0
 10
88.60768362585155
 20
-115.2107109629508
 30
0.0
 10
88.60768362585155
 20
-114.9779947629222
 30
0.0
 10
88.60768362585155
 20
-114.7220241683681
 30
0.0
 10
88.42784964152152
 20
-114.6522609847918
 30
0.0
 10
88.30727129953777
 20
-114.6522609847918
 30
0.0
 10
88.27557642107347
 20
-114.6522609847918
 30
0.0
 10
88.1339829966297
 20
-114.6522609847918
 30
0.0
 10
88.04509953311026
 20
-114.7812798107144
 30
0.0
 10
88.04509953311026
 20
-114.7812798107144
 30
0.0
 10
87.86957191813677
 20
-114.7621595307713
 30
0.0
 10
87.86957191813677
 20
-114.7621595307713
 30
0.0
 10
87.86957191813677
 20
-114.7621595307713
 30
0.0
 10
87.99015026012052
 20
-113.9160440795939
 30
0.0
 10
87.99015026012052
 20
-113.9160440795939
 30
0.0
 10
87.99015026012052
 20
-113.9160440795939
 30
0.0
 10
88.76856958501273
 20
-113.9160440795939
 30
0.0
 10
88.76856958501273
 20
-113.9160440795939
 30
0.0
 10
88.76856958501273
 20
-113.9160440795939
 30
0.0
 10
88.76856958501273
 20
-114.1106919745105
 30
0.0
 10
88.76856958501273
 20
-114.1106919745105
 30
0.0
 10
88.76856958501273
 20
-114.1106919745105
 30
0.0
 10
88.15293102179858
 20
-114.1106919745105
 30
0.0
 10
88.15293102179858
 20
-114.1106919745105
 30
0.0
 10
88.15293102179858
 20
-114.1106919745105
 30
0.0
 10
88.08747420757884
 20
-114.5337497000992
 30
0.0
 10
88.08747420757884
 20
-114.5337497000992
 30
0.0
 10
88.14879690721628
 20
-114.4998155095695
 30
0.0
 10
88.23113468931375
 20
-114.4596801471663
 30
0.0
 10
88.34964597400634
 20
-114.4596801471663
 30
0.0
 10
88.60354951126925
 20
-114.4596801471663
 30
0.0
 10
88.84057208065444
 20
-114.6458875581441
 30
0.0
 10
88.84057208065444
 20
-114.958874482979
 30
0.0
 10
88.84057208065444
 20
-115.2763400319448
 30
0.0
 10
88.61629636456468
 20
-115.5111232892646
 30
0.0
 10
88.31381698095974
 20
-115.5111232892646
 30
0.0
  0
HATCH
  5
6A
330
63
100
AcDbEntity
  8
_U+30EC_U+30A4_U+30E4_U+30FC 1
 62
   179
420
  2234388
100
AcDbHatch
 10
0.0
 20
0.0
 30
0.0
210
0.0
220
0.0
230
1.0
  2
SOLID
 70
     1
 71
     0
 91
        1
 92
        1
 93
        1
 72
     4
 94
        3
 73
     0
 74
     1
 95
       53
 96
       49
 40
0.0
 40
0.0
 40
0.0
 40
0.0
 40
1.0
 40
1.0
 40
1.0
 40
2.0
 40
2.0
 40
2.0
 40
3.0
 40
3.0
 40
3.0
 40
4.0
 40
4.0
 40
4.0
 40
5.0
 40
5.0
 40
5.0
 40
6.0
 40
6.0
 40
6.0
 40
7.0
 40
7.0
 40
7.0
 40
8.0
 40
8.0
 40
8.0
 40
9.0
 40
9.0
 40
9.0
 40
10.0
 40
10.0
 40
10.0
 40
11.0
 40
11.0
 40
11.0
 40
12.0
 40
12.0
 40
12.0
 40
13.0
 40
13.0
 40
13.0
 40
14.0
 40
14.0
 40
14.0
 40
15.0
 40
15.0
 40
15.0
 40
16.0
 40
16.0
 40
16.0
 40
16.0
 10
88.31381698095974
 20
-115.5111232892646
 10
88.23561331344457
 20
-115.5111232892646
 10
88.1339829966297
 20
-115.4940700666126
 10
88.03235267981484
 20
-115.430680309684
 10
87.8588921221325
 20
-115.3206095089303
 10
87.83770478489822
 20
-115.1895236257165
 10
87.81875675972934
 20
-115.0816921370282
 10
87.81875675972934
 20
-115.0816921370282
 10
88.04079316375369
 20
-115.0816921370282
 10
88.04079316375369
 20
-115.0816921370282
 10
88.09591469151769
 20
-115.2804741465271
 10
88.22286646014915
 20
-115.3101019677003
 10
88.3158840382509
 20
-115.3101019677003
 10
88.45541040540351
 20
-115.3101019677003
 10
88.60768362585155
 20
-115.2107109629508
 10
88.60768362585155
 20
-114.9779947629222
 10
88.60768362585155
 20
-114.7220241683681
 10
88.42784964152152
 20
-114.6522609847918
 10
88.30727129953777
 20
-114.6522609847918
 10
88.27557642107347
 20
-114.6522609847918
 10
88.1339829966297
 20
-114.6522609847918
 10
88.04509953311026
 20
-114.7812798107144
 10
88.04509953311026
 20
-114.7812798107144
 10
87.86957191813677
 20
-114.7621595307713
 10
87.86957191813677
 20
-114.7621595307713
 10
87.86957191813677
 20
-114.7621595307713
 10
87.99015026012052
 20
-113.9160440795939
 10
87.99015026012052
 20
-113.9160440795939
 10
87.99015026012052
 20
-113.9160440795939
 10
88.76856958501273
 20
-113.9160440795939
 10
88.76856958501273
 20
-113.9160440795939
 10
88.76856958501273
 20
-113.9160440795939
 10
88.76856958501273
 20
-114.1106919745105
 10
88.76856958501273
 20
-114.1106919745105
 10
88.76856958501273
 20
-114.1106919745105
 10
88.15293102179858
 20
-114.1106919745105
 10
88.15293102179858
 20
-114.1106919745105
 10
88.15293102179858
 20
-114.1106919745105
 10
88.08747420757884
 20
-114.5337497000992
 10
88.08747420757884
 20
-114.5337497000992
 10
88.14879690721628
 20
-114.4998155095695
 10
88.23113468931375
 20
-114.4596801471663
 10
88.34964597400634
 20
-114.4596801471663
 10
88.60354951126925
 20
-114.4596801471663
 10
88.84057208065444
 20
-114.6458875581441
 10
88.84057208065444
 20
-114.958874482979
 10
88.84057208065444
 20
-115.2763400319448
 10
88.61629636456468
 20
-115.5111232892646
 10
88.31381698095974
 20
-115.5111232892646
 97
        0
 97
        0
 75
     2
 76
     1
 98
        0
  0
ENDBLK
  5
66
330
63
100
AcDbEntity
  8
0
100
AcDbBlockEnd
  0
BLOCK
  5
79
330
77
100
AcDbEntity
  8
0
100
AcDbBlockBegin
  2
block 3
 70
     0
 10
0.0
 20
0.0
 30
0.0
  3
block 3
  1

  0
SPLINE
  5
7B
330
77
100
AcDbEntity
  8
_U+30EC_U+30A4_U+30E4_U+30FC 1
370
     0
100
AcDbSpline
210
0.0
220
0.0
230
1.0
 70
    11
 71
     3
 72
    44
 73
    40
 74
     0
 42
0.0000000001
 43
0.0000000001
 12
1.0
 22
0.0
 32
0.0
 13
1.0
 23
0.0
 33
0.0
 40
0.0
 40
0.0
 40
0.0
 40
0.0
 40
1.0
 40
1.0
 40
1.0
 40
2.0
 40
2.0
 40
2.0
 40
3.0
 40
3.0
 40
3.0
 40
4.0
 40
4.0
 40
4.0
 40
5.0
 40
5.0
 40
5.0
 40
6.0
 40
6.0
 40
6.0
 40
7.0
 40
7.0
 40
7.0
 40
8.0
 40
8.0
 40
8.0
 40
9.0
 40
9.0
 40
9.0
 40
10.0
 40
10.0
 40
10.0
 40
11.0
 40
11.0
 40
11.0
 40
12.0
 40
12.0
 40
12.0
 40
13.0
 40
13.0
 40
13.0
 40
13.0
 10
100.8692952221785
 20
-130.2501030490347
 30
0.0
 10
101.0281141240485
 20
-130.4678330837025
 30
0.0
 10
101.1021836769814
 20
-130.5608506618042
 30
0.0
 10
101.2458441587163
 20
-130.6097710176948
 30
0.0
 10
101.2458441587163
 20
-130.6097710176948
 30
0.0
 10
101.2458441587163
 20
-129.8311794380283
 30
0.0
 10
101.2458441587163
 20
-129.8311794380283
 30
0.0
 10
101.2458441587163
 20
-129.8311794380283
 30
0.0
 10
101.4511718496372
 20
-129.8311794380283
 30
0.0
 10
101.4511718496372
 20
-129.8311794380283
 30
0.0
 10
101.4511718496372
 20
-129.8311794380283
 30
0.0
 10
101.4511718496372
 20
-130.8591959308269
 30
0.0
 10
101.4511718496372
 20
-130.8591959308269
 30
0.0
 10
101.0935709382683
 20
-130.8275010523626
 30
0.0
 10
101.0153672707531
 20
-130.7620442381428
 30
0.0
 10
100.7170220017305
 20
-130.3768825628919
 30
0.0
 10
100.5182399922316
 20
-130.1209119683378
 30
0.0
 10
100.4503716111721
 20
-130.0554551541181
 30
0.0
 10
100.3129123013107
 20
-130.0554551541181
 30
0.0
 10
100.1944010166181
 20
-130.0554551541181
 30
0.0
 10
100.0634873881786
 20
-130.1274576497598
 30
0.0
 10
100.0634873881786
 20
-130.3241726019676
 30
0.0
 10
100.0634873881786
 20
-130.5842773111039
 30
0.0
 10
100.2939642761418
 20
-130.5925455402685
 30
0.0
 10
100.4104085035432
 20
-130.5970241643994
 30
0.0
 10
100.4104085035432
 20
-130.5970241643994
 30
0.0
 10
100.4104085035432
 20
-130.8212998804891
 30
0.0
 10
100.4104085035432
 20
-130.8212998804891
 30
0.0
 10
100.2832844801375
 20
-130.812687141776
 30
0.0
 10
100.1713188768669
 20
-130.8020073457717
 30
0.0
 10
100.0528075921743
 20
-130.7217366209654
 30
0.0
 10
99.89192163301314
 20
-130.6118380749859
 30
0.0
 10
99.85815969725769
 20
-130.4254584092339
 30
0.0
 10
99.85815969725769
 20
-130.309358691381
 30
0.0
 10
99.85815969725769
 20
-130.0320285048184
 30
0.0
 10
100.04212779617
 20
-129.8246337566063
 30
0.0
 10
100.3149793586018
 20
-129.8246337566063
 30
0.0
 10
100.5437336988224
 20
-129.8246337566063
 30
0.0
 10
100.6429524487976
 20
-129.9410779840078
 30
0.0
 10
100.8692952221785
 20
-130.2501030490347
 30
0.0
  0
HATCH
  5
7C
330
77
100
AcDbEntity
  8
_U+30EC_U+30A4_U+30E4_U+30FC 1
 62
   179
420
  2234388
100
AcDbHatch
 10
0.0
 20
0.0
 30
0.0
210
0.0
220
0.0
230
1.0
  2
SOLID
 70
     1
 71
     0
 91
        1
 92
        1
 93
        1
 72
     4
 94
        3
 73
     0
 74
     1
 95
       44
 96
       40
 40
0.0
 40
0.0
 40
0.0
 40
0.0
 40
1.0
 40
1.0
 40
1.0
 40
2.0
 40
2.0
 40
2.0
 40
3.0
 40
3.0
 40
3.0
 40
4.0
 40
4.0
 40
4.0
 40
5.0
 40
5.0
 40
5.0
 40
6.0
 40
6.0
 40
6.0
 40
7.0
 40
7.0
 40
7.0
 40
8.0
 40
8.0
 40
8.0
 40
9.0
 40
9.0
 40
9.0
 40
10.0
 40
10.0
 40
10.0
 40
11.0
 40
11.0
 40
11.0
 40
12.0
 40
12.0
 40
12.0
 40
13.0
 40
13.0
 40
13.0
 40
13.0
 10
100.8692952221785
 20
-130.2501030490347
 10
101.0281141240485
 20
-130.4678330837025
 10
101.1021836769814
 20
-130.5608506618042
 10
101.2458441587163
 20
-130.6097710176948
 10
101.2458441587163
 20
-130.6097710176948
 10
101.2458441587163
 20
-129.8311794380283
 10
101.2458441587163
 20
-129.8311794380283
 10
101.2458441587163
 20
-129.8311794380283
 10
101.4511718496372
 20
-129.8311794380283
 10
101.4511718496372
 20
-129.8311794380283
 10
101.4511718496372
 20
-129.8311794380283
 10
101.4511718496372
 20
-130.8591959308269
 10
101.4511718496372
 20
-130.8591959308269
 10
101.0935709382683
 20
-130.8275010523626
 10
101.0153672707531
 20
-130.7620442381428
 10
100.7170220017305
 20
-130.3768825628919
 10
100.5182399922316
 20
-130.1209119683378
 10
100.4503716111721
 20
-130.0554551541181
 10
100.3129123013107
 20
-130.0554551541181
 10
100.1944010166181
 20
-130.0554551541181
 10
100.0634873881786
 20
-130.1274576497598
 10
100.0634873881786
 20
-130.3241726019676
 10
100.0634873881786
 20
-130.5842773111039
 10
100.2939642761418
 20
-130.5925455402685
 10
100.4104085035432
 20
-130.5970241643994
 10
100.4104085035432
 20
-130.5970241643994
 10
100.4104085035432
 20
-130.8212998804891
 10
100.4104085035432
 20
-130.8212998804891
 10
100.2832844801375
 20
-130.812687141776
 10
100.1713188768669
 20
-130.8020073457717
 10
100.0528075921743
 20
-130.7217366209654
 10
99.89192163301314
 20
-130.6118380749859
 10
99.85815969725769
 20
-130.4254584092339
 10
99.85815969725769
 20
-130.309358691381
 10
99.85815969725769
 20
-130.0320285048184
 10
100.04212779617
 20
-129.8246337566063
 10
100.3149793586018
 20
-129.8246337566063
 10
100.5437336988224
 20
-129.8246337566063
 10
100.6429524487976
 20
-129.9410779840078
 10
100.8692952221785
 20
-130.2501030490347
 97
        0
 97
        0
 75
     2
 76
     1
 98
        0
  0
SPLINE
  5
7D
330
77
100
AcDbEntity
  8
_U+30EC_U+30A4_U+30E4_U+30FC 1
370
     0
100
AcDbSpline
210
0.0
220
0.0
230
1.0
 70
    11
 71
     3
 72
    29
 73
    25
 74
     0
 42
0.0000000001
 43
0.0000000001
 12
1.0
 22
0.0
 32
0.0
 13
1.0
 23
0.0
 33
0.0
 40
0.0
 40
0.0
 40
0.0
 40
0.0
 40
1.0
 40
1.0
 40
1.0
 40
2.0
 40
2.0
 40
2.0
 40
3.0
 40
3.0
 40
3.0
 40
4.0
 40
4.0
 40
4.0
 40
5.0
 40
5.0
 40
5.0
 40
6.0
 40
6.0
 40
6.0
 40
7.0
 40
7.0
 40
7.0
 40
8.0
 40
8.0
 40
8.0
 40
8.0
 10
101.2734049225983
 20
-128.7683674808287
 30
0.0
 10
101.4828667281015
 20
-128.8765434790656
 30
0.0
 10
101.5018147532704
 20
-129.0498317819737
 30
0.0
 10
101.5018147532704
 20
-129.1662760093751
 30
0.0
 10
101.5018147532704
 20
-129.3271619685363
 30
0.0
 10
101.4553059642195
 20
-129.46875539298
 30
0.0
 10
101.2734049225983
 20
-129.5638400283729
 30
0.0
 10
101.0787570276817
 20
-129.667537402479
 30
0.0
 10
100.842078967845
 20
-129.6864854276478
 30
0.0
 10
100.6791259513927
 20
-129.6864854276478
 30
0.0
 10
100.5351209601093
 20
-129.6864854276478
 30
0.0
 10
100.2832844801375
 20
-129.6696044597701
 30
0.0
 10
100.0845024706386
 20
-129.5638400283729
 30
0.0
 10
99.88158634655738
 20
-129.4560085396846
 30
0.0
 10
99.85815969725769
 20
-129.2951225805234
 30
0.0
 10
99.85815969725769
 20
-129.1662760093751
 30
0.0
 10
99.85815969725769
 20
-129.0074571075051
 30
0.0
 10
99.90260142901741
 20
-128.8637966257702
 30
0.0
 10
100.0845024706386
 20
-128.7683674808287
 30
0.0
 10
100.2770833082641
 20
-128.6691487308535
 30
0.0
 10
100.5054931389361
 20
-128.6457220815539
 30
0.0
 10
100.6791259513927
 20
-128.6457220815539
 30
0.0
 10
100.8503471970096
 20
-128.6457220815539
 30
0.0
 10
101.0808240849729
 20
-128.6670816735624
 30
0.0
 10
101.2734049225983
 20
-128.7683674808287
 30
0.0
  0
SPLINE
  5
7E
330
77
100
AcDbEntity
  8
_U+30EC_U+30A4_U+30E4_U+30FC 1
370
     0
100
AcDbSpline
210
0.0
220
0.0
230
1.0
 70
    11
 71
     3
 72
    17
 73
    13
 74
     0
 42
0.0000000001
 43
0.0000000001
 12
1.0
 22
0.0
 32
0.0
 13
1.0
 23
0.0
 33
0.0
 40
0.0
 40
0.0
 40
0.0
 40
0.0
 40
1.0
 40
1.0
 40
1.0
 40
2.0
 40
2.0
 40
2.0
 40
3.0
 40
3.0
 40
3.0
 40
4.0
 40
4.0
 40
4.0
 40
4.0
 10
100.0507405348831
 20
-129.1662760093751
 30
0.0
 10
100.0507405348831
 20
-129.4157009225072
 30
0.0
 10
100.3342718933192
 20
-129.4625542211066
 30
0.0
 10
100.6791259513927
 20
-129.4625542211066
 30
0.0
 10
100.9984863028754
 20
-129.4625542211066
 30
0.0
 10
101.3071668583538
 20
-129.4263807185115
 30
0.0
 10
101.3071668583538
 20
-129.1662760093751
 30
0.0
 10
101.3071668583538
 20
-128.9185736439856
 30
0.0
 10
101.0260470667574
 20
-128.8699977976436
 30
0.0
 10
100.6791259513927
 20
-128.8699977976436
 30
0.0
 10
100.3594210903615
 20
-128.8699977976436
 30
0.0
 10
100.0507405348831
 20
-128.9082383575299
 30
0.0
 10
100.0507405348831
 20
-129.1662760093751
 30
0.0
  0
HATCH
  5
7F
330
77
100
AcDbEntity
  8
_U+30EC_U+30A4_U+30E4_U+30FC 1
 62
   179
420
  2234388
100
AcDbHatch
 10
0.0
 20
0.0
 30
0.0
210
0.0
220
0.0
230
1.0
  2
SOLID
 70
     1
 71
     0
 91
        2
 92
        1
 93
        1
 72
     4
 94
        3
 73
     0
 74
     1
 95
       29
 96
       25
 40
0.0
 40
0.0
 40
0.0
 40
0.0
 40
1.0
 40
1.0
 40
1.0
 40
2.0
 40
2.0
 40
2.0
 40
3.0
 40
3.0
 40
3.0
 40
4.0
 40
4.0
 40
4.0
 40
5.0
 40
5.0
 40
5.0
 40
6.0
 40
6.0
 40
6.0
 40
7.0
 40
7.0
 40
7.0
 40
8.0
 40
8.0
 40
8.0
 40
8.0
 10
101.2734049225983
 20
-128.7683674808287
 10
101.4828667281015
 20
-128.8765434790656
 10
101.5018147532704
 20
-129.0498317819737
 10
101.5018147532704
 20
-129.1662760093751
 10
101.5018147532704
 20
-129.3271619685363
 10
101.4553059642195
 20
-129.46875539298
 10
101.2734049225983
 20
-129.5638400283729
 10
101.0787570276817
 20
-129.667537402479
 10
100.842078967845
 20
-129.6864854276478
 10
100.6791259513927
 20
-129.6864854276478
 10
100.5351209601093
 20
-129.6864854276478
 10
100.2832844801375
 20
-129.6696044597701
 10
100.0845024706386
 20
-129.5638400283729
 10
99.88158634655738
 20
-129.4560085396846
 10
99.85815969725769
 20
-129.2951225805234
 10
99.85815969725769
 20
-129.1662760093751
 10
99.85815969725769
 20
-129.0074571075051
 10
99.90260142901741
 20
-128.8637966257702
 10
100.0845024706386
 20
-128.7683674808287
 10
100.2770833082641
 20
-128.6691487308535
 10
100.5054931389361
 20
-128.6457220815539
 10
100.6791259513927
 20
-128.6457220815539
 10
100.8503471970096
 20
-128.6457220815539
 10
101.0808240849729
 20
-128.6670816735624
 10
101.2734049225983
 20
-128.7683674808287
 97
        0
 97
        0
 92
        1
 93
        1
 72
     4
 94
        3
 73
     0
 74
     1
 95
       17
 96
       13
 40
0.0
 40
0.0
 40
0.0
 40
0.0
 40
1.0
 40
1.0
 40
1.0
 40
2.0
 40
2.0
 40
2.0
 40
3.0
 40
3.0
 40
3.0
 40
4.0
 40
4.0
 40
4.0
 40
4.0
 10
100.0507405348831
 20
-129.1662760093751
 10
100.0507405348831
 20
-129.4157009225072
 10
100.3342718933192
 20
-129.4625542211066
 10
100.6791259513927
 20
-129.4625542211066
 10
100.9984863028754
 20
-129.4625542211066
 10
101.3071668583538
 20
-129.4263807185115
 10
101.3071668583538
 20
-129.1662760093751
 10
101.3071668583538
 20
-128.9185736439856
 10
101.0260470667574
 20
-128.8699977976436
 10
100.6791259513927
 20
-128.8699977976436
 10
100.3594210903615
 20
-128.8699977976436
 10
100.0507405348831
 20
-128.9082383575299
 10
100.0507405348831
 20
-129.1662760093751
 97
        0
 97
        0
 75
     2
 76
     1
 98
        0
  0
ENDBLK
  5
7A
330
77
100
AcDbEntity
  8
0
100
AcDbBlockEnd
  0
BLOCK
  5
8E
330
8C
100
AcDbEntity
  8
0
100
AcDbBlockBegin
  2
block 4
 70
     0
 10
0.0
 20
0.0
 30
0.0
  3
block 4
  1

  0
SPLINE
  5
90
330
8C
100
AcDbEntity
  8
_U+30EC_U+30A4_U+30E4_U+30FC 1
370
     0
100
AcDbSpline
210
0.0
220
0.0
230
1.0
 70
    11
 71
     3
 72
    44
 73
    40
 74
     0
 42
0.0000000001
 43
0.0000000001
 12
1.0
 22
0.0
 32
0.0
 13
1.0
 23
0.0
 33
0.0
 40
0.0
 40
0.0
 40
0.0
 40
0.0
 40
1.0
 40
1.0
 40
1.0
 40
2.0
 40
2.0
 40
2.0
 40
3.0
 40
3.0
 40
3.0
 40
4.0
 40
4.0
 40
4.0
 40
5.0
 40
5.0
 40
5.0
 40
6.0
 40
6.0
 40
6.0
 40
7.0
 40
7.0
 40
7.0
 40
8.0
 40
8.0
 40
8.0
 40
9.0
 40
9.0
 40
9.0
 40
10.0
 40
10.0
 40
10.0
 40
11.0
 40
11.0
 40
11.0
 40
12.0
 40
12.0
 40
12.0
 40
13.0
 40
13.0
 40
13.0
 40
13.0
 10
87.24911022124328
 20
-142.8784450597665
 30
0.0
 10
87.03120793180123
 20
-143.0372639616365
 30
0.0
 10
86.93801809892523
 20
-143.1113335145694
 30
0.0
 10
86.8894422525832
 20
-143.2549939963043
 30
0.0
 10
86.8894422525832
 20
-143.2549939963043
 30
0.0
 10
87.6678615774754
 20
-143.2549939963043
 30
0.0
 10
87.6678615774754
 20
-143.2549939963043
 30
0.0
 10
87.6678615774754
 20
-143.2549939963043
 30
0.0
 10
87.6678615774754
 20
-143.4603216872252
 30
0.0
 10
87.6678615774754
 20
-143.4603216872252
 30
0.0
 10
87.6678615774754
 20
-143.4603216872252
 30
0.0
 10
86.63984508467685
 20
-143.4603216872252
 30
0.0
 10
86.63984508467685
 20
-143.4603216872252
 30
0.0
 10
86.67153996314114
 20
-143.1027207758563
 30
0.0
 10
86.7369967773609
 20
-143.0245171083411
 30
0.0
 10
87.12215845261183
 20
-142.7261718393185
 30
0.0
 10
87.37812904716588
 20
-142.5273898298196
 30
0.0
 10
87.44358586138563
 20
-142.4595214487601
 30
0.0
 10
87.44358586138563
 20
-142.3220621388986
 30
0.0
 10
87.44358586138563
 20
-142.2035508542061
 30
0.0
 10
87.37175562051817
 20
-142.0726372257666
 30
0.0
 10
87.17504066831042
 20
-142.0726372257666
 30
0.0
 10
86.91476370439979
 20
-142.0726372257666
 30
0.0
 10
86.90632322046092
 20
-142.3031141137298
 30
0.0
 10
86.90201685110436
 20
-142.4195583411312
 30
0.0
 10
86.90201685110436
 20
-142.4195583411312
 30
0.0
 10
86.67791338978886
 20
-142.4195583411312
 30
0.0
 10
86.67791338978886
 20
-142.4195583411312
 30
0.0
 10
86.68635387372773
 20
-142.2924343177255
 30
0.0
 10
86.69686141495774
 20
-142.1804687144549
 30
0.0
 10
86.77730439453832
 20
-142.0619574297623
 30
0.0
 10
86.88720294051778
 20
-141.9010714706011
 30
0.0
 10
87.07341035149554
 20
-141.8673095348457
 30
0.0
 10
87.18985457889698
 20
-141.8673095348457
 30
0.0
 10
87.46701251068534
 20
-141.8673095348457
 30
0.0
 10
87.6742350041231
 20
-142.051277633758
 30
0.0
 10
87.6742350041231
 20
-142.3241291961898
 30
0.0
 10
87.6742350041231
 20
-142.5528835364104
 30
0.0
 10
87.55796303149593
 20
-142.6521022863856
 30
0.0
 10
87.24911022124328
 20
-142.8784450597665
 30
0.0
  0
HATCH
  5
91
330
8C
100
AcDbEntity
  8
_U+30EC_U+30A4_U+30E4_U+30FC 1
 62
   179
420
  2234388
100
AcDbHatch
 10
0.0
 20
0.0
 30
0.0
210
0.0
220
0.0
230
1.0
  2
SOLID
 70
     1
 71
     0
 91
        1
 92
        1
 93
        1
 72
     4
 94
        3
 73
     0
 74
     1
 95
       44
 96
       40
 40
0.0
 40
0.0
 40
0.0
 40
0.0
 40
1.0
 40
1.0
 40
1.0
 40
2.0
 40
2.0
 40
2.0
 40
3.0
 40
3.0
 40
3.0
 40
4.0
 40
4.0
 40
4.0
 40
5.0
 40
5.0
 40
5.0
 40
6.0
 40
6.0
 40
6.0
 40
7.0
 40
7.0
 40
7.0
 40
8.0
 40
8.0
 40
8.0
 40
9.0
 40
9.0
 40
9.0
 40
10.0
 40
10.0
 40
10.0
 40
11.0
 40
11.0
 40
11.0
 40
12.0
 40
12.0
 40
12.0
 40
13.0
 40
13.0
 40
13.0
 40
13.0
 10
87.24911022124328
 20
-142.8784450597665
 10
87.03120793180123
 20
-143.0372639616365
 10
86.93801809892523
 20
-143.1113335145694
 10
86.8894422525832
 20
-143.2549939963043
 10
86.8894422525832
 20
-143.2549939963043
 10
87.6678615774754
 20
-143.2549939963043
 10
87.6678615774754
 20
-143.2549939963043
 10
87.6678615774754
 20
-143.2549939963043
 10
87.6678615774754
 20
-143.4603216872252
 10
87.6678615774754
 20
-143.4603216872252
 10
87.6678615774754
 20
-143.4603216872252
 10
86.63984508467685
 20
-143.4603216872252
 10
86.63984508467685
 20
-143.4603216872252
 10
86.67153996314114
 20
-143.1027207758563
 10
86.7369967773609
 20
-143.0245171083411
 10
87.12215845261183
 20
-142.7261718393185
 10
87.37812904716588
 20
-142.5273898298196
 10
87.44358586138563
 20
-142.4595214487601
 10
87.44358586138563
 20
-142.3220621388986
 10
87.44358586138563
 20
-142.2035508542061
 10
87.37175562051817
 20
-142.0726372257666
 10
87.17504066831042
 20
-142.0726372257666
 10
86.91476370439979
 20
-142.0726372257666
 10
86.90632322046092
 20
-142.3031141137298
 10
86.90201685110436
 20
-142.4195583411312
 10
86.90201685110436
 20
-142.4195583411312
 10
86.67791338978886
 20
-142.4195583411312
 10
86.67791338978886
 20
-142.4195583411312
 10
86.68635387372773
 20
-142.2924343177255
 10
86.69686141495774
 20
-142.1804687144549
 10
86.77730439453832
 20
-142.0619574297623
 10
86.88720294051778
 20
-141.9010714706011
 10
87.07341035149554
 20
-141.8673095348457
 10
87.18985457889698
 20
-141.8673095348457
 10
87.46701251068534
 20
-141.8673095348457
 10
87.6742350041231
 20
-142.051277633758
 10
87.6742350041231
 20
-142.3241291961898
 10
87.6742350041231
 20
-142.5528835364104
 10
87.55796303149593
 20
-142.6521022863856
 10
87.24911022124328
 20
-142.8784450597665
 97
        0
 97
        0
 75
     2
 76
     1
 98
        0
  0
SPLINE
  5
92
330
8C
100
AcDbEntity
  8
_U+30EC_U+30A4_U+30E4_U+30FC 1
370
     0
100
AcDbSpline
210
0.0
220
0.0
230
1.0
 70
    11
 71
     3
 72
    29
 73
    25
 74
     0
 42
0.0000000001
 43
0.0000000001
 12
1.0
 22
0.0
 32
0.0
 13
1.0
 23
0.0
 33
0.0
 40
0.0
 40
0.0
 40
0.0
 40
0.0
 40
1.0
 40
1.0
 40
1.0
 40
2.0
 40
2.0
 40
2.0
 40
3.0
 40
3.0
 40
3.0
 40
4.0
 40
4.0
 40
4.0
 40
5.0
 40
5.0
 40
5.0
 40
6.0
 40
6.0
 40
6.0
 40
7.0
 40
7.0
 40
7.0
 40
8.0
 40
8.0
 40
8.0
 40
8.0
 10
88.73067353467498
 20
-143.2825547601863
 30
0.0
 10
88.62249753643813
 20
-143.4920165656895
 30
0.0
 10
88.44920923353007
 20
-143.5109645908584
 30
0.0
 10
88.33276500612862
 20
-143.5109645908584
 30
0.0
 10
88.17205130174172
 20
-143.5109645908584
 30
0.0
 10
88.03028562252368
 20
-143.4644558018075
 30
0.0
 10
87.93502873235653
 20
-143.2825547601863
 30
0.0
 10
87.83150361302476
 20
-143.0879068652697
 30
0.0
 10
87.81238333308163
 20
-142.8508842958845
 30
0.0
 10
87.81238333308163
 20
-142.6882757889807
 30
0.0
 10
87.81238333308163
 20
-142.5442707976973
 30
0.0
 10
87.82926430095935
 20
-142.2924343177255
 30
0.0
 10
87.93502873235653
 20
-142.0936523082266
 30
0.0
 10
88.0430324758191
 20
-141.8907361841454
 30
0.0
 10
88.20374618020601
 20
-141.8673095348457
 30
0.0
 10
88.33276500612862
 20
-141.8673095348457
 30
0.0
 10
88.49158390799863
 20
-141.8673095348457
 30
0.0
 10
88.63524438973356
 20
-141.9117512666054
 30
0.0
 10
88.73067353467498
 20
-142.0936523082266
 30
0.0
 10
88.82989228465017
 20
-142.2862331458521
 30
0.0
 10
88.85331893394986
 20
-142.5146429765241
 30
0.0
 10
88.85331893394986
 20
-142.6882757889807
 30
0.0
 10
88.85331893394986
 20
-142.8594970345976
 30
0.0
 10
88.83195934194131
 20
-143.0899739225609
 30
0.0
 10
88.73067353467498
 20
-143.2825547601863
 30
0.0
  0
SPLINE
  5
93
330
8C
100
AcDbEntity
  8
_U+30EC_U+30A4_U+30E4_U+30FC 1
370
     0
100
AcDbSpline
210
0.0
220
0.0
230
1.0
 70
    11
 71
     3
 72
    17
 73
    13
 74
     0
 42
0.0000000001
 43
0.0000000001
 12
1.0
 22
0.0
 32
0.0
 13
1.0
 23
0.0
 33
0.0
 40
0.0
 40
0.0
 40
0.0
 40
0.0
 40
1.0
 40
1.0
 40
1.0
 40
2.0
 40
2.0
 40
2.0
 40
3.0
 40
3.0
 40
3.0
 40
4.0
 40
4.0
 40
4.0
 40
4.0
 10
88.33276500612862
 20
-142.0598903724712
 30
0.0
 10
88.08316783822227
 20
-142.0598903724712
 30
0.0
 10
88.03665904917139
 20
-142.3434217309072
 30
0.0
 10
88.03665904917139
 20
-142.6882757889807
 30
0.0
 10
88.03665904917139
 20
-143.0076361404634
 30
0.0
 10
88.07266029699225
 20
-143.3163166959418
 30
0.0
 10
88.33276500612862
 20
-143.3163166959418
 30
0.0
 10
88.58046737151808
 20
-143.3163166959418
 30
0.0
 10
88.6290432178601
 20
-143.0351969043454
 30
0.0
 10
88.6290432178601
 20
-142.6882757889807
 30
0.0
 10
88.6290432178601
 20
-142.3685709279495
 30
0.0
 10
88.59080265797382
 20
-142.0598903724712
 30
0.0
 10
88.33276500612862
 20
-142.0598903724712
 30
0.0
  0
HATCH
  5
94
330
8C
100
AcDbEntity
  8
_U+30EC_U+30A4_U+30E4_U+30FC 1
 62
   179
420
  2234388
100
AcDbHatch
 10
0.0
 20
0.0
 30
0.0
210
0.0
220
0.0
230
1.0
  2
SOLID
 70
     1
 71
     0
 91
        2
 92
        1
 93
        1
 72
     4
 94
        3
 73
     0
 74
     1
 95
       29
 96
       25
 40
0.0
 40
0.0
 40
0.0
 40
0.0
 40
1.0
 40
1.0
 40
1.0
 40
2.0
 40
2.0
 40
2.0
 40
3.0
 40
3.0
 40
3.0
 40
4.0
 40
4.0
 40
4.0
 40
5.0
 40
5.0
 40
5.0
 40
6.0
 40
6.0
 40
6.0
 40
7.0
 40
7.0
 40
7.0
 40
8.0
 40
8.0
 40
8.0
 40
8.0
 10
88.73067353467498
 20
-143.2825547601863
 10
88.62249753643813
 20
-143.4920165656895
 10
88.44920923353007
 20
-143.5109645908584
 10
88.33276500612862
 20
-143.5109645908584
 10
88.17205130174172
 20
-143.5109645908584
 10
88.03028562252368
 20
-143.4644558018075
 10
87.93502873235653
 20
-143.2825547601863
 10
87.83150361302476
 20
-143.0879068652697
 10
87.81238333308163
 20
-142.8508842958845
 10
87.81238333308163
 20
-142.6882757889807
 10
87.81238333308163
 20
-142.5442707976973
 10
87.82926430095935
 20
-142.2924343177255
 10
87.93502873235653
 20
-142.0936523082266
 10
88.0430324758191
 20
-141.8907361841454
 10
88.20374618020601
 20
-141.8673095348457
 10
88.33276500612862
 20
-141.8673095348457
 10
88.49158390799863
 20
-141.8673095348457
 10
88.63524438973356
 20
-141.9117512666054
 10
88.73067353467498
 20
-142.0936523082266
 10
88.82989228465017
 20
-142.2862331458521
 10
88.85331893394986
 20
-142.5146429765241
 10
88.85331893394986
 20
-142.6882757889807
 10
88.85331893394986
 20
-142.8594970345976
 10
88.83195934194131
 20
-143.0899739225609
 10
88.73067353467498
 20
-143.2825547601863
 97
        0
 97
        0
 92
        1
 93
        1
 72
     4
 94
        3
 73
     0
 74
     1
 95
       17
 96
       13
 40
0.0
 40
0.0
 40
0.0
 40
0.0
 40
1.0
 40
1.0
 40
1.0
 40
2.0
 40
2.0
 40
2.0
 40
3.0
 40
3.0
 40
3.0
 40
4.0
 40
4.0
 40
4.0
 40
4.0
 10
88.33276500612862
 20
-142.0598903724712
 10
88.08316783822227
 20
-142.0598903724712
 10
88.03665904917139
 20
-142.3434217309072
 10
88.03665904917139
 20
-142.6882757889807
 10
88.03665904917139
 20
-143.0076361404634
 10
88.07266029699225
 20
-143.3163166959418
 10
88.33276500612862
 20
-143.3163166959418
 10
88.58046737151808
 20
-143.3163166959418
 10
88.6290432178601
 20
-143.0351969043454
 10
88.6290432178601
 20
-142.6882757889807
 10
88.6290432178601
 20
-142.3685709279495
 10
88.59080265797382
 20
-142.0598903724712
 10
88.33276500612862
 20
-142.0598903724712
 97
        0
 97
        0
 75
     2
 76
     1
 98
        0
  0
ENDBLK
  5
8F
330
8C
100
AcDbEntity
  8
0
100
AcDbBlockEnd
  0
ENDSEC
  0
SECTION
  2
ENTITIES
  0
POLYLINE
  5
41
330
1F
100
AcDbEntity
  8
_U+30EC_U+30A4_U+30E4_U+30FC 1
 62
   179
420
  2234388
370
    25
100
AcDb2dPolyline
 66
     1
 10
0.0
 20
0.0
 30
0.0
  0
VERTEX
  5
42
330
41
100
AcDbEntity
  8
_U+30EC_U+30A4_U+30E4_U+30FC 1
 62
   179
420
  2234388
370
    25
100
AcDbVertex
100
AcDb2dVertex
 10
80.24452461945829
 20
-119.7534152478393
 30
0.0
  0
VERTEX
  5
43
330
41
100
AcDbEntity
  8
_U+30EC_U+30A4_U+30E4_U+30FC 1
 62
   179
420
  2234388
370
    25
100
AcDbVertex
100
AcDb2dVertex
 10
95.24449423677719
 20
-119.7534152478393
 30
0.0
  0
SEQEND
  5
44
330
41
100
AcDbEntity
  8
_U+30EC_U+30A4_U+30E4_U+30FC 1
 62
   179
420
  2234388
370
    25
  0
POLYLINE
  5
45
330
1F
100
AcDbEntity
  8
_U+30EC_U+30A4_U+30E4_U+30FC 1
 62
   179
420
  2234388
370
    25
100
AcDb2dPolyline
 66
     1
 10
0.0
 20
0.0
 30
0.0
  0
VERTEX
  5
46
330
45
100
AcDbEntity
  8
_U+30EC_U+30A4_U+30E4_U+30FC 1
 62
   179
420
  2234388
370
    25
100
AcDbVertex
100
AcDb2dVertex
 10
77.74477662767661
 20
-139.753728020617
 30
0.0
  0
VERTEX
  5
47
330
45
100
AcDbEntity
  8
_U+30EC_U+30A4_U+30E4_U+30FC 1
 62
   179
420
  2234388
370
    25
100
AcDbVertex
100
AcDb2dVertex
 10
97.74494778409641
 20
-139.753728020617
 30
0.0
  0
SEQEND
  5
48
330
45
100
AcDbEntity
  8
_U+30EC_U+30A4_U+30E4_U+30FC 1
 62
   179
420
  2234388
370
    25
  0
POLYLINE
  5
49
330
1F
100
AcDbEntity
  8
_U+30EC_U+30A4_U+30E4_U+30FC 1
 62
   179
420
  2234388
370
    25
100
AcDb2dPolyline
 66
     1
 10
0.0
 20
0.0
 30
0.0
  0
VERTEX
  5
4A
330
49
100
AcDbEntity
  8
_U+30EC_U+30A4_U+30E4_U+30FC 1
 62
   179
420
  2234388
370
    25
100
AcDbVertex
100
AcDb2dVertex
 10
80.24452461945829
 20
-119.7534152478393
 30
0.0
  0
VERTEX
  5
4B
330
49
100
AcDbEntity
  8
_U+30EC_U+30A4_U+30E4_U+30FC 1
 62
   179
420
  2234388
370
    25
100
AcDbVertex
100
AcDb2dVertex
 10
77.74477662767661
 20
-139.753728020617
 30
0.0
  0
SEQEND
  5
4C
330
49
100
AcDbEntity
  8
_U+30EC_U+30A4_U+30E4_U+30FC 1
 62
   179
420
  2234388
370
    25
  0
POLYLINE
  5
4D
330
1F
100
AcDbEntity
  8
_U+30EC_U+30A4_U+30E4_U+30FC 1
 62
   179
420
  2234388
370
    25
100
AcDb2dPolyline
 66
     1
 10
0.0
 20
0.0
 30
0.0
  0
VERTEX
  5
4E
330
4D
100
AcDbEntity
  8
_U+30EC_U+30A4_U+30E4_U+30FC 1
 62
   179
420
  2234388
370
    25
100
AcDbVertex
100
AcDb2dVertex
 10
95.24449423677719
 20
-119.7534152478393
 30
0.0
  0
VERTEX
  5
4F
330
4D
100
AcDbEntity
  8
_U+30EC_U+30A4_U+30E4_U+30FC 1
 62
   179
420
  2234388
370
    25
100
AcDbVertex
100
AcDb2dVertex
 10
97.74494778409641
 20
-139.753728020617
 30
0.0
  0
SEQEND
  5
50
330
4D
100
AcDbEntity
  8
_U+30EC_U+30A4_U+30E4_U+30FC 1
 62
   179
420
  2234388
370
    25
  0
SPLINE
  5
51
330
1F
100
AcDbEntity
  8
_U+30EC_U+30A4_U+30E4_U+30FC 1
 62
   179
420
  2234388
370
     9
100
AcDbSpline
210
0.0
220
0.0
230
1.0
 70
    11
 71
     3
 72
    17
 73
    13
 74
     0
 42
0.0000000001
 43
0.0000000001
 12
1.0
 22
0.0
 32
0.0
 13
1.0
 23
0.0
 33
0.0
 40
0.0
 40
0.0
 40
0.0
 40
0.0
 40
1.0
 40
1.0
 40
1.0
 40
2.0
 40
2.0
 40
2.0
 40
3.0
 40
3.0
 40
3.0
 40
4.0
 40
4.0
 40
4.0
 40
4.0
 10
95.34440090089502
 20
-115.7536560821728
 30
0.0
 10
95.34440090089502
 20
-115.6985521932975
 30
0.0
 10
95.29959812426026
 20
-115.6537494155311
 30
0.0
 10
95.24449423677719
 20
-115.6537494155311
 30
0.0
 10
95.18935507151723
 20
-115.6537494155311
 30
0.0
 10
95.14458757265935
 20
-115.6985521932975
 30
0.0
 10
95.14458757265935
 20
-115.7536560821728
 30
0.0
 10
95.14458757265935
 20
-115.8087952488255
 30
0.0
 10
95.18935507151723
 20
-115.8535627488144
 30
0.0
 10
95.24449423677719
 20
-115.8535627488144
 30
0.0
 10
95.29959812426026
 20
-115.8535627488144
 30
0.0
 10
95.34440090089502
 20
-115.8087952488255
 30
0.0
 10
95.34440090089502
 20
-115.7536560821728
 30
0.0
  0
SPLINE
  5
52
330
1F
100
AcDbEntity
  8
_U+30EC_U+30A4_U+30E4_U+30FC 1
 62
   179
420
  2234388
370
     9
100
AcDbSpline
210
0.0
220
0.0
230
1.0
 70
    11
 71
     3
 72
    17
 73
    13
 74
     0
 42
0.0000000001
 43
0.0000000001
 12
1.0
 22
0.0
 32
0.0
 13
1.0
 23
0.0
 33
0.0
 40
0.0
 40
0.0
 40
0.0
 40
0.0
 40
1.0
 40
1.0
 40
1.0
 40
2.0
 40
2.0
 40
2.0
 40
3.0
 40
3.0
 40
3.0
 40
4.0
 40
4.0
 40
4.0
 40
4.0
 10
80.34513886880261
 20
-115.7536560821728
 30
0.0
 10
80.34513886880261
 20
-115.6985521932975
 30
0.0
 10
80.30033609103589
 20
-115.6537494155311
 30
0.0
 10
80.24452461945829
 20
-115.6537494155311
 30
0.0
 10
80.18942073197522
 20
-115.6537494155311
 30
0.0
 10
80.14461795534045
 20
-115.6985521932975
 30
0.0
 10
80.14461795534045
 20
-115.7536560821728
 30
0.0
 10
80.14461795534045
 20
-115.8087952488255
 30
0.0
 10
80.18942073197522
 20
-115.8535627488144
 30
0.0
 10
80.24452461945829
 20
-115.8535627488144
 30
0.0
 10
80.30033609103589
 20
-115.8535627488144
 30
0.0
 10
80.34513886880261
 20
-115.8087952488255
 30
0.0
 10
80.34513886880261
 20
-115.7536560821728
 30
0.0
  0
SPLINE
  5
53
330
1F
100
AcDbEntity
  8
_U+30EC_U+30A4_U+30E4_U+30FC 1
 62
   179
420
  2234388
370
     9
100
AcDbSpline
210
0.0
220
0.0
230
1.0
 70
    11
 71
     3
 72
    17
 73
    13
 74
     0
 42
0.0000000001
 43
0.0000000001
 12
1.0
 22
0.0
 32
0.0
 13
1.0
 23
0.0
 33
0.0
 40
0.0
 40
0.0
 40
0.0
 40
0.0
 40
1.0
 40
1.0
 40
1.0
 40
2.0
 40
2.0
 40
2.0
 40
3.0
 40
3.0
 40
3.0
 40
4.0
 40
4.0
 40
4.0
 40
4.0
 10
101.8446135128385
 20
-119.7534152478393
 30
0.0
 10
101.8446135128385
 20
-119.6982760811866
 30
0.0
 10
101.7998107362038
 20
-119.6535085811977
 30
0.0
 10
101.7447068487207
 20
-119.6535085811977
 30
0.0
 10
101.6895676834608
 20
-119.6535085811977
 30
0.0
 10
101.6448027523667
 20
-119.6982760811866
 30
0.0
 10
101.6448027523667
 20
-119.7534152478393
 30
0.0
 10
101.6448027523667
 20
-119.8085191367146
 30
0.0
 10
101.6895676834608
 20
-119.8533219144813
 30
0.0
 10
101.7447068487207
 20
-119.8533219144813
 30
0.0
 10
101.7998107362038
 20
-119.8533219144813
 30
0.0
 10
101.8446135128385
 20
-119.8085191367146
 30
0.0
 10
101.8446135128385
 20
-119.7534152478393
 30
0.0
  0
SPLINE
  5
54
330
1F
100
AcDbEntity
  8
_U+30EC_U+30A4_U+30E4_U+30FC 1
 62
   179
420
  2234388
370
     9
100
AcDbSpline
210
0.0
220
0.0
230
1.0
 70
    11
 71
     3
 72
    17
 73
    13
 74
     0
 42
0.0000000001
 43
0.0000000001
 12
1.0
 22
0.0
 32
0.0
 13
1.0
 23
0.0
 33
0.0
 40
0.0
 40
0.0
 40
0.0
 40
0.0
 40
1.0
 40
1.0
 40
1.0
 40
2.0
 40
2.0
 40
2.0
 40
3.0
 40
3.0
 40
3.0
 40
4.0
 40
4.0
 40
4.0
 40
4.0
 10
101.8446135128385
 20
-139.753728020617
 30
0.0
 10
101.8446135128385
 20
-139.6986241317421
 30
0.0
 10
101.7998107362038
 20
-139.6538213539754
 30
0.0
 10
101.7447068487207
 20
-139.6538213539754
 30
0.0
 10
101.6895676834608
 20
-139.6538213539754
 30
0.0
 10
101.6448027523667
 20
-139.6986241317421
 30
0.0
 10
101.6448027523667
 20
-139.753728020617
 30
0.0
 10
101.6448027523667
 20
-139.8088671872701
 30
0.0
 10
101.6895676834608
 20
-139.8536346872587
 30
0.0
 10
101.7447068487207
 20
-139.8536346872587
 30
0.0
 10
101.7998107362038
 20
-139.8536346872587
 30
0.0
 10
101.8446135128385
 20
-139.8088671872701
 30
0.0
 10
101.8446135128385
 20
-139.753728020617
 30
0.0
  0
SPLINE
  5
55
330
1F
100
AcDbEntity
  8
_U+30EC_U+30A4_U+30E4_U+30FC 1
 62
   179
420
  2234388
370
     9
100
AcDbSpline
210
0.0
220
0.0
230
1.0
 70
    11
 71
     3
 72
    17
 73
    13
 74
     0
 42
0.0000000001
 43
0.0000000001
 12
1.0
 22
0.0
 32
0.0
 13
1.0
 23
0.0
 33
0.0
 40
0.0
 40
0.0
 40
0.0
 40
0.0
 40
1.0
 40
1.0
 40
1.0
 40
2.0
 40
2.0
 40
2.0
 40
3.0
 40
3.0
 40
3.0
 40
4.0
 40
4.0
 40
4.0
 40
4.0
 10
97.84485444821425
 20
-143.7534871862839
 30
0.0
 10
97.84485444821425
 20
-143.698383297409
 30
0.0
 10
97.80005167157948
 20
-143.6535805196423
 30
0.0
 10
97.74494778409641
 20
-143.6535805196423
 30
0.0
 10
97.6898110866884
 20
-143.6535805196423
 30
0.0
 10
97.64504111997857
 20
-143.698383297409
 30
0.0
 10
97.64504111997857
 20
-143.7534871862839
 30
0.0
 10
97.64504111997857
 20
-143.808626352937
 30
0.0
 10
97.6898110866884
 20
-143.8533938529256
 30
0.0
 10
97.74494778409641
 20
-143.8533938529256
 30
0.0
 10
97.80005167157948
 20
-143.8533938529256
 30
0.0
 10
97.84485444821425
 20
-143.808626352937
 30
0.0
 10
97.84485444821425
 20
-143.7534871862839
 30
0.0
  0
SPLINE
  5
56
330
1F
100
AcDbEntity
  8
_U+30EC_U+30A4_U+30E4_U+30FC 1
 62
   179
420
  2234388
370
     9
100
AcDbSpline
210
0.0
220
0.0
230
1.0
 70
    11
 71
     3
 72
    17
 73
    13
 74
     0
 42
0.0000000001
 43
0.0000000001
 12
1.0
 22
0.0
 32
0.0
 13
1.0
 23
0.0
 33
0.0
 40
0.0
 40
0.0
 40
0.0
 40
0.0
 40
1.0
 40
1.0
 40
1.0
 40
2.0
 40
2.0
 40
2.0
 40
3.0
 40
3.0
 40
3.0
 40
4.0
 40
4.0
 40
4.0
 40
4.0
 10
77.84468329179445
 20
-143.7534871862839
 30
0.0
 10
77.84468329179445
 20
-143.698383297409
 30
0.0
 10
77.79991579293657
 20
-143.6535805196423
 30
0.0
 10
77.74477662767661
 20
-143.6535805196423
 30
0.0
 10
77.68967274019354
 20
-143.6535805196423
 30
0.0
 10
77.64486996355878
 20
-143.698383297409
 30
0.0
 10
77.64486996355878
 20
-143.7534871862839
 30
0.0
 10
77.64486996355878
 20
-143.808626352937
 30
0.0
 10
77.68967274019354
 20
-143.8533938529256
 30
0.0
 10
77.74477662767661
 20
-143.8533938529256
 30
0.0
 10
77.79991579293657
 20
-143.8533938529256
 30
0.0
 10
77.84468329179445
 20
-143.808626352937
 30
0.0
 10
77.84468329179445
 20
-143.7534871862839
 30
0.0
  0
POLYLINE
  5
57
330
1F
100
AcDbEntity
  8
_U+30EC_U+30A4_U+30E4_U+30FC 1
 62
   179
420
  2234388
370
     9
100
AcDb2dPolyline
 66
     1
 10
0.0
 20
0.0
 30
0.0
  0
VERTEX
  5
58
330
57
100
AcDbEntity
  8
_U+30EC_U+30A4_U+30E4_U+30FC 1
 62
   179
420
  2234388
370
     9
100
AcDbVertex
100
AcDb2dVertex
 10
80.24452461945829
 20
-115.7536560821728
 30
0.0
  0
VERTEX
  5
59
330
57
100
AcDbEntity
  8
_U+30EC_U+30A4_U+30E4_U+30FC 1
 62
   179
420
  2234388
370
     9
100
AcDbVertex
100
AcDb2dVertex
 10
95.24449423677719
 20
-115.7536560821728
 30
0.0
  0
SEQEND
  5
5A
330
57
100
AcDbEntity
  8
_U+30EC_U+30A4_U+30E4_U+30FC 1
 62
   179
420
  2234388
370
     9
  0
POLYLINE
  5
5B
330
1F
100
AcDbEntity
  8
_U+30EC_U+30A4_U+30E4_U+30FC 1
 62
   179
420
  2234388
370
     9
100
AcDb2dPolyline
 66
     1
 10
0.0
 20
0.0
 30
0.0
  0
VERTEX
  5
5C
330
5B
100
AcDbEntity
  8
_U+30EC_U+30A4_U+30E4_U+30FC 1
 62
   179
420
  2234388
370
     9
100
AcDbVertex
100
AcDb2dVertex
 10
80.24452461945829
 20
-117.2136974706965
 30
0.0
  0
VERTEX
  5
5D
330
5B
100
AcDbEntity
  8
_U+30EC_U+30A4_U+30E4_U+30FC 1
 62
   179
420
  2234388
370
     9
100
AcDbVertex
100
AcDb2dVertex
 10
80.24452461945829
 20
-114.7535310824228
 30
0.0
  0
SEQEND
  5
5E
330
5B
100
AcDbEntity
  8
_U+30EC_U+30A4_U+30E4_U+30FC 1
 62
   179
420
  2234388
370
     9
  0
POLYLINE
  5
5F
330
1F
100
AcDbEntity
  8
_U+30EC_U+30A4_U+30E4_U+30FC 1
 62
   179
420
  2234388
370
     9
100
AcDb2dPolyline
 66
     1
 10
0.0
 20
0.0
 30
0.0
  0
VERTEX
  5
60
330
5F
100
AcDbEntity
  8
_U+30EC_U+30A4_U+30E4_U+30FC 1
 62
   179
420
  2234388
370
     9
100
AcDbVertex
100
AcDb2dVertex
 10
95.24449423677719
 20
-117.2136974706965
 30
0.0
  0
VERTEX
  5
61
330
5F
100
AcDbEntity
  8
_U+30EC_U+30A4_U+30E4_U+30FC 1
 62
   179
420
  2234388
370
     9
100
AcDbVertex
100
AcDb2dVertex
 10
95.24449423677719
 20
-114.7535310824228
 30
0.0
  0
SEQEND
  5
62
330
5F
100
AcDbEntity
  8
_U+30EC_U+30A4_U+30E4_U+30FC 1
 62
   179
420
  2234388
370
     9
  0
INSERT
  5
64
330
1F
100
AcDbEntity
  8
_U+30EC_U+30A4_U+30E4_U+30FC 1
100
AcDbBlockReference
  2
block 2
 10
0.0
 20
0.0
 30
0.0
  0
POLYLINE
  5
6B
330
1F
100
AcDbEntity
  8
_U+30EC_U+30A4_U+30E4_U+30FC 1
 62
   179
420
  2234388
370
     9
100
AcDb2dPolyline
 66
     1
 10
0.0
 20
0.0
 30
0.0
  0
VERTEX
  5
6C
330
6B
100
AcDbEntity
  8
_U+30EC_U+30A4_U+30E4_U+30FC 1
 62
   179
420
  2234388
370
     9
100
AcDbVertex
100
AcDb2dVertex
 10
101.7447068487207
 20
-119.7534152478393
 30
0.0
  0
VERTEX
  5
6D
330
6B
100
AcDbEntity
  8
_U+30EC_U+30A4_U+30E4_U+30FC 1
 62
   179
420
  2234388
370
     9
100
AcDbVertex
100
AcDb2dVertex
 10
101.7447068487207
 20
-139.753728020617
 30
0.0
  0
SEQEND
  5
6E
330
6B
100
AcDbEntity
  8
_U+30EC_U+30A4_U+30E4_U+30FC 1
 62
   179
420
  2234388
370
     9
  0
POLYLINE
  5
6F
330
1F
100
AcDbEntity
  8
_U+30EC_U+30A4_U+30E4_U+30FC 1
 62
   179
420
  2234388
370
     9
100
AcDb2dPolyline
 66
     1
 10
0.0
 20
0.0
 30
0.0
  0
VERTEX
  5
70
330
6F
100
AcDbEntity
  8
_U+30EC_U+30A4_U+30E4_U+30FC 1
 62
   179
420
  2234388
370
     9
100
AcDbVertex
100
AcDb2dVertex
 10
97.78488222752205
 20
-119.7534152478393
 30
0.0
  0
VERTEX
  5
71
330
6F
100
AcDbEntity
  8
_U+30EC_U+30A4_U+30E4_U+30FC 1
 62
   179
420
  2234388
370
     9
100
AcDbVertex
100
AcDb2dVertex
 10
102.7444437676597
 20
-119.7534152478393
 30
0.0
  0
SEQEND
  5
72
330
6F
100
AcDbEntity
  8
_U+30EC_U+30A4_U+30E4_U+30FC 1
 62
   179
420
  2234388
370
     9
  0
POLYLINE
  5
73
330
1F
100
AcDbEntity
  8
_U+30EC_U+30A4_U+30E4_U+30FC 1
 62
   179
420
  2234388
370
     9
100
AcDb2dPolyline
 66
     1
 10
0.0
 20
0.0
 30
0.0
  0
VERTEX
  5
74
330
73
100
AcDbEntity
  8
_U+30EC_U+30A4_U+30E4_U+30FC 1
 62
   179
420
  2234388
370
     9
100
AcDbVertex
100
AcDb2dVertex
 10
100.2846654970806
 20
-139.753728020617
 30
0.0
  0
VERTEX
  5
75
330
73
100
AcDbEntity
  8
_U+30EC_U+30A4_U+30E4_U+30FC 1
 62
   179
420
  2234388
370
     9
100
AcDbVertex
100
AcDb2dVertex
 10
102.7444437676597
 20
-139.753728020617
 30
0.0
  0
SEQEND
  5
76
330
73
100
AcDbEntity
  8
_U+30EC_U+30A4_U+30E4_U+30FC 1
 62
   179
420
  2234388
370
     9
  0
INSERT
  5
78
330
1F
100
AcDbEntity
  8
_U+30EC_U+30A4_U+30E4_U+30FC 1
100
AcDbBlockReference
  2
block 3
 10
0.0
 20
0.0
 30
0.0
  0
POLYLINE
  5
80
330
1F
100
AcDbEntity
  8
_U+30EC_U+30A4_U+30E4_U+30FC 1
 62
   179
420
  2234388
370
     9
100
AcDb2dPolyline
 66
     1
 10
0.0
 20
0.0
 30
0.0
  0
VERTEX
  5
81
330
80
100
AcDbEntity
  8
_U+30EC_U+30A4_U+30E4_U+30FC 1
 62
   179
420
  2234388
370
     9
100
AcDbVertex
100
AcDb2dVertex
 10
77.74477662767661
 20
-143.7534871862839
 30
0.0
  0
VERTEX
  5
82
330
80
100
AcDbEntity
  8
_U+30EC_U+30A4_U+30E4_U+30FC 1
 62
   179
420
  2234388
370
     9
100
AcDbVertex
100
AcDb2dVertex
 10
97.74494778409641
 20
-143.7534871862839
 30
0.0
  0
SEQEND
  5
83
330
80
100
AcDbEntity
  8
_U+30EC_U+30A4_U+30E4_U+30FC 1
 62
   179
420
  2234388
370
     9
  0
POLYLINE
  5
84
330
1F
100
AcDbEntity
  8
_U+30EC_U+30A4_U+30E4_U+30FC 1
 62
   179
420
  2234388
370
     9
100
AcDb2dPolyline
 66
     1
 10
0.0
 20
0.0
 30
0.0
  0
VERTEX
  5
85
330
84
100
AcDbEntity
  8
_U+30EC_U+30A4_U+30E4_U+30FC 1
 62
   179
420
  2234388
370
     9
100
AcDbVertex
100
AcDb2dVertex
 10
77.74477662767661
 20
-142.2934810755377
 30
0.0
  0
VERTEX
  5
86
330
84
100
AcDbEntity
  8
_U+30EC_U+30A4_U+30E4_U+30FC 1
 62
   179
420
  2234388
370
     9
100
AcDbVertex
100
AcDb2dVertex
 10
77.74477662767661
 20
-144.7532594082558
 30
0.0
  0
SEQEND
  5
87
330
84
100
AcDbEntity
  8
_U+30EC_U+30A4_U+30E4_U+30FC 1
 62
   179
420
  2234388
370
     9
  0
POLYLINE
  5
88
330
1F
100
AcDbEntity
  8
_U+30EC_U+30A4_U+30E4_U+30FC 1
 62
   179
420
  2234388
370
     9
100
AcDb2dPolyline
 66
     1
 10
0.0
 20
0.0
 30
0.0
  0
VERTEX
  5
89
330
88
100
AcDbEntity
  8
_U+30EC_U+30A4_U+30E4_U+30FC 1
 62
   179
420
  2234388
370
     9
100
AcDbVertex
100
AcDb2dVertex
 10
97.74494778409641
 20
-142.2934810755377
 30
0.0
  0
VERTEX
  5
8A
330
88
100
AcDbEntity
  8
_U+30EC_U+30A4_U+30E4_U+30FC 1
 62
   179
420
  2234388
370
     9
100
AcDbVertex
100
AcDb2dVertex
 10
97.74494778409641
 20
-144.7532594082558
 30
0.0
  0
SEQEND
  5
8B
330
88
100
AcDbEntity
  8
_U+30EC_U+30A4_U+30E4_U+30FC 1
 62
   179
420
  2234388
370
     9
  0
INSERT
  5
8D
330
1F
100
AcDbEntity
  8
_U+30EC_U+30A4_U+30E4_U+30FC 1
100
AcDbBlockReference
  2
block 4
 10
0.0
 20
0.0
 30
0.0
  0
POLYLINE
  5
95
330
1F
100
AcDbEntity
  8
_U+30EC_U+30A4_U+30E4_U+30FC 1
370
     0
100
AcDb2dPolyline
 66
     1
 10
0.0
 20
0.0
 30
0.0
  0
VERTEX
  5
96
330
95
100
AcDbEntity
  8
_U+30EC_U+30A4_U+30E4_U+30FC 1
370
     0
100
AcDbVertex
100
AcDb2dVertex
 10
77.74650523874362
 20
-139.6373113539795
 30
0.0
  0
VERTEX
  5
97
330
95
100
AcDbEntity
  8
_U+30EC_U+30A4_U+30E4_U+30FC 1
370
     0
100
AcDbVertex
100
AcDb2dVertex
 10
97.76664361687624
 20
-139.6373113539795
 30
0.0
  0
VERTEX
  5
98
330
95
100
AcDbEntity
  8
_U+30EC_U+30A4_U+30E4_U+30FC 1
370
     0
100
AcDbVertex
100
AcDb2dVertex
 10
95.12081035104373
 20
-119.7055433034069
 30
0.0
  0
VERTEX
  5
99
330
95
100
AcDbEntity
  8
_U+30EC_U+30A4_U+30E4_U+30FC 1
370
     0
100
AcDbVertex
100
AcDb2dVertex
 10
80.2159496201873
 20
-119.7937377478293
 30
0.0
  0
VERTEX
  5
9A
330
95
100
AcDbEntity
  8
_U+30EC_U+30A4_U+30E4_U+30FC 1
370
     0
100
AcDbVertex
100
AcDb2dVertex
 10
77.74650523874362
 20
-139.6373113539795
 30
0.0
  0
SEQEND
  5
9C
330
95
100
AcDbEntity
  8
_U+30EC_U+30A4_U+30E4_U+30FC 1
370
     0
  0
HATCH
  5
9B
330
1F
100
AcDbEntity
  8
_U+30EC_U+30A4_U+30E4_U+30FC 1
 62
   178
420
        0
100
AcDbHatch
 10
0.0
 20
0.0
 30
0.0
210
0.0
220
0.0
230
1.0
  2
AI_USER_DEFINED_HATCH
 70
     0
 71
     0
 91
        1
 92
        1
 93
        4
 72
     1
 10
77.74650523874362
 20
-139.6373113539795
 11
97.76664361687624
 21
-139.6373113539795
 72
     1
 10
97.76664361687624
 20
-139.6373113539795
 11
95.12081035104373
 21
-119.7055433034069
 72
     1
 10
95.12081035104373
 20
-119.7055433034069
 11
80.2159496201873
 21
-119.7937377478293
 72
     1
 10
80.2159496201873
 20
-119.7937377478293
 11
77.74650523874362
 21
-139.6373113539795
 97
        0
 75
     2
 76
     0
 52
45.0
 41
10.0
 77
     0
 78
     1
 53
45.0
 43
0.0
 44
0.0
 45
-7.071067811865475
 46
7.071067811865476
 79
     0
 98
        0
  0
ENDSEC
  0
SECTION
  2
OBJECTS
  0
DICTIONARY
  5
C
330
0
100
AcDbDictionary
281
     1
  3
ACAD_GROUP
350
D
  3
ACAD_LAYOUT
350
1A
  3
ACAD_MATERIAL
350
3B
  3
ACAD_MLEADERSTYLE
350
9E
  3
ACAD_MLINESTYLE
350
17
  3
ACAD_PLOTSETTINGS
350
19
  3
ACAD_PLOTSTYLENAME
350
E
  3
ACAD_TABLESTYLE
350
9D
  3
ACAD_VISUALSTYLE
350
2A
  0
SUN
  5
3F
330
29
100
AcDbSun
 90
        1
290
     0
 63
     7
421
 16777215
 40
1.0
291
     1
 91
  2455826
 92
 54000000
292
     0
 70
     2
 71
   256
280
     1
  0
DICTIONARY
  5
D
102
{ACAD_REACTORS
330
C
102
}
330
C
100
AcDbDictionary
281
     1
  0
DICTIONARY
  5
1A
102
{ACAD_REACTORS
330
C
102
}
330
C
100
AcDbDictionary
281
     1
  3
Layout1
350
1E
  3
Layout2
350
26
  3
Model
350
22
  0
DICTIONARY
  5
3B
102
{ACAD_REACTORS
330
C
102
}
330
C
100
AcDbDictionary
281
     1
  3
ByBlock
350
3D
  3
ByLayer
350
3C
  3
Global
350
3E
  0
DICTIONARY
  5
9E
102
{ACAD_REACTORS
330
C
102
}
330
C
100
AcDbDictionary
281
     1
  0
DICTIONARY
  5
17
102
{ACAD_REACTORS
330
C
102
}
330
C
100
AcDbDictionary
281
     1
  3
Standard
350
18
  0
DICTIONARY
  5
19
102
{ACAD_REACTORS
330
C
102
}
330
C
100
AcDbDictionary
281
     1
  0
ACDBDICTIONARYWDFLT
  5
E
102
{ACAD_REACTORS
330
C
102
}
330
C
100
AcDbDictionary
281
     1
  3
Normal
350
F
100
AcDbDictionaryWithDefault
340
F
  0
DICTIONARY
  5
9D
102
{ACAD_REACTORS
330
C
102
}
330
C
100
AcDbDictionary
281
     1
  0
DICTIONARY
  5
2A
102
{ACAD_REACTORS
330
C
102
}
330
C
100
AcDbDictionary
281
     1
  3
2dWireframe
350
2F
  3
3D Hidden
350
31
  3
3dWireframe
350
30
  3
Basic
350
32
  3
Brighten
350
36
  3
ColorChange
350
3A
  3
Conceptual
350
34
  3
Dim
350
35
  3
Facepattern
350
39
  3
Flat
350
2B
  3
FlatWithEdges
350
2C
  3
Gouraud
350
2D
  3
GouraudWithEdges
350
2E
  3
Linepattern
350
38
  3
Realistic
350
33
  3
Thicken
350
37
  0
LAYOUT
  5
1E
102
{ACAD_REACTORS
330
1A
102
}
330
1A
100
AcDbPlotSettings
  1

  2
none_device
  4

  6

 40
0.0
 41
0.0
 42
0.0
 43
0.0
 44
0.0
 45
0.0
 46
0.0
 47
0.0
 48
0.0
 49
0.0
140
0.0
141
0.0
142
1.0
143
1.0
 70
   688
 72
     0
 73
     0
 74
     5
  7

 75
    16
 76
     0
 77
     2
 78
   300
147
1.0
148
0.0
149
0.0
100
AcDbLayout
  1
Layout1
 70
     1
 71
     1
 10
0.0
 20
0.0
 11
12.0
 21
9.0
 12
0.0
 22
0.0
 32
0.0
 14
1.000000000000000E+20
 24
1.000000000000000E+20
 34
1.000000000000000E+20
 15
-1.000000000000000E+20
 25
-1.000000000000000E+20
 35
-1.000000000000000E+20
146
0.0
 13
0.0
 23
0.0
 33
0.0
 16
1.0
 26
0.0
 36
0.0
 17
0.0
 27
1.0
 37
0.0
 76
     0
330
1B
  0
LAYOUT
  5
26
102
{ACAD_REACTORS
330
1A
102
}
330
1A
100
AcDbPlotSettings
  1

  2
none_device
  4

  6

 40
0.0
 41
0.0
 42
0.0
 43
0.0
 44
0.0
 45
0.0
 46
0.0
 47
0.0
 48
0.0
 49
0.0
140
0.0
141
0.0
142
1.0
143
1.0
 70
   688
 72
     0
 73
     0
 74
     5
  7

 75
    16
 76
     0
 77
     2
 78
   300
147
1.0
148
0.0
149
0.0
100
AcDbLayout
  1
Layout2
 70
     1
 71
     2
 10
0.0
 20
0.0
 11
0.0
 21
0.0
 12
0.0
 22
0.0
 32
0.0
 14
0.0
 24
0.0
 34
0.0
 15
0.0
 25
0.0
 35
0.0
146
0.0
 13
0.0
 23
0.0
 33
0.0
 16
1.0
 26
0.0
 36
0.0
 17
0.0
 27
1.0
 37
0.0
 76
     0
330
23
  0
LAYOUT
  5
22
102
{ACAD_REACTORS
330
1A
102
}
330
1A
100
AcDbPlotSettings
  1

  2
none_device
  4

  6

 40
0.0
 41
0.0
 42
0.0
 43
0.0
 44
0.0
 45
0.0
 46
0.0
 47
0.0
 48
0.0
 49
0.0
140
0.0
141
0.0
142
1.0
143
1.0
 70
  1712
 72
     0
 73
     0
 74
     0
  7

 75
     0
 76
     0
 77
     2
 78
   300
147
1.0
148
0.0
149
0.0
100
AcDbLayout
  1
Model
 70
     1
 71
     0
 10
0.0
 20
0.0
 11
12.0
 21
9.0
 12
0.0
 22
0.0
 32
0.0
 14
1.000000000000000E+20
 24
1.000000000000000E+20
 34
1.000000000000000E+20
 15
-1.000000000000000E+20
 25
-1.000000000000000E+20
 35
-1.000000000000000E+20
146
0.0
 13
0.0
 23
0.0
 33
0.0
 16
1.0
 26
0.0
 36
0.0
 17
0.0
 27
1.0
 37
0.0
 76
     0
330
1F
331
29
  0
MATERIAL
  5
3D
102
{ACAD_REACTORS
330
3B
102
}
330
3B
100
AcDbMaterial
  1
ByBlock
 72
     1
 94
      127
  0
MATERIAL
  5
3C
102
{ACAD_REACTORS
330
3B
102
}
330
3B
100
AcDbMaterial
  1
ByLayer
 72
     1
 94
      127
  0
MATERIAL
  5
3E
102
{ACAD_REACTORS
330
3B
102
}
330
3B
100
AcDbMaterial
  1
Global
 72
     1
 94
      127
  0
MLINESTYLE
  5
18
102
{ACAD_REACTORS
330
17
102
}
330
17
100
AcDbMlineStyle
  2
Standard
 70
     0
  3

 62
   256
 51
90.0
 52
90.0
 71
     2
 49
0.5
 62
   256
  6
BYLAYER
 49
-0.5
 62
   256
  6
BYLAYER
  0
ACDBPLACEHOLDER
  5
F
102
{ACAD_REACTORS
330
E
102
}
330
E
  0
VISUALSTYLE
  5
2F
102
{ACAD_REACTORS
330
2A
102
}
330
2A
100
AcDbVisualStyle
  2
2dWireframe
 70
     4
177
     2
291
     0
 71
     0
176
     1
 72
     2
176
     1
 73
     0
176
     1
 90
        0
176
     1
 40
-0.6
176
     1
 41
-30.0
176
     1
 62
     5
 63
     7
421
 16777215
176
     1
 74
     1
176
     1
 91
        4
176
     1
 64
     7
176
     1
 65
   257
176
     1
 75
     1
176
     1
175
     1
176
     1
 42
1.0
176
     1
 92
        0
176
     1
 66
   257
176
     1
 43
1.0
176
     1
 76
     1
176
     1
 77
     6
176
     1
 78
     2
176
     1
 67
     7
176
     1
 79
     5
176
     1
170
     0
176
     1
171
     0
176
     1
290
     0
176
     1
 93
        1
176
     1
 44
0.0
176
     1
173
     0
176
     1
  0
VISUALSTYLE
  5
31
102
{ACAD_REACTORS
330
2A
102
}
330
2A
100
AcDbVisualStyle
  2
3D Hidden
 70
     6
177
     2
291
     0
 71
     1
176
     1
 72
     2
176
     1
 73
     2
176
     1
 90
        0
176
     1
 40
-0.6
176
     1
 41
-30.0
176
     1
 62
     5
 63
     7
421
 16777215
176
     1
 74
     2
176
     1
 91
        2
176
     1
 64
     7
176
     1
 65
   257
176
     1
 75
     2
176
     1
175
     1
176
     1
 42
40.0
176
     1
 92
        0
176
     1
 66
   257
176
     1
 43
1.0
176
     1
 76
     1
176
     1
 77
     6
176
     1
 78
     2
176
     1
 67
     7
176
     1
 79
     3
176
     1
170
     0
176
     1
171
     0
176
     1
290
     0
176
     1
 93
        1
176
     1
 44
0.0
176
     1
173
     0
176
     1
  0
VISUALSTYLE
  5
30
102
{ACAD_REACTORS
330
2A
102
}
330
2A
100
AcDbVisualStyle
  2
3dWireframe
 70
     5
177
     2
291
     0
 71
     0
176
     1
 72
     2
176
     1
 73
     0
176
     1
 90
        0
176
     1
 40
-0.6
176
     1
 41
-30.0
176
     1
 62
     5
 63
     7
421
 16777215
176
     1
 74
     1
176
     1
 91
        4
176
     1
 64
     7
176
     1
 65
   257
176
     1
 75
     1
176
     1
175
     1
176
     1
 42
1.0
176
     1
 92
        0
176
     1
 66
   257
176
     1
 43
1.0
176
     1
 76
     1
176
     1
 77
     6
176
     1
 78
     2
176
     1
 67
     7
176
     1
 79
     5
176
     1
170
     0
176
     1
171
     0
176
     1
290
     0
176
     1
 93
        1
176
     1
 44
0.0
176
     1
173
     0
176
     1
  0
VISUALSTYLE
  5
32
102
{ACAD_REACTORS
330
2A
102
}
330
2A
100
AcDbVisualStyle
  2
Basic
 70
     7
177
     2
291
     1
 71
     1
176
     1
 72
     0
176
     1
 73
     1
176
     1
 90
        0
176
     1
 40
-0.6
176
     1
 41
-30.0
176
     1
 62
     5
 63
     7
421
 16777215
176
     1
 74
     0
176
     1
 91
        4
176
     1
 64
     7
176
     1
 65
   257
176
     1
 75
     1
176
     1
175
     1
176
     1
 42
1.0
176
     1
 92
        8
176
     1
 66
     7
176
     1
 43
1.0
176
     1
 76
     1
176
     1
 77
     6
176
     1
 78
     2
176
     1
 67
     7
176
     1
 79
     5
176
     1
170
     0
176
     1
171
     0
176
     1
290
     0
176
     1
 93
        1
176
     1
 44
0.0
176
     1
173
     0
176
     1
  0
VISUALSTYLE
  5
36
102
{ACAD_REACTORS
330
2A
102
}
330
2A
100
AcDbVisualStyle
  2
Brighten
 70
    12
177
     2
291
     1
 71
     2
176
     1
 72
     2
176
     1
 73
     0
176
     1
 90
        0
176
     1
 40
-0.6
176
     1
 41
-30.0
176
     1
 62
     5
 63
     7
421
 16777215
176
     1
 74
     1
176
     1
 91
        4
176
     1
 64
     7
176
     1
 65
   257
176
     1
 75
     1
176
     1
175
     1
176
     1
 42
1.0
176
     1
 92
        8
176
     1
 66
     7
176
     1
 43
1.0
176
     1
 76
     1
176
     1
 77
     6
176
     1
 78
     2
176
     1
 67
     7
176
     1
 79
     5
176
     1
170
     0
176
     1
171
     0
176
     1
290
     0
176
     1
 93
        1
176
     1
 44
50.0
176
     1
173
     0
176
     1
  0
VISUALSTYLE
  5
3A
102
{ACAD_REACTORS
330
2A
102
}
330
2A
100
AcDbVisualStyle
  2
ColorChange
 70
    16
177
     2
291
     1
 71
     2
176
     1
 72
     2
176
     1
 73
     3
176
     1
 90
        0
176
     1
 40
-0.6
176
     1
 41
-30.0
176
     1
 62
     5
 63
     8
421
  8421504
176
     1
 74
     1
176
     1
 91
        4
176
     1
 64
     7
176
     1
 65
   257
176
     1
 75
     1
176
     1
175
     1
176
     1
 42
1.0
176
     1
 92
        8
176
     1
 66
     8
424
  8421504
176
     1
 43
1.0
176
     1
 76
     1
176
     1
 77
     6
176
     1
 78
     2
176
     1
 67
     7
176
     1
 79
     5
176
     1
170
     0
176
     1
171
     0
176
     1
290
     0
176
     1
 93
        1
176
     1
 44
0.0
176
     1
173
     0
176
     1
  0
VISUALSTYLE
  5
34
102
{ACAD_REACTORS
330
2A
102
}
330
2A
100
AcDbVisualStyle
  2
Conceptual
 70
     9
177
     2
291
     0
 71
     3
176
     1
 72
     2
176
     1
 73
     0
176
     1
 90
        0
176
     1
 40
-0.6
176
     1
 41
-30.0
176
     1
 62
     5
 63
     7
421
 16777215
176
     1
 74
     2
176
     1
 91
        2
176
     1
 64
     7
176
     1
 65
   257
176
     1
 75
     1
176
     1
175
     1
176
     1
 42
40.0
176
     1
 92
        8
176
     1
 66
     7
176
     1
 43
1.0
176
     1
 76
     1
176
     1
 77
     6
176
     1
 78
     2
176
     1
 67
     7
176
     1
 79
     3
176
     1
170
     0
176
     1
171
     0
176
     1
290
     0
176
     1
 93
        1
176
     1
 44
0.0
176
     1
173
     0
176
     1
  0
VISUALSTYLE
  5
35
102
{ACAD_REACTORS
330
2A
102
}
330
2A
100
AcDbVisualStyle
  2
Dim
 70
    11
177
     2
291
     1
 71
     2
176
     1
 72
     2
176
     1
 73
     0
176
     1
 90
        0
176
     1
 40
-0.6
176
     1
 41
-30.0
176
     1
 62
     5
 63
     7
421
 16777215
176
     1
 74
     1
176
     1
 91
        4
176
     1
 64
     7
176
     1
 65
   257
176
     1
 75
     1
176
     1
175
     1
176
     1
 42
1.0
176
     1
 92
        8
176
     1
 66
     7
176
     1
 43
1.0
176
     1
 76
     1
176
     1
 77
     6
176
     1
 78
     2
176
     1
 67
     7
176
     1
 79
     5
176
     1
170
     0
176
     1
171
     0
176
     1
290
     0
176
     1
 93
        1
176
     1
 44
-50.0
176
     1
173
     0
176
     1
  0
VISUALSTYLE
  5
39
102
{ACAD_REACTORS
330
2A
102
}
330
2A
100
AcDbVisualStyle
  2
Facepattern
 70
    15
177
     2
291
     1
 71
     2
176
     1
 72
     2
176
     1
 73
     0
176
     1
 90
        0
176
     1
 40
-0.6
176
     1
 41
-30.0
176
     1
 62
     5
 63
     7
421
 16777215
176
     1
 74
     1
176
     1
 91
        4
176
     1
 64
     7
176
     1
 65
   257
176
     1
 75
     1
176
     1
175
     1
176
     1
 42
1.0
176
     1
 92
        8
176
     1
 66
     7
176
     1
 43
1.0
176
     1
 76
     1
176
     1
 77
     6
176
     1
 78
     2
176
     1
 67
     7
176
     1
 79
     5
176
     1
170
     0
176
     1
171
     0
176
     1
290
     0
176
     1
 93
        1
176
     1
 44
0.0
176
     1
173
     0
176
     1
  0
VISUALSTYLE
  5
2B
102
{ACAD_REACTORS
330
2A
102
}
330
2A
100
AcDbVisualStyle
  2
Flat
 70
     0
177
     2
291
     1
 71
     2
176
     1
 72
     1
176
     1
 73
     1
176
     1
 90
        2
176
     1
 40
-0.6
176
     1
 41
30.0
176
     1
 62
     5
 63
     7
421
 16777215
176
     1
 74
     0
176
     1
 91
        4
176
     1
 64
     7
176
     1
 65
   257
176
     1
 75
     1
176
     1
175
     1
176
     1
 42
1.0
176
     1
 92
        8
176
     1
 66
     7
176
     1
 43
1.0
176
     1
 76
     1
176
     1
 77
     6
176
     1
 78
     2
176
     1
 67
     7
176
     1
 79
     5
176
     1
170
     0
176
     1
171
     0
176
     1
290
     0
176
     1
 93
       13
176
     1
 44
0.0
176
     1
173
     0
176
     1
  0
VISUALSTYLE
  5
2C
102
{ACAD_REACTORS
330
2A
102
}
330
2A
100
AcDbVisualStyle
  2
FlatWithEdges
 70
     1
177
     2
291
     1
 71
     2
176
     1
 72
     1
176
     1
 73
     1
176
     1
 90
        2
176
     1
 40
-0.6
176
     1
 41
30.0
176
     1
 62
     5
 63
     7
421
 16777215
176
     1
 74
     1
176
     1
 91
        4
176
     1
 64
     7
176
     1
 65
   257
176
     1
 75
     1
176
     1
175
     1
176
     1
 42
1.0
176
     1
 92
        0
176
     1
 66
   257
176
     1
 43
1.0
176
     1
 76
     1
176
     1
 77
     6
176
     1
 78
     2
176
     1
 67
     7
176
     1
 79
     5
176
     1
170
     0
176
     1
171
     0
176
     1
290
     0
176
     1
 93
       13
176
     1
 44
0.0
176
     1
173
     0
176
     1
  0
VISUALSTYLE
  5
2D
102
{ACAD_REACTORS
330
2A
102
}
330
2A
100
AcDbVisualStyle
  2
Gouraud
 70
     2
177
     2
291
     1
 71
     2
176
     1
 72
     2
176
     1
 73
     1
176
     1
 90
        2
176
     1
 40
-0.6
176
     1
 41
30.0
176
     1
 62
     5
 63
     7
421
 16777215
176
     1
 74
     0
176
     1
 91
        4
176
     1
 64
     7
176
     1
 65
   257
176
     1
 75
     1
176
     1
175
     1
176
     1
 42
1.0
176
     1
 92
        0
176
     1
 66
     7
176
     1
 43
1.0
176
     1
 76
     1
176
     1
 77
     6
176
     1
 78
     2
176
     1
 67
     7
176
     1
 79
     5
176
     1
170
     0
176
     1
171
     0
176
     1
290
     0
176
     1
 93
       13
176
     1
 44
0.0
176
     1
173
     0
176
     1
  0
VISUALSTYLE
  5
2E
102
{ACAD_REACTORS
330
2A
102
}
330
2A
100
AcDbVisualStyle
  2
GouraudWithEdges
 70
     3
177
     2
291
     1
 71
     2
176
     1
 72
     2
176
     1
 73
     1
176
     1
 90
        2
176
     1
 40
-0.6
176
     1
 41
30.0
176
     1
 62
     5
 63
     7
421
 16777215
176
     1
 74
     1
176
     1
 91
        4
176
     1
 64
     7
176
     1
 65
   257
176
     1
 75
     1
176
     1
175
     1
176
     1
 42
1.0
176
     1
 92
        0
176
     1
 66
   257
176
     1
 43
1.0
176
     1
 76
     1
176
     1
 77
     6
176
     1
 78
     2
176
     1
 67
     7
176
     1
 79
     5
176
     1
170
     0
176
     1
171
     0
176
     1
290
     0
176
     1
 93
       13
176
     1
 44
0.0
176
     1
173
     0
176
     1
  0
VISUALSTYLE
  5
38
102
{ACAD_REACTORS
330
2A
102
}
330
2A
100
AcDbVisualStyle
  2
Linepattern
 70
    14
177
     2
291
     1
 71
     2
176
     1
 72
     2
176
     1
 73
     0
176
     1
 90
        0
176
     1
 40
-0.6
176
     1
 41
-30.0
176
     1
 62
     5
 63
     7
421
 16777215
176
     1
 74
     1
176
     1
 91
        4
176
     1
 64
     7
176
     1
 65
   257
176
     1
 75
     7
176
     1
175
     7
176
     1
 42
1.0
176
     1
 92
        8
176
     1
 66
     7
176
     1
 43
1.0
176
     1
 76
     1
176
     1
 77
     6
176
     1
 78
     2
176
     1
 67
     7
176
     1
 79
     5
176
     1
170
     0
176
     1
171
     0
176
     1
290
     0
176
     1
 93
        1
176
     1
 44
0.0
176
     1
173
     0
176
     1
  0
VISUALSTYLE
  5
33
102
{ACAD_REACTORS
330
2A
102
}
330
2A
100
AcDbVisualStyle
  2
Realistic
 70
     8
177
     2
291
     0
 71
     2
176
     1
 72
     2
176
     1
 73
     0
176
     1
 90
        0
176
     1
 40
-0.6
176
     1
 41
-30.0
176
     1
 62
     5
 63
     7
421
 16777215
176
     1
 74
     1
176
     1
 91
        0
176
     1
 64
     7
176
     1
 65
   257
176
     1
 75
     1
176
     1
175
     1
176
     1
 42
1.0
176
     1
 92
        8
176
     1
 66
     8
424
  7895160
176
     1
 43
1.0
176
     1
 76
     1
176
     1
 77
     6
176
     1
 78
     2
176
     1
 67
     7
176
     1
 79
     5
176
     1
170
     0
176
     1
171
     0
176
     1
290
     0
176
     1
 93
       13
176
     1
 44
0.0
176
     1
173
     0
176
     1
  0
VISUALSTYLE
  5
37
102
{ACAD_REACTORS
330
2A
102
}
330
2A
100
AcDbVisualStyle
  2
Thicken
 70
    13
177
     2
291
     1
 71
     2
176
     1
 72
     2
176
     1
 73
     0
176
     1
 90
        0
176
     1
 40
-0.6
176
     1
 41
-30.0
176
     1
 62
     5
 63
     7
421
 16777215
176
     1
 74
     1
176
     1
 91
        4
176
     1
 64
     7
176
     1
 65
   257
176
     1
 75
     1
176
     1
175
     1
176
     1
 42
1.0
176
     1
 92
       12
176
     1
 66
     7
176
     1
 43
1.0
176
     1
 76
     1
176
     1
 77
     6
176
     1
 78
     2
176
     1
 67
     7
176
     1
 79
     5
176
     1
170
     0
176
     1
171
     0
176
     1
290
     0
176
     1
 93
        1
176
     1
 44
0.0
176
     1
173
     0
176
     1
  0
ENDSEC
  0
EOF
