  0
SECTION
  2
HEADER
  9
$ACADVER
  1
AC1024
  9
$ACADMAINTVER
 70
     6
  9
$DWGCODEPAGE
  3
UNDEFINED
  9
$INSBASE
 10
0.0
 20
0.0
 30
0.0
  9
$EXTMIN
 10
1.000000000000000E+20
 20
1.000000000000000E+20
 30
1.000000000000000E+20
  9
$EXTMAX
 10
-1.000000000000000E+20
 20
-1.000000000000000E+20
 30
-1.000000000000000E+20
  9
$LIMMIN
 10
0.0
 20
0.0
  9
$LIMMAX
 10
12.0
 20
9.0
  9
$ORTHOMODE
 70
     0
  9
$REGENMODE
 70
     1
  9
$FILLMODE
 70
     1
  9
$QTEXTMODE
 70
     0
  9
$MIRRTEXT
 70
     1
  9
$LTSCALE
 40
1.0
  9
$ATTMODE
 70
     1
  9
$TEXTSIZE
 40
0.2
  9
$TRACEWID
 40
0.05
  9
$TEXTSTYLE
  7
Standard
  9
$CLAYER
  8
0
  9
$CELTYPE
  6
ByLayer
  9
$CECOLOR
 62
   256
  9
$CELTSCALE
 40
1.0
  9
$DISPSILH
 70
     0
  9
$DIMSCALE
 40
1.0
  9
$DIMASZ
 40
0.18
  9
$DIMEXO
 40
0.0625
  9
$DIMDLI
 40
0.38
  9
$DIMRND
 40
0.0
  9
$DIMDLE
 40
0.0
  9
$DIMEXE
 40
0.18
  9
$DIMTP
 40
0.0
  9
$DIMTM
 40
0.0
  9
$DIMTXT
 40
0.18
  9
$DIMCEN
 40
0.09
  9
$DIMTSZ
 40
0.0
  9
$DIMTOL
 70
     0
  9
$DIMLIM
 70
     0
  9
$DIMTIH
 70
     1
  9
$DIMTOH
 70
     1
  9
$DIMSE1
 70
     0
  9
$DIMSE2
 70
     0
  9
$DIMTAD
 70
     0
  9
$DIMZIN
 70
     0
  9
$DIMBLK
  1

  9
$DIMASO
 70
     1
  9
$DIMSHO
 70
     1
  9
$DIMPOST
  1

  9
$DIMAPOST
  1

  9
$DIMALT
 70
     0
  9
$DIMALTD
 70
     2
  9
$DIMALTF
 40
25.4
  9
$DIMLFAC
 40
1.0
  9
$DIMTOFL
 70
     0
  9
$DIMTVP
 40
0.0
  9
$DIMTIX
 70
     0
  9
$DIMSOXD
 70
     0
  9
$DIMSAH
 70
     0
  9
$DIMBLK1
  1

  9
$DIMBLK2
  1

  9
$DIMSTYLE
  2
Standard
  9
$DIMCLRD
 70
     0
  9
$DIMCLRE
 70
     0
  9
$DIMCLRT
 70
     0
  9
$DIMTFAC
 40
1.0
  9
$DIMGAP
 40
0.09
  9
$DIMJUST
 70
     0
  9
$DIMSD1
 70
     0
  9
$DIMSD2
 70
     0
  9
$DIMTOLJ
 70
     1
  9
$DIMTZIN
 70
     0
  9
$DIMALTZ
 70
     0
  9
$DIMALTTZ
 70
     0
  9
$DIMUPT
 70
     0
  9
$DIMDEC
 70
     4
  9
$DIMTDEC
 70
     4
  9
$DIMALTU
 70
     2
  9
$DIMALTTD
 70
     2
  9
$DIMTXSTY
  7
Standard
  9
$DIMAUNIT
 70
     0
  9
$DIMADEC
 70
     0
  9
$DIMALTRND
 40
0.0
  9
$DIMAZIN
 70
     0
  9
$DIMDSEP
 70
    46
  9
$DIMATFIT
 70
     3
  9
$DIMFRAC
 70
     0
  9
$DIMLDRBLK
  1

  9
$DIMLUNIT
 70
     2
  9
$DIMLWD
 70
    -2
  9
$DIMLWE
 70
    -2
  9
$DIMTMOVE
 70
     0
  9
$DIMFXL
 40
1.0
  9
$DIMFXLON
 70
     0
  9
$DIMJOGANG
 40
0.7853981633974483
  9
$DIMTFILL
 70
     0
  9
$DIMTFILLCLR
 70
     0
  9
$DIMARCSYM
 70
     0
  9
$DIMLTYPE
  6

  9
$DIMLTEX1
  6

  9
$DIMLTEX2
  6

  9
$DIMTXTDIRECTION
 70
     0
  9
$LUNITS
 70
     2
  9
$LUPREC
 70
     4
  9
$SKETCHINC
 40
0.1
  9
$FILLETRAD
 40
0.5
  9
$AUNITS
 70
     0
  9
$AUPREC
 70
     0
  9
$MENU
  1
.
  9
$ELEVATION
 40
0.0
  9
$PELEVATION
 40
0.0
  9
$THICKNESS
 40
0.0
  9
$LIMCHECK
 70
     0
  9
$CHAMFERA
 40
0.5
  9
$CHAMFERB
 40
0.5
  9
$CHAMFERC
 40
1.0
  9
$CHAMFERD
 40
0.0
  9
$SKPOLY
 70
     0
  9
$TDCREATE
 40
2457917.623252315
  9
$TDUCREATE
 40
2457917.248252315
  9
$TDUPDATE
 40
2457917.623252315
  9
$TDUUPDATE
 40
2457917.248252315
  9
$TDINDWG
 40
0.0000000116
  9
$TDUSRTIMER
 40
0.0000000116
  9
$USRTIMER
 70
     1
  9
$ANGBASE
 50
0.0
  9
$ANGDIR
 70
     0
  9
$PDMODE
 70
     0
  9
$PDSIZE
 40
0.0
  9
$PLINEWID
 40
0.0
  9
$SPLFRAME
 70
     0
  9
$SPLINETYPE
 70
     6
  9
$SPLINESEGS
 70
     8
  9
$HANDSEED
  5
163
  9
$SURFTAB1
 70
     6
  9
$SURFTAB2
 70
     6
  9
$SURFTYPE
 70
     6
  9
$SURFU
 70
     6
  9
$SURFV
 70
     6
  9
$UCSBASE
  2

  9
$UCSNAME
  2

  9
$UCSORG
 10
0.0
 20
0.0
 30
0.0
  9
$UCSXDIR
 10
1.0
 20
0.0
 30
0.0
  9
$UCSYDIR
 10
0.0
 20
1.0
 30
0.0
  9
$UCSORTHOREF
  2

  9
$UCSORTHOVIEW
 70
     0
  9
$UCSORGTOP
 10
0.0
 20
0.0
 30
0.0
  9
$UCSORGBOTTOM
 10
0.0
 20
0.0
 30
0.0
  9
$UCSORGLEFT
 10
0.0
 20
0.0
 30
0.0
  9
$UCSORGRIGHT
 10
0.0
 20
0.0
 30
0.0
  9
$UCSORGFRONT
 10
0.0
 20
0.0
 30
0.0
  9
$UCSORGBACK
 10
0.0
 20
0.0
 30
0.0
  9
$PUCSBASE
  2

  9
$PUCSNAME
  2

  9
$PUCSORG
 10
0.0
 20
0.0
 30
0.0
  9
$PUCSXDIR
 10
1.0
 20
0.0
 30
0.0
  9
$PUCSYDIR
 10
0.0
 20
1.0
 30
0.0
  9
$PUCSORTHOREF
  2

  9
$PUCSORTHOVIEW
 70
     0
  9
$PUCSORGTOP
 10
0.0
 20
0.0
 30
0.0
  9
$PUCSORGBOTTOM
 10
0.0
 20
0.0
 30
0.0
  9
$PUCSORGLEFT
 10
0.0
 20
0.0
 30
0.0
  9
$PUCSORGRIGHT
 10
0.0
 20
0.0
 30
0.0
  9
$PUCSORGFRONT
 10
0.0
 20
0.0
 30
0.0
  9
$PUCSORGBACK
 10
0.0
 20
0.0
 30
0.0
  9
$USERI1
 70
     0
  9
$USERI2
 70
     0
  9
$USERI3
 70
     0
  9
$USERI4
 70
     0
  9
$USERI5
 70
     0
  9
$USERR1
 40
0.0
  9
$USERR2
 40
0.0
  9
$USERR3
 40
0.0
  9
$USERR4
 40
0.0
  9
$USERR5
 40
0.0
  9
$WORLDVIEW
 70
     1
  9
$SHADEDGE
 70
     3
  9
$SHADEDIF
 70
    70
  9
$TILEMODE
 70
     1
  9
$MAXACTVP
 70
    64
  9
$PINSBASE
 10
0.0
 20
0.0
 30
0.0
  9
$PLIMCHECK
 70
     0
  9
$PEXTMIN
 10
1.000000000000000E+20
 20
1.000000000000000E+20
 30
1.000000000000000E+20
  9
$PEXTMAX
 10
-1.000000000000000E+20
 20
-1.000000000000000E+20
 30
-1.000000000000000E+20
  9
$PLIMMIN
 10
0.0
 20
0.0
  9
$PLIMMAX
 10
12.0
 20
9.0
  9
$UNITMODE
 70
     0
  9
$VISRETAIN
 70
     1
  9
$PLINEGEN
 70
     0
  9
$PSLTSCALE
 70
     1
  9
$TREEDEPTH
 70
  3020
  9
$CMLSTYLE
  2
Standard
  9
$CMLJUST
 70
     0
  9
$CMLSCALE
 40
1.0
  9
$PROXYGRAPHICS
 70
     1
  9
$MEASUREMENT
 70
     0
  9
$CELWEIGHT
370
    -1
  9
$ENDCAPS
280
     0
  9
$JOINSTYLE
280
     0
  9
$LWDISPLAY
290
     1
  9
$INSUNITS
 70
     1
  9
$HYPERLINKBASE
  1

  9
$STYLESHEET
  1

  9
$XEDIT
290
     1
  9
$CEPSNTYPE
380
     0
  9
$PSTYLEMODE
290
     1
  9
$FINGERPRINTGUID
  2
{9442131B-54DF-3D1D-9D50-50C81CCAF6FB}
  9
$VERSIONGUID
  2
{FAEB1C32-E019-11D5-929B-00C0DF256EC4}
  9
$EXTNAMES
290
     1
  9
$PSVPSCALE
 40
0.0
  9
$OLESTARTUP
290
     0
  9
$SORTENTS
280
   127
  9
$INDEXCTL
280
     0
  9
$HIDETEXT
280
     1
  9
$XCLIPFRAME
280
     2
  9
$HALOGAP
280
     0
  9
$OBSCOLOR
 70
   257
  9
$OBSLTYPE
280
     0
  9
$INTERSECTIONDISPLAY
280
     0
  9
$INTERSECTIONCOLOR
 70
   257
  9
$DIMASSOC
280
     2
  9
$PROJECTNAME
  1

  9
$CAMERADISPLAY
290
     0
  9
$LENSLENGTH
 40
50.0
  9
$CAMERAHEIGHT
 40
0.0
  9
$STEPSPERSEC
 40
2.0
  9
$STEPSIZE
 40
6.0
  9
$3DDWFPREC
 40
2.0
  9
$PSOLWIDTH
 40
0.25
  9
$PSOLHEIGHT
 40
4.0
  9
$LOFTANG1
 40
1.570796326794897
  9
$LOFTANG2
 40
1.570796326794897
  9
$LOFTMAG1
 40
0.0
  9
$LOFTMAG2
 40
0.0
  9
$LOFTPARAM
 70
     7
  9
$LOFTNORMALS
280
     1
  9
$LATITUDE
 40
37.795
  9
$LONGITUDE
 40
-122.394
  9
$NORTHDIRECTION
 40
0.0
  9
$TIMEZONE
 70
 -8000
  9
$LIGHTGLYPHDISPLAY
280
     1
  9
$TILEMODELIGHTSYNCH
280
     1
  9
$CMATERIAL
347
3C
  9
$SOLIDHIST
280
     1
  9
$SHOWHIST
280
     1
  9
$DWFFRAME
280
     2
  9
$DGNFRAME
280
     2
  9
$REALWORLDSCALE
290
     1
  9
$INTERFERECOLOR
 62
   256
  9
$CSHADOW
280
     0
  9
$SHADOWPLANELOCATION
 40
0.0
  0
ENDSEC
  0
SECTION
  2
CLASSES
  0
CLASS
  1
ACDBDICTIONARYWDFLT
  2
AcDbDictionaryWithDefault
  3
ObjectDBX Classes
 90
        0
 91
        4
280
     0
281
     0
  0
CLASS
  1
VISUALSTYLE
  2
AcDbVisualStyle
  3
ObjectDBX Classes
 90
     4095
 91
        4
280
     0
281
     0
  0
CLASS
  1
MATERIAL
  2
AcDbMaterial
  3
ObjectDBX Classes
 90
     1153
 91
        4
280
     0
281
     0
  0
CLASS
  1
SUN
  2
AcDbSun
  3
SCENEOE
 90
     1024
 91
        4
280
     0
281
     0
  0
ENDSEC
  0
SECTION
  2
TABLES
  0
TABLE
  2
VPORT
  5
8
330
0
100
AcDbSymbolTable
 70
     1
  0
VPORT
  5
29
330
8
100
AcDbSymbolTableRecord
100
AcDbViewportTableRecord
  2
*Active
 70
     0
 10
0.0
 20
0.0
 11
1.0
 21
1.0
 12
0.0
 22
0.0
 13
0.0
 23
0.0
 14
0.5
 24
0.5
 15
0.5
 25
0.5
 16
0.0
 26
0.0
 36
1.0
 17
91.00082462281999
 27
-128.4993055234307
 37
0.0
 40
256.9986110468615
 41
0.7081814508812795
 42
50.0
 43
0.0
 44
0.0
 50
0.0
 51
0.0
 71
     0
 72
   100
 73
     1
 74
     3
 75
     0
 76
     0
 77
     0
 78
     0
281
     0
 65
     1
110
0.0
120
0.0
130
0.0
111
1.0
121
0.0
131
0.0
112
0.0
122
1.0
132
0.0
 79
     0
146
0.0
 60
     3
 61
     5
292
     1
282
     1
141
0.0
142
0.0
 63
   250
361
3F
  0
ENDTAB
  0
TABLE
  2
LTYPE
  5
5
330
0
100
AcDbSymbolTable
 70
     1
  0
LTYPE
  5
14
330
5
100
AcDbSymbolTableRecord
100
AcDbLinetypeTableRecord
  2
ByBlock
 70
     0
  3

 72
    65
 73
     0
 40
0.0
  0
LTYPE
  5
15
330
5
100
AcDbSymbolTableRecord
100
AcDbLinetypeTableRecord
  2
ByLayer
 70
     0
  3

 72
    65
 73
     0
 40
0.0
  0
LTYPE
  5
16
330
5
100
AcDbSymbolTableRecord
100
AcDbLinetypeTableRecord
  2
Continuous
 70
     0
  3
Solid line
 72
    65
 73
     0
 40
0.0
  0
ENDTAB
  0
TABLE
  2
LAYER
  5
2
330
0
100
AcDbSymbolTable
 70
     2
  0
LAYER
  5
10
330
2
100
AcDbSymbolTableRecord
100
AcDbLayerTableRecord
  2
0
 70
     0
 62
     7
  6
Continuous
370
    -3
390
F
347
3E
  0
LAYER
  5
40
330
2
100
AcDbSymbolTableRecord
100
AcDbLayerTableRecord
  2
_U+30EC_U+30A4_U+30E4_U+30FC 1
 70
     0
 62
     7
  6
Continuous
370
    -3
390
F
347
3E
  0
ENDTAB
  0
TABLE
  2
STYLE
  5
3
330
0
100
AcDbSymbolTable
 70
     1
  0
STYLE
  5
11
330
3
100
AcDbSymbolTableRecord
100
AcDbTextStyleTableRecord
  2
Standard
 70
     0
 40
0.0
 41
1.0
 50
0.0
 71
     0
 42
0.2
  3
txt
  4

  0
ENDTAB
  0
TABLE
  2
VIEW
  5
6
330
0
100
AcDbSymbolTable
 70
     0
  0
ENDTAB
  0
TABLE
  2
UCS
  5
7
330
0
100
AcDbSymbolTable
 70
     0
  0
ENDTAB
  0
TABLE
  2
APPID
  5
9
330
0
100
AcDbSymbolTable
 70
     1
  0
APPID
  5
12
330
9
100
AcDbSymbolTableRecord
100
AcDbRegAppTableRecord
  2
ACAD
 70
     0
  0
ENDTAB
  0
TABLE
  2
DIMSTYLE
  5
A
330
0
100
AcDbSymbolTable
 70
     1
100
AcDbDimStyleTable
  0
DIMSTYLE
105
27
330
A
100
AcDbSymbolTableRecord
100
AcDbDimStyleTableRecord
  2
Standard
 70
     0
178
     0
340
11
  0
ENDTAB
  0
TABLE
  2
BLOCK_RECORD
  5
1
330
0
100
AcDbSymbolTable
 70
     8
  0
BLOCK_RECORD
  5
1F
330
1
100
AcDbSymbolTableRecord
100
AcDbBlockTableRecord
  2
*Model_Space
340
22
 70
     0
280
     1
281
     0
  0
BLOCK_RECORD
  5
1B
330
1
100
AcDbSymbolTableRecord
100
AcDbBlockTableRecord
  2
*Paper_Space
340
1E
 70
     0
280
     1
281
     0
  0
BLOCK_RECORD
  5
23
330
1
100
AcDbSymbolTableRecord
100
AcDbBlockTableRecord
  2
*Paper_Space0
340
26
 70
     0
280
     1
281
     0
  0
BLOCK_RECORD
  5
71
330
1
100
AcDbSymbolTableRecord
100
AcDbBlockTableRecord
  2
block 2
340
0
102
{BLKREFS
331
72
102
}
 70
     0
280
     1
281
     0
  0
BLOCK_RECORD
  5
97
330
1
100
AcDbSymbolTableRecord
100
AcDbBlockTableRecord
  2
block 3
340
0
102
{BLKREFS
331
98
102
}
 70
     0
280
     1
281
     0
  0
BLOCK_RECORD
  5
9D
330
1
100
AcDbSymbolTableRecord
100
AcDbBlockTableRecord
  2
block 4
340
0
102
{BLKREFS
331
9E
102
}
 70
     0
280
     1
281
     0
  0
BLOCK_RECORD
  5
AD
330
1
100
AcDbSymbolTableRecord
100
AcDbBlockTableRecord
  2
block 5
340
0
102
{BLKREFS
331
AE
102
}
 70
     0
280
     1
281
     0
  0
BLOCK_RECORD
  5
B5
330
1
100
AcDbSymbolTableRecord
100
AcDbBlockTableRecord
  2
block 6
340
0
102
{BLKREFS
331
B6
102
}
 70
     0
280
     1
281
     0
  0
BLOCK_RECORD
  5
D2
330
1
100
AcDbSymbolTableRecord
100
AcDbBlockTableRecord
  2
block 7
340
0
102
{BLKREFS
331
D3
102
}
 70
     0
280
     1
281
     0
  0
BLOCK_RECORD
  5
E7
330
1
100
AcDbSymbolTableRecord
100
AcDbBlockTableRecord
  2
block 8
340
0
102
{BLKREFS
331
E8
102
}
 70
     0
280
     1
281
     0
  0
ENDTAB
  0
ENDSEC
  0
SECTION
  2
BLOCKS
  0
BLOCK
  5
20
330
1F
100
AcDbEntity
  8
0
100
AcDbBlockBegin
  2
*Model_Space
 70
     0
 10
0.0
 20
0.0
 30
0.0
  3
*Model_Space
  1

  0
ENDBLK
  5
21
330
1F
100
AcDbEntity
  8
0
100
AcDbBlockEnd
  0
BLOCK
  5
1C
330
1B
100
AcDbEntity
 67
     1
  8
0
100
AcDbBlockBegin
  2
*Paper_Space
 70
     0
 10
0.0
 20
0.0
 30
0.0
  3
*Paper_Space
  1

  0
ENDBLK
  5
1D
330
1B
100
AcDbEntity
 67
     1
  8
0
100
AcDbBlockEnd
  0
BLOCK
  5
24
330
23
100
AcDbEntity
  8
0
100
AcDbBlockBegin
  2
*Paper_Space0
 70
     0
 10
0.0
 20
0.0
 30
0.0
  3
*Paper_Space0
  1

  0
ENDBLK
  5
25
330
23
100
AcDbEntity
  8
0
100
AcDbBlockEnd
  0
BLOCK
  5
73
330
71
100
AcDbEntity
  8
0
100
AcDbBlockBegin
  2
block 2
 70
     0
 10
0.0
 20
0.0
 30
0.0
  3
block 2
  1

  0
SPLINE
  5
75
330
71
100
AcDbEntity
  8
_U+30EC_U+30A4_U+30E4_U+30FC 1
370
     0
100
AcDbSpline
210
0.0
220
0.0
230
1.0
 70
    11
 71
     3
 72
    26
 73
    22
 74
     0
 42
0.0000000001
 43
0.0000000001
 12
1.0
 22
0.0
 32
0.0
 13
1.0
 23
0.0
 33
0.0
 40
0.0
 40
0.0
 40
0.0
 40
0.0
 40
1.0
 40
1.0
 40
1.0
 40
2.0
 40
2.0
 40
2.0
 40
3.0
 40
3.0
 40
3.0
 40
4.0
 40
4.0
 40
4.0
 40
5.0
 40
5.0
 40
5.0
 40
6.0
 40
6.0
 40
6.0
 40
7.0
 40
7.0
 40
7.0
 40
7.0
 10
117.0453965636206
 20
-142.7154920433142
 30
0.0
 10
117.0453965636206
 20
-142.7154920433142
 30
0.0
 10
115.941243460598
 20
-142.7154920433142
 30
0.0
 10
115.941243460598
 20
-142.7154920433142
 30
0.0
 10
115.941243460598
 20
-142.7154920433142
 30
0.0
 10
115.941243460598
 20
-143.0679253114552
 30
0.0
 10
115.941243460598
 20
-143.0679253114552
 30
0.0
 10
115.941243460598
 20
-143.0679253114552
 30
0.0
 10
115.7931043547323
 20
-143.0679253114552
 30
0.0
 10
115.7931043547323
 20
-143.0679253114552
 30
0.0
 10
115.7782904441457
 20
-142.7130804764745
 30
0.0
 10
115.6153374276934
 20
-142.6634711014869
 30
0.0
 10
115.5009602575831
 20
-142.6317762230226
 30
0.0
 10
115.5009602575831
 20
-142.6317762230226
 30
0.0
 10
115.5009602575831
 20
-142.4757133975408
 30
0.0
 10
115.5009602575831
 20
-142.4757133975408
 30
0.0
 10
115.5009602575831
 20
-142.4757133975408
 30
0.0
 10
117.0453965636206
 20
-142.4757133975408
 30
0.0
 10
117.0453965636206
 20
-142.4757133975408
 30
0.0
 10
117.0453965636206
 20
-142.4757133975408
 30
0.0
 10
117.0453965636206
 20
-142.7154920433142
 30
0.0
 10
117.0453965636206
 20
-142.7154920433142
 30
0.0
  0
HATCH
  5
76
330
71
100
AcDbEntity
  8
_U+30EC_U+30A4_U+30E4_U+30FC 1
 62
     7
420
 16777215
100
AcDbHatch
 10
0.0
 20
0.0
 30
0.0
210
0.0
220
0.0
230
1.0
  2
SOLID
 70
     1
 71
     0
 91
        1
 92
        1
 93
        1
 72
     4
 94
        3
 73
     0
 74
     1
 95
       26
 96
       22
 40
0.0
 40
0.0
 40
0.0
 40
0.0
 40
1.0
 40
1.0
 40
1.0
 40
2.0
 40
2.0
 40
2.0
 40
3.0
 40
3.0
 40
3.0
 40
4.0
 40
4.0
 40
4.0
 40
5.0
 40
5.0
 40
5.0
 40
6.0
 40
6.0
 40
6.0
 40
7.0
 40
7.0
 40
7.0
 40
7.0
 10
117.0453965636206
 20
-142.7154920433142
 10
117.0453965636206
 20
-142.7154920433142
 10
115.941243460598
 20
-142.7154920433142
 10
115.941243460598
 20
-142.7154920433142
 10
115.941243460598
 20
-142.7154920433142
 10
115.941243460598
 20
-143.0679253114552
 10
115.941243460598
 20
-143.0679253114552
 10
115.941243460598
 20
-143.0679253114552
 10
115.7931043547323
 20
-143.0679253114552
 10
115.7931043547323
 20
-143.0679253114552
 10
115.7782904441457
 20
-142.7130804764745
 10
115.6153374276934
 20
-142.6634711014869
 10
115.5009602575831
 20
-142.6317762230226
 10
115.5009602575831
 20
-142.6317762230226
 10
115.5009602575831
 20
-142.4757133975408
 10
115.5009602575831
 20
-142.4757133975408
 10
115.5009602575831
 20
-142.4757133975408
 10
117.0453965636206
 20
-142.4757133975408
 10
117.0453965636206
 20
-142.4757133975408
 10
117.0453965636206
 20
-142.4757133975408
 10
117.0453965636206
 20
-142.7154920433142
 10
117.0453965636206
 20
-142.7154920433142
 97
        0
 97
        0
 75
     2
 76
     1
 98
        0
  0
POLYLINE
  5
77
330
71
100
AcDbEntity
  8
_U+30EC_U+30A4_U+30E4_U+30FC 1
370
     0
100
AcDb2dPolyline
 66
     1
 10
0.0
 20
0.0
 30
0.0
  0
VERTEX
  5
78
330
77
100
AcDbEntity
  8
_U+30EC_U+30A4_U+30E4_U+30FC 1
370
     0
100
AcDbVertex
100
AcDb2dVertex
 10
117.0453965636206
 20
-141.8759222735588
 30
0.0
  0
VERTEX
  5
79
330
77
100
AcDbEntity
  8
_U+30EC_U+30A4_U+30E4_U+30FC 1
370
     0
100
AcDbVertex
100
AcDb2dVertex
 10
116.7935600836488
 20
-141.8759222735588
 30
0.0
  0
VERTEX
  5
7A
330
77
100
AcDbEntity
  8
_U+30EC_U+30A4_U+30E4_U+30FC 1
370
     0
100
AcDbVertex
100
AcDb2dVertex
 10
116.7935600836488
 20
-141.6068603161608
 30
0.0
  0
VERTEX
  5
7B
330
77
100
AcDbEntity
  8
_U+30EC_U+30A4_U+30E4_U+30FC 1
370
     0
100
AcDbVertex
100
AcDb2dVertex
 10
117.0453965636206
 20
-141.6068603161608
 30
0.0
  0
VERTEX
  5
7C
330
77
100
AcDbEntity
  8
_U+30EC_U+30A4_U+30E4_U+30FC 1
370
     0
100
AcDbVertex
100
AcDb2dVertex
 10
117.0453965636206
 20
-141.8759222735588
 30
0.0
  0
SEQEND
  5
7D
330
77
100
AcDbEntity
  8
_U+30EC_U+30A4_U+30E4_U+30FC 1
370
     0
  0
HATCH
  5
7E
330
71
100
AcDbEntity
  8
_U+30EC_U+30A4_U+30E4_U+30FC 1
 62
     7
420
 16777215
100
AcDbHatch
 10
0.0
 20
0.0
 30
0.0
210
0.0
220
0.0
230
1.0
  2
SOLID
 70
     1
 71
     0
 91
        1
 92
        1
 93
        4
 72
     1
 10
117.0453965636206
 20
-141.8759222735588
 11
116.7935600836488
 21
-141.8759222735588
 72
     1
 10
116.7935600836488
 20
-141.8759222735588
 11
116.7935600836488
 21
-141.6068603161608
 72
     1
 10
116.7935600836488
 20
-141.6068603161608
 11
117.0453965636206
 21
-141.6068603161608
 72
     1
 10
117.0453965636206
 20
-141.6068603161608
 11
117.0453965636206
 21
-141.8759222735588
 97
        0
 75
     2
 76
     1
 98
        0
  0
SPLINE
  5
7F
330
71
100
AcDbEntity
  8
_U+30EC_U+30A4_U+30E4_U+30FC 1
370
     0
100
AcDbSpline
210
0.0
220
0.0
230
1.0
 70
    11
 71
     3
 72
    53
 73
    49
 74
     0
 42
0.0000000001
 43
0.0000000001
 12
1.0
 22
0.0
 32
0.0
 13
1.0
 23
0.0
 33
0.0
 40
0.0
 40
0.0
 40
0.0
 40
0.0
 40
1.0
 40
1.0
 40
1.0
 40
2.0
 40
2.0
 40
2.0
 40
3.0
 40
3.0
 40
3.0
 40
4.0
 40
4.0
 40
4.0
 40
5.0
 40
5.0
 40
5.0
 40
6.0
 40
6.0
 40
6.0
 40
7.0
 40
7.0
 40
7.0
 40
8.0
 40
8.0
 40
8.0
 40
9.0
 40
9.0
 40
9.0
 40
10.0
 40
10.0
 40
10.0
 40
11.0
 40
11.0
 40
11.0
 40
12.0
 40
12.0
 40
12.0
 40
13.0
 40
13.0
 40
13.0
 40
14.0
 40
14.0
 40
14.0
 40
15.0
 40
15.0
 40
15.0
 40
16.0
 40
16.0
 40
16.0
 40
16.0
 10
117.0960394672538
 20
-140.8399820611442
 30
0.0
 10
117.0960394672538
 20
-140.9236978814357
 30
0.0
 10
117.079158499376
 20
-141.0318738796726
 30
0.0
 10
117.0157687424474
 20
-141.1407388970065
 30
0.0
 10
116.905870196468
 20
-141.3260850341129
 30
0.0
 10
116.77461205848
 20
-141.3484781547671
 30
0.0
 10
116.6667805697916
 20
-141.36880421813
 30
0.0
 10
116.6667805697916
 20
-141.36880421813
 30
0.0
 10
116.6667805697916
 20
-141.1314371391963
 30
0.0
 10
116.6667805697916
 20
-141.1314371391963
 30
0.0
 10
116.8655625792906
 20
-141.0728705159471
 30
0.0
 10
116.8951904004637
 20
-140.9371337538282
 30
0.0
 10
116.8951904004637
 20
-140.8375704943045
 30
0.0
 10
116.8951904004637
 20
-140.6883978597932
 30
0.0
 10
116.79562714094
 20
-140.5254448433409
 30
0.0
 10
116.5630831956856
 20
-140.5254448433409
 30
0.0
 10
116.3071126011316
 20
-140.5254448433409
 30
0.0
 10
116.237177162781
 20
-140.7176811714178
 30
0.0
 10
116.237177162781
 20
-140.8465277425661
 30
0.0
 10
116.237177162781
 20
-140.8806341878701
 30
0.0
 10
116.237177162781
 20
-141.0318738796726
 30
0.0
 10
116.3663682434779
 20
-141.1269585150655
 30
0.0
 10
116.3663682434779
 20
-141.1269585150655
 30
0.0
 10
116.347420218309
 20
-141.3147162190116
 30
0.0
 10
116.347420218309
 20
-141.3147162190116
 30
0.0
 10
116.347420218309
 20
-141.3147162190116
 30
0.0
 10
115.5009602575831
 20
-141.1858696478633
 30
0.0
 10
115.5009602575831
 20
-141.1858696478633
 30
0.0
 10
115.5009602575831
 20
-141.1858696478633
 30
0.0
 10
115.5009602575831
 20
-140.3538790881754
 30
0.0
 10
115.5009602575831
 20
-140.3538790881754
 30
0.0
 10
115.5009602575831
 20
-140.3538790881754
 30
0.0
 10
115.6956081524997
 20
-140.3538790881754
 30
0.0
 10
115.6956081524997
 20
-140.3538790881754
 30
0.0
 10
115.6956081524997
 20
-140.3538790881754
 30
0.0
 10
115.6956081524997
 20
-141.0115478163096
 30
0.0
 10
115.6956081524997
 20
-141.0115478163096
 30
0.0
 10
115.6956081524997
 20
-141.0115478163096
 30
0.0
 10
116.1186658780884
 20
-141.0818277642087
 30
0.0
 10
116.1186658780884
 20
-141.0818277642087
 30
0.0
 10
116.0849039423329
 20
-141.016370949989
 30
0.0
 10
116.0445963251555
 20
-140.9281765055666
 30
0.0
 10
116.0445963251555
 20
-140.8013969917094
 30
0.0
 10
116.0445963251555
 20
-140.5302679770202
 30
0.0
 10
116.2309759909075
 20
-140.2770534588544
 30
0.0
 10
116.5441351705168
 20
-140.2770534588544
 30
0.0
 10
116.8614284647083
 20
-140.2770534588544
 30
0.0
 10
117.0960394672538
 20
-140.5164875950792
 30
0.0
 10
117.0960394672538
 20
-140.8399820611442
 30
0.0
  0
HATCH
  5
80
330
71
100
AcDbEntity
  8
_U+30EC_U+30A4_U+30E4_U+30FC 1
 62
     7
420
 16777215
100
AcDbHatch
 10
0.0
 20
0.0
 30
0.0
210
0.0
220
0.0
230
1.0
  2
SOLID
 70
     1
 71
     0
 91
        1
 92
        1
 93
        1
 72
     4
 94
        3
 73
     0
 74
     1
 95
       53
 96
       49
 40
0.0
 40
0.0
 40
0.0
 40
0.0
 40
1.0
 40
1.0
 40
1.0
 40
2.0
 40
2.0
 40
2.0
 40
3.0
 40
3.0
 40
3.0
 40
4.0
 40
4.0
 40
4.0
 40
5.0
 40
5.0
 40
5.0
 40
6.0
 40
6.0
 40
6.0
 40
7.0
 40
7.0
 40
7.0
 40
8.0
 40
8.0
 40
8.0
 40
9.0
 40
9.0
 40
9.0
 40
10.0
 40
10.0
 40
10.0
 40
11.0
 40
11.0
 40
11.0
 40
12.0
 40
12.0
 40
12.0
 40
13.0
 40
13.0
 40
13.0
 40
14.0
 40
14.0
 40
14.0
 40
15.0
 40
15.0
 40
15.0
 40
16.0
 40
16.0
 40
16.0
 40
16.0
 10
117.0960394672538
 20
-140.8399820611442
 10
117.0960394672538
 20
-140.9236978814357
 10
117.079158499376
 20
-141.0318738796726
 10
117.0157687424474
 20
-141.1407388970065
 10
116.905870196468
 20
-141.3260850341129
 10
116.77461205848
 20
-141.3484781547671
 10
116.6667805697916
 20
-141.36880421813
 10
116.6667805697916
 20
-141.36880421813
 10
116.6667805697916
 20
-141.1314371391963
 10
116.6667805697916
 20
-141.1314371391963
 10
116.8655625792906
 20
-141.0728705159471
 10
116.8951904004637
 20
-140.9371337538282
 10
116.8951904004637
 20
-140.8375704943045
 10
116.8951904004637
 20
-140.6883978597932
 10
116.79562714094
 20
-140.5254448433409
 10
116.5630831956856
 20
-140.5254448433409
 10
116.3071126011316
 20
-140.5254448433409
 10
116.237177162781
 20
-140.7176811714178
 10
116.237177162781
 20
-140.8465277425661
 10
116.237177162781
 20
-140.8806341878701
 10
116.237177162781
 20
-141.0318738796726
 10
116.3663682434779
 20
-141.1269585150655
 10
116.3663682434779
 20
-141.1269585150655
 10
116.347420218309
 20
-141.3147162190116
 10
116.347420218309
 20
-141.3147162190116
 10
116.347420218309
 20
-141.3147162190116
 10
115.5009602575831
 20
-141.1858696478633
 10
115.5009602575831
 20
-141.1858696478633
 10
115.5009602575831
 20
-141.1858696478633
 10
115.5009602575831
 20
-140.3538790881754
 10
115.5009602575831
 20
-140.3538790881754
 10
115.5009602575831
 20
-140.3538790881754
 10
115.6956081524997
 20
-140.3538790881754
 10
115.6956081524997
 20
-140.3538790881754
 10
115.6956081524997
 20
-140.3538790881754
 10
115.6956081524997
 20
-141.0115478163096
 10
115.6956081524997
 20
-141.0115478163096
 10
115.6956081524997
 20
-141.0115478163096
 10
116.1186658780884
 20
-141.0818277642087
 10
116.1186658780884
 20
-141.0818277642087
 10
116.0849039423329
 20
-141.016370949989
 10
116.0445963251555
 20
-140.9281765055666
 10
116.0445963251555
 20
-140.8013969917094
 10
116.0445963251555
 20
-140.5302679770202
 10
116.2309759909075
 20
-140.2770534588544
 10
116.5441351705168
 20
-140.2770534588544
 10
116.8614284647083
 20
-140.2770534588544
 10
117.0960394672538
 20
-140.5164875950792
 10
117.0960394672538
 20
-140.8399820611442
 97
        0
 97
        0
 75
     2
 76
     1
 98
        0
  0
ENDBLK
  5
74
330
71
100
AcDbEntity
  8
0
100
AcDbBlockEnd
  0
BLOCK
  5
99
330
97
100
AcDbEntity
  8
0
100
AcDbBlockBegin
  2
block 3
 70
     0
 10
0.0
 20
0.0
 30
0.0
  3
block 3
  1

  0
SPLINE
  5
9B
330
97
100
AcDbEntity
  8
_U+30EC_U+30A4_U+30E4_U+30FC 1
370
     0
100
AcDbSpline
210
0.0
220
0.0
230
1.0
 70
    11
 71
     3
 72
    26
 73
    22
 74
     0
 42
0.0000000001
 43
0.0000000001
 12
1.0
 22
0.0
 32
0.0
 13
1.0
 23
0.0
 33
0.0
 40
0.0
 40
0.0
 40
0.0
 40
0.0
 40
1.0
 40
1.0
 40
1.0
 40
2.0
 40
2.0
 40
2.0
 40
3.0
 40
3.0
 40
3.0
 40
4.0
 40
4.0
 40
4.0
 40
5.0
 40
5.0
 40
5.0
 40
6.0
 40
6.0
 40
6.0
 40
7.0
 40
7.0
 40
7.0
 40
7.0
 10
117.0453965636206
 20
-127.4433837572017
 30
0.0
 10
117.0453965636206
 20
-127.4433837572017
 30
0.0
 10
115.941243460598
 20
-127.4433837572017
 30
0.0
 10
115.941243460598
 20
-127.4433837572017
 30
0.0
 10
115.941243460598
 20
-127.4433837572017
 30
0.0
 10
115.941243460598
 20
-127.7958170253427
 30
0.0
 10
115.941243460598
 20
-127.7958170253427
 30
0.0
 10
115.941243460598
 20
-127.7958170253427
 30
0.0
 10
115.7931043547323
 20
-127.7958170253427
 30
0.0
 10
115.7931043547323
 20
-127.7958170253427
 30
0.0
 10
115.7782904441457
 20
-127.440972190362
 30
0.0
 10
115.6153374276934
 20
-127.3913628153744
 30
0.0
 10
115.5009602575831
 20
-127.3596679369101
 30
0.0
 10
115.5009602575831
 20
-127.3596679369101
 30
0.0
 10
115.5009602575831
 20
-127.2036051114283
 30
0.0
 10
115.5009602575831
 20
-127.2036051114283
 30
0.0
 10
115.5009602575831
 20
-127.2036051114283
 30
0.0
 10
117.0453965636206
 20
-127.2036051114283
 30
0.0
 10
117.0453965636206
 20
-127.2036051114283
 30
0.0
 10
117.0453965636206
 20
-127.2036051114283
 30
0.0
 10
117.0453965636206
 20
-127.4433837572017
 30
0.0
 10
117.0453965636206
 20
-127.4433837572017
 30
0.0
  0
HATCH
  5
9C
330
97
100
AcDbEntity
  8
_U+30EC_U+30A4_U+30E4_U+30FC 1
 62
     7
420
 16777215
100
AcDbHatch
 10
0.0
 20
0.0
 30
0.0
210
0.0
220
0.0
230
1.0
  2
SOLID
 70
     1
 71
     0
 91
        1
 92
        1
 93
        1
 72
     4
 94
        3
 73
     0
 74
     1
 95
       26
 96
       22
 40
0.0
 40
0.0
 40
0.0
 40
0.0
 40
1.0
 40
1.0
 40
1.0
 40
2.0
 40
2.0
 40
2.0
 40
3.0
 40
3.0
 40
3.0
 40
4.0
 40
4.0
 40
4.0
 40
5.0
 40
5.0
 40
5.0
 40
6.0
 40
6.0
 40
6.0
 40
7.0
 40
7.0
 40
7.0
 40
7.0
 10
117.0453965636206
 20
-127.4433837572017
 10
117.0453965636206
 20
-127.4433837572017
 10
115.941243460598
 20
-127.4433837572017
 10
115.941243460598
 20
-127.4433837572017
 10
115.941243460598
 20
-127.4433837572017
 10
115.941243460598
 20
-127.7958170253427
 10
115.941243460598
 20
-127.7958170253427
 10
115.941243460598
 20
-127.7958170253427
 10
115.7931043547323
 20
-127.7958170253427
 10
115.7931043547323
 20
-127.7958170253427
 10
115.7782904441457
 20
-127.440972190362
 10
115.6153374276934
 20
-127.3913628153744
 10
115.5009602575831
 20
-127.3596679369101
 10
115.5009602575831
 20
-127.3596679369101
 10
115.5009602575831
 20
-127.2036051114283
 10
115.5009602575831
 20
-127.2036051114283
 10
115.5009602575831
 20
-127.2036051114283
 10
117.0453965636206
 20
-127.2036051114283
 10
117.0453965636206
 20
-127.2036051114283
 10
117.0453965636206
 20
-127.2036051114283
 10
117.0453965636206
 20
-127.4433837572017
 10
117.0453965636206
 20
-127.4433837572017
 97
        0
 97
        0
 75
     2
 76
     1
 98
        0
  0
ENDBLK
  5
9A
330
97
100
AcDbEntity
  8
0
100
AcDbBlockEnd
  0
BLOCK
  5
9F
330
9D
100
AcDbEntity
  8
0
100
AcDbBlockBegin
  2
block 4
 70
     0
 10
0.0
 20
0.0
 30
0.0
  3
block 4
  1

  0
SPLINE
  5
A1
330
9D
100
AcDbEntity
  8
_U+30EC_U+30A4_U+30E4_U+30FC 1
370
     0
100
AcDbSpline
210
0.0
220
0.0
230
1.0
 70
    11
 71
     3
 72
    44
 73
    40
 74
     0
 42
0.0000000001
 43
0.0000000001
 12
1.0
 22
0.0
 32
0.0
 13
1.0
 23
0.0
 33
0.0
 40
0.0
 40
0.0
 40
0.0
 40
0.0
 40
1.0
 40
1.0
 40
1.0
 40
2.0
 40
2.0
 40
2.0
 40
3.0
 40
3.0
 40
3.0
 40
4.0
 40
4.0
 40
4.0
 40
5.0
 40
5.0
 40
5.0
 40
6.0
 40
6.0
 40
6.0
 40
7.0
 40
7.0
 40
7.0
 40
8.0
 40
8.0
 40
8.0
 40
9.0
 40
9.0
 40
9.0
 40
10.0
 40
10.0
 40
10.0
 40
11.0
 40
11.0
 40
11.0
 40
12.0
 40
12.0
 40
12.0
 40
13.0
 40
13.0
 40
13.0
 40
13.0
 10
116.4635199361619
 20
-114.9204616683185
 30
0.0
 10
116.6223388380319
 20
-115.1533501231214
 30
0.0
 10
116.6964083909648
 20
-115.2529133826451
 30
0.0
 10
116.8400688726997
 20
-115.3045898149239
 30
0.0
 10
116.8400688726997
 20
-115.3045898149239
 30
0.0
 10
116.8400688726997
 20
-114.4729437647845
 30
0.0
 10
116.8400688726997
 20
-114.4729437647845
 30
0.0
 10
116.8400688726997
 20
-114.4729437647845
 30
0.0
 10
117.0453965636206
 20
-114.4729437647845
 30
0.0
 10
117.0453965636206
 20
-114.4729437647845
 30
0.0
 10
117.0453965636206
 20
-114.4729437647845
 30
0.0
 10
117.0453965636206
 20
-115.5715847150307
 30
0.0
 10
117.0453965636206
 20
-115.5715847150307
 30
0.0
 10
116.6877956522517
 20
-115.5374782697267
 30
0.0
 10
116.6095919847365
 20
-115.4675428313762
 30
0.0
 10
116.3112467157139
 20
-115.0561984304373
 30
0.0
 10
116.112464706215
 20
-114.7826578489085
 30
0.0
 10
116.0445963251555
 20
-114.7123779010094
 30
0.0
 10
115.9071370152941
 20
-114.7123779010094
 30
0.0
 10
115.7886257306015
 20
-114.7123779010094
 30
0.0
 10
115.657712102162
 20
-114.7892035303305
 30
0.0
 10
115.657712102162
 20
-114.9996988644792
 30
0.0
 10
115.657712102162
 20
-115.2777180701389
 30
0.0
 10
115.8881889901252
 20
-115.2866753184006
 30
0.0
 10
116.0046332175266
 20
-115.2911539425314
 30
0.0
 10
116.0046332175266
 20
-115.2911539425314
 30
0.0
 10
116.0046332175266
 20
-115.5309325883048
 30
0.0
 10
116.0046332175266
 20
-115.5309325883048
 30
0.0
 10
115.8775091941209
 20
-115.5216308304946
 30
0.0
 10
115.7655435908503
 20
-115.5106065249418
 30
0.0
 10
115.6470323061577
 20
-115.4244791378106
 30
0.0
 10
115.4861463469965
 20
-115.3070013817635
 30
0.0
 10
115.4523844112411
 20
-115.1082193722646
 30
0.0
 10
115.4523844112411
 20
-114.9838514252471
 30
0.0
 10
115.4523844112411
 20
-114.6875732135156
 30
0.0
 10
115.6363525101534
 20
-114.4660535738141
 30
0.0
 10
115.9092040725852
 20
-114.4660535738141
 30
0.0
 10
116.1379584128058
 20
-114.4660535738141
 30
0.0
 10
116.237177162781
 20
-114.5904215208316
 30
0.0
 10
116.4635199361619
 20
-114.9204616683185
 30
0.0
  0
HATCH
  5
A2
330
9D
100
AcDbEntity
  8
_U+30EC_U+30A4_U+30E4_U+30FC 1
 62
     7
420
 16777215
100
AcDbHatch
 10
0.0
 20
0.0
 30
0.0
210
0.0
220
0.0
230
1.0
  2
SOLID
 70
     1
 71
     0
 91
        1
 92
        1
 93
        1
 72
     4
 94
        3
 73
     0
 74
     1
 95
       44
 96
       40
 40
0.0
 40
0.0
 40
0.0
 40
0.0
 40
1.0
 40
1.0
 40
1.0
 40
2.0
 40
2.0
 40
2.0
 40
3.0
 40
3.0
 40
3.0
 40
4.0
 40
4.0
 40
4.0
 40
5.0
 40
5.0
 40
5.0
 40
6.0
 40
6.0
 40
6.0
 40
7.0
 40
7.0
 40
7.0
 40
8.0
 40
8.0
 40
8.0
 40
9.0
 40
9.0
 40
9.0
 40
10.0
 40
10.0
 40
10.0
 40
11.0
 40
11.0
 40
11.0
 40
12.0
 40
12.0
 40
12.0
 40
13.0
 40
13.0
 40
13.0
 40
13.0
 10
116.4635199361619
 20
-114.9204616683185
 10
116.6223388380319
 20
-115.1533501231214
 10
116.6964083909648
 20
-115.2529133826451
 10
116.8400688726997
 20
-115.3045898149239
 10
116.8400688726997
 20
-115.3045898149239
 10
116.8400688726997
 20
-114.4729437647845
 10
116.8400688726997
 20
-114.4729437647845
 10
116.8400688726997
 20
-114.4729437647845
 10
117.0453965636206
 20
-114.4729437647845
 10
117.0453965636206
 20
-114.4729437647845
 10
117.0453965636206
 20
-114.4729437647845
 10
117.0453965636206
 20
-115.5715847150307
 10
117.0453965636206
 20
-115.5715847150307
 10
116.6877956522517
 20
-115.5374782697267
 10
116.6095919847365
 20
-115.4675428313762
 10
116.3112467157139
 20
-115.0561984304373
 10
116.112464706215
 20
-114.7826578489085
 10
116.0445963251555
 20
-114.7123779010094
 10
115.9071370152941
 20
-114.7123779010094
 10
115.7886257306015
 20
-114.7123779010094
 10
115.657712102162
 20
-114.7892035303305
 10
115.657712102162
 20
-114.9996988644792
 10
115.657712102162
 20
-115.2777180701389
 10
115.8881889901252
 20
-115.2866753184006
 10
116.0046332175266
 20
-115.2911539425314
 10
116.0046332175266
 20
-115.2911539425314
 10
116.0046332175266
 20
-115.5309325883048
 10
116.0046332175266
 20
-115.5309325883048
 10
115.8775091941209
 20
-115.5216308304946
 10
115.7655435908503
 20
-115.5106065249418
 10
115.6470323061577
 20
-115.4244791378106
 10
115.4861463469965
 20
-115.3070013817635
 10
115.4523844112411
 20
-115.1082193722646
 10
115.4523844112411
 20
-114.9838514252471
 10
115.4523844112411
 20
-114.6875732135156
 10
115.6363525101534
 20
-114.4660535738141
 10
115.9092040725852
 20
-114.4660535738141
 10
116.1379584128058
 20
-114.4660535738141
 10
116.237177162781
 20
-114.5904215208316
 10
116.4635199361619
 20
-114.9204616683185
 97
        0
 97
        0
 75
     2
 76
     1
 98
        0
  0
SPLINE
  5
A3
330
9D
100
AcDbEntity
  8
_U+30EC_U+30A4_U+30E4_U+30FC 1
370
     0
100
AcDbSpline
210
0.0
220
0.0
230
1.0
 70
    11
 71
     3
 72
    53
 73
    49
 74
     0
 42
0.0000000001
 43
0.0000000001
 12
1.0
 22
0.0
 32
0.0
 13
1.0
 23
0.0
 33
0.0
 40
0.0
 40
0.0
 40
0.0
 40
0.0
 40
1.0
 40
1.0
 40
1.0
 40
2.0
 40
2.0
 40
2.0
 40
3.0
 40
3.0
 40
3.0
 40
4.0
 40
4.0
 40
4.0
 40
5.0
 40
5.0
 40
5.0
 40
6.0
 40
6.0
 40
6.0
 40
7.0
 40
7.0
 40
7.0
 40
8.0
 40
8.0
 40
8.0
 40
9.0
 40
9.0
 40
9.0
 40
10.0
 40
10.0
 40
10.0
 40
11.0
 40
11.0
 40
11.0
 40
12.0
 40
12.0
 40
12.0
 40
13.0
 40
13.0
 40
13.0
 40
14.0
 40
14.0
 40
14.0
 40
15.0
 40
15.0
 40
15.0
 40
16.0
 40
16.0
 40
16.0
 40
16.0
 10
117.0960394672538
 20
-113.7825466295405
 30
0.0
 10
117.0960394672538
 20
-113.8659179402835
 30
0.0
 10
117.079158499376
 20
-113.9747829576174
 30
0.0
 10
117.0157687424474
 20
-114.0829589558543
 30
0.0
 10
116.905870196468
 20
-114.2686496025092
 30
0.0
 10
116.77461205848
 20
-114.2910427231634
 30
0.0
 10
116.6667805697916
 20
-114.3113687865263
 30
0.0
 10
116.6667805697916
 20
-114.3113687865263
 30
0.0
 10
116.6667805697916
 20
-114.0740017075926
 30
0.0
 10
116.6667805697916
 20
-114.0740017075926
 30
0.0
 10
116.8655625792906
 20
-114.0154350843434
 30
0.0
 10
116.8951904004637
 20
-113.8796983222245
 30
0.0
 10
116.8951904004637
 20
-113.7801350627008
 30
0.0
 10
116.8951904004637
 20
-113.6309624281895
 30
0.0
 10
116.79562714094
 20
-113.4683539212857
 30
0.0
 10
116.5630831956856
 20
-113.4683539212857
 30
0.0
 10
116.3071126011316
 20
-113.4683539212857
 30
0.0
 10
116.237177162781
 20
-113.6602457398141
 30
0.0
 10
116.237177162781
 20
-113.7890923109625
 30
0.0
 10
116.237177162781
 20
-113.8231987562664
 30
0.0
 10
116.237177162781
 20
-113.9747829576174
 30
0.0
 10
116.3663682434779
 20
-114.0695230834618
 30
0.0
 10
116.3663682434779
 20
-114.0695230834618
 30
0.0
 10
116.347420218309
 20
-114.2572807874079
 30
0.0
 10
116.347420218309
 20
-114.2572807874079
 30
0.0
 10
116.347420218309
 20
-114.2572807874079
 30
0.0
 10
115.5009602575831
 20
-114.1284342162596
 30
0.0
 10
115.5009602575831
 20
-114.1284342162596
 30
0.0
 10
115.5009602575831
 20
-114.1284342162596
 30
0.0
 10
115.5009602575831
 20
-113.2964436565717
 30
0.0
 10
115.5009602575831
 20
-113.2964436565717
 30
0.0
 10
115.5009602575831
 20
-113.2964436565717
 30
0.0
 10
115.6956081524997
 20
-113.2964436565717
 30
0.0
 10
115.6956081524997
 20
-113.2964436565717
 30
0.0
 10
115.6956081524997
 20
-113.2964436565717
 30
0.0
 10
115.6956081524997
 20
-113.9541123847059
 30
0.0
 10
115.6956081524997
 20
-113.9541123847059
 30
0.0
 10
115.6956081524997
 20
-113.9541123847059
 30
0.0
 10
116.1186658780884
 20
-114.024392332605
 30
0.0
 10
116.1186658780884
 20
-114.024392332605
 30
0.0
 10
116.0849039423329
 20
-113.9589355183853
 30
0.0
 10
116.0445963251555
 20
-113.8707410739629
 30
0.0
 10
116.0445963251555
 20
-113.7439615601057
 30
0.0
 10
116.0445963251555
 20
-113.4728325454165
 30
0.0
 10
116.2309759909075
 20
-113.2196180272507
 30
0.0
 10
116.5441351705168
 20
-113.2196180272507
 30
0.0
 10
116.8614284647083
 20
-113.2196180272507
 30
0.0
 10
117.0960394672538
 20
-113.4590521634755
 30
0.0
 10
117.0960394672538
 20
-113.7825466295405
 30
0.0
  0
HATCH
  5
A4
330
9D
100
AcDbEntity
  8
_U+30EC_U+30A4_U+30E4_U+30FC 1
 62
     7
420
 16777215
100
AcDbHatch
 10
0.0
 20
0.0
 30
0.0
210
0.0
220
0.0
230
1.0
  2
SOLID
 70
     1
 71
     0
 91
        1
 92
        1
 93
        1
 72
     4
 94
        3
 73
     0
 74
     1
 95
       53
 96
       49
 40
0.0
 40
0.0
 40
0.0
 40
0.0
 40
1.0
 40
1.0
 40
1.0
 40
2.0
 40
2.0
 40
2.0
 40
3.0
 40
3.0
 40
3.0
 40
4.0
 40
4.0
 40
4.0
 40
5.0
 40
5.0
 40
5.0
 40
6.0
 40
6.0
 40
6.0
 40
7.0
 40
7.0
 40
7.0
 40
8.0
 40
8.0
 40
8.0
 40
9.0
 40
9.0
 40
9.0
 40
10.0
 40
10.0
 40
10.0
 40
11.0
 40
11.0
 40
11.0
 40
12.0
 40
12.0
 40
12.0
 40
13.0
 40
13.0
 40
13.0
 40
14.0
 40
14.0
 40
14.0
 40
15.0
 40
15.0
 40
15.0
 40
16.0
 40
16.0
 40
16.0
 40
16.0
 10
117.0960394672538
 20
-113.7825466295405
 10
117.0960394672538
 20
-113.8659179402835
 10
117.079158499376
 20
-113.9747829576174
 10
117.0157687424474
 20
-114.0829589558543
 10
116.905870196468
 20
-114.2686496025092
 10
116.77461205848
 20
-114.2910427231634
 10
116.6667805697916
 20
-114.3113687865263
 10
116.6667805697916
 20
-114.3113687865263
 10
116.6667805697916
 20
-114.0740017075926
 10
116.6667805697916
 20
-114.0740017075926
 10
116.8655625792906
 20
-114.0154350843434
 10
116.8951904004637
 20
-113.8796983222245
 10
116.8951904004637
 20
-113.7801350627008
 10
116.8951904004637
 20
-113.6309624281895
 10
116.79562714094
 20
-113.4683539212857
 10
116.5630831956856
 20
-113.4683539212857
 10
116.3071126011316
 20
-113.4683539212857
 10
116.237177162781
 20
-113.6602457398141
 10
116.237177162781
 20
-113.7890923109625
 10
116.237177162781
 20
-113.8231987562664
 10
116.237177162781
 20
-113.9747829576174
 10
116.3663682434779
 20
-114.0695230834618
 10
116.3663682434779
 20
-114.0695230834618
 10
116.347420218309
 20
-114.2572807874079
 10
116.347420218309
 20
-114.2572807874079
 10
116.347420218309
 20
-114.2572807874079
 10
115.5009602575831
 20
-114.1284342162596
 10
115.5009602575831
 20
-114.1284342162596
 10
115.5009602575831
 20
-114.1284342162596
 10
115.5009602575831
 20
-113.2964436565717
 10
115.5009602575831
 20
-113.2964436565717
 10
115.5009602575831
 20
-113.2964436565717
 10
115.6956081524997
 20
-113.2964436565717
 10
115.6956081524997
 20
-113.2964436565717
 10
115.6956081524997
 20
-113.2964436565717
 10
115.6956081524997
 20
-113.9541123847059
 10
115.6956081524997
 20
-113.9541123847059
 10
115.6956081524997
 20
-113.9541123847059
 10
116.1186658780884
 20
-114.024392332605
 10
116.1186658780884
 20
-114.024392332605
 10
116.0849039423329
 20
-113.9589355183853
 10
116.0445963251555
 20
-113.8707410739629
 10
116.0445963251555
 20
-113.7439615601057
 10
116.0445963251555
 20
-113.4728325454165
 10
116.2309759909075
 20
-113.2196180272507
 10
116.5441351705168
 20
-113.2196180272507
 10
116.8614284647083
 20
-113.2196180272507
 10
117.0960394672538
 20
-113.4590521634755
 10
117.0960394672538
 20
-113.7825466295405
 97
        0
 97
        0
 75
     2
 76
     1
 98
        0
  0
ENDBLK
  5
A0
330
9D
100
AcDbEntity
  8
0
100
AcDbBlockEnd
  0
BLOCK
  5
AF
330
AD
100
AcDbEntity
  8
0
100
AcDbBlockBegin
  2
block 5
 70
     0
 10
0.0
 20
0.0
 30
0.0
  3
block 5
  1

  0
SPLINE
  5
B1
330
AD
100
AcDbEntity
  8
_U+30EC_U+30A4_U+30E4_U+30FC 1
370
     0
100
AcDbSpline
210
0.0
220
0.0
230
1.0
 70
    11
 71
     3
 72
    26
 73
    22
 74
     0
 42
0.0000000001
 43
0.0000000001
 12
1.0
 22
0.0
 32
0.0
 13
1.0
 23
0.0
 33
0.0
 40
0.0
 40
0.0
 40
0.0
 40
0.0
 40
1.0
 40
1.0
 40
1.0
 40
2.0
 40
2.0
 40
2.0
 40
3.0
 40
3.0
 40
3.0
 40
4.0
 40
4.0
 40
4.0
 40
5.0
 40
5.0
 40
5.0
 40
6.0
 40
6.0
 40
6.0
 40
7.0
 40
7.0
 40
7.0
 40
7.0
 10
113.1651855185837
 20
-135.0715141806419
 30
0.0
 10
113.1651855185837
 20
-135.0715141806419
 30
0.0
 10
112.0610324155611
 20
-135.0715141806419
 30
0.0
 10
112.0610324155611
 20
-135.0715141806419
 30
0.0
 10
112.0610324155611
 20
-135.0715141806419
 30
0.0
 10
112.0610324155611
 20
-135.4239474487829
 30
0.0
 10
112.0610324155611
 20
-135.4239474487829
 30
0.0
 10
112.0610324155611
 20
-135.4239474487829
 30
0.0
 10
111.9128933096954
 20
-135.4239474487829
 30
0.0
 10
111.9128933096954
 20
-135.4239474487829
 30
0.0
 10
111.8980793991088
 20
-135.0691026138022
 30
0.0
 10
111.7351263826565
 20
-135.0194932388146
 30
0.0
 10
111.6207492125462
 20
-134.9877983603503
 30
0.0
 10
111.6207492125462
 20
-134.9877983603503
 30
0.0
 10
111.6207492125462
 20
-134.8317355348685
 30
0.0
 10
111.6207492125462
 20
-134.8317355348685
 30
0.0
 10
111.6207492125462
 20
-134.8317355348685
 30
0.0
 10
113.1651855185837
 20
-134.8317355348685
 30
0.0
 10
113.1651855185837
 20
-134.8317355348685
 30
0.0
 10
113.1651855185837
 20
-134.8317355348685
 30
0.0
 10
113.1651855185837
 20
-135.0715141806419
 30
0.0
 10
113.1651855185837
 20
-135.0715141806419
 30
0.0
  0
HATCH
  5
B2
330
AD
100
AcDbEntity
  8
_U+30EC_U+30A4_U+30E4_U+30FC 1
 62
     7
420
 16777215
100
AcDbHatch
 10
0.0
 20
0.0
 30
0.0
210
0.0
220
0.0
230
1.0
  2
SOLID
 70
     1
 71
     0
 91
        1
 92
        1
 93
        1
 72
     4
 94
        3
 73
     0
 74
     1
 95
       26
 96
       22
 40
0.0
 40
0.0
 40
0.0
 40
0.0
 40
1.0
 40
1.0
 40
1.0
 40
2.0
 40
2.0
 40
2.0
 40
3.0
 40
3.0
 40
3.0
 40
4.0
 40
4.0
 40
4.0
 40
5.0
 40
5.0
 40
5.0
 40
6.0
 40
6.0
 40
6.0
 40
7.0
 40
7.0
 40
7.0
 40
7.0
 10
113.1651855185837
 20
-135.0715141806419
 10
113.1651855185837
 20
-135.0715141806419
 10
112.0610324155611
 20
-135.0715141806419
 10
112.0610324155611
 20
-135.0715141806419
 10
112.0610324155611
 20
-135.0715141806419
 10
112.0610324155611
 20
-135.4239474487829
 10
112.0610324155611
 20
-135.4239474487829
 10
112.0610324155611
 20
-135.4239474487829
 10
111.9128933096954
 20
-135.4239474487829
 10
111.9128933096954
 20
-135.4239474487829
 10
111.8980793991088
 20
-135.0691026138022
 10
111.7351263826565
 20
-135.0194932388146
 10
111.6207492125462
 20
-134.9877983603503
 10
111.6207492125462
 20
-134.9877983603503
 10
111.6207492125462
 20
-134.8317355348685
 10
111.6207492125462
 20
-134.8317355348685
 10
111.6207492125462
 20
-134.8317355348685
 10
113.1651855185837
 20
-134.8317355348685
 10
113.1651855185837
 20
-134.8317355348685
 10
113.1651855185837
 20
-134.8317355348685
 10
113.1651855185837
 20
-135.0715141806419
 10
113.1651855185837
 20
-135.0715141806419
 97
        0
 97
        0
 75
     2
 76
     1
 98
        0
  0
SPLINE
  5
B3
330
AD
100
AcDbEntity
  8
_U+30EC_U+30A4_U+30E4_U+30FC 1
370
     0
100
AcDbSpline
210
0.0
220
0.0
230
1.0
 70
    11
 71
     3
 72
    62
 73
    58
 74
     0
 42
0.0000000001
 43
0.0000000001
 12
1.0
 22
0.0
 32
0.0
 13
1.0
 23
0.0
 33
0.0
 40
0.0
 40
0.0
 40
0.0
 40
0.0
 40
1.0
 40
1.0
 40
1.0
 40
2.0
 40
2.0
 40
2.0
 40
3.0
 40
3.0
 40
3.0
 40
4.0
 40
4.0
 40
4.0
 40
5.0
 40
5.0
 40
5.0
 40
6.0
 40
6.0
 40
6.0
 40
7.0
 40
7.0
 40
7.0
 40
8.0
 40
8.0
 40
8.0
 40
9.0
 40
9.0
 40
9.0
 40
10.0
 40
10.0
 40
10.0
 40
11.0
 40
11.0
 40
11.0
 40
12.0
 40
12.0
 40
12.0
 40
13.0
 40
13.0
 40
13.0
 40
14.0
 40
14.0
 40
14.0
 40
15.0
 40
15.0
 40
15.0
 40
16.0
 40
16.0
 40
16.0
 40
17.0
 40
17.0
 40
17.0
 40
18.0
 40
18.0
 40
18.0
 40
19.0
 40
19.0
 40
19.0
 40
19.0
 10
113.2158284222169
 20
-133.7706461254115
 30
0.0
 10
113.2158284222169
 20
-133.8722764422264
 30
0.0
 10
113.1948133397569
 20
-134.1051648970293
 30
0.0
 10
113.0087781835534
 20
-134.2384900923084
 30
0.0
 10
112.8964680707342
 20
-134.3177272884692
 30
0.0
 10
112.797249320759
 20
-134.3222059126
 30
0.0
 10
112.7124999718219
 20
-134.3266845367308
 30
0.0
 10
112.7124999718219
 20
-134.3266845367308
 30
0.0
 10
112.7124999718219
 20
-134.0917290246368
 30
0.0
 10
112.7124999718219
 20
-134.0917290246368
 30
0.0
 10
112.7865695247548
 20
-134.0893174577971
 30
0.0
 10
113.0211805273003
 20
-134.0779486426958
 30
0.0
 10
113.0211805273003
 20
-133.7751247495423
 30
0.0
 10
113.0211805273003
 20
-133.6280191723222
 30
0.0
 10
112.9515895984982
 20
-133.4654106654184
 30
0.0
 10
112.7231797678262
 20
-133.4654106654184
 30
0.0
 10
112.6067355404247
 20
-133.4654106654184
 30
0.0
 10
112.5581596940827
 20
-133.5060627921443
 30
0.0
 10
112.5264648156184
 20
-133.5398247278998
 30
0.0
 10
112.4523952626855
 20
-133.6190619240605
 30
0.0
 10
112.4396484093901
 20
-133.743429871078
 30
0.0
 10
112.4396484093901
 20
-133.8023410038758
 30
0.0
 10
112.4396484093901
 20
-133.8226670672388
 30
0.0
 10
112.4417154666812
 20
-133.860907627125
 30
0.0
 10
112.4458495812635
 20
-133.8905354482982
 30
0.0
 10
112.4458495812635
 20
-133.8905354482982
 30
0.0
 10
112.2512016863469
 20
-133.8905354482982
 30
0.0
 10
112.2512016863469
 20
-133.8905354482982
 30
0.0
 10
112.2577473677689
 20
-133.8495388120237
 30
0.0
 10
112.2598144250601
 20
-133.804408061167
 30
0.0
 10
112.2598144250601
 20
-133.797862379745
 30
0.0
 10
112.2598144250601
 20
-133.7275824318459
 30
0.0
 10
112.2384548330515
 20
-133.515020040406
 30
0.0
 10
112.0017767732148
 20
-133.515020040406
 30
0.0
 10
111.8240098461759
 20
-133.515020040406
 30
0.0
 10
111.768888318412
 20
-133.6552354266557
 30
0.0
 10
111.768888318412
 20
-133.7727131827027
 30
0.0
 10
111.768888318412
 20
-134.0555555220417
 30
0.0
 10
112.0017767732148
 20
-134.0645127703033
 30
0.0
 10
112.073434759308
 20
-134.0689913944341
 30
0.0
 10
112.073434759308
 20
-134.0689913944341
 30
0.0
 10
112.073434759308
 20
-134.2860324100049
 30
0.0
 10
112.073434759308
 20
-134.2860324100049
 30
0.0
 10
111.948722302742
 20
-134.2770751617432
 30
0.0
 10
111.5721733662042
 20
-134.2474473405701
 30
0.0
 10
111.5721733662042
 20
-133.7592773103102
 30
0.0
 10
111.5721733662042
 20
-133.5194986645368
 30
0.0
 10
111.6992973896099
 20
-133.2618055222401
 30
0.0
 10
111.9952310917929
 20
-133.2618055222401
 30
0.0
 10
112.1816107575449
 20
-133.2618055222401
 30
0.0
 10
112.2639485396424
 20
-133.3637803486035
 30
0.0
 10
112.3252712392798
 20
-133.4698892895492
 30
0.0
 10
112.3528320031618
 20
-133.4044324753295
 30
0.0
 10
112.4331027279681
 20
-133.2097845804128
 30
0.0
 10
112.7104329145307
 20
-133.2097845804128
 30
0.0
 10
113.0487412911823
 20
-133.2097845804128
 30
0.0
 10
113.2158284222169
 20
-133.47436791368
 30
0.0
 10
113.2158284222169
 20
-133.7706461254115
 30
0.0
  0
HATCH
  5
B4
330
AD
100
AcDbEntity
  8
_U+30EC_U+30A4_U+30E4_U+30FC 1
 62
     7
420
 16777215
100
AcDbHatch
 10
0.0
 20
0.0
 30
0.0
210
0.0
220
0.0
230
1.0
  2
SOLID
 70
     1
 71
     0
 91
        1
 92
        1
 93
        1
 72
     4
 94
        3
 73
     0
 74
     1
 95
       62
 96
       58
 40
0.0
 40
0.0
 40
0.0
 40
0.0
 40
1.0
 40
1.0
 40
1.0
 40
2.0
 40
2.0
 40
2.0
 40
3.0
 40
3.0
 40
3.0
 40
4.0
 40
4.0
 40
4.0
 40
5.0
 40
5.0
 40
5.0
 40
6.0
 40
6.0
 40
6.0
 40
7.0
 40
7.0
 40
7.0
 40
8.0
 40
8.0
 40
8.0
 40
9.0
 40
9.0
 40
9.0
 40
10.0
 40
10.0
 40
10.0
 40
11.0
 40
11.0
 40
11.0
 40
12.0
 40
12.0
 40
12.0
 40
13.0
 40
13.0
 40
13.0
 40
14.0
 40
14.0
 40
14.0
 40
15.0
 40
15.0
 40
15.0
 40
16.0
 40
16.0
 40
16.0
 40
17.0
 40
17.0
 40
17.0
 40
18.0
 40
18.0
 40
18.0
 40
19.0
 40
19.0
 40
19.0
 40
19.0
 10
113.2158284222169
 20
-133.7706461254115
 10
113.2158284222169
 20
-133.8722764422264
 10
113.1948133397569
 20
-134.1051648970293
 10
113.0087781835534
 20
-134.2384900923084
 10
112.8964680707342
 20
-134.3177272884692
 10
112.797249320759
 20
-134.3222059126
 10
112.7124999718219
 20
-134.3266845367308
 10
112.7124999718219
 20
-134.3266845367308
 10
112.7124999718219
 20
-134.0917290246368
 10
112.7124999718219
 20
-134.0917290246368
 10
112.7865695247548
 20
-134.0893174577971
 10
113.0211805273003
 20
-134.0779486426958
 10
113.0211805273003
 20
-133.7751247495423
 10
113.0211805273003
 20
-133.6280191723222
 10
112.9515895984982
 20
-133.4654106654184
 10
112.7231797678262
 20
-133.4654106654184
 10
112.6067355404247
 20
-133.4654106654184
 10
112.5581596940827
 20
-133.5060627921443
 10
112.5264648156184
 20
-133.5398247278998
 10
112.4523952626855
 20
-133.6190619240605
 10
112.4396484093901
 20
-133.743429871078
 10
112.4396484093901
 20
-133.8023410038758
 10
112.4396484093901
 20
-133.8226670672388
 10
112.4417154666812
 20
-133.860907627125
 10
112.4458495812635
 20
-133.8905354482982
 10
112.4458495812635
 20
-133.8905354482982
 10
112.2512016863469
 20
-133.8905354482982
 10
112.2512016863469
 20
-133.8905354482982
 10
112.2577473677689
 20
-133.8495388120237
 10
112.2598144250601
 20
-133.804408061167
 10
112.2598144250601
 20
-133.797862379745
 10
112.2598144250601
 20
-133.7275824318459
 10
112.2384548330515
 20
-133.515020040406
 10
112.0017767732148
 20
-133.515020040406
 10
111.8240098461759
 20
-133.515020040406
 10
111.768888318412
 20
-133.6552354266557
 10
111.768888318412
 20
-133.7727131827027
 10
111.768888318412
 20
-134.0555555220417
 10
112.0017767732148
 20
-134.0645127703033
 10
112.073434759308
 20
-134.0689913944341
 10
112.073434759308
 20
-134.0689913944341
 10
112.073434759308
 20
-134.2860324100049
 10
112.073434759308
 20
-134.2860324100049
 10
111.948722302742
 20
-134.2770751617432
 10
111.5721733662042
 20
-134.2474473405701
 10
111.5721733662042
 20
-133.7592773103102
 10
111.5721733662042
 20
-133.5194986645368
 10
111.6992973896099
 20
-133.2618055222401
 10
111.9952310917929
 20
-133.2618055222401
 10
112.1816107575449
 20
-133.2618055222401
 10
112.2639485396424
 20
-133.3637803486035
 10
112.3252712392798
 20
-133.4698892895492
 10
112.3528320031618
 20
-133.4044324753295
 10
112.4331027279681
 20
-133.2097845804128
 10
112.7104329145307
 20
-133.2097845804128
 10
113.0487412911823
 20
-133.2097845804128
 10
113.2158284222169
 20
-133.47436791368
 10
113.2158284222169
 20
-133.7706461254115
 97
        0
 97
        0
 75
     2
 76
     1
 98
        0
  0
ENDBLK
  5
B0
330
AD
100
AcDbEntity
  8
0
100
AcDbBlockEnd
  0
BLOCK
  5
B7
330
B5
100
AcDbEntity
  8
0
100
AcDbBlockBegin
  2
block 6
 70
     0
 10
0.0
 20
0.0
 30
0.0
  3
block 6
  1

  0
SPLINE
  5
B9
330
B5
100
AcDbEntity
  8
_U+30EC_U+30A4_U+30E4_U+30FC 1
370
     0
100
AcDbSpline
210
0.0
220
0.0
230
1.0
 70
    11
 71
     3
 72
    26
 73
    22
 74
     0
 42
0.0000000001
 43
0.0000000001
 12
1.0
 22
0.0
 32
0.0
 13
1.0
 23
0.0
 33
0.0
 40
0.0
 40
0.0
 40
0.0
 40
0.0
 40
1.0
 40
1.0
 40
1.0
 40
2.0
 40
2.0
 40
2.0
 40
3.0
 40
3.0
 40
3.0
 40
4.0
 40
4.0
 40
4.0
 40
5.0
 40
5.0
 40
5.0
 40
6.0
 40
6.0
 40
6.0
 40
7.0
 40
7.0
 40
7.0
 40
7.0
 10
67.04569225754413
 20
-141.3181613144968
 30
0.0
 10
67.04569225754413
 20
-141.3181613144968
 30
0.0
 10
67.82652314927601
 20
-140.5371581679907
 30
0.0
 10
67.82652314927601
 20
-140.5371581679907
 30
0.0
 10
67.82652314927601
 20
-140.5371581679907
 30
0.0
 10
67.59311793015033
 20
-140.3039252036393
 30
0.0
 10
67.59311793015033
 20
-140.3039252036393
 30
0.0
 10
67.59311793015033
 20
-140.3039252036393
 30
0.0
 10
67.69784883290193
 20
-140.1991943008877
 30
0.0
 10
67.69784883290193
 20
-140.1991943008877
 30
0.0
 10
67.94313963145171
 20
-140.4234700169775
 30
0.0
 10
68.0911064825432
 20
-140.3414767444285
 30
0.0
 10
68.1930813089066
 20
-140.2815320829852
 30
0.0
 10
68.1930813089066
 20
-140.2815320829852
 30
0.0
 10
68.29626191868982
 20
-140.3845404379942
 30
0.0
 10
68.29626191868982
 20
-140.3845404379942
 30
0.0
 10
68.29626191868982
 20
-140.3845404379942
 30
0.0
 10
67.20416664986563
 20
-141.4766357068183
 30
0.0
 10
67.20416664986563
 20
-141.4766357068183
 30
0.0
 10
67.20416664986563
 20
-141.4766357068183
 30
0.0
 10
67.04569225754413
 20
-141.3181613144968
 30
0.0
 10
67.04569225754413
 20
-141.3181613144968
 30
0.0
  0
HATCH
  5
BA
330
B5
100
AcDbEntity
  8
_U+30EC_U+30A4_U+30E4_U+30FC 1
 62
     7
420
 16777215
100
AcDbHatch
 10
0.0
 20
0.0
 30
0.0
210
0.0
220
0.0
230
1.0
  2
SOLID
 70
     1
 71
     0
 91
        1
 92
        1
 93
        1
 72
     4
 94
        3
 73
     0
 74
     1
 95
       26
 96
       22
 40
0.0
 40
0.0
 40
0.0
 40
0.0
 40
1.0
 40
1.0
 40
1.0
 40
2.0
 40
2.0
 40
2.0
 40
3.0
 40
3.0
 40
3.0
 40
4.0
 40
4.0
 40
4.0
 40
5.0
 40
5.0
 40
5.0
 40
6.0
 40
6.0
 40
6.0
 40
7.0
 40
7.0
 40
7.0
 40
7.0
 10
67.04569225754413
 20
-141.3181613144968
 10
67.04569225754413
 20
-141.3181613144968
 10
67.82652314927601
 20
-140.5371581679907
 10
67.82652314927601
 20
-140.5371581679907
 10
67.82652314927601
 20
-140.5371581679907
 10
67.59311793015033
 20
-140.3039252036393
 10
67.59311793015033
 20
-140.3039252036393
 10
67.59311793015033
 20
-140.3039252036393
 10
67.69784883290193
 20
-140.1991943008877
 10
67.69784883290193
 20
-140.1991943008877
 10
67.94313963145171
 20
-140.4234700169775
 10
68.0911064825432
 20
-140.3414767444285
 10
68.1930813089066
 20
-140.2815320829852
 10
68.1930813089066
 20
-140.2815320829852
 10
68.29626191868982
 20
-140.3845404379942
 10
68.29626191868982
 20
-140.3845404379942
 10
68.29626191868982
 20
-140.3845404379942
 10
67.20416664986563
 20
-141.4766357068183
 10
67.20416664986563
 20
-141.4766357068183
 10
67.20416664986563
 20
-141.4766357068183
 10
67.04569225754413
 20
-141.3181613144968
 10
67.04569225754413
 20
-141.3181613144968
 97
        0
 97
        0
 75
     2
 76
     1
 98
        0
  0
SPLINE
  5
BB
330
B5
100
AcDbEntity
  8
_U+30EC_U+30A4_U+30E4_U+30FC 1
370
     0
100
AcDbSpline
210
0.0
220
0.0
230
1.0
 70
    11
 71
     3
 72
    53
 73
    49
 74
     0
 42
0.0000000001
 43
0.0000000001
 12
1.0
 22
0.0
 32
0.0
 13
1.0
 23
0.0
 33
0.0
 40
0.0
 40
0.0
 40
0.0
 40
0.0
 40
1.0
 40
1.0
 40
1.0
 40
2.0
 40
2.0
 40
2.0
 40
3.0
 40
3.0
 40
3.0
 40
4.0
 40
4.0
 40
4.0
 40
5.0
 40
5.0
 40
5.0
 40
6.0
 40
6.0
 40
6.0
 40
7.0
 40
7.0
 40
7.0
 40
8.0
 40
8.0
 40
8.0
 40
9.0
 40
9.0
 40
9.0
 40
10.0
 40
10.0
 40
10.0
 40
11.0
 40
11.0
 40
11.0
 40
12.0
 40
12.0
 40
12.0
 40
13.0
 40
13.0
 40
13.0
 40
14.0
 40
14.0
 40
14.0
 40
15.0
 40
15.0
 40
15.0
 40
16.0
 40
16.0
 40
16.0
 40
16.0
 10
67.8628689066454
 20
-142.2069959496913
 30
0.0
 10
67.80757512410713
 20
-142.1515299123788
 30
0.0
 10
67.74763046266379
 20
-142.0681586016358
 30
0.0
 10
67.72075871787884
 20
-141.9510253551373
 30
0.0
 10
67.67597247657059
 20
-141.7512098169928
 30
0.0
 10
67.75365937976298
 20
-141.6430338187559
 30
0.0
 10
67.81636011759453
 20
-141.5534613361394
 30
0.0
 10
67.81636011759453
 20
-141.5534613361394
 30
0.0
 10
67.97345647172192
 20
-141.7105576902668
 30
0.0
 10
67.97345647172192
 20
-141.7105576902668
 30
0.0
 10
67.87165390013278
 20
-141.8897026554998
 30
0.0
 10
67.94072806461205
 20
-142.0006347301249
 30
0.0
 10
68.00652938838032
 20
-142.0664360538931
 30
0.0
 10
68.10523137403273
 20
-142.1653102943198
 30
0.0
 10
68.28317055584587
 20
-142.2025173255605
 30
0.0
 10
68.44767386526655
 20
-142.0378417613655
 30
0.0
 10
68.62871363301643
 20
-141.8569742483899
 30
0.0
 10
68.55085447504979
 20
-141.6802408499966
 30
0.0
 10
68.46558836178986
 20
-141.5948024819624
 30
0.0
 10
68.44319524113573
 20
-141.5727538708568
 30
0.0
 10
68.34311521728922
 20
-141.4725015922361
 30
0.0
 10
68.18877493955003
 20
-141.5010958847636
 30
0.0
 10
68.18877493955003
 20
-141.5010958847636
 30
0.0
 10
68.07801511969924
 20
-141.3632920653536
 30
0.0
 10
68.07801511969924
 20
-141.3632920653536
 30
0.0
 10
68.07801511969924
 20
-141.3632920653536
 30
0.0
 10
68.76186657352135
 20
-140.8499728380514
 30
0.0
 10
68.76186657352135
 20
-140.8499728380514
 30
0.0
 10
68.76186657352135
 20
-140.8499728380514
 30
0.0
 10
69.31239283206426
 20
-141.4004990965943
 30
0.0
 10
69.31239283206426
 20
-141.4004990965943
 30
0.0
 10
69.31239283206426
 20
-141.4004990965943
 30
0.0
 10
69.17476126742854
 20
-141.5383029160043
 30
0.0
 10
69.17476126742854
 20
-141.5383029160043
 30
0.0
 10
69.17476126742854
 20
-141.5383029160043
 30
0.0
 10
68.73947345286722
 20
-141.1028428466688
 30
0.0
 10
68.73947345286722
 20
-141.1028428466688
 30
0.0
 10
68.73947345286722
 20
-141.1028428466688
 30
0.0
 10
68.39393037569666
 20
-141.3557128552861
 30
0.0
 10
68.39393037569666
 20
-141.3557128552861
 30
0.0
 10
68.4612819924333
 20
-141.375349899552
 30
0.0
 10
68.54792614388732
 20
-141.4053222302737
 30
0.0
 10
68.6316419641789
 20
-141.4886935410167
 30
0.0
 10
68.81130369373467
 20
-141.6685275253468
 30
0.0
 10
68.84713268678128
 20
-141.967906323015
 30
0.0
 10
68.62578530185398
 20
-142.1894259627165
 30
0.0
 10
68.40133733098995
 20
-142.4137016788063
 30
0.0
 10
68.07680933627941
 20
-142.4209363793253
 30
0.0
 10
67.8628689066454
 20
-142.2069959496913
 30
0.0
  0
HATCH
  5
BC
330
B5
100
AcDbEntity
  8
_U+30EC_U+30A4_U+30E4_U+30FC 1
 62
     7
420
 16777215
100
AcDbHatch
 10
0.0
 20
0.0
 30
0.0
210
0.0
220
0.0
230
1.0
  2
SOLID
 70
     1
 71
     0
 91
        1
 92
        1
 93
        1
 72
     4
 94
        3
 73
     0
 74
     1
 95
       53
 96
       49
 40
0.0
 40
0.0
 40
0.0
 40
0.0
 40
1.0
 40
1.0
 40
1.0
 40
2.0
 40
2.0
 40
2.0
 40
3.0
 40
3.0
 40
3.0
 40
4.0
 40
4.0
 40
4.0
 40
5.0
 40
5.0
 40
5.0
 40
6.0
 40
6.0
 40
6.0
 40
7.0
 40
7.0
 40
7.0
 40
8.0
 40
8.0
 40
8.0
 40
9.0
 40
9.0
 40
9.0
 40
10.0
 40
10.0
 40
10.0
 40
11.0
 40
11.0
 40
11.0
 40
12.0
 40
12.0
 40
12.0
 40
13.0
 40
13.0
 40
13.0
 40
14.0
 40
14.0
 40
14.0
 40
15.0
 40
15.0
 40
15.0
 40
16.0
 40
16.0
 40
16.0
 40
16.0
 10
67.8628689066454
 20
-142.2069959496913
 10
67.80757512410713
 20
-142.1515299123788
 10
67.74763046266379
 20
-142.0681586016358
 10
67.72075871787884
 20
-141.9510253551373
 10
67.67597247657059
 20
-141.7512098169928
 10
67.75365937976298
 20
-141.6430338187559
 10
67.81636011759453
 20
-141.5534613361394
 10
67.81636011759453
 20
-141.5534613361394
 10
67.97345647172192
 20
-141.7105576902668
 10
67.97345647172192
 20
-141.7105576902668
 10
67.87165390013278
 20
-141.8897026554998
 10
67.94072806461205
 20
-142.0006347301249
 10
68.00652938838032
 20
-142.0664360538931
 10
68.10523137403273
 20
-142.1653102943198
 10
68.28317055584587
 20
-142.2025173255605
 10
68.44767386526655
 20
-142.0378417613655
 10
68.62871363301643
 20
-141.8569742483899
 10
68.55085447504979
 20
-141.6802408499966
 10
68.46558836178986
 20
-141.5948024819624
 10
68.44319524113573
 20
-141.5727538708568
 10
68.34311521728922
 20
-141.4725015922361
 10
68.18877493955003
 20
-141.5010958847636
 10
68.18877493955003
 20
-141.5010958847636
 10
68.07801511969924
 20
-141.3632920653536
 10
68.07801511969924
 20
-141.3632920653536
 10
68.07801511969924
 20
-141.3632920653536
 10
68.76186657352135
 20
-140.8499728380514
 10
68.76186657352135
 20
-140.8499728380514
 10
68.76186657352135
 20
-140.8499728380514
 10
69.31239283206426
 20
-141.4004990965943
 10
69.31239283206426
 20
-141.4004990965943
 10
69.31239283206426
 20
-141.4004990965943
 10
69.17476126742854
 20
-141.5383029160043
 10
69.17476126742854
 20
-141.5383029160043
 10
69.17476126742854
 20
-141.5383029160043
 10
68.73947345286722
 20
-141.1028428466688
 10
68.73947345286722
 20
-141.1028428466688
 10
68.73947345286722
 20
-141.1028428466688
 10
68.39393037569666
 20
-141.3557128552861
 10
68.39393037569666
 20
-141.3557128552861
 10
68.4612819924333
 20
-141.375349899552
 10
68.54792614388732
 20
-141.4053222302737
 10
68.6316419641789
 20
-141.4886935410167
 10
68.81130369373467
 20
-141.6685275253468
 10
68.84713268678128
 20
-141.967906323015
 10
68.62578530185398
 20
-142.1894259627165
 10
68.40133733098995
 20
-142.4137016788063
 10
68.07680933627941
 20
-142.4209363793253
 10
67.8628689066454
 20
-142.2069959496913
 97
        0
 97
        0
 75
     2
 76
     1
 98
        0
  0
ENDBLK
  5
B8
330
B5
100
AcDbEntity
  8
0
100
AcDbBlockEnd
  0
BLOCK
  5
D4
330
D2
100
AcDbEntity
  8
0
100
AcDbBlockBegin
  2
block 7
 70
     0
 10
0.0
 20
0.0
 30
0.0
  3
block 7
  1

  0
SPLINE
  5
D6
330
D2
100
AcDbEntity
  8
_U+30EC_U+30A4_U+30E4_U+30FC 1
370
     0
100
AcDbSpline
210
0.0
220
0.0
230
1.0
 70
    11
 71
     3
 72
    26
 73
    22
 74
     0
 42
0.0000000001
 43
0.0000000001
 12
1.0
 22
0.0
 32
0.0
 13
1.0
 23
0.0
 33
0.0
 40
0.0
 40
0.0
 40
0.0
 40
0.0
 40
1.0
 40
1.0
 40
1.0
 40
2.0
 40
2.0
 40
2.0
 40
3.0
 40
3.0
 40
3.0
 40
4.0
 40
4.0
 40
4.0
 40
5.0
 40
5.0
 40
5.0
 40
6.0
 40
6.0
 40
6.0
 40
7.0
 40
7.0
 40
7.0
 40
7.0
 10
81.54592690018644
 20
-148.0843288475275
 30
0.0
 10
81.54592690018644
 20
-148.0843288475275
 30
0.0
 10
81.54592690018644
 20
-146.980175744505
 30
0.0
 10
81.54592690018644
 20
-146.980175744505
 30
0.0
 10
81.54592690018644
 20
-146.980175744505
 30
0.0
 10
81.2158867526995
 20
-146.980175744505
 30
0.0
 10
81.2158867526995
 20
-146.980175744505
 30
0.0
 10
81.2158867526995
 20
-146.980175744505
 30
0.0
 10
81.2158867526995
 20
-146.8320366386392
 30
0.0
 10
81.2158867526995
 20
-146.8320366386392
 30
0.0
 10
81.54799395747759
 20
-146.8172227280527
 30
0.0
 10
81.59450274652846
 20
-146.6542697116003
 30
0.0
 10
81.62413056770161
 20
-146.53989254149
 30
0.0
 10
81.62413056770161
 20
-146.53989254149
 30
0.0
 10
81.77020261627621
 20
-146.53989254149
 30
0.0
 10
81.77020261627621
 20
-146.53989254149
 30
0.0
 10
81.77020261627621
 20
-146.53989254149
 30
0.0
 10
81.77020261627621
 20
-148.0843288475275
 30
0.0
 10
81.77020261627621
 20
-148.0843288475275
 30
0.0
 10
81.77020261627621
 20
-148.0843288475275
 30
0.0
 10
81.54592690018644
 20
-148.0843288475275
 30
0.0
 10
81.54592690018644
 20
-148.0843288475275
 30
0.0
  0
HATCH
  5
D7
330
D2
100
AcDbEntity
  8
_U+30EC_U+30A4_U+30E4_U+30FC 1
 62
     7
420
 16777215
100
AcDbHatch
 10
0.0
 20
0.0
 30
0.0
210
0.0
220
0.0
230
1.0
  2
SOLID
 70
     1
 71
     0
 91
        1
 92
        1
 93
        1
 72
     4
 94
        3
 73
     0
 74
     1
 95
       26
 96
       22
 40
0.0
 40
0.0
 40
0.0
 40
0.0
 40
1.0
 40
1.0
 40
1.0
 40
2.0
 40
2.0
 40
2.0
 40
3.0
 40
3.0
 40
3.0
 40
4.0
 40
4.0
 40
4.0
 40
5.0
 40
5.0
 40
5.0
 40
6.0
 40
6.0
 40
6.0
 40
7.0
 40
7.0
 40
7.0
 40
7.0
 10
81.54592690018644
 20
-148.0843288475275
 10
81.54592690018644
 20
-148.0843288475275
 10
81.54592690018644
 20
-146.980175744505
 10
81.54592690018644
 20
-146.980175744505
 10
81.54592690018644
 20
-146.980175744505
 10
81.2158867526995
 20
-146.980175744505
 10
81.2158867526995
 20
-146.980175744505
 10
81.2158867526995
 20
-146.980175744505
 10
81.2158867526995
 20
-146.8320366386392
 10
81.2158867526995
 20
-146.8320366386392
 10
81.54799395747759
 20
-146.8172227280527
 10
81.59450274652846
 20
-146.6542697116003
 10
81.62413056770161
 20
-146.53989254149
 10
81.62413056770161
 20
-146.53989254149
 10
81.77020261627621
 20
-146.53989254149
 10
81.77020261627621
 20
-146.53989254149
 10
81.77020261627621
 20
-146.53989254149
 10
81.77020261627621
 20
-148.0843288475275
 10
81.77020261627621
 20
-148.0843288475275
 10
81.77020261627621
 20
-148.0843288475275
 10
81.54592690018644
 20
-148.0843288475275
 10
81.54592690018644
 20
-148.0843288475275
 97
        0
 97
        0
 75
     2
 76
     1
 98
        0
  0
SPLINE
  5
D8
330
D2
100
AcDbEntity
  8
_U+30EC_U+30A4_U+30E4_U+30FC 1
370
     0
100
AcDbSpline
210
0.0
220
0.0
230
1.0
 70
    11
 71
     3
 72
    29
 73
    25
 74
     0
 42
0.0000000001
 43
0.0000000001
 12
1.0
 22
0.0
 32
0.0
 13
1.0
 23
0.0
 33
0.0
 40
0.0
 40
0.0
 40
0.0
 40
0.0
 40
1.0
 40
1.0
 40
1.0
 40
2.0
 40
2.0
 40
2.0
 40
3.0
 40
3.0
 40
3.0
 40
4.0
 40
4.0
 40
4.0
 40
5.0
 40
5.0
 40
5.0
 40
6.0
 40
6.0
 40
6.0
 40
7.0
 40
7.0
 40
7.0
 40
8.0
 40
8.0
 40
8.0
 40
8.0
 10
83.1690836380619
 20
-147.9065619204887
 30
0.0
 10
83.06125214937357
 20
-148.1160237259918
 30
0.0
 10
82.88779159169125
 20
-148.1349717511607
 30
0.0
 10
82.77134736428981
 20
-148.1349717511607
 30
0.0
 10
82.6106336599029
 20
-148.1349717511607
 30
0.0
 10
82.46886798068488
 20
-148.0884629621098
 30
0.0
 10
82.37361109051771
 20
-147.9065619204887
 30
0.0
 10
82.27008597118595
 20
-147.711914025572
 30
0.0
 10
82.25096569124281
 20
-147.4748914561868
 30
0.0
 10
82.25096569124281
 20
-147.3122829492831
 30
0.0
 10
82.25096569124281
 20
-147.1682779579996
 30
0.0
 10
82.26784665912054
 20
-146.9164414780278
 30
0.0
 10
82.37361109051771
 20
-146.7176594685289
 30
0.0
 10
82.48161483398029
 20
-146.5147433444477
 30
0.0
 10
82.6423285383672
 20
-146.491316695148
 30
0.0
 10
82.77134736428981
 20
-146.491316695148
 30
0.0
 10
82.92999401138556
 20
-146.491316695148
 30
0.0
 10
83.07382674789474
 20
-146.5357584269077
 30
0.0
 10
83.1690836380619
 20
-146.7176594685289
 30
0.0
 10
83.26847464281136
 20
-146.9102403061544
 30
0.0
 10
83.2917290373368
 20
-147.1386501368264
 30
0.0
 10
83.2917290373368
 20
-147.3122829492831
 30
0.0
 10
83.2917290373368
 20
-147.4835041949
 30
0.0
 10
83.27071395487677
 20
-147.7139810828632
 30
0.0
 10
83.1690836380619
 20
-147.9065619204887
 30
0.0
  0
SPLINE
  5
D9
330
D2
100
AcDbEntity
  8
_U+30EC_U+30A4_U+30E4_U+30FC 1
370
     0
100
AcDbSpline
210
0.0
220
0.0
230
1.0
 70
    11
 71
     3
 72
    17
 73
    13
 74
     0
 42
0.0000000001
 43
0.0000000001
 12
1.0
 22
0.0
 32
0.0
 13
1.0
 23
0.0
 33
0.0
 40
0.0
 40
0.0
 40
0.0
 40
0.0
 40
1.0
 40
1.0
 40
1.0
 40
2.0
 40
2.0
 40
2.0
 40
3.0
 40
3.0
 40
3.0
 40
4.0
 40
4.0
 40
4.0
 40
4.0
 10
82.77134736428981
 20
-146.6838975327735
 30
0.0
 10
82.52175019638345
 20
-146.6838975327735
 30
0.0
 10
82.47524140733258
 20
-146.9674288912096
 30
0.0
 10
82.47524140733258
 20
-147.3122829492831
 30
0.0
 10
82.47524140733258
 20
-147.6316433007657
 30
0.0
 10
82.51124265515344
 20
-147.9403238562441
 30
0.0
 10
82.77134736428981
 20
-147.9403238562441
 30
0.0
 10
83.01887747490501
 20
-147.9403238562441
 30
0.0
 10
83.06762557602129
 20
-147.6592040646477
 30
0.0
 10
83.06762557602129
 20
-147.3122829492831
 30
0.0
 10
83.06762557602129
 20
-146.9925780882519
 30
0.0
 10
83.02938501613502
 20
-146.6838975327735
 30
0.0
 10
82.77134736428981
 20
-146.6838975327735
 30
0.0
  0
HATCH
  5
DA
330
D2
100
AcDbEntity
  8
_U+30EC_U+30A4_U+30E4_U+30FC 1
 62
     7
420
 16777215
100
AcDbHatch
 10
0.0
 20
0.0
 30
0.0
210
0.0
220
0.0
230
1.0
  2
SOLID
 70
     1
 71
     0
 91
        2
 92
        1
 93
        1
 72
     4
 94
        3
 73
     0
 74
     1
 95
       29
 96
       25
 40
0.0
 40
0.0
 40
0.0
 40
0.0
 40
1.0
 40
1.0
 40
1.0
 40
2.0
 40
2.0
 40
2.0
 40
3.0
 40
3.0
 40
3.0
 40
4.0
 40
4.0
 40
4.0
 40
5.0
 40
5.0
 40
5.0
 40
6.0
 40
6.0
 40
6.0
 40
7.0
 40
7.0
 40
7.0
 40
8.0
 40
8.0
 40
8.0
 40
8.0
 10
83.1690836380619
 20
-147.9065619204887
 10
83.06125214937357
 20
-148.1160237259918
 10
82.88779159169125
 20
-148.1349717511607
 10
82.77134736428981
 20
-148.1349717511607
 10
82.6106336599029
 20
-148.1349717511607
 10
82.46886798068488
 20
-148.0884629621098
 10
82.37361109051771
 20
-147.9065619204887
 10
82.27008597118595
 20
-147.711914025572
 10
82.25096569124281
 20
-147.4748914561868
 10
82.25096569124281
 20
-147.3122829492831
 10
82.25096569124281
 20
-147.1682779579996
 10
82.26784665912054
 20
-146.9164414780278
 10
82.37361109051771
 20
-146.7176594685289
 10
82.48161483398029
 20
-146.5147433444477
 10
82.6423285383672
 20
-146.491316695148
 10
82.77134736428981
 20
-146.491316695148
 10
82.92999401138556
 20
-146.491316695148
 10
83.07382674789474
 20
-146.5357584269077
 10
83.1690836380619
 20
-146.7176594685289
 10
83.26847464281136
 20
-146.9102403061544
 10
83.2917290373368
 20
-147.1386501368264
 10
83.2917290373368
 20
-147.3122829492831
 10
83.2917290373368
 20
-147.4835041949
 10
83.27071395487677
 20
-147.7139810828632
 10
83.1690836380619
 20
-147.9065619204887
 97
        0
 97
        0
 92
        1
 93
        1
 72
     4
 94
        3
 73
     0
 74
     1
 95
       17
 96
       13
 40
0.0
 40
0.0
 40
0.0
 40
0.0
 40
1.0
 40
1.0
 40
1.0
 40
2.0
 40
2.0
 40
2.0
 40
3.0
 40
3.0
 40
3.0
 40
4.0
 40
4.0
 40
4.0
 40
4.0
 10
82.77134736428981
 20
-146.6838975327735
 10
82.52175019638345
 20
-146.6838975327735
 10
82.47524140733258
 20
-146.9674288912096
 10
82.47524140733258
 20
-147.3122829492831
 10
82.47524140733258
 20
-147.6316433007657
 10
82.51124265515344
 20
-147.9403238562441
 10
82.77134736428981
 20
-147.9403238562441
 10
83.01887747490501
 20
-147.9403238562441
 10
83.06762557602129
 20
-147.6592040646477
 10
83.06762557602129
 20
-147.3122829492831
 10
83.06762557602129
 20
-146.9925780882519
 10
83.02938501613502
 20
-146.6838975327735
 10
82.77134736428981
 20
-146.6838975327735
 97
        0
 97
        0
 75
     2
 76
     1
 98
        0
  0
ENDBLK
  5
D5
330
D2
100
AcDbEntity
  8
0
100
AcDbBlockEnd
  0
BLOCK
  5
E9
330
E7
100
AcDbEntity
  8
0
100
AcDbBlockBegin
  2
block 8
 70
     0
 10
0.0
 20
0.0
 30
0.0
  3
block 8
  1

  0
SPLINE
  5
EB
330
E7
100
AcDbEntity
  8
_U+30EC_U+30A4_U+30E4_U+30FC 1
370
     0
100
AcDbSpline
210
0.0
220
0.0
230
1.0
 70
    11
 71
     3
 72
    26
 73
    22
 74
     0
 42
0.0000000001
 43
0.0000000001
 12
1.0
 22
0.0
 32
0.0
 13
1.0
 23
0.0
 33
0.0
 40
0.0
 40
0.0
 40
0.0
 40
0.0
 40
1.0
 40
1.0
 40
1.0
 40
2.0
 40
2.0
 40
2.0
 40
3.0
 40
3.0
 40
3.0
 40
4.0
 40
4.0
 40
4.0
 40
5.0
 40
5.0
 40
5.0
 40
6.0
 40
6.0
 40
6.0
 40
7.0
 40
7.0
 40
7.0
 40
7.0
 10
87.12198619783756
 20
-152.3176621798025
 30
0.0
 10
87.12198619783756
 20
-152.3176621798025
 30
0.0
 10
87.12198619783756
 20
-151.21350907678
 30
0.0
 10
87.12198619783756
 20
-151.21350907678
 30
0.0
 10
87.12198619783756
 20
-151.21350907678
 30
0.0
 10
86.79194605035063
 20
-151.21350907678
 30
0.0
 10
86.79194605035063
 20
-151.21350907678
 30
0.0
 10
86.79194605035063
 20
-151.21350907678
 30
0.0
 10
86.79194605035063
 20
-151.0653699709142
 30
0.0
 10
86.79194605035063
 20
-151.0653699709142
 30
0.0
 10
87.12405325512871
 20
-151.0505560603276
 30
0.0
 10
87.17056204417959
 20
-150.8876030438753
 30
0.0
 10
87.20018986535274
 20
-150.773225873765
 30
0.0
 10
87.20018986535274
 20
-150.773225873765
 30
0.0
 10
87.34626191392732
 20
-150.773225873765
 30
0.0
 10
87.34626191392732
 20
-150.773225873765
 30
0.0
 10
87.34626191392732
 20
-150.773225873765
 30
0.0
 10
87.34626191392732
 20
-152.3176621798025
 30
0.0
 10
87.34626191392732
 20
-152.3176621798025
 30
0.0
 10
87.34626191392732
 20
-152.3176621798025
 30
0.0
 10
87.12198619783756
 20
-152.3176621798025
 30
0.0
 10
87.12198619783756
 20
-152.3176621798025
 30
0.0
  0
HATCH
  5
EC
330
E7
100
AcDbEntity
  8
_U+30EC_U+30A4_U+30E4_U+30FC 1
 62
     7
420
 16777215
100
AcDbHatch
 10
0.0
 20
0.0
 30
0.0
210
0.0
220
0.0
230
1.0
  2
SOLID
 70
     1
 71
     0
 91
        1
 92
        1
 93
        1
 72
     4
 94
        3
 73
     0
 74
     1
 95
       26
 96
       22
 40
0.0
 40
0.0
 40
0.0
 40
0.0
 40
1.0
 40
1.0
 40
1.0
 40
2.0
 40
2.0
 40
2.0
 40
3.0
 40
3.0
 40
3.0
 40
4.0
 40
4.0
 40
4.0
 40
5.0
 40
5.0
 40
5.0
 40
6.0
 40
6.0
 40
6.0
 40
7.0
 40
7.0
 40
7.0
 40
7.0
 10
87.12198619783756
 20
-152.3176621798025
 10
87.12198619783756
 20
-152.3176621798025
 10
87.12198619783756
 20
-151.21350907678
 10
87.12198619783756
 20
-151.21350907678
 10
87.12198619783756
 20
-151.21350907678
 10
86.79194605035063
 20
-151.21350907678
 10
86.79194605035063
 20
-151.21350907678
 10
86.79194605035063
 20
-151.21350907678
 10
86.79194605035063
 20
-151.0653699709142
 10
86.79194605035063
 20
-151.0653699709142
 10
87.12405325512871
 20
-151.0505560603276
 10
87.17056204417959
 20
-150.8876030438753
 10
87.20018986535274
 20
-150.773225873765
 10
87.20018986535274
 20
-150.773225873765
 10
87.34626191392732
 20
-150.773225873765
 10
87.34626191392732
 20
-150.773225873765
 10
87.34626191392732
 20
-150.773225873765
 10
87.34626191392732
 20
-152.3176621798025
 10
87.34626191392732
 20
-152.3176621798025
 10
87.34626191392732
 20
-152.3176621798025
 10
87.12198619783756
 20
-152.3176621798025
 10
87.12198619783756
 20
-152.3176621798025
 97
        0
 97
        0
 75
     2
 76
     1
 98
        0
  0
POLYLINE
  5
ED
330
E7
100
AcDbEntity
  8
_U+30EC_U+30A4_U+30E4_U+30FC 1
370
     0
100
AcDb2dPolyline
 66
     1
 10
0.0
 20
0.0
 30
0.0
  0
VERTEX
  5
EE
330
ED
100
AcDbEntity
  8
_U+30EC_U+30A4_U+30E4_U+30FC 1
370
     0
100
AcDbVertex
100
AcDb2dVertex
 10
87.90746796847452
 20
-152.3176621798025
 30
0.0
  0
VERTEX
  5
EF
330
ED
100
AcDbEntity
  8
_U+30EC_U+30A4_U+30E4_U+30FC 1
370
     0
100
AcDbVertex
100
AcDb2dVertex
 10
87.90746796847452
 20
-152.0658256998308
 30
0.0
  0
VERTEX
  5
F0
330
ED
100
AcDbEntity
  8
_U+30EC_U+30A4_U+30E4_U+30FC 1
370
     0
100
AcDbVertex
100
AcDb2dVertex
 10
88.15930444844629
 20
-152.0658256998308
 30
0.0
  0
VERTEX
  5
F1
330
ED
100
AcDbEntity
  8
_U+30EC_U+30A4_U+30E4_U+30FC 1
370
     0
100
AcDbVertex
100
AcDb2dVertex
 10
88.15930444844629
 20
-152.3176621798025
 30
0.0
  0
VERTEX
  5
F2
330
ED
100
AcDbEntity
  8
_U+30EC_U+30A4_U+30E4_U+30FC 1
370
     0
100
AcDbVertex
100
AcDb2dVertex
 10
87.90746796847452
 20
-152.3176621798025
 30
0.0
  0
SEQEND
  5
F3
330
ED
100
AcDbEntity
  8
_U+30EC_U+30A4_U+30E4_U+30FC 1
370
     0
  0
HATCH
  5
F4
330
E7
100
AcDbEntity
  8
_U+30EC_U+30A4_U+30E4_U+30FC 1
 62
     7
420
 16777215
100
AcDbHatch
 10
0.0
 20
0.0
 30
0.0
210
0.0
220
0.0
230
1.0
  2
SOLID
 70
     1
 71
     0
 91
        1
 92
        1
 93
        4
 72
     1
 10
87.90746796847452
 20
-152.3176621798025
 11
87.90746796847452
 21
-152.0658256998308
 72
     1
 10
87.90746796847452
 20
-152.0658256998308
 11
88.15930444844629
 21
-152.0658256998308
 72
     1
 10
88.15930444844629
 20
-152.0658256998308
 11
88.15930444844629
 21
-152.3176621798025
 72
     1
 10
88.15930444844629
 20
-152.3176621798025
 11
87.90746796847452
 21
-152.3176621798025
 97
        0
 75
     2
 76
     1
 98
        0
  0
SPLINE
  5
F5
330
E7
100
AcDbEntity
  8
_U+30EC_U+30A4_U+30E4_U+30FC 1
370
     0
100
AcDbSpline
210
0.0
220
0.0
230
1.0
 70
    11
 71
     3
 72
    53
 73
    49
 74
     0
 42
0.0000000001
 43
0.0000000001
 12
1.0
 22
0.0
 32
0.0
 13
1.0
 23
0.0
 33
0.0
 40
0.0
 40
0.0
 40
0.0
 40
0.0
 40
1.0
 40
1.0
 40
1.0
 40
2.0
 40
2.0
 40
2.0
 40
3.0
 40
3.0
 40
3.0
 40
4.0
 40
4.0
 40
4.0
 40
5.0
 40
5.0
 40
5.0
 40
6.0
 40
6.0
 40
6.0
 40
7.0
 40
7.0
 40
7.0
 40
8.0
 40
8.0
 40
8.0
 40
9.0
 40
9.0
 40
9.0
 40
10.0
 40
10.0
 40
10.0
 40
11.0
 40
11.0
 40
11.0
 40
12.0
 40
12.0
 40
12.0
 40
13.0
 40
13.0
 40
13.0
 40
14.0
 40
14.0
 40
14.0
 40
15.0
 40
15.0
 40
15.0
 40
16.0
 40
16.0
 40
16.0
 40
16.0
 10
88.8765733284753
 20
-152.3683050834357
 30
0.0
 10
88.79836966096013
 20
-152.3683050834357
 30
0.0
 10
88.69673934414526
 20
-152.351424115558
 30
0.0
 10
88.5951090273304
 20
-152.2880343586294
 30
0.0
 10
88.42182072442233
 20
-152.1781358126499
 30
0.0
 10
88.40046113241378
 20
-152.0468776746619
 30
0.0
 10
88.3815131072449
 20
-151.9390461859736
 30
0.0
 10
88.3815131072449
 20
-151.9390461859736
 30
0.0
 10
88.60372176604352
 20
-151.9390461859736
 30
0.0
 10
88.60372176604352
 20
-151.9390461859736
 30
0.0
 10
88.658498784259
 20
-152.1378281954725
 30
0.0
 10
88.78562280766471
 20
-152.1674560166456
 30
0.0
 10
88.87864038576646
 20
-152.1674560166456
 30
0.0
 10
89.01816675291907
 20
-152.1674560166456
 30
0.0
 10
89.17043997336711
 20
-152.0678927571219
 30
0.0
 10
89.17043997336711
 20
-151.8353488118676
 30
0.0
 10
89.17043997336711
 20
-151.5793782173135
 30
0.0
 10
88.99060598903708
 20
-151.5094427789629
 30
0.0
 10
88.87002764705333
 20
-151.5094427789629
 30
0.0
 10
88.83833276858903
 20
-151.5094427789629
 30
0.0
 10
88.69673934414526
 20
-151.5094427789629
 30
0.0
 10
88.60785588062582
 20
-151.6386338596598
 30
0.0
 10
88.60785588062582
 20
-151.6386338596598
 30
0.0
 10
88.43215601087807
 20
-151.6196858344909
 30
0.0
 10
88.43215601087807
 20
-151.6196858344909
 30
0.0
 10
88.43215601087807
 20
-151.6196858344909
 30
0.0
 10
88.55273435286182
 20
-150.773225873765
 30
0.0
 10
88.55273435286182
 20
-150.773225873765
 30
0.0
 10
88.55273435286182
 20
-150.773225873765
 30
0.0
 10
89.33132593252829
 20
-150.773225873765
 30
0.0
 10
89.33132593252829
 20
-150.773225873765
 30
0.0
 10
89.33132593252829
 20
-150.773225873765
 30
0.0
 10
89.33132593252829
 20
-150.9678737686816
 30
0.0
 10
89.33132593252829
 20
-150.9678737686816
 30
0.0
 10
89.33132593252829
 20
-150.9678737686816
 30
0.0
 10
88.71568736931414
 20
-150.9678737686816
 30
0.0
 10
88.71568736931414
 20
-150.9678737686816
 30
0.0
 10
88.71568736931414
 20
-150.9678737686816
 30
0.0
 10
88.6502305550944
 20
-151.3909314942703
 30
0.0
 10
88.6502305550944
 20
-151.3909314942703
 30
0.0
 10
88.71155325473184
 20
-151.3571695585149
 30
0.0
 10
88.79389103682931
 20
-151.3168619413375
 30
0.0
 10
88.91240232152191
 20
-151.3168619413375
 30
0.0
 10
89.16630585878481
 20
-151.3168619413375
 30
0.0
 10
89.40332842817
 20
-151.5032416070895
 30
0.0
 10
89.40332842817
 20
-151.8164007866987
 30
0.0
 10
89.40332842817
 20
-152.1336940808902
 30
0.0
 10
89.17905271208024
 20
-152.3683050834357
 30
0.0
 10
88.8765733284753
 20
-152.3683050834357
 30
0.0
  0
HATCH
  5
F6
330
E7
100
AcDbEntity
  8
_U+30EC_U+30A4_U+30E4_U+30FC 1
 62
     7
420
 16777215
100
AcDbHatch
 10
0.0
 20
0.0
 30
0.0
210
0.0
220
0.0
230
1.0
  2
SOLID
 70
     1
 71
     0
 91
        1
 92
        1
 93
        1
 72
     4
 94
        3
 73
     0
 74
     1
 95
       53
 96
       49
 40
0.0
 40
0.0
 40
0.0
 40
0.0
 40
1.0
 40
1.0
 40
1.0
 40
2.0
 40
2.0
 40
2.0
 40
3.0
 40
3.0
 40
3.0
 40
4.0
 40
4.0
 40
4.0
 40
5.0
 40
5.0
 40
5.0
 40
6.0
 40
6.0
 40
6.0
 40
7.0
 40
7.0
 40
7.0
 40
8.0
 40
8.0
 40
8.0
 40
9.0
 40
9.0
 40
9.0
 40
10.0
 40
10.0
 40
10.0
 40
11.0
 40
11.0
 40
11.0
 40
12.0
 40
12.0
 40
12.0
 40
13.0
 40
13.0
 40
13.0
 40
14.0
 40
14.0
 40
14.0
 40
15.0
 40
15.0
 40
15.0
 40
16.0
 40
16.0
 40
16.0
 40
16.0
 10
88.8765733284753
 20
-152.3683050834357
 10
88.79836966096013
 20
-152.3683050834357
 10
88.69673934414526
 20
-152.351424115558
 10
88.5951090273304
 20
-152.2880343586294
 10
88.42182072442233
 20
-152.1781358126499
 10
88.40046113241378
 20
-152.0468776746619
 10
88.3815131072449
 20
-151.9390461859736
 10
88.3815131072449
 20
-151.9390461859736
 10
88.60372176604352
 20
-151.9390461859736
 10
88.60372176604352
 20
-151.9390461859736
 10
88.658498784259
 20
-152.1378281954725
 10
88.78562280766471
 20
-152.1674560166456
 10
88.87864038576646
 20
-152.1674560166456
 10
89.01816675291907
 20
-152.1674560166456
 10
89.17043997336711
 20
-152.0678927571219
 10
89.17043997336711
 20
-151.8353488118676
 10
89.17043997336711
 20
-151.5793782173135
 10
88.99060598903708
 20
-151.5094427789629
 10
88.87002764705333
 20
-151.5094427789629
 10
88.83833276858903
 20
-151.5094427789629
 10
88.69673934414526
 20
-151.5094427789629
 10
88.60785588062582
 20
-151.6386338596598
 10
88.60785588062582
 20
-151.6386338596598
 10
88.43215601087807
 20
-151.6196858344909
 10
88.43215601087807
 20
-151.6196858344909
 10
88.43215601087807
 20
-151.6196858344909
 10
88.55273435286182
 20
-150.773225873765
 10
88.55273435286182
 20
-150.773225873765
 10
88.55273435286182
 20
-150.773225873765
 10
89.33132593252829
 20
-150.773225873765
 10
89.33132593252829
 20
-150.773225873765
 10
89.33132593252829
 20
-150.773225873765
 10
89.33132593252829
 20
-150.9678737686816
 10
89.33132593252829
 20
-150.9678737686816
 10
89.33132593252829
 20
-150.9678737686816
 10
88.71568736931414
 20
-150.9678737686816
 10
88.71568736931414
 20
-150.9678737686816
 10
88.71568736931414
 20
-150.9678737686816
 10
88.6502305550944
 20
-151.3909314942703
 10
88.6502305550944
 20
-151.3909314942703
 10
88.71155325473184
 20
-151.3571695585149
 10
88.79389103682931
 20
-151.3168619413375
 10
88.91240232152191
 20
-151.3168619413375
 10
89.16630585878481
 20
-151.3168619413375
 10
89.40332842817
 20
-151.5032416070895
 10
89.40332842817
 20
-151.8164007866987
 10
89.40332842817
 20
-152.1336940808902
 10
89.17905271208024
 20
-152.3683050834357
 10
88.8765733284753
 20
-152.3683050834357
 97
        0
 97
        0
 75
     2
 76
     1
 98
        0
  0
ENDBLK
  5
EA
330
E7
100
AcDbEntity
  8
0
100
AcDbBlockEnd
  0
ENDSEC
  0
SECTION
  2
ENTITIES
  0
POLYLINE
  5
41
330
1F
100
AcDbEntity
  8
_U+30EC_U+30A4_U+30E4_U+30FC 1
 62
   253
420
 10855845
370
     9
100
AcDb2dPolyline
 66
     1
 10
0.0
 20
0.0
 30
0.0
  0
VERTEX
  5
42
330
41
100
AcDbEntity
  8
_U+30EC_U+30A4_U+30E4_U+30FC 1
 62
   253
420
 10855845
370
     9
100
AcDbVertex
100
AcDb2dVertex
 10
81.67253374969341
 20
-105.8281827513206
 30
0.0
  0
VERTEX
  5
43
330
41
100
AcDbEntity
  8
_U+30EC_U+30A4_U+30E4_U+30FC 1
 62
   253
420
 10855845
370
     9
100
AcDbVertex
100
AcDb2dVertex
 10
81.67253374969341
 20
-101.8594327523128
 30
0.0
  0
VERTEX
  5
44
330
41
100
AcDbEntity
  8
_U+30EC_U+30A4_U+30E4_U+30FC 1
 62
   253
420
 10855845
370
     9
100
AcDbVertex
100
AcDb2dVertex
 10
82.70193927898664
 20
-101.8594327523128
 30
0.0
  0
VERTEX
  5
45
330
41
100
AcDbEntity
  8
_U+30EC_U+30A4_U+30E4_U+30FC 1
 62
   253
420
 10855845
370
     9
100
AcDbVertex
100
AcDb2dVertex
 10
82.70193927898664
 20
-126.9655335793696
 30
0.0
  0
VERTEX
  5
46
330
41
100
AcDbEntity
  8
_U+30EC_U+30A4_U+30E4_U+30FC 1
 62
   253
420
 10855845
370
     9
100
AcDbVertex
100
AcDb2dVertex
 10
107.7198803073925
 20
-127.024129968244
 30
0.0
  0
VERTEX
  5
47
330
41
100
AcDbEntity
  8
_U+30EC_U+30A4_U+30E4_U+30FC 1
 62
   253
420
 10855845
370
     9
100
AcDbVertex
100
AcDb2dVertex
 10
107.7198803073925
 20
-128.0238669124384
 30
0.0
  0
VERTEX
  5
48
330
41
100
AcDbEntity
  8
_U+30EC_U+30A4_U+30E4_U+30FC 1
 62
   253
420
 10855845
370
     9
100
AcDbVertex
100
AcDb2dVertex
 10
103.7807284634441
 20
-128.0238669124384
 30
0.0
  0
VERTEX
  5
49
330
41
100
AcDbEntity
  8
_U+30EC_U+30A4_U+30E4_U+30FC 1
 62
   253
420
 10855845
370
     9
100
AcDbVertex
100
AcDb2dVertex
 10
103.7807284634441
 20
-128.0180108013288
 30
0.0
  0
VERTEX
  5
4A
330
41
100
AcDbEntity
  8
_U+30EC_U+30A4_U+30E4_U+30FC 1
 62
   253
420
 10855845
370
     9
100
AcDbVertex
100
AcDb2dVertex
 10
98.81224164575636
 20
-128.0180108013288
 30
0.0
  0
VERTEX
  5
4B
330
41
100
AcDbEntity
  8
_U+30EC_U+30A4_U+30E4_U+30FC 1
 62
   253
420
 10855845
370
     9
100
AcDbVertex
100
AcDb2dVertex
 10
98.81224164575636
 20
-127.9942688568904
 30
0.0
  0
VERTEX
  5
4C
330
41
100
AcDbEntity
  8
_U+30EC_U+30A4_U+30E4_U+30FC 1
 62
   253
420
 10855845
370
     9
100
AcDbVertex
100
AcDb2dVertex
 10
82.31952817763165
 20
-127.9942688568904
 30
0.0
  0
VERTEX
  5
4D
330
41
100
AcDbEntity
  8
_U+30EC_U+30A4_U+30E4_U+30FC 1
 62
   253
420
 10855845
370
     9
100
AcDbVertex
100
AcDb2dVertex
 10
73.08599341319875
 20
-136.9046594102181
 30
0.0
  0
VERTEX
  5
4E
330
41
100
AcDbEntity
  8
_U+30EC_U+30A4_U+30E4_U+30FC 1
 62
   253
420
 10855845
370
     9
100
AcDbVertex
100
AcDb2dVertex
 10
77.61319051992255
 20
-141.5496844090573
 30
0.0
  0
VERTEX
  5
4F
330
41
100
AcDbEntity
  8
_U+30EC_U+30A4_U+30E4_U+30FC 1
 62
   253
420
 10855845
370
     9
100
AcDbVertex
100
AcDb2dVertex
 10
86.60902362375306
 20
-141.6085982979313
 30
0.0
  0
VERTEX
  5
50
330
41
100
AcDbEntity
  8
_U+30EC_U+30A4_U+30E4_U+30FC 1
 62
   253
420
 10855845
370
     9
100
AcDbVertex
100
AcDb2dVertex
 10
87.10890972211101
 20
-141.0205177425229
 30
0.0
  0
VERTEX
  5
51
330
41
100
AcDbEntity
  8
_U+30EC_U+30A4_U+30E4_U+30FC 1
 62
   253
420
 10855845
370
     9
100
AcDbVertex
100
AcDb2dVertex
 10
88.63749579422465
 20
-141.1087121869453
 30
0.0
  0
VERTEX
  5
52
330
41
100
AcDbEntity
  8
_U+30EC_U+30A4_U+30E4_U+30FC 1
 62
   253
420
 10855845
370
     9
100
AcDbVertex
100
AcDb2dVertex
 10
87.13819027691956
 20
-142.5787371865776
 30
0.0
  0
VERTEX
  5
53
330
41
100
AcDbEntity
  8
_U+30EC_U+30A4_U+30E4_U+30FC 1
 62
   253
420
 10855845
370
     9
100
AcDbVertex
100
AcDb2dVertex
 10
77.08402386675604
 20
-142.5787371865776
 30
0.0
  0
VERTEX
  5
54
330
41
100
AcDbEntity
  8
_U+30EC_U+30A4_U+30E4_U+30FC 1
 62
   253
420
 10855845
370
     9
100
AcDbVertex
100
AcDb2dVertex
 10
66.44177691604017
 20
-131.965770522564
 30
0.0
  0
VERTEX
  5
55
330
41
100
AcDbEntity
  8
_U+30EC_U+30A4_U+30E4_U+30FC 1
 62
   253
420
 10855845
370
     9
100
AcDbVertex
100
AcDb2dVertex
 10
66.47141024861749
 20
-121.9705177472851
 30
0.0
  0
VERTEX
  5
56
330
41
100
AcDbEntity
  8
_U+30EC_U+30A4_U+30E4_U+30FC 1
 62
   253
420
 10855845
370
     9
100
AcDbVertex
100
AcDb2dVertex
 10
68.02927687553967
 20
-120.4419316365563
 30
0.0
  0
VERTEX
  5
57
330
41
100
AcDbEntity
  8
_U+30EC_U+30A4_U+30E4_U+30FC 1
 62
   253
420
 10855845
370
     9
100
AcDbVertex
100
AcDb2dVertex
 10
68.02927687553967
 20
-121.8530427473146
 30
0.0
  0
VERTEX
  5
58
330
41
100
AcDbEntity
  8
_U+30EC_U+30A4_U+30E4_U+30FC 1
 62
   253
420
 10855845
370
     9
100
AcDbVertex
100
AcDb2dVertex
 10
67.41191578017875
 20
-122.5585983026938
 30
0.0
  0
VERTEX
  5
59
330
41
100
AcDbEntity
  8
_U+30EC_U+30A4_U+30E4_U+30FC 1
 62
   253
420
 10855845
370
     9
100
AcDbVertex
100
AcDb2dVertex
 10
67.50011022237317
 20
-131.4662371893558
 30
0.0
  0
VERTEX
  5
5A
330
41
100
AcDbEntity
  8
_U+30EC_U+30A4_U+30E4_U+30FC 1
 62
   253
420
 10855845
370
     9
100
AcDbVertex
100
AcDb2dVertex
 10
72.292243433449
 20
-136.1991038548389
 30
0.0
  0
VERTEX
  5
5B
330
41
100
AcDbEntity
  8
_U+30EC_U+30A4_U+30E4_U+30FC 1
 62
   253
420
 10855845
370
     9
100
AcDbVertex
100
AcDb2dVertex
 10
81.61397264007631
 20
-126.9948494126956
 30
0.0
  0
VERTEX
  5
5C
330
41
100
AcDbEntity
  8
_U+30EC_U+30A4_U+30E4_U+30FC 1
 62
   253
420
 10855845
370
     9
100
AcDbVertex
100
AcDb2dVertex
 10
81.70216708227073
 20
-110.8259502500712
 30
0.0
  0
VERTEX
  5
5D
330
41
100
AcDbEntity
  8
_U+30EC_U+30A4_U+30E4_U+30FC 1
 62
   253
420
 10855845
370
     9
100
AcDbVertex
100
AcDb2dVertex
 10
81.70837597100122
 20
-110.8552660833972
 30
0.0
  0
VERTEX
  5
5E
330
41
100
AcDbEntity
  8
_U+30EC_U+30A4_U+30E4_U+30FC 1
 62
   253
420
 10855845
370
     9
100
AcDbVertex
100
AcDb2dVertex
 10
81.70837597100122
 20
-105.8867438624171
 30
0.0
  0
VERTEX
  5
5F
330
41
100
AcDbEntity
  8
_U+30EC_U+30A4_U+30E4_U+30FC 1
 62
   253
420
 10855845
370
     9
100
AcDbVertex
100
AcDb2dVertex
 10
81.67253374969341
 20
-105.8281827513206
 30
0.0
  0
SEQEND
  5
61
330
41
100
AcDbEntity
  8
_U+30EC_U+30A4_U+30E4_U+30FC 1
 62
   253
420
 10855845
370
     9
  0
HATCH
  5
60
330
1F
100
AcDbEntity
  8
_U+30EC_U+30A4_U+30E4_U+30FC 1
 62
   253
420
 10855845
100
AcDbHatch
 10
0.0
 20
0.0
 30
0.0
210
0.0
220
0.0
230
1.0
  2
SOLID
 70
     1
 71
     0
 91
        1
 92
        1
 93
       29
 72
     1
 10
81.67253374969341
 20
-105.8281827513206
 11
81.67253374969341
 21
-101.8594327523128
 72
     1
 10
81.67253374969341
 20
-101.8594327523128
 11
82.70193927898664
 21
-101.8594327523128
 72
     1
 10
82.70193927898664
 20
-101.8594327523128
 11
82.70193927898664
 21
-126.9655335793696
 72
     1
 10
82.70193927898664
 20
-126.9655335793696
 11
107.7198803073925
 21
-127.024129968244
 72
     1
 10
107.7198803073925
 20
-127.024129968244
 11
107.7198803073925
 21
-128.0238669124384
 72
     1
 10
107.7198803073925
 20
-128.0238669124384
 11
103.7807284634441
 21
-128.0238669124384
 72
     1
 10
103.7807284634441
 20
-128.0238669124384
 11
103.7807284634441
 21
-128.0180108013288
 72
     1
 10
103.7807284634441
 20
-128.0180108013288
 11
98.81224164575636
 21
-128.0180108013288
 72
     1
 10
98.81224164575636
 20
-128.0180108013288
 11
98.81224164575636
 21
-127.9942688568904
 72
     1
 10
98.81224164575636
 20
-127.9942688568904
 11
82.31952817763165
 21
-127.9942688568904
 72
     1
 10
82.31952817763165
 20
-127.9942688568904
 11
73.08599341319875
 21
-136.9046594102181
 72
     1
 10
73.08599341319875
 20
-136.9046594102181
 11
77.61319051992255
 21
-141.5496844090573
 72
     1
 10
77.61319051992255
 20
-141.5496844090573
 11
86.60902362375306
 21
-141.6085982979313
 72
     1
 10
86.60902362375306
 20
-141.6085982979313
 11
87.10890972211101
 21
-141.0205177425229
 72
     1
 10
87.10890972211101
 20
-141.0205177425229
 11
88.63749579422465
 21
-141.1087121869453
 72
     1
 10
88.63749579422465
 20
-141.1087121869453
 11
87.13819027691956
 21
-142.5787371865776
 72
     1
 10
87.13819027691956
 20
-142.5787371865776
 11
77.08402386675604
 21
-142.5787371865776
 72
     1
 10
77.08402386675604
 20
-142.5787371865776
 11
66.44177691604017
 21
-131.965770522564
 72
     1
 10
66.44177691604017
 20
-131.965770522564
 11
66.47141024861749
 21
-121.9705177472851
 72
     1
 10
66.47141024861749
 20
-121.9705177472851
 11
68.02927687553967
 21
-120.4419316365563
 72
     1
 10
68.02927687553967
 20
-120.4419316365563
 11
68.02927687553967
 21
-121.8530427473146
 72
     1
 10
68.02927687553967
 20
-121.8530427473146
 11
67.41191578017875
 21
-122.5585983026938
 72
     1
 10
67.41191578017875
 20
-122.5585983026938
 11
67.50011022237317
 21
-131.4662371893558
 72
     1
 10
67.50011022237317
 20
-131.4662371893558
 11
72.292243433449
 21
-136.1991038548389
 72
     1
 10
72.292243433449
 20
-136.1991038548389
 11
81.61397264007631
 21
-126.9948494126956
 72
     1
 10
81.61397264007631
 20
-126.9948494126956
 11
81.70216708227073
 21
-110.8259502500712
 72
     1
 10
81.70216708227073
 20
-110.8259502500712
 11
81.70837597100122
 21
-110.8552660833972
 72
     1
 10
81.70837597100122
 20
-110.8552660833972
 11
81.70837597100122
 21
-105.8867438624171
 72
     1
 10
81.70837597100122
 20
-105.8867438624171
 11
81.67253374969341
 21
-105.8281827513206
 97
        0
 75
     2
 76
     1
 98
        0
  0
SPLINE
  5
62
330
1F
100
AcDbEntity
  8
_U+30EC_U+30A4_U+30E4_U+30FC 1
 62
     7
420
 16777215
370
     9
100
AcDbSpline
210
0.0
220
0.0
230
1.0
 70
    11
 71
     3
 72
    17
 73
    13
 74
     0
 42
0.0000000001
 43
0.0000000001
 12
1.0
 22
0.0
 32
0.0
 13
1.0
 23
0.0
 33
0.0
 40
0.0
 40
0.0
 40
0.0
 40
0.0
 40
1.0
 40
1.0
 40
1.0
 40
2.0
 40
2.0
 40
2.0
 40
3.0
 40
3.0
 40
3.0
 40
4.0
 40
4.0
 40
4.0
 40
4.0
 10
113.8611062618278
 20
-127.8901994124719
 30
0.0
 10
113.8611062618278
 20
-127.8350955235967
 30
0.0
 10
113.8163034851931
 20
-127.7902927458303
 30
0.0
 10
113.76119959771
 20
-127.7902927458303
 30
0.0
 10
113.7060604324501
 20
-127.7902927458303
 30
0.0
 10
113.6612929335922
 20
-127.8350955235967
 30
0.0
 10
113.6612929335922
 20
-127.8901994124719
 30
0.0
 10
113.6612929335922
 20
-127.9453385791247
 30
0.0
 10
113.7060604324501
 20
-127.9901060791135
 30
0.0
 10
113.76119959771
 20
-127.9901060791135
 30
0.0
 10
113.8163034851931
 20
-127.9901060791135
 30
0.0
 10
113.8611062618278
 20
-127.9453385791247
 30
0.0
 10
113.8611062618278
 20
-127.8901994124719
 30
0.0
  0
SPLINE
  5
63
330
1F
100
AcDbEntity
  8
_U+30EC_U+30A4_U+30E4_U+30FC 1
 62
     7
420
 16777215
370
     9
100
AcDbSpline
210
0.0
220
0.0
230
1.0
 70
    11
 71
     3
 72
    17
 73
    13
 74
     0
 42
0.0000000001
 43
0.0000000001
 12
1.0
 22
0.0
 32
0.0
 13
1.0
 23
0.0
 33
0.0
 40
0.0
 40
0.0
 40
0.0
 40
0.0
 40
1.0
 40
1.0
 40
1.0
 40
2.0
 40
2.0
 40
2.0
 40
3.0
 40
3.0
 40
3.0
 40
4.0
 40
4.0
 40
4.0
 40
4.0
 10
113.8611062618278
 20
-140.8899194092218
 30
0.0
 10
113.8611062618278
 20
-140.8348155203469
 30
0.0
 10
113.8163034851931
 20
-140.7900127425802
 30
0.0
 10
113.76119959771
 20
-140.7900127425802
 30
0.0
 10
113.7060604324501
 20
-140.7900127425802
 30
0.0
 10
113.6612929335922
 20
-140.8348155203469
 30
0.0
 10
113.6612929335922
 20
-140.8899194092218
 30
0.0
 10
113.6612929335922
 20
-140.9450585758749
 30
0.0
 10
113.7060604324501
 20
-140.9898613536416
 30
0.0
 10
113.76119959771
 20
-140.9898613536416
 30
0.0
 10
113.8163034851931
 20
-140.9898613536416
 30
0.0
 10
113.8611062618278
 20
-140.9450585758749
 30
0.0
 10
113.8611062618278
 20
-140.8899194092218
 30
0.0
  0
SPLINE
  5
64
330
1F
100
AcDbEntity
  8
_U+30EC_U+30A4_U+30E4_U+30FC 1
 62
     7
420
 16777215
370
     9
100
AcDbSpline
210
0.0
220
0.0
230
1.0
 70
    11
 71
     3
 72
    17
 73
    13
 74
     0
 42
0.0000000001
 43
0.0000000001
 12
1.0
 22
0.0
 32
0.0
 13
1.0
 23
0.0
 33
0.0
 40
0.0
 40
0.0
 40
0.0
 40
0.0
 40
1.0
 40
1.0
 40
1.0
 40
2.0
 40
2.0
 40
2.0
 40
3.0
 40
3.0
 40
3.0
 40
4.0
 40
4.0
 40
4.0
 40
4.0
 10
113.8611062618278
 20
-142.4898371865997
 30
0.0
 10
113.8611062618278
 20
-142.4347332977248
 30
0.0
 10
113.8163034851931
 20
-142.3899305199581
 30
0.0
 10
113.76119959771
 20
-142.3899305199581
 30
0.0
 10
113.7060604324501
 20
-142.3899305199581
 30
0.0
 10
113.6612929335922
 20
-142.4347332977248
 30
0.0
 10
113.6612929335922
 20
-142.4898371865997
 30
0.0
 10
113.6612929335922
 20
-142.5456466310302
 30
0.0
 10
113.7060604324501
 20
-142.5904494087969
 30
0.0
 10
113.76119959771
 20
-142.5904494087969
 30
0.0
 10
113.8163034851931
 20
-142.5904494087969
 30
0.0
 10
113.8611062618278
 20
-142.5456466310302
 30
0.0
 10
113.8611062618278
 20
-142.4898371865997
 30
0.0
  0
POLYLINE
  5
65
330
1F
100
AcDbEntity
  8
_U+30EC_U+30A4_U+30E4_U+30FC 1
 62
     7
420
 16777215
370
     9
100
AcDb2dPolyline
 66
     1
 10
0.0
 20
0.0
 30
0.0
  0
VERTEX
  5
66
330
65
100
AcDbEntity
  8
_U+30EC_U+30A4_U+30E4_U+30FC 1
 62
     7
420
 16777215
370
     9
100
AcDbVertex
100
AcDb2dVertex
 10
113.76119959771
 20
-142.4898371865997
 30
0.0
  0
VERTEX
  5
67
330
65
100
AcDbEntity
  8
_U+30EC_U+30A4_U+30E4_U+30FC 1
 62
     7
420
 16777215
370
     9
100
AcDbVertex
100
AcDb2dVertex
 10
113.76119959771
 20
-140.9898613536416
 30
0.0
  0
SEQEND
  5
68
330
65
100
AcDbEntity
  8
_U+30EC_U+30A4_U+30E4_U+30FC 1
 62
     7
420
 16777215
370
     9
  0
POLYLINE
  5
69
330
1F
100
AcDbEntity
  8
_U+30EC_U+30A4_U+30E4_U+30FC 1
 62
     7
420
 16777215
370
     9
100
AcDb2dPolyline
 66
     1
 10
0.0
 20
0.0
 30
0.0
  0
VERTEX
  5
6A
330
69
100
AcDbEntity
  8
_U+30EC_U+30A4_U+30E4_U+30FC 1
 62
     7
420
 16777215
370
     9
100
AcDbVertex
100
AcDb2dVertex
 10
102.3014254456288
 20
-142.4898371865997
 30
0.0
  0
VERTEX
  5
6B
330
69
100
AcDbEntity
  8
_U+30EC_U+30A4_U+30E4_U+30FC 1
 62
     7
420
 16777215
370
     9
100
AcDbVertex
100
AcDb2dVertex
 10
114.7616420721866
 20
-142.4898371865997
 30
0.0
  0
SEQEND
  5
6C
330
69
100
AcDbEntity
  8
_U+30EC_U+30A4_U+30E4_U+30FC 1
 62
     7
420
 16777215
370
     9
  0
POLYLINE
  5
6D
330
1F
100
AcDbEntity
  8
_U+30EC_U+30A4_U+30E4_U+30FC 1
 62
     7
420
 16777215
370
     9
100
AcDb2dPolyline
 66
     1
 10
0.0
 20
0.0
 30
0.0
  0
VERTEX
  5
6E
330
6D
100
AcDbEntity
  8
_U+30EC_U+30A4_U+30E4_U+30FC 1
 62
     7
420
 16777215
370
     9
100
AcDbVertex
100
AcDb2dVertex
 10
102.3014254456288
 20
-140.8899194092218
 30
0.0
  0
VERTEX
  5
6F
330
6D
100
AcDbEntity
  8
_U+30EC_U+30A4_U+30E4_U+30FC 1
 62
     7
420
 16777215
370
     9
100
AcDbVertex
100
AcDb2dVertex
 10
114.7616420721866
 20
-140.8899194092218
 30
0.0
  0
SEQEND
  5
70
330
6D
100
AcDbEntity
  8
_U+30EC_U+30A4_U+30E4_U+30FC 1
 62
     7
420
 16777215
370
     9
  0
INSERT
  5
72
330
1F
100
AcDbEntity
  8
_U+30EC_U+30A4_U+30E4_U+30FC 1
100
AcDbBlockReference
  2
block 2
 10
0.0
 20
0.0
 30
0.0
  0
SPLINE
  5
81
330
1F
100
AcDbEntity
  8
_U+30EC_U+30A4_U+30E4_U+30FC 1
 62
     7
420
 16777215
370
     9
100
AcDbSpline
210
0.0
220
0.0
230
1.0
 70
    11
 71
     3
 72
    17
 73
    13
 74
     0
 42
0.0000000001
 43
0.0000000001
 12
1.0
 22
0.0
 32
0.0
 13
1.0
 23
0.0
 33
0.0
 40
0.0
 40
0.0
 40
0.0
 40
0.0
 40
1.0
 40
1.0
 40
1.0
 40
2.0
 40
2.0
 40
2.0
 40
3.0
 40
3.0
 40
3.0
 40
4.0
 40
4.0
 40
4.0
 40
4.0
 10
113.8611062618278
 20
-126.8904624682775
 30
0.0
 10
113.8611062618278
 20
-126.8353233016245
 30
0.0
 10
113.8163034851931
 20
-126.7905558016356
 30
0.0
 10
113.76119959771
 20
-126.7905558016356
 30
0.0
 10
113.7060604324501
 20
-126.7905558016356
 30
0.0
 10
113.6612929335922
 20
-126.8353233016245
 30
0.0
 10
113.6612929335922
 20
-126.8904624682775
 30
0.0
 10
113.6612929335922
 20
-126.9455663571524
 30
0.0
 10
113.7060604324501
 20
-126.9903691349192
 30
0.0
 10
113.76119959771
 20
-126.9903691349192
 30
0.0
 10
113.8163034851931
 20
-126.9903691349192
 30
0.0
 10
113.8611062618278
 20
-126.9455663571524
 30
0.0
 10
113.8611062618278
 20
-126.8904624682775
 30
0.0
  0
POLYLINE
  5
82
330
1F
100
AcDbEntity
  8
_U+30EC_U+30A4_U+30E4_U+30FC 1
 62
     7
420
 16777215
370
     9
100
AcDb2dPolyline
 66
     1
 10
0.0
 20
0.0
 30
0.0
  0
VERTEX
  5
83
330
82
100
AcDbEntity
  8
_U+30EC_U+30A4_U+30E4_U+30FC 1
 62
     7
420
 16777215
370
     9
100
AcDbVertex
100
AcDb2dVertex
 10
113.76119959771
 20
-127.8901994124719
 30
0.0
  0
VERTEX
  5
84
330
82
100
AcDbEntity
  8
_U+30EC_U+30A4_U+30E4_U+30FC 1
 62
     7
420
 16777215
370
     9
100
AcDbVertex
100
AcDb2dVertex
 10
113.76119959771
 20
-126.8904624682775
 30
0.0
  0
SEQEND
  5
85
330
82
100
AcDbEntity
  8
_U+30EC_U+30A4_U+30E4_U+30FC 1
 62
     7
420
 16777215
370
     9
  0
POLYLINE
  5
86
330
1F
100
AcDbEntity
  8
_U+30EC_U+30A4_U+30E4_U+30FC 1
 62
     7
420
 16777215
370
     9
100
AcDb2dPolyline
 66
     1
 10
0.0
 20
0.0
 30
0.0
  0
VERTEX
  5
87
330
86
100
AcDbEntity
  8
_U+30EC_U+30A4_U+30E4_U+30FC 1
 62
     7
420
 16777215
370
     9
100
AcDbVertex
100
AcDb2dVertex
 10
113.76119959771
 20
-126.8904624682775
 30
0.0
  0
VERTEX
  5
88
330
86
100
AcDbEntity
  8
_U+30EC_U+30A4_U+30E4_U+30FC 1
 62
     7
420
 16777215
370
     9
100
AcDbVertex
100
AcDb2dVertex
 10
113.76119959771
 20
-101.8897363634163
 30
0.0
  0
SEQEND
  5
89
330
86
100
AcDbEntity
  8
_U+30EC_U+30A4_U+30E4_U+30FC 1
 62
     7
420
 16777215
370
     9
  0
POLYLINE
  5
8A
330
1F
100
AcDbEntity
  8
_U+30EC_U+30A4_U+30E4_U+30FC 1
 62
     7
420
 16777215
370
     9
100
AcDb2dPolyline
 66
     1
 10
0.0
 20
0.0
 30
0.0
  0
VERTEX
  5
8B
330
8A
100
AcDbEntity
  8
_U+30EC_U+30A4_U+30E4_U+30FC 1
 62
     7
420
 16777215
370
     9
100
AcDbVertex
100
AcDb2dVertex
 10
113.8672798727815
 20
-127.8901994124719
 30
0.0
  0
VERTEX
  5
8C
330
8A
100
AcDbEntity
  8
_U+30EC_U+30A4_U+30E4_U+30FC 1
 62
     7
420
 16777215
370
     9
100
AcDbVertex
100
AcDb2dVertex
 10
114.7616420721866
 20
-127.8901994124719
 30
0.0
  0
SEQEND
  5
8D
330
8A
100
AcDbEntity
  8
_U+30EC_U+30A4_U+30E4_U+30FC 1
 62
     7
420
 16777215
370
     9
  0
POLYLINE
  5
8E
330
1F
100
AcDbEntity
  8
_U+30EC_U+30A4_U+30E4_U+30FC 1
 62
     7
420
 16777215
370
     9
100
AcDb2dPolyline
 66
     1
 10
0.0
 20
0.0
 30
0.0
  0
VERTEX
  5
8F
330
8E
100
AcDbEntity
  8
_U+30EC_U+30A4_U+30E4_U+30FC 1
 62
     7
420
 16777215
370
     9
100
AcDbVertex
100
AcDb2dVertex
 10
112.3011610830361
 20
-126.8904624682775
 30
0.0
  0
VERTEX
  5
90
330
8E
100
AcDbEntity
  8
_U+30EC_U+30A4_U+30E4_U+30FC 1
 62
     7
420
 16777215
370
     9
100
AcDbVertex
100
AcDb2dVertex
 10
114.7616420721866
 20
-126.8904624682775
 30
0.0
  0
SEQEND
  5
91
330
8E
100
AcDbEntity
  8
_U+30EC_U+30A4_U+30E4_U+30FC 1
 62
     7
420
 16777215
370
     9
  0
SPLINE
  5
92
330
1F
100
AcDbEntity
  8
_U+30EC_U+30A4_U+30E4_U+30FC 1
 62
     7
420
 16777215
370
     9
100
AcDbSpline
210
0.0
220
0.0
230
1.0
 70
    11
 71
     3
 72
    17
 73
    13
 74
     0
 42
0.0000000001
 43
0.0000000001
 12
1.0
 22
0.0
 32
0.0
 13
1.0
 23
0.0
 33
0.0
 40
0.0
 40
0.0
 40
0.0
 40
0.0
 40
1.0
 40
1.0
 40
1.0
 40
2.0
 40
2.0
 40
2.0
 40
3.0
 40
3.0
 40
3.0
 40
4.0
 40
4.0
 40
4.0
 40
4.0
 10
113.8611062618278
 20
-101.8897363634163
 30
0.0
 10
113.8611062618278
 20
-101.8345971967636
 30
0.0
 10
113.8163034851931
 20
-101.7898296967747
 30
0.0
 10
113.76119959771
 20
-101.7898296967747
 30
0.0
 10
113.7060604324501
 20
-101.7898296967747
 30
0.0
 10
113.6612929335922
 20
-101.8345971967636
 30
0.0
 10
113.6612929335922
 20
-101.8897363634163
 30
0.0
 10
113.6612929335922
 20
-101.9448402522916
 30
0.0
 10
113.7060604324501
 20
-101.9896430300583
 30
0.0
 10
113.76119959771
 20
-101.9896430300583
 30
0.0
 10
113.8163034851931
 20
-101.9896430300583
 30
0.0
 10
113.8611062618278
 20
-101.9448402522916
 30
0.0
 10
113.8611062618278
 20
-101.8897363634163
 30
0.0
  0
POLYLINE
  5
93
330
1F
100
AcDbEntity
  8
_U+30EC_U+30A4_U+30E4_U+30FC 1
 62
     7
420
 16777215
370
     9
100
AcDb2dPolyline
 66
     1
 10
0.0
 20
0.0
 30
0.0
  0
VERTEX
  5
94
330
93
100
AcDbEntity
  8
_U+30EC_U+30A4_U+30E4_U+30FC 1
 62
     7
420
 16777215
370
     9
100
AcDbVertex
100
AcDb2dVertex
 10
102.3014254456288
 20
-101.8897363634163
 30
0.0
  0
VERTEX
  5
95
330
93
100
AcDbEntity
  8
_U+30EC_U+30A4_U+30E4_U+30FC 1
 62
     7
420
 16777215
370
     9
100
AcDbVertex
100
AcDb2dVertex
 10
114.7616420721866
 20
-101.8897363634163
 30
0.0
  0
SEQEND
  5
96
330
93
100
AcDbEntity
  8
_U+30EC_U+30A4_U+30E4_U+30FC 1
 62
     7
420
 16777215
370
     9
  0
INSERT
  5
98
330
1F
100
AcDbEntity
  8
_U+30EC_U+30A4_U+30E4_U+30FC 1
100
AcDbBlockReference
  2
block 3
 10
0.0
 20
0.0
 30
0.0
  0
INSERT
  5
9E
330
1F
100
AcDbEntity
  8
_U+30EC_U+30A4_U+30E4_U+30FC 1
100
AcDbBlockReference
  2
block 4
 10
0.0
 20
0.0
 30
0.0
  0
POLYLINE
  5
A5
330
1F
100
AcDbEntity
  8
_U+30EC_U+30A4_U+30E4_U+30FC 1
 62
     7
420
 16777215
370
     9
100
AcDb2dPolyline
 66
     1
 10
0.0
 20
0.0
 30
0.0
  0
VERTEX
  5
A6
330
A5
100
AcDbEntity
  8
_U+30EC_U+30A4_U+30E4_U+30FC 1
 62
     7
420
 16777215
370
     9
100
AcDbVertex
100
AcDb2dVertex
 10
113.76119959771
 20
-140.8899194092218
 30
0.0
  0
VERTEX
  5
A7
330
A5
100
AcDbEntity
  8
_U+30EC_U+30A4_U+30E4_U+30FC 1
 62
     7
420
 16777215
370
     9
100
AcDbVertex
100
AcDb2dVertex
 10
113.76119959771
 20
-127.8901994124719
 30
0.0
  0
SEQEND
  5
A8
330
A5
100
AcDbEntity
  8
_U+30EC_U+30A4_U+30E4_U+30FC 1
 62
     7
420
 16777215
370
     9
  0
POLYLINE
  5
A9
330
1F
100
AcDbEntity
  8
_U+30EC_U+30A4_U+30E4_U+30FC 1
 62
     7
420
 16777215
370
     9
100
AcDb2dPolyline
 66
     1
 10
0.0
 20
0.0
 30
0.0
  0
VERTEX
  5
AA
330
A9
100
AcDbEntity
  8
_U+30EC_U+30A4_U+30E4_U+30FC 1
 62
     7
420
 16777215
370
     9
100
AcDbVertex
100
AcDb2dVertex
 10
112.3011610830361
 20
-127.8901994124719
 30
0.0
  0
VERTEX
  5
AB
330
A9
100
AcDbEntity
  8
_U+30EC_U+30A4_U+30E4_U+30FC 1
 62
     7
420
 16777215
370
     9
100
AcDbVertex
100
AcDb2dVertex
 10
114.7616420721866
 20
-127.8901994124719
 30
0.0
  0
SEQEND
  5
AC
330
A9
100
AcDbEntity
  8
_U+30EC_U+30A4_U+30E4_U+30FC 1
 62
     7
420
 16777215
370
     9
  0
INSERT
  5
AE
330
1F
100
AcDbEntity
  8
_U+30EC_U+30A4_U+30E4_U+30FC 1
100
AcDbBlockReference
  2
block 5
 10
0.0
 20
0.0
 30
0.0
  0
INSERT
  5
B6
330
1F
100
AcDbEntity
  8
_U+30EC_U+30A4_U+30E4_U+30FC 1
100
AcDbBlockReference
  2
block 6
 10
0.0
 20
0.0
 30
0.0
  0
SPLINE
  5
BD
330
1F
100
AcDbEntity
  8
_U+30EC_U+30A4_U+30E4_U+30FC 1
 62
     7
420
 16777215
370
     9
100
AcDbSpline
210
0.0
220
0.0
230
1.0
 70
    11
 71
     3
 72
    17
 73
    13
 74
     0
 42
0.0000000001
 43
0.0000000001
 12
1.0
 22
0.0
 32
0.0
 13
1.0
 23
0.0
 33
0.0
 40
0.0
 40
0.0
 40
0.0
 40
0.0
 40
1.0
 40
1.0
 40
1.0
 40
2.0
 40
2.0
 40
2.0
 40
3.0
 40
3.0
 40
3.0
 40
4.0
 40
4.0
 40
4.0
 40
4.0
 10
77.28313163945417
 20
-148.7289238517069
 30
0.0
 10
77.28313163945417
 20
-148.6737846850538
 30
0.0
 10
77.23836414059627
 20
-148.6289819072871
 30
0.0
 10
77.18322497533633
 20
-148.6289819072871
 30
0.0
 10
77.12812108785326
 20
-148.6289819072871
 30
0.0
 10
77.08331831121849
 20
-148.6737846850538
 30
0.0
 10
77.08331831121849
 20
-148.7289238517069
 30
0.0
 10
77.08331831121849
 20
-148.7840277405818
 30
0.0
 10
77.12812108785326
 20
-148.8288305183485
 30
0.0
 10
77.18322497533633
 20
-148.8288305183485
 30
0.0
 10
77.23836414059627
 20
-148.8288305183485
 30
0.0
 10
77.28313163945417
 20
-148.7840277405818
 30
0.0
 10
77.28313163945417
 20
-148.7289238517069
 30
0.0
  0
SPLINE
  5
BE
330
1F
100
AcDbEntity
  8
_U+30EC_U+30A4_U+30E4_U+30FC 1
 62
     7
420
 16777215
370
     9
100
AcDbSpline
210
0.0
220
0.0
230
1.0
 70
    11
 71
     3
 72
    17
 73
    13
 74
     0
 42
0.0000000001
 43
0.0000000001
 12
1.0
 22
0.0
 32
0.0
 13
1.0
 23
0.0
 33
0.0
 40
0.0
 40
0.0
 40
0.0
 40
0.0
 40
1.0
 40
1.0
 40
1.0
 40
2.0
 40
2.0
 40
2.0
 40
3.0
 40
3.0
 40
3.0
 40
4.0
 40
4.0
 40
4.0
 40
4.0
 10
88.88309967684765
 20
-148.7289238517069
 30
0.0
 10
88.88309967684765
 20
-148.6737846850538
 30
0.0
 10
88.83833217798977
 20
-148.6289819072871
 30
0.0
 10
88.78319301272982
 20
-148.6289819072871
 30
0.0
 10
88.72808912524675
 20
-148.6289819072871
 30
0.0
 10
88.68328634861199
 20
-148.6737846850538
 30
0.0
 10
88.68328634861199
 20
-148.7289238517069
 30
0.0
 10
88.68328634861199
 20
-148.7840277405818
 30
0.0
 10
88.72808912524675
 20
-148.8288305183485
 30
0.0
 10
88.78319301272982
 20
-148.8288305183485
 30
0.0
 10
88.83833217798977
 20
-148.8288305183485
 30
0.0
 10
88.88309967684765
 20
-148.7840277405818
 30
0.0
 10
88.88309967684765
 20
-148.7289238517069
 30
0.0
  0
SPLINE
  5
BF
330
1F
100
AcDbEntity
  8
_U+30EC_U+30A4_U+30E4_U+30FC 1
 62
     7
420
 16777215
370
     9
100
AcDbSpline
210
0.0
220
0.0
230
1.0
 70
    11
 71
     3
 72
    17
 73
    13
 74
     0
 42
0.0000000001
 43
0.0000000001
 12
1.0
 22
0.0
 32
0.0
 13
1.0
 23
0.0
 33
0.0
 40
0.0
 40
0.0
 40
0.0
 40
0.0
 40
1.0
 40
1.0
 40
1.0
 40
2.0
 40
2.0
 40
2.0
 40
3.0
 40
3.0
 40
3.0
 40
4.0
 40
4.0
 40
4.0
 40
4.0
 10
87.38379415954257
 20
-148.7289238517069
 30
0.0
 10
87.38379415954257
 20
-148.6737846850538
 30
0.0
 10
87.33902666068468
 20
-148.6289819072871
 30
0.0
 10
87.28321942262377
 20
-148.6289819072871
 30
0.0
 10
87.22807805240411
 20
-148.6289819072871
 30
0.0
 10
87.18331055354622
 20
-148.6737846850538
 30
0.0
 10
87.18331055354622
 20
-148.7289238517069
 30
0.0
 10
87.18331055354622
 20
-148.7840277405818
 30
0.0
 10
87.22807805240411
 20
-148.8288305183485
 30
0.0
 10
87.28321942262377
 20
-148.8288305183485
 30
0.0
 10
87.33902666068468
 20
-148.8288305183485
 30
0.0
 10
87.38379415954257
 20
-148.7840277405818
 30
0.0
 10
87.38379415954257
 20
-148.7289238517069
 30
0.0
  0
POLYLINE
  5
C0
330
1F
100
AcDbEntity
  8
_U+30EC_U+30A4_U+30E4_U+30FC 1
 62
     7
420
 16777215
370
     9
100
AcDb2dPolyline
 66
     1
 10
0.0
 20
0.0
 30
0.0
  0
VERTEX
  5
C1
330
C0
100
AcDbEntity
  8
_U+30EC_U+30A4_U+30E4_U+30FC 1
 62
     7
420
 16777215
370
     9
100
AcDbVertex
100
AcDb2dVertex
 10
77.18322497533633
 20
-148.7289238517069
 30
0.0
  0
VERTEX
  5
C2
330
C0
100
AcDbEntity
  8
_U+30EC_U+30A4_U+30E4_U+30FC 1
 62
     7
420
 16777215
370
     9
100
AcDbVertex
100
AcDb2dVertex
 10
87.18331055354622
 20
-148.7289238517069
 30
0.0
  0
SEQEND
  5
C3
330
C0
100
AcDbEntity
  8
_U+30EC_U+30A4_U+30E4_U+30FC 1
 62
     7
420
 16777215
370
     9
  0
POLYLINE
  5
C4
330
1F
100
AcDbEntity
  8
_U+30EC_U+30A4_U+30E4_U+30FC 1
 62
     7
420
 16777215
370
     9
100
AcDb2dPolyline
 66
     1
 10
0.0
 20
0.0
 30
0.0
  0
VERTEX
  5
C5
330
C4
100
AcDbEntity
  8
_U+30EC_U+30A4_U+30E4_U+30FC 1
 62
     7
420
 16777215
370
     9
100
AcDbVertex
100
AcDb2dVertex
 10
77.18322497533633
 20
-147.2688824631825
 30
0.0
  0
VERTEX
  5
C6
330
C4
100
AcDbEntity
  8
_U+30EC_U+30A4_U+30E4_U+30FC 1
 62
     7
420
 16777215
370
     9
100
AcDbVertex
100
AcDb2dVertex
 10
77.18322497533633
 20
-149.7286607959012
 30
0.0
  0
SEQEND
  5
C7
330
C4
100
AcDbEntity
  8
_U+30EC_U+30A4_U+30E4_U+30FC 1
 62
     7
420
 16777215
370
     9
  0
SPLINE
  5
C8
330
1F
100
AcDbEntity
  8
_U+30EC_U+30A4_U+30E4_U+30FC 1
 62
     7
420
 16777215
370
     9
100
AcDbSpline
210
0.0
220
0.0
230
1.0
 70
    11
 71
     3
 72
    17
 73
    13
 74
     0
 42
0.0000000001
 43
0.0000000001
 12
1.0
 22
0.0
 32
0.0
 13
1.0
 23
0.0
 33
0.0
 40
0.0
 40
0.0
 40
0.0
 40
0.0
 40
1.0
 40
1.0
 40
1.0
 40
2.0
 40
2.0
 40
2.0
 40
3.0
 40
3.0
 40
3.0
 40
4.0
 40
4.0
 40
4.0
 40
4.0
 10
72.28120148928626
 20
-147.4535263520252
 30
0.0
 10
72.3204656549512
 20
-147.4142621853689
 30
0.0
 10
72.3204656549512
 20
-147.3508680187178
 30
0.0
 10
72.28155426705503
 20
-147.3116038520608
 30
0.0
 10
72.24260760138198
 20
-147.2730099631818
 30
0.0
 10
72.17921343633263
 20
-147.2730099631818
 30
0.0
 10
72.13994927066767
 20
-147.3122741298388
 30
0.0
 10
72.1010378827715
 20
-147.3508680187178
 30
0.0
 10
72.1010378827715
 20
-147.4142621853689
 30
0.0
 10
72.13994927066767
 20
-147.4535263520252
 30
0.0
 10
72.17889593634074
 20
-147.4921202409049
 30
0.0
 10
72.24229010139008
 20
-147.4921202409049
 30
0.0
 10
72.28120148928626
 20
-147.4535263520252
 30
0.0
  0
POLYLINE
  5
C9
330
1F
100
AcDbEntity
  8
_U+30EC_U+30A4_U+30E4_U+30FC 1
 62
     7
420
 16777215
370
     9
100
AcDb2dPolyline
 66
     1
 10
0.0
 20
0.0
 30
0.0
  0
VERTEX
  5
CA
330
C9
100
AcDbEntity
  8
_U+30EC_U+30A4_U+30E4_U+30FC 1
 62
     7
420
 16777215
370
     9
100
AcDbVertex
100
AcDb2dVertex
 10
73.24308535363544
 20
-146.3504255189679
 30
0.0
  0
VERTEX
  5
CB
330
C9
100
AcDbEntity
  8
_U+30EC_U+30A4_U+30E4_U+30FC 1
 62
     7
420
 16777215
370
     9
100
AcDbVertex
100
AcDb2dVertex
 10
71.50364400912339
 20
-148.0895141296445
 30
0.0
  0
SEQEND
  5
CC
330
C9
100
AcDbEntity
  8
_U+30EC_U+30A4_U+30E4_U+30FC 1
 62
     7
420
 16777215
370
     9
  0
SPLINE
  5
CD
330
1F
100
AcDbEntity
  8
_U+30EC_U+30A4_U+30E4_U+30FC 1
 62
     7
420
 16777215
370
     9
100
AcDbSpline
210
0.0
220
0.0
230
1.0
 70
    11
 71
     3
 72
    17
 73
    13
 74
     0
 42
0.0000000001
 43
0.0000000001
 12
1.0
 22
0.0
 32
0.0
 13
1.0
 23
0.0
 33
0.0
 40
0.0
 40
0.0
 40
0.0
 40
0.0
 40
1.0
 40
1.0
 40
1.0
 40
2.0
 40
2.0
 40
2.0
 40
3.0
 40
3.0
 40
3.0
 40
4.0
 40
4.0
 40
4.0
 40
4.0
 10
61.71614231437893
 20
-136.9329169102114
 30
0.0
 10
61.75540648004388
 20
-136.8936174657769
 30
0.0
 10
61.75540648004388
 20
-136.8302232991259
 30
0.0
 10
61.7168125921396
 20
-136.7909591324688
 30
0.0
 10
61.67754998458056
 20
-136.7523652435898
 30
0.0
 10
61.6141542614253
 20
-136.7523652435898
 30
0.0
 10
61.57489165127283
 20
-136.7916646880244
 30
0.0
 10
61.53629620785607
 20
-136.8302232991259
 30
0.0
 10
61.53629620785607
 20
-136.8936174657769
 30
0.0
 10
61.57489165127283
 20
-136.9329169102114
 30
0.0
 10
61.6141542614253
 20
-136.9714755213129
 30
0.0
 10
61.67754998458056
 20
-136.9714755213129
 30
0.0
 10
61.71614231437893
 20
-136.9329169102114
 30
0.0
  0
POLYLINE
  5
CE
330
1F
100
AcDbEntity
  8
_U+30EC_U+30A4_U+30E4_U+30FC 1
 62
     7
420
 16777215
370
     9
100
AcDb2dPolyline
 66
     1
 10
0.0
 20
0.0
 30
0.0
  0
VERTEX
  5
CF
330
CE
100
AcDbEntity
  8
_U+30EC_U+30A4_U+30E4_U+30FC 1
 62
     7
420
 16777215
370
     9
100
AcDbVertex
100
AcDb2dVertex
 10
62.67799090095124
 20
-135.829780799376
 30
0.0
  0
VERTEX
  5
D0
330
CE
100
AcDbEntity
  8
_U+30EC_U+30A4_U+30E4_U+30FC 1
 62
     7
420
 16777215
370
     9
100
AcDbVertex
100
AcDb2dVertex
 10
60.93890233420797
 20
-137.5688694100525
 30
0.0
  0
SEQEND
  5
D1
330
CE
100
AcDbEntity
  8
_U+30EC_U+30A4_U+30E4_U+30FC 1
 62
     7
420
 16777215
370
     9
  0
INSERT
  5
D3
330
1F
100
AcDbEntity
  8
_U+30EC_U+30A4_U+30E4_U+30FC 1
100
AcDbBlockReference
  2
block 7
 10
0.0
 20
0.0
 30
0.0
  0
POLYLINE
  5
DB
330
1F
100
AcDbEntity
  8
_U+30EC_U+30A4_U+30E4_U+30FC 1
 62
     7
420
 16777215
370
     9
100
AcDb2dPolyline
 66
     1
 10
0.0
 20
0.0
 30
0.0
  0
VERTEX
  5
DC
330
DB
100
AcDbEntity
  8
_U+30EC_U+30A4_U+30E4_U+30FC 1
 62
     7
420
 16777215
370
     9
100
AcDbVertex
100
AcDb2dVertex
 10
87.28321942262377
 20
-148.7289238517069
 30
0.0
  0
VERTEX
  5
DD
330
DB
100
AcDbEntity
  8
_U+30EC_U+30A4_U+30E4_U+30FC 1
 62
     7
420
 16777215
370
     9
100
AcDbVertex
100
AcDb2dVertex
 10
88.78319301272982
 20
-148.7289238517069
 30
0.0
  0
SEQEND
  5
DE
330
DB
100
AcDbEntity
  8
_U+30EC_U+30A4_U+30E4_U+30FC 1
 62
     7
420
 16777215
370
     9
  0
POLYLINE
  5
DF
330
1F
100
AcDbEntity
  8
_U+30EC_U+30A4_U+30E4_U+30FC 1
 62
     7
420
 16777215
370
     9
100
AcDb2dPolyline
 66
     1
 10
0.0
 20
0.0
 30
0.0
  0
VERTEX
  5
E0
330
DF
100
AcDbEntity
  8
_U+30EC_U+30A4_U+30E4_U+30FC 1
 62
     7
420
 16777215
370
     9
100
AcDbVertex
100
AcDb2dVertex
 10
87.28321942262377
 20
-147.2688824631825
 30
0.0
  0
VERTEX
  5
E1
330
DF
100
AcDbEntity
  8
_U+30EC_U+30A4_U+30E4_U+30FC 1
 62
     7
420
 16777215
370
     9
100
AcDbVertex
100
AcDb2dVertex
 10
87.28321942262377
 20
-149.7286607959012
 30
0.0
  0
SEQEND
  5
E2
330
DF
100
AcDbEntity
  8
_U+30EC_U+30A4_U+30E4_U+30FC 1
 62
     7
420
 16777215
370
     9
  0
POLYLINE
  5
E3
330
1F
100
AcDbEntity
  8
_U+30EC_U+30A4_U+30E4_U+30FC 1
 62
     7
420
 16777215
370
     9
100
AcDb2dPolyline
 66
     1
 10
0.0
 20
0.0
 30
0.0
  0
VERTEX
  5
E4
330
E3
100
AcDbEntity
  8
_U+30EC_U+30A4_U+30E4_U+30FC 1
 62
     7
420
 16777215
370
     9
100
AcDbVertex
100
AcDb2dVertex
 10
88.78319301272982
 20
-147.2688824631825
 30
0.0
  0
VERTEX
  5
E5
330
E3
100
AcDbEntity
  8
_U+30EC_U+30A4_U+30E4_U+30FC 1
 62
     7
420
 16777215
370
     9
100
AcDbVertex
100
AcDb2dVertex
 10
88.78319301272982
 20
-149.7286607959012
 30
0.0
  0
SEQEND
  5
E6
330
E3
100
AcDbEntity
  8
_U+30EC_U+30A4_U+30E4_U+30FC 1
 62
     7
420
 16777215
370
     9
  0
INSERT
  5
E8
330
1F
100
AcDbEntity
  8
_U+30EC_U+30A4_U+30E4_U+30FC 1
100
AcDbBlockReference
  2
block 8
 10
0.0
 20
0.0
 30
0.0
  0
POLYLINE
  5
F7
330
1F
100
AcDbEntity
  8
_U+30EC_U+30A4_U+30E4_U+30FC 1
 62
     7
420
 16777215
370
    25
100
AcDb2dPolyline
 66
     1
 10
0.0
 20
0.0
 30
0.0
  0
VERTEX
  5
F8
330
F7
100
AcDbEntity
  8
_U+30EC_U+30A4_U+30E4_U+30FC 1
 62
     7
420
 16777215
370
    25
100
AcDbVertex
100
AcDb2dVertex
 10
77.08331831121849
 20
-142.5904494087969
 30
0.0
  0
VERTEX
  5
F9
330
F7
100
AcDbEntity
  8
_U+30EC_U+30A4_U+30E4_U+30FC 1
 62
     7
420
 16777215
370
    25
100
AcDbVertex
100
AcDb2dVertex
 10
87.08340388942838
 20
-142.5904494087969
 30
0.0
  0
SEQEND
  5
FA
330
F7
100
AcDbEntity
  8
_U+30EC_U+30A4_U+30E4_U+30FC 1
 62
     7
420
 16777215
370
    25
  0
POLYLINE
  5
FB
330
1F
100
AcDbEntity
  8
_U+30EC_U+30A4_U+30E4_U+30FC 1
 62
     7
420
 16777215
370
    25
100
AcDb2dPolyline
 66
     1
 10
0.0
 20
0.0
 30
0.0
  0
VERTEX
  5
FC
330
FB
100
AcDbEntity
  8
_U+30EC_U+30A4_U+30E4_U+30FC 1
 62
     7
420
 16777215
370
    25
100
AcDbVertex
100
AcDb2dVertex
 10
77.66691857410738
 20
-141.5906771868243
 30
0.0
  0
VERTEX
  5
FD
330
FB
100
AcDbEntity
  8
_U+30EC_U+30A4_U+30E4_U+30FC 1
 62
     7
420
 16777215
370
    25
100
AcDbVertex
100
AcDb2dVertex
 10
86.54425362540547
 20
-141.5906771868243
 30
0.0
  0
SEQEND
  5
FE
330
FB
100
AcDbEntity
  8
_U+30EC_U+30A4_U+30E4_U+30FC 1
 62
     7
420
 16777215
370
    25
  0
POLYLINE
  5
FF
330
1F
100
AcDbEntity
  8
_U+30EC_U+30A4_U+30E4_U+30FC 1
 62
     7
420
 16777215
370
    25
100
AcDb2dPolyline
 66
     1
 10
0.0
 20
0.0
 30
0.0
  0
VERTEX
  5
100
330
FF
100
AcDbEntity
  8
_U+30EC_U+30A4_U+30E4_U+30FC 1
 62
     7
420
 16777215
370
    25
100
AcDbVertex
100
AcDb2dVertex
 10
87.08340388942838
 20
-142.5904494087969
 30
0.0
  0
VERTEX
  5
101
330
FF
100
AcDbEntity
  8
_U+30EC_U+30A4_U+30E4_U+30FC 1
 62
     7
420
 16777215
370
    25
100
AcDbVertex
100
AcDb2dVertex
 10
88.6729499599868
 20
-141.0008680203053
 30
0.0
  0
SEQEND
  5
102
330
FF
100
AcDbEntity
  8
_U+30EC_U+30A4_U+30E4_U+30FC 1
 62
     7
420
 16777215
370
    25
  0
POLYLINE
  5
103
330
1F
100
AcDbEntity
  8
_U+30EC_U+30A4_U+30E4_U+30FC 1
 62
     7
420
 16777215
370
    25
100
AcDb2dPolyline
 66
     1
 10
0.0
 20
0.0
 30
0.0
  0
VERTEX
  5
104
330
103
100
AcDbEntity
  8
_U+30EC_U+30A4_U+30E4_U+30FC 1
 62
     7
420
 16777215
370
    25
100
AcDbVertex
100
AcDb2dVertex
 10
86.54425362540547
 20
-141.6271896868156
 30
0.0
  0
VERTEX
  5
105
330
103
100
AcDbEntity
  8
_U+30EC_U+30A4_U+30E4_U+30FC 1
 62
     7
420
 16777215
370
    25
100
AcDbVertex
100
AcDb2dVertex
 10
87.17745444258452
 20
-140.9946591314183
 30
0.0
  0
SEQEND
  5
106
330
103
100
AcDbEntity
  8
_U+30EC_U+30A4_U+30E4_U+30FC 1
 62
     7
420
 16777215
370
    25
  0
POLYLINE
  5
107
330
1F
100
AcDbEntity
  8
_U+30EC_U+30A4_U+30E4_U+30FC 1
 62
     7
420
 16777215
370
    25
100
AcDb2dPolyline
 66
     1
 10
0.0
 20
0.0
 30
0.0
  0
VERTEX
  5
108
330
107
100
AcDbEntity
  8
_U+30EC_U+30A4_U+30E4_U+30FC 1
 62
     7
420
 16777215
370
    25
100
AcDbVertex
100
AcDb2dVertex
 10
67.53143688824062
 20
-131.5454710782247
 30
0.0
  0
VERTEX
  5
109
330
107
100
AcDbEntity
  8
_U+30EC_U+30A4_U+30E4_U+30FC 1
 62
     7
420
 16777215
370
    25
100
AcDbVertex
100
AcDb2dVertex
 10
72.19678176921776
 20
-136.2101105215033
 30
0.0
  0
SEQEND
  5
10A
330
107
100
AcDbEntity
  8
_U+30EC_U+30A4_U+30E4_U+30FC 1
 62
     7
420
 16777215
370
    25
  0
POLYLINE
  5
10B
330
1F
100
AcDbEntity
  8
_U+30EC_U+30A4_U+30E4_U+30FC 1
 62
     7
420
 16777215
370
    25
100
AcDb2dPolyline
 66
     1
 10
0.0
 20
0.0
 30
0.0
  0
VERTEX
  5
10C
330
10B
100
AcDbEntity
  8
_U+30EC_U+30A4_U+30E4_U+30FC 1
 62
     7
420
 16777215
370
    25
100
AcDbVertex
100
AcDb2dVertex
 10
72.9926131378033
 20
-136.9356685768772
 30
0.0
  0
VERTEX
  5
10D
330
10B
100
AcDbEntity
  8
_U+30EC_U+30A4_U+30E4_U+30FC 1
 62
     7
420
 16777215
370
    25
100
AcDbVertex
100
AcDb2dVertex
 10
77.5518444250566
 20
-141.494898020182
 30
0.0
  0
SEQEND
  5
10E
330
10B
100
AcDbEntity
  8
_U+30EC_U+30A4_U+30E4_U+30FC 1
 62
     7
420
 16777215
370
    25
  0
POLYLINE
  5
10F
330
1F
100
AcDbEntity
  8
_U+30EC_U+30A4_U+30E4_U+30FC 1
 62
     7
420
 16777215
370
    25
100
AcDb2dPolyline
 66
     1
 10
0.0
 20
0.0
 30
0.0
  0
VERTEX
  5
110
330
10F
100
AcDbEntity
  8
_U+30EC_U+30A4_U+30E4_U+30FC 1
 62
     7
420
 16777215
370
    25
100
AcDbVertex
100
AcDb2dVertex
 10
87.22913638571045
 20
-141.0008680203053
 30
0.0
  0
VERTEX
  5
111
330
10F
100
AcDbEntity
  8
_U+30EC_U+30A4_U+30E4_U+30FC 1
 62
     7
420
 16777215
370
    25
100
AcDbVertex
100
AcDb2dVertex
 10
88.7291121807762
 20
-141.0008680203053
 30
0.0
  0
SEQEND
  5
112
330
10F
100
AcDbEntity
  8
_U+30EC_U+30A4_U+30E4_U+30FC 1
 62
     7
420
 16777215
370
    25
  0
POLYLINE
  5
113
330
1F
100
AcDbEntity
  8
_U+30EC_U+30A4_U+30E4_U+30FC 1
 62
     7
420
 16777215
370
    25
100
AcDb2dPolyline
 66
     1
 10
0.0
 20
0.0
 30
0.0
  0
VERTEX
  5
114
330
113
100
AcDbEntity
  8
_U+30EC_U+30A4_U+30E4_U+30FC 1
 62
     7
420
 16777215
370
    25
100
AcDbVertex
100
AcDb2dVertex
 10
66.47656080404164
 20
-131.9836916336709
 30
0.0
  0
VERTEX
  5
115
330
113
100
AcDbEntity
  8
_U+30EC_U+30A4_U+30E4_U+30FC 1
 62
     7
420
 16777215
370
    25
100
AcDbVertex
100
AcDb2dVertex
 10
66.47656080404164
 20
-121.983958580615
 30
0.0
  0
SEQEND
  5
116
330
113
100
AcDbEntity
  8
_U+30EC_U+30A4_U+30E4_U+30FC 1
 62
     7
420
 16777215
370
    25
  0
POLYLINE
  5
117
330
1F
100
AcDbEntity
  8
_U+30EC_U+30A4_U+30E4_U+30FC 1
 62
     7
420
 16777215
370
    25
100
AcDb2dPolyline
 66
     1
 10
0.0
 20
0.0
 30
0.0
  0
VERTEX
  5
118
330
117
100
AcDbEntity
  8
_U+30EC_U+30A4_U+30E4_U+30FC 1
 62
     7
420
 16777215
370
    25
100
AcDbVertex
100
AcDb2dVertex
 10
67.43982220536215
 20
-131.5454710782247
 30
0.0
  0
VERTEX
  5
119
330
117
100
AcDbEntity
  8
_U+30EC_U+30A4_U+30E4_U+30FC 1
 62
     7
420
 16777215
370
    25
100
AcDbVertex
100
AcDb2dVertex
 10
67.43982220536215
 20
-122.6681358026663
 30
0.0
  0
SEQEND
  5
11A
330
117
100
AcDbEntity
  8
_U+30EC_U+30A4_U+30E4_U+30FC 1
 62
     7
420
 16777215
370
    25
  0
POLYLINE
  5
11B
330
1F
100
AcDbEntity
  8
_U+30EC_U+30A4_U+30E4_U+30FC 1
 62
     7
420
 16777215
370
    25
100
AcDb2dPolyline
 66
     1
 10
0.0
 20
0.0
 30
0.0
  0
VERTEX
  5
11C
330
11B
100
AcDbEntity
  8
_U+30EC_U+30A4_U+30E4_U+30FC 1
 62
     7
420
 16777215
370
    25
100
AcDbVertex
100
AcDb2dVertex
 10
66.47656080404164
 20
-121.983958580615
 30
0.0
  0
VERTEX
  5
11D
330
11B
100
AcDbEntity
  8
_U+30EC_U+30A4_U+30E4_U+30FC 1
 62
     7
420
 16777215
370
    25
100
AcDbVertex
100
AcDb2dVertex
 10
68.06614215237693
 20
-120.3943771921238
 30
0.0
  0
SEQEND
  5
11E
330
11B
100
AcDbEntity
  8
_U+30EC_U+30A4_U+30E4_U+30FC 1
 62
     7
420
 16777215
370
    25
  0
POLYLINE
  5
11F
330
1F
100
AcDbEntity
  8
_U+30EC_U+30A4_U+30E4_U+30FC 1
 62
     7
420
 16777215
370
    25
100
AcDb2dPolyline
 66
     1
 10
0.0
 20
0.0
 30
0.0
  0
VERTEX
  5
120
330
11F
100
AcDbEntity
  8
_U+30EC_U+30A4_U+30E4_U+30FC 1
 62
     7
420
 16777215
370
    25
100
AcDbVertex
100
AcDb2dVertex
 10
67.43982220536215
 20
-122.5227560804805
 30
0.0
  0
VERTEX
  5
121
330
11F
100
AcDbEntity
  8
_U+30EC_U+30A4_U+30E4_U+30FC 1
 62
     7
420
 16777215
370
    25
100
AcDbVertex
100
AcDb2dVertex
 10
68.07231576333054
 20
-121.8895552473056
 30
0.0
  0
SEQEND
  5
122
330
11F
100
AcDbEntity
  8
_U+30EC_U+30A4_U+30E4_U+30FC 1
 62
     7
420
 16777215
370
    25
  0
POLYLINE
  5
123
330
1F
100
AcDbEntity
  8
_U+30EC_U+30A4_U+30E4_U+30FC 1
 62
     7
420
 16777215
370
    25
100
AcDb2dPolyline
 66
     1
 10
0.0
 20
0.0
 30
0.0
  0
VERTEX
  5
124
330
123
100
AcDbEntity
  8
_U+30EC_U+30A4_U+30E4_U+30FC 1
 62
     7
420
 16777215
370
    25
100
AcDbVertex
100
AcDb2dVertex
 10
68.06614215237693
 20
-121.8378733028738
 30
0.0
  0
VERTEX
  5
125
330
123
100
AcDbEntity
  8
_U+30EC_U+30A4_U+30E4_U+30FC 1
 62
     7
420
 16777215
370
    25
100
AcDbVertex
100
AcDb2dVertex
 10
68.06614215237693
 20
-120.3378621921378
 30
0.0
  0
SEQEND
  5
126
330
123
100
AcDbEntity
  8
_U+30EC_U+30A4_U+30E4_U+30FC 1
 62
     7
420
 16777215
370
    25
  0
POLYLINE
  5
127
330
1F
100
AcDbEntity
  8
_U+30EC_U+30A4_U+30E4_U+30FC 1
 62
     7
420
 16777215
370
    25
100
AcDb2dPolyline
 66
     1
 10
0.0
 20
0.0
 30
0.0
  0
VERTEX
  5
128
330
127
100
AcDbEntity
  8
_U+30EC_U+30A4_U+30E4_U+30FC 1
 62
     7
420
 16777215
370
    25
100
AcDbVertex
100
AcDb2dVertex
 10
82.78152594362288
 20
-127.0234244126885
 30
0.0
  0
VERTEX
  5
129
330
127
100
AcDbEntity
  8
_U+30EC_U+30A4_U+30E4_U+30FC 1
 62
     7
420
 16777215
370
    25
100
AcDbVertex
100
AcDb2dVertex
 10
107.7818633613667
 20
-127.0234244126885
 30
0.0
  0
SEQEND
  5
12A
330
127
100
AcDbEntity
  8
_U+30EC_U+30A4_U+30E4_U+30FC 1
 62
     7
420
 16777215
370
    25
  0
POLYLINE
  5
12B
330
1F
100
AcDbEntity
  8
_U+30EC_U+30A4_U+30E4_U+30FC 1
 62
     7
420
 16777215
370
    25
100
AcDb2dPolyline
 66
     1
 10
0.0
 20
0.0
 30
0.0
  0
VERTEX
  5
12C
330
12B
100
AcDbEntity
  8
_U+30EC_U+30A4_U+30E4_U+30FC 1
 62
     7
420
 16777215
370
    25
100
AcDbVertex
100
AcDb2dVertex
 10
82.17862873678185
 20
-128.023196634661
 30
0.0
  0
VERTEX
  5
12D
330
12B
100
AcDbEntity
  8
_U+30EC_U+30A4_U+30E4_U+30FC 1
 62
     7
420
 16777215
370
    25
100
AcDbVertex
100
AcDb2dVertex
 10
98.78190275764149
 20
-128.023196634661
 30
0.0
  0
VERTEX
  5
12E
330
12B
100
AcDbEntity
  8
_U+30EC_U+30A4_U+30E4_U+30FC 1
 62
     7
420
 16777215
370
    25
100
AcDbVertex
100
AcDb2dVertex
 10
103.7821042967424
 20
-128.023196634661
 30
0.0
  0
SEQEND
  5
12F
330
12B
100
AcDbEntity
  8
_U+30EC_U+30A4_U+30E4_U+30FC 1
 62
     7
420
 16777215
370
    25
  0
POLYLINE
  5
130
330
1F
100
AcDbEntity
  8
_U+30EC_U+30A4_U+30E4_U+30FC 1
 62
     7
420
 16777215
370
    25
100
AcDb2dPolyline
 66
     1
 10
0.0
 20
0.0
 30
0.0
  0
VERTEX
  5
131
330
130
100
AcDbEntity
  8
_U+30EC_U+30A4_U+30E4_U+30FC 1
 62
     7
420
 16777215
370
    25
100
AcDbVertex
100
AcDb2dVertex
 10
107.7818633613667
 20
-127.0234244126885
 30
0.0
  0
VERTEX
  5
132
330
130
100
AcDbEntity
  8
_U+30EC_U+30A4_U+30E4_U+30FC 1
 62
     7
420
 16777215
370
    25
100
AcDbVertex
100
AcDb2dVertex
 10
107.7818633613667
 20
-128.0238669124384
 30
0.0
  0
SEQEND
  5
133
330
130
100
AcDbEntity
  8
_U+30EC_U+30A4_U+30E4_U+30FC 1
 62
     7
420
 16777215
370
    25
  0
POLYLINE
  5
134
330
1F
100
AcDbEntity
  8
_U+30EC_U+30A4_U+30E4_U+30FC 1
 62
     7
420
 16777215
370
    25
100
AcDb2dPolyline
 66
     1
 10
0.0
 20
0.0
 30
0.0
  0
VERTEX
  5
135
330
134
100
AcDbEntity
  8
_U+30EC_U+30A4_U+30E4_U+30FC 1
 62
     7
420
 16777215
370
    25
100
AcDbVertex
100
AcDb2dVertex
 10
103.7821042967424
 20
-128.023196634661
 30
0.0
  0
VERTEX
  5
136
330
134
100
AcDbEntity
  8
_U+30EC_U+30A4_U+30E4_U+30FC 1
 62
     7
420
 16777215
370
    25
100
AcDbVertex
100
AcDb2dVertex
 10
107.7818633613667
 20
-128.023196634661
 30
0.0
  0
SEQEND
  5
137
330
134
100
AcDbEntity
  8
_U+30EC_U+30A4_U+30E4_U+30FC 1
 62
     7
420
 16777215
370
    25
  0
POLYLINE
  5
138
330
1F
100
AcDbEntity
  8
_U+30EC_U+30A4_U+30E4_U+30FC 1
 62
     7
420
 16777215
370
    25
100
AcDb2dPolyline
 66
     1
 10
0.0
 20
0.0
 30
0.0
  0
VERTEX
  5
139
330
138
100
AcDbEntity
  8
_U+30EC_U+30A4_U+30E4_U+30FC 1
 62
     7
420
 16777215
370
    25
100
AcDbVertex
100
AcDb2dVertex
 10
103.7821042967424
 20
-127.8133996902688
 30
0.0
  0
VERTEX
  5
15F
330
138
100
AcDbEntity
  8
0
100
AcDbVertex
100
AcDb2dVertex
 10
103.7821042967424
 20
-127.8133996902688
 30
0.0
  0
SEQEND
  5
13A
330
138
100
AcDbEntity
  8
_U+30EC_U+30A4_U+30E4_U+30FC 1
 62
     7
420
 16777215
370
    25
  0
POLYLINE
  5
13B
330
1F
100
AcDbEntity
  8
_U+30EC_U+30A4_U+30E4_U+30FC 1
 62
     7
420
 16777215
370
    25
100
AcDb2dPolyline
 66
     1
 10
0.0
 20
0.0
 30
0.0
  0
VERTEX
  5
13C
330
13B
100
AcDbEntity
  8
_U+30EC_U+30A4_U+30E4_U+30FC 1
 62
     7
420
 16777215
370
    25
100
AcDbVertex
100
AcDb2dVertex
 10
98.78190275764149
 20
-127.8133996902688
 30
0.0
  0
VERTEX
  5
160
330
13B
100
AcDbEntity
  8
0
100
AcDbVertex
100
AcDb2dVertex
 10
98.78190275764149
 20
-127.8133996902688
 30
0.0
  0
SEQEND
  5
13D
330
13B
100
AcDbEntity
  8
_U+30EC_U+30A4_U+30E4_U+30FC 1
 62
     7
420
 16777215
370
    25
  0
POLYLINE
  5
13E
330
1F
100
AcDbEntity
  8
_U+30EC_U+30A4_U+30E4_U+30FC 1
 62
     7
420
 16777215
370
    25
100
AcDb2dPolyline
 66
     1
 10
0.0
 20
0.0
 30
0.0
  0
VERTEX
  5
13F
330
13E
100
AcDbEntity
  8
_U+30EC_U+30A4_U+30E4_U+30FC 1
 62
     7
420
 16777215
370
    25
100
AcDbVertex
100
AcDb2dVertex
 10
81.69218347141432
 20
-126.9648633015923
 30
0.0
  0
VERTEX
  5
140
330
13E
100
AcDbEntity
  8
_U+30EC_U+30A4_U+30E4_U+30FC 1
 62
     7
420
 16777215
370
    25
100
AcDbVertex
100
AcDb2dVertex
 10
81.69218347141432
 20
-110.8900499722774
 30
0.0
  0
SEQEND
  5
141
330
13E
100
AcDbEntity
  8
_U+30EC_U+30A4_U+30E4_U+30FC 1
 62
     7
420
 16777215
370
    25
  0
POLYLINE
  5
142
330
1F
100
AcDbEntity
  8
_U+30EC_U+30A4_U+30E4_U+30FC 1
 62
     7
420
 16777215
370
    25
100
AcDb2dPolyline
 66
     1
 10
0.0
 20
0.0
 30
0.0
  0
VERTEX
  5
143
330
142
100
AcDbEntity
  8
_U+30EC_U+30A4_U+30E4_U+30FC 1
 62
     7
420
 16777215
370
    25
100
AcDbVertex
100
AcDb2dVertex
 10
82.69192039035336
 20
-127.0234244126885
 30
0.0
  0
VERTEX
  5
144
330
142
100
AcDbEntity
  8
_U+30EC_U+30A4_U+30E4_U+30FC 1
 62
     7
420
 16777215
370
    25
100
AcDbVertex
100
AcDb2dVertex
 10
82.69192039035336
 20
-101.8897363634163
 30
0.0
  0
SEQEND
  5
145
330
142
100
AcDbEntity
  8
_U+30EC_U+30A4_U+30E4_U+30FC 1
 62
     7
420
 16777215
370
    25
  0
POLYLINE
  5
146
330
1F
100
AcDbEntity
  8
_U+30EC_U+30A4_U+30E4_U+30FC 1
 62
     7
420
 16777215
370
    25
100
AcDb2dPolyline
 66
     1
 10
0.0
 20
0.0
 30
0.0
  0
VERTEX
  5
147
330
146
100
AcDbEntity
  8
_U+30EC_U+30A4_U+30E4_U+30FC 1
 62
     7
420
 16777215
370
    25
100
AcDbVertex
100
AcDb2dVertex
 10
81.69218347141432
 20
-101.8897363634163
 30
0.0
  0
VERTEX
  5
148
330
146
100
AcDbEntity
  8
_U+30EC_U+30A4_U+30E4_U+30FC 1
 62
     7
420
 16777215
370
    25
100
AcDbVertex
100
AcDb2dVertex
 10
82.69262594589091
 20
-101.8897363634163
 30
0.0
  0
SEQEND
  5
149
330
146
100
AcDbEntity
  8
_U+30EC_U+30A4_U+30E4_U+30FC 1
 62
     7
420
 16777215
370
    25
  0
POLYLINE
  5
14A
330
1F
100
AcDbEntity
  8
_U+30EC_U+30A4_U+30E4_U+30FC 1
 62
     7
420
 16777215
370
    25
100
AcDb2dPolyline
 66
     1
 10
0.0
 20
0.0
 30
0.0
  0
VERTEX
  5
14B
330
14A
100
AcDbEntity
  8
_U+30EC_U+30A4_U+30E4_U+30FC 1
 62
     7
420
 16777215
370
    25
100
AcDbVertex
100
AcDb2dVertex
 10
81.69218347141432
 20
-101.8897363634163
 30
0.0
  0
VERTEX
  5
14C
330
14A
100
AcDbEntity
  8
_U+30EC_U+30A4_U+30E4_U+30FC 1
 62
     7
420
 16777215
370
    25
100
AcDbVertex
100
AcDb2dVertex
 10
81.69218347141432
 20
-105.889848306861
 30
0.0
  0
VERTEX
  5
14D
330
14A
100
AcDbEntity
  8
_U+30EC_U+30A4_U+30E4_U+30FC 1
 62
     7
420
 16777215
370
    25
100
AcDbVertex
100
AcDb2dVertex
 10
81.69218347141432
 20
-110.8900499722774
 30
0.0
  0
SEQEND
  5
14E
330
14A
100
AcDbEntity
  8
_U+30EC_U+30A4_U+30E4_U+30FC 1
 62
     7
420
 16777215
370
    25
  0
POLYLINE
  5
14F
330
1F
100
AcDbEntity
  8
_U+30EC_U+30A4_U+30E4_U+30FC 1
 62
     7
420
 16777215
370
    25
100
AcDb2dPolyline
 66
     1
 10
0.0
 20
0.0
 30
0.0
  0
VERTEX
  5
150
330
14F
100
AcDbEntity
  8
_U+30EC_U+30A4_U+30E4_U+30FC 1
 62
     7
420
 16777215
370
    25
100
AcDbVertex
100
AcDb2dVertex
 10
72.32632176591292
 20
-136.2156138548349
 30
0.0
  0
VERTEX
  5
151
330
14F
100
AcDbEntity
  8
_U+30EC_U+30A4_U+30E4_U+30FC 1
 62
     7
420
 16777215
370
    25
100
AcDbVertex
100
AcDb2dVertex
 10
81.70869347099313
 20
-126.9951669126958
 30
0.0
  0
SEQEND
  5
152
330
14F
100
AcDbEntity
  8
_U+30EC_U+30A4_U+30E4_U+30FC 1
 62
     7
420
 16777215
370
    25
  0
POLYLINE
  5
153
330
1F
100
AcDbEntity
  8
_U+30EC_U+30A4_U+30E4_U+30FC 1
 62
     7
420
 16777215
370
    25
100
AcDb2dPolyline
 66
     1
 10
0.0
 20
0.0
 30
0.0
  0
VERTEX
  5
154
330
153
100
AcDbEntity
  8
_U+30EC_U+30A4_U+30E4_U+30FC 1
 62
     7
420
 16777215
370
    25
100
AcDbVertex
100
AcDb2dVertex
 10
73.07255258020832
 20
-136.867441354672
 30
0.0
  0
VERTEX
  5
155
330
153
100
AcDbEntity
  8
_U+30EC_U+30A4_U+30E4_U+30FC 1
 62
     7
420
 16777215
370
    25
100
AcDbVertex
100
AcDb2dVertex
 10
82.1496656819652
 20
-127.9942688568904
 30
0.0
  0
SEQEND
  5
156
330
153
100
AcDbEntity
  8
_U+30EC_U+30A4_U+30E4_U+30FC 1
 62
     7
420
 16777215
370
    25
  0
POLYLINE
  5
157
330
1F
100
AcDbEntity
  8
_U+30EC_U+30A4_U+30E4_U+30FC 1
 62
     7
420
 16777215
370
     9
100
AcDb2dPolyline
 66
     1
 10
0.0
 20
0.0
 30
0.0
  0
VERTEX
  5
158
330
157
100
AcDbEntity
  8
_U+30EC_U+30A4_U+30E4_U+30FC 1
 62
     7
420
 16777215
370
     9
100
AcDbVertex
100
AcDb2dVertex
 10
61.62586648334872
 20
-136.8343860769027
 30
0.0
  0
VERTEX
  5
159
330
157
100
AcDbEntity
  8
_U+30EC_U+30A4_U+30E4_U+30FC 1
 62
     7
420
 16777215
370
     9
100
AcDbVertex
100
AcDb2dVertex
 10
72.23262399052557
 20
-147.4411438520287
 30
0.0
  0
SEQEND
  5
15A
330
157
100
AcDbEntity
  8
_U+30EC_U+30A4_U+30E4_U+30FC 1
 62
     7
420
 16777215
370
     9
  0
POLYLINE
  5
15B
330
1F
100
AcDbEntity
  8
_U+30EC_U+30A4_U+30E4_U+30FC 1
 62
     7
420
 16777215
370
    25
100
AcDb2dPolyline
 66
     1
 10
0.0
 20
0.0
 30
0.0
  0
VERTEX
  5
15C
330
15B
100
AcDbEntity
  8
_U+30EC_U+30A4_U+30E4_U+30FC 1
 62
     7
420
 16777215
370
    25
100
AcDbVertex
100
AcDb2dVertex
 10
66.47656080404164
 20
-131.9836916336709
 30
0.0
  0
VERTEX
  5
15D
330
15B
100
AcDbEntity
  8
_U+30EC_U+30A4_U+30E4_U+30FC 1
 62
     7
420
 16777215
370
    25
100
AcDbVertex
100
AcDb2dVertex
 10
77.08331831121849
 20
-142.5904494087969
 30
0.0
  0
SEQEND
  5
15E
330
15B
100
AcDbEntity
  8
_U+30EC_U+30A4_U+30E4_U+30FC 1
 62
     7
420
 16777215
370
    25
  0
ENDSEC
  0
SECTION
  2
OBJECTS
  0
DICTIONARY
  5
C
330
0
100
AcDbDictionary
281
     1
  3
ACAD_GROUP
350
D
  3
ACAD_LAYOUT
350
1A
  3
ACAD_MATERIAL
350
3B
  3
ACAD_MLEADERSTYLE
350
162
  3
ACAD_MLINESTYLE
350
17
  3
ACAD_PLOTSETTINGS
350
19
  3
ACAD_PLOTSTYLENAME
350
E
  3
ACAD_TABLESTYLE
350
161
  3
ACAD_VISUALSTYLE
350
2A
  0
SUN
  5
3F
330
29
100
AcDbSun
 90
        1
290
     0
 63
     7
421
 16777215
 40
1.0
291
     1
 91
  2455826
 92
 54000000
292
     0
 70
     2
 71
   256
280
     1
  0
DICTIONARY
  5
D
102
{ACAD_REACTORS
330
C
102
}
330
C
100
AcDbDictionary
281
     1
  0
DICTIONARY
  5
1A
102
{ACAD_REACTORS
330
C
102
}
330
C
100
AcDbDictionary
281
     1
  3
Layout1
350
1E
  3
Layout2
350
26
  3
Model
350
22
  0
DICTIONARY
  5
3B
102
{ACAD_REACTORS
330
C
102
}
330
C
100
AcDbDictionary
281
     1
  3
ByBlock
350
3D
  3
ByLayer
350
3C
  3
Global
350
3E
  0
DICTIONARY
  5
162
102
{ACAD_REACTORS
330
C
102
}
330
C
100
AcDbDictionary
281
     1
  0
DICTIONARY
  5
17
102
{ACAD_REACTORS
330
C
102
}
330
C
100
AcDbDictionary
281
     1
  3
Standard
350
18
  0
DICTIONARY
  5
19
102
{ACAD_REACTORS
330
C
102
}
330
C
100
AcDbDictionary
281
     1
  0
ACDBDICTIONARYWDFLT
  5
E
102
{ACAD_REACTORS
330
C
102
}
330
C
100
AcDbDictionary
281
     1
  3
Normal
350
F
100
AcDbDictionaryWithDefault
340
F
  0
DICTIONARY
  5
161
102
{ACAD_REACTORS
330
C
102
}
330
C
100
AcDbDictionary
281
     1
  0
DICTIONARY
  5
2A
102
{ACAD_REACTORS
330
C
102
}
330
C
100
AcDbDictionary
281
     1
  3
2dWireframe
350
2F
  3
3D Hidden
350
31
  3
3dWireframe
350
30
  3
Basic
350
32
  3
Brighten
350
36
  3
ColorChange
350
3A
  3
Conceptual
350
34
  3
Dim
350
35
  3
Facepattern
350
39
  3
Flat
350
2B
  3
FlatWithEdges
350
2C
  3
Gouraud
350
2D
  3
GouraudWithEdges
350
2E
  3
Linepattern
350
38
  3
Realistic
350
33
  3
Thicken
350
37
  0
LAYOUT
  5
1E
102
{ACAD_REACTORS
330
1A
102
}
330
1A
100
AcDbPlotSettings
  1

  2
none_device
  4

  6

 40
0.0
 41
0.0
 42
0.0
 43
0.0
 44
0.0
 45
0.0
 46
0.0
 47
0.0
 48
0.0
 49
0.0
140
0.0
141
0.0
142
1.0
143
1.0
 70
   688
 72
     0
 73
     0
 74
     5
  7

 75
    16
 76
     0
 77
     2
 78
   300
147
1.0
148
0.0
149
0.0
100
AcDbLayout
  1
Layout1
 70
     1
 71
     1
 10
0.0
 20
0.0
 11
12.0
 21
9.0
 12
0.0
 22
0.0
 32
0.0
 14
1.000000000000000E+20
 24
1.000000000000000E+20
 34
1.000000000000000E+20
 15
-1.000000000000000E+20
 25
-1.000000000000000E+20
 35
-1.000000000000000E+20
146
0.0
 13
0.0
 23
0.0
 33
0.0
 16
1.0
 26
0.0
 36
0.0
 17
0.0
 27
1.0
 37
0.0
 76
     0
330
1B
  0
LAYOUT
  5
26
102
{ACAD_REACTORS
330
1A
102
}
330
1A
100
AcDbPlotSettings
  1

  2
none_device
  4

  6

 40
0.0
 41
0.0
 42
0.0
 43
0.0
 44
0.0
 45
0.0
 46
0.0
 47
0.0
 48
0.0
 49
0.0
140
0.0
141
0.0
142
1.0
143
1.0
 70
   688
 72
     0
 73
     0
 74
     5
  7

 75
    16
 76
     0
 77
     2
 78
   300
147
1.0
148
0.0
149
0.0
100
AcDbLayout
  1
Layout2
 70
     1
 71
     2
 10
0.0
 20
0.0
 11
0.0
 21
0.0
 12
0.0
 22
0.0
 32
0.0
 14
0.0
 24
0.0
 34
0.0
 15
0.0
 25
0.0
 35
0.0
146
0.0
 13
0.0
 23
0.0
 33
0.0
 16
1.0
 26
0.0
 36
0.0
 17
0.0
 27
1.0
 37
0.0
 76
     0
330
23
  0
LAYOUT
  5
22
102
{ACAD_REACTORS
330
1A
102
}
330
1A
100
AcDbPlotSettings
  1

  2
none_device
  4

  6

 40
0.0
 41
0.0
 42
0.0
 43
0.0
 44
0.0
 45
0.0
 46
0.0
 47
0.0
 48
0.0
 49
0.0
140
0.0
141
0.0
142
1.0
143
1.0
 70
  1712
 72
     0
 73
     0
 74
     0
  7

 75
     0
 76
     0
 77
     2
 78
   300
147
1.0
148
0.0
149
0.0
100
AcDbLayout
  1
Model
 70
     1
 71
     0
 10
0.0
 20
0.0
 11
12.0
 21
9.0
 12
0.0
 22
0.0
 32
0.0
 14
1.000000000000000E+20
 24
1.000000000000000E+20
 34
1.000000000000000E+20
 15
-1.000000000000000E+20
 25
-1.000000000000000E+20
 35
-1.000000000000000E+20
146
0.0
 13
0.0
 23
0.0
 33
0.0
 16
1.0
 26
0.0
 36
0.0
 17
0.0
 27
1.0
 37
0.0
 76
     0
330
1F
331
29
  0
MATERIAL
  5
3D
102
{ACAD_REACTORS
330
3B
102
}
330
3B
100
AcDbMaterial
  1
ByBlock
 72
     1
 94
      127
  0
MATERIAL
  5
3C
102
{ACAD_REACTORS
330
3B
102
}
330
3B
100
AcDbMaterial
  1
ByLayer
 72
     1
 94
      127
  0
MATERIAL
  5
3E
102
{ACAD_REACTORS
330
3B
102
}
330
3B
100
AcDbMaterial
  1
Global
 72
     1
 94
      127
  0
MLINESTYLE
  5
18
102
{ACAD_REACTORS
330
17
102
}
330
17
100
AcDbMlineStyle
  2
Standard
 70
     0
  3

 62
   256
 51
90.0
 52
90.0
 71
     2
 49
0.5
 62
   256
  6
BYLAYER
 49
-0.5
 62
   256
  6
BYLAYER
  0
ACDBPLACEHOLDER
  5
F
102
{ACAD_REACTORS
330
E
102
}
330
E
  0
VISUALSTYLE
  5
2F
102
{ACAD_REACTORS
330
2A
102
}
330
2A
100
AcDbVisualStyle
  2
2dWireframe
 70
     4
177
     2
291
     0
 71
     0
176
     1
 72
     2
176
     1
 73
     0
176
     1
 90
        0
176
     1
 40
-0.6
176
     1
 41
-30.0
176
     1
 62
     5
 63
     7
421
 16777215
176
     1
 74
     1
176
     1
 91
        4
176
     1
 64
     7
176
     1
 65
   257
176
     1
 75
     1
176
     1
175
     1
176
     1
 42
1.0
176
     1
 92
        0
176
     1
 66
   257
176
     1
 43
1.0
176
     1
 76
     1
176
     1
 77
     6
176
     1
 78
     2
176
     1
 67
     7
176
     1
 79
     5
176
     1
170
     0
176
     1
171
     0
176
     1
290
     0
176
     1
 93
        1
176
     1
 44
0.0
176
     1
173
     0
176
     1
  0
VISUALSTYLE
  5
31
102
{ACAD_REACTORS
330
2A
102
}
330
2A
100
AcDbVisualStyle
  2
3D Hidden
 70
     6
177
     2
291
     0
 71
     1
176
     1
 72
     2
176
     1
 73
     2
176
     1
 90
        0
176
     1
 40
-0.6
176
     1
 41
-30.0
176
     1
 62
     5
 63
     7
421
 16777215
176
     1
 74
     2
176
     1
 91
        2
176
     1
 64
     7
176
     1
 65
   257
176
     1
 75
     2
176
     1
175
     1
176
     1
 42
40.0
176
     1
 92
        0
176
     1
 66
   257
176
     1
 43
1.0
176
     1
 76
     1
176
     1
 77
     6
176
     1
 78
     2
176
     1
 67
     7
176
     1
 79
     3
176
     1
170
     0
176
     1
171
     0
176
     1
290
     0
176
     1
 93
        1
176
     1
 44
0.0
176
     1
173
     0
176
     1
  0
VISUALSTYLE
  5
30
102
{ACAD_REACTORS
330
2A
102
}
330
2A
100
AcDbVisualStyle
  2
3dWireframe
 70
     5
177
     2
291
     0
 71
     0
176
     1
 72
     2
176
     1
 73
     0
176
     1
 90
        0
176
     1
 40
-0.6
176
     1
 41
-30.0
176
     1
 62
     5
 63
     7
421
 16777215
176
     1
 74
     1
176
     1
 91
        4
176
     1
 64
     7
176
     1
 65
   257
176
     1
 75
     1
176
     1
175
     1
176
     1
 42
1.0
176
     1
 92
        0
176
     1
 66
   257
176
     1
 43
1.0
176
     1
 76
     1
176
     1
 77
     6
176
     1
 78
     2
176
     1
 67
     7
176
     1
 79
     5
176
     1
170
     0
176
     1
171
     0
176
     1
290
     0
176
     1
 93
        1
176
     1
 44
0.0
176
     1
173
     0
176
     1
  0
VISUALSTYLE
  5
32
102
{ACAD_REACTORS
330
2A
102
}
330
2A
100
AcDbVisualStyle
  2
Basic
 70
     7
177
     2
291
     1
 71
     1
176
     1
 72
     0
176
     1
 73
     1
176
     1
 90
        0
176
     1
 40
-0.6
176
     1
 41
-30.0
176
     1
 62
     5
 63
     7
421
 16777215
176
     1
 74
     0
176
     1
 91
        4
176
     1
 64
     7
176
     1
 65
   257
176
     1
 75
     1
176
     1
175
     1
176
     1
 42
1.0
176
     1
 92
        8
176
     1
 66
     7
176
     1
 43
1.0
176
     1
 76
     1
176
     1
 77
     6
176
     1
 78
     2
176
     1
 67
     7
176
     1
 79
     5
176
     1
170
     0
176
     1
171
     0
176
     1
290
     0
176
     1
 93
        1
176
     1
 44
0.0
176
     1
173
     0
176
     1
  0
VISUALSTYLE
  5
36
102
{ACAD_REACTORS
330
2A
102
}
330
2A
100
AcDbVisualStyle
  2
Brighten
 70
    12
177
     2
291
     1
 71
     2
176
     1
 72
     2
176
     1
 73
     0
176
     1
 90
        0
176
     1
 40
-0.6
176
     1
 41
-30.0
176
     1
 62
     5
 63
     7
421
 16777215
176
     1
 74
     1
176
     1
 91
        4
176
     1
 64
     7
176
     1
 65
   257
176
     1
 75
     1
176
     1
175
     1
176
     1
 42
1.0
176
     1
 92
        8
176
     1
 66
     7
176
     1
 43
1.0
176
     1
 76
     1
176
     1
 77
     6
176
     1
 78
     2
176
     1
 67
     7
176
     1
 79
     5
176
     1
170
     0
176
     1
171
     0
176
     1
290
     0
176
     1
 93
        1
176
     1
 44
50.0
176
     1
173
     0
176
     1
  0
VISUALSTYLE
  5
3A
102
{ACAD_REACTORS
330
2A
102
}
330
2A
100
AcDbVisualStyle
  2
ColorChange
 70
    16
177
     2
291
     1
 71
     2
176
     1
 72
     2
176
     1
 73
     3
176
     1
 90
        0
176
     1
 40
-0.6
176
     1
 41
-30.0
176
     1
 62
     5
 63
     8
421
  8421504
176
     1
 74
     1
176
     1
 91
        4
176
     1
 64
     7
176
     1
 65
   257
176
     1
 75
     1
176
     1
175
     1
176
     1
 42
1.0
176
     1
 92
        8
176
     1
 66
     8
424
  8421504
176
     1
 43
1.0
176
     1
 76
     1
176
     1
 77
     6
176
     1
 78
     2
176
     1
 67
     7
176
     1
 79
     5
176
     1
170
     0
176
     1
171
     0
176
     1
290
     0
176
     1
 93
        1
176
     1
 44
0.0
176
     1
173
     0
176
     1
  0
VISUALSTYLE
  5
34
102
{ACAD_REACTORS
330
2A
102
}
330
2A
100
AcDbVisualStyle
  2
Conceptual
 70
     9
177
     2
291
     0
 71
     3
176
     1
 72
     2
176
     1
 73
     0
176
     1
 90
        0
176
     1
 40
-0.6
176
     1
 41
-30.0
176
     1
 62
     5
 63
     7
421
 16777215
176
     1
 74
     2
176
     1
 91
        2
176
     1
 64
     7
176
     1
 65
   257
176
     1
 75
     1
176
     1
175
     1
176
     1
 42
40.0
176
     1
 92
        8
176
     1
 66
     7
176
     1
 43
1.0
176
     1
 76
     1
176
     1
 77
     6
176
     1
 78
     2
176
     1
 67
     7
176
     1
 79
     3
176
     1
170
     0
176
     1
171
     0
176
     1
290
     0
176
     1
 93
        1
176
     1
 44
0.0
176
     1
173
     0
176
     1
  0
VISUALSTYLE
  5
35
102
{ACAD_REACTORS
330
2A
102
}
330
2A
100
AcDbVisualStyle
  2
Dim
 70
    11
177
     2
291
     1
 71
     2
176
     1
 72
     2
176
     1
 73
     0
176
     1
 90
        0
176
     1
 40
-0.6
176
     1
 41
-30.0
176
     1
 62
     5
 63
     7
421
 16777215
176
     1
 74
     1
176
     1
 91
        4
176
     1
 64
     7
176
     1
 65
   257
176
     1
 75
     1
176
     1
175
     1
176
     1
 42
1.0
176
     1
 92
        8
176
     1
 66
     7
176
     1
 43
1.0
176
     1
 76
     1
176
     1
 77
     6
176
     1
 78
     2
176
     1
 67
     7
176
     1
 79
     5
176
     1
170
     0
176
     1
171
     0
176
     1
290
     0
176
     1
 93
        1
176
     1
 44
-50.0
176
     1
173
     0
176
     1
  0
VISUALSTYLE
  5
39
102
{ACAD_REACTORS
330
2A
102
}
330
2A
100
AcDbVisualStyle
  2
Facepattern
 70
    15
177
     2
291
     1
 71
     2
176
     1
 72
     2
176
     1
 73
     0
176
     1
 90
        0
176
     1
 40
-0.6
176
     1
 41
-30.0
176
     1
 62
     5
 63
     7
421
 16777215
176
     1
 74
     1
176
     1
 91
        4
176
     1
 64
     7
176
     1
 65
   257
176
     1
 75
     1
176
     1
175
     1
176
     1
 42
1.0
176
     1
 92
        8
176
     1
 66
     7
176
     1
 43
1.0
176
     1
 76
     1
176
     1
 77
     6
176
     1
 78
     2
176
     1
 67
     7
176
     1
 79
     5
176
     1
170
     0
176
     1
171
     0
176
     1
290
     0
176
     1
 93
        1
176
     1
 44
0.0
176
     1
173
     0
176
     1
  0
VISUALSTYLE
  5
2B
102
{ACAD_REACTORS
330
2A
102
}
330
2A
100
AcDbVisualStyle
  2
Flat
 70
     0
177
     2
291
     1
 71
     2
176
     1
 72
     1
176
     1
 73
     1
176
     1
 90
        2
176
     1
 40
-0.6
176
     1
 41
30.0
176
     1
 62
     5
 63
     7
421
 16777215
176
     1
 74
     0
176
     1
 91
        4
176
     1
 64
     7
176
     1
 65
   257
176
     1
 75
     1
176
     1
175
     1
176
     1
 42
1.0
176
     1
 92
        8
176
     1
 66
     7
176
     1
 43
1.0
176
     1
 76
     1
176
     1
 77
     6
176
     1
 78
     2
176
     1
 67
     7
176
     1
 79
     5
176
     1
170
     0
176
     1
171
     0
176
     1
290
     0
176
     1
 93
       13
176
     1
 44
0.0
176
     1
173
     0
176
     1
  0
VISUALSTYLE
  5
2C
102
{ACAD_REACTORS
330
2A
102
}
330
2A
100
AcDbVisualStyle
  2
FlatWithEdges
 70
     1
177
     2
291
     1
 71
     2
176
     1
 72
     1
176
     1
 73
     1
176
     1
 90
        2
176
     1
 40
-0.6
176
     1
 41
30.0
176
     1
 62
     5
 63
     7
421
 16777215
176
     1
 74
     1
176
     1
 91
        4
176
     1
 64
     7
176
     1
 65
   257
176
     1
 75
     1
176
     1
175
     1
176
     1
 42
1.0
176
     1
 92
        0
176
     1
 66
   257
176
     1
 43
1.0
176
     1
 76
     1
176
     1
 77
     6
176
     1
 78
     2
176
     1
 67
     7
176
     1
 79
     5
176
     1
170
     0
176
     1
171
     0
176
     1
290
     0
176
     1
 93
       13
176
     1
 44
0.0
176
     1
173
     0
176
     1
  0
VISUALSTYLE
  5
2D
102
{ACAD_REACTORS
330
2A
102
}
330
2A
100
AcDbVisualStyle
  2
Gouraud
 70
     2
177
     2
291
     1
 71
     2
176
     1
 72
     2
176
     1
 73
     1
176
     1
 90
        2
176
     1
 40
-0.6
176
     1
 41
30.0
176
     1
 62
     5
 63
     7
421
 16777215
176
     1
 74
     0
176
     1
 91
        4
176
     1
 64
     7
176
     1
 65
   257
176
     1
 75
     1
176
     1
175
     1
176
     1
 42
1.0
176
     1
 92
        0
176
     1
 66
     7
176
     1
 43
1.0
176
     1
 76
     1
176
     1
 77
     6
176
     1
 78
     2
176
     1
 67
     7
176
     1
 79
     5
176
     1
170
     0
176
     1
171
     0
176
     1
290
     0
176
     1
 93
       13
176
     1
 44
0.0
176
     1
173
     0
176
     1
  0
VISUALSTYLE
  5
2E
102
{ACAD_REACTORS
330
2A
102
}
330
2A
100
AcDbVisualStyle
  2
GouraudWithEdges
 70
     3
177
     2
291
     1
 71
     2
176
     1
 72
     2
176
     1
 73
     1
176
     1
 90
        2
176
     1
 40
-0.6
176
     1
 41
30.0
176
     1
 62
     5
 63
     7
421
 16777215
176
     1
 74
     1
176
     1
 91
        4
176
     1
 64
     7
176
     1
 65
   257
176
     1
 75
     1
176
     1
175
     1
176
     1
 42
1.0
176
     1
 92
        0
176
     1
 66
   257
176
     1
 43
1.0
176
     1
 76
     1
176
     1
 77
     6
176
     1
 78
     2
176
     1
 67
     7
176
     1
 79
     5
176
     1
170
     0
176
     1
171
     0
176
     1
290
     0
176
     1
 93
       13
176
     1
 44
0.0
176
     1
173
     0
176
     1
  0
VISUALSTYLE
  5
38
102
{ACAD_REACTORS
330
2A
102
}
330
2A
100
AcDbVisualStyle
  2
Linepattern
 70
    14
177
     2
291
     1
 71
     2
176
     1
 72
     2
176
     1
 73
     0
176
     1
 90
        0
176
     1
 40
-0.6
176
     1
 41
-30.0
176
     1
 62
     5
 63
     7
421
 16777215
176
     1
 74
     1
176
     1
 91
        4
176
     1
 64
     7
176
     1
 65
   257
176
     1
 75
     7
176
     1
175
     7
176
     1
 42
1.0
176
     1
 92
        8
176
     1
 66
     7
176
     1
 43
1.0
176
     1
 76
     1
176
     1
 77
     6
176
     1
 78
     2
176
     1
 67
     7
176
     1
 79
     5
176
     1
170
     0
176
     1
171
     0
176
     1
290
     0
176
     1
 93
        1
176
     1
 44
0.0
176
     1
173
     0
176
     1
  0
VISUALSTYLE
  5
33
102
{ACAD_REACTORS
330
2A
102
}
330
2A
100
AcDbVisualStyle
  2
Realistic
 70
     8
177
     2
291
     0
 71
     2
176
     1
 72
     2
176
     1
 73
     0
176
     1
 90
        0
176
     1
 40
-0.6
176
     1
 41
-30.0
176
     1
 62
     5
 63
     7
421
 16777215
176
     1
 74
     1
176
     1
 91
        0
176
     1
 64
     7
176
     1
 65
   257
176
     1
 75
     1
176
     1
175
     1
176
     1
 42
1.0
176
     1
 92
        8
176
     1
 66
     8
424
  7895160
176
     1
 43
1.0
176
     1
 76
     1
176
     1
 77
     6
176
     1
 78
     2
176
     1
 67
     7
176
     1
 79
     5
176
     1
170
     0
176
     1
171
     0
176
     1
290
     0
176
     1
 93
       13
176
     1
 44
0.0
176
     1
173
     0
176
     1
  0
VISUALSTYLE
  5
37
102
{ACAD_REACTORS
330
2A
102
}
330
2A
100
AcDbVisualStyle
  2
Thicken
 70
    13
177
     2
291
     1
 71
     2
176
     1
 72
     2
176
     1
 73
     0
176
     1
 90
        0
176
     1
 40
-0.6
176
     1
 41
-30.0
176
     1
 62
     5
 63
     7
421
 16777215
176
     1
 74
     1
176
     1
 91
        4
176
     1
 64
     7
176
     1
 65
   257
176
     1
 75
     1
176
     1
175
     1
176
     1
 42
1.0
176
     1
 92
       12
176
     1
 66
     7
176
     1
 43
1.0
176
     1
 76
     1
176
     1
 77
     6
176
     1
 78
     2
176
     1
 67
     7
176
     1
 79
     5
176
     1
170
     0
176
     1
171
     0
176
     1
290
     0
176
     1
 93
        1
176
     1
 44
0.0
176
     1
173
     0
176
     1
  0
ENDSEC
  0
EOF
