  0
SECTION
  2
HEADER
  9
$ACADVER
  1
AC1024
  9
$ACADMAINTVER
 70
     6
  9
$DWGCODEPAGE
  3
UNDEFINED
  9
$INSBASE
 10
0.0
 20
0.0
 30
0.0
  9
$EXTMIN
 10
1.000000000000000E+20
 20
1.000000000000000E+20
 30
1.000000000000000E+20
  9
$EXTMAX
 10
-1.000000000000000E+20
 20
-1.000000000000000E+20
 30
-1.000000000000000E+20
  9
$LIMMIN
 10
0.0
 20
0.0
  9
$LIMMAX
 10
12.0
 20
9.0
  9
$ORTHOMODE
 70
     0
  9
$REGENMODE
 70
     1
  9
$FILLMODE
 70
     1
  9
$QTEXTMODE
 70
     0
  9
$MIRRTEXT
 70
     1
  9
$LTSCALE
 40
1.0
  9
$ATTMODE
 70
     1
  9
$TEXTSIZE
 40
0.2
  9
$TRACEWID
 40
0.05
  9
$TEXTSTYLE
  7
Standard
  9
$CLAYER
  8
0
  9
$CELTYPE
  6
ByLayer
  9
$CECOLOR
 62
   256
  9
$CELTSCALE
 40
1.0
  9
$DISPSILH
 70
     0
  9
$DIMSCALE
 40
1.0
  9
$DIMASZ
 40
0.18
  9
$DIMEXO
 40
0.0625
  9
$DIMDLI
 40
0.38
  9
$DIMRND
 40
0.0
  9
$DIMDLE
 40
0.0
  9
$DIMEXE
 40
0.18
  9
$DIMTP
 40
0.0
  9
$DIMTM
 40
0.0
  9
$DIMTXT
 40
0.18
  9
$DIMCEN
 40
0.09
  9
$DIMTSZ
 40
0.0
  9
$DIMTOL
 70
     0
  9
$DIMLIM
 70
     0
  9
$DIMTIH
 70
     1
  9
$DIMTOH
 70
     1
  9
$DIMSE1
 70
     0
  9
$DIMSE2
 70
     0
  9
$DIMTAD
 70
     0
  9
$DIMZIN
 70
     0
  9
$DIMBLK
  1

  9
$DIMASO
 70
     1
  9
$DIMSHO
 70
     1
  9
$DIMPOST
  1

  9
$DIMAPOST
  1

  9
$DIMALT
 70
     0
  9
$DIMALTD
 70
     2
  9
$DIMALTF
 40
25.4
  9
$DIMLFAC
 40
1.0
  9
$DIMTOFL
 70
     0
  9
$DIMTVP
 40
0.0
  9
$DIMTIX
 70
     0
  9
$DIMSOXD
 70
     0
  9
$DIMSAH
 70
     0
  9
$DIMBLK1
  1

  9
$DIMBLK2
  1

  9
$DIMSTYLE
  2
Standard
  9
$DIMCLRD
 70
     0
  9
$DIMCLRE
 70
     0
  9
$DIMCLRT
 70
     0
  9
$DIMTFAC
 40
1.0
  9
$DIMGAP
 40
0.09
  9
$DIMJUST
 70
     0
  9
$DIMSD1
 70
     0
  9
$DIMSD2
 70
     0
  9
$DIMTOLJ
 70
     1
  9
$DIMTZIN
 70
     0
  9
$DIMALTZ
 70
     0
  9
$DIMALTTZ
 70
     0
  9
$DIMUPT
 70
     0
  9
$DIMDEC
 70
     4
  9
$DIMTDEC
 70
     4
  9
$DIMALTU
 70
     2
  9
$DIMALTTD
 70
     2
  9
$DIMTXSTY
  7
Standard
  9
$DIMAUNIT
 70
     0
  9
$DIMADEC
 70
     0
  9
$DIMALTRND
 40
0.0
  9
$DIMAZIN
 70
     0
  9
$DIMDSEP
 70
    46
  9
$DIMATFIT
 70
     3
  9
$DIMFRAC
 70
     0
  9
$DIMLDRBLK
  1

  9
$DIMLUNIT
 70
     2
  9
$DIMLWD
 70
    -2
  9
$DIMLWE
 70
    -2
  9
$DIMTMOVE
 70
     0
  9
$DIMFXL
 40
1.0
  9
$DIMFXLON
 70
     0
  9
$DIMJOGANG
 40
0.7853981633974483
  9
$DIMTFILL
 70
     0
  9
$DIMTFILLCLR
 70
     0
  9
$DIMARCSYM
 70
     0
  9
$DIMLTYPE
  6

  9
$DIMLTEX1
  6

  9
$DIMLTEX2
  6

  9
$DIMTXTDIRECTION
 70
     0
  9
$LUNITS
 70
     2
  9
$LUPREC
 70
     4
  9
$SKETCHINC
 40
0.1
  9
$FILLETRAD
 40
0.5
  9
$AUNITS
 70
     0
  9
$AUPREC
 70
     0
  9
$MENU
  1
.
  9
$ELEVATION
 40
0.0
  9
$PELEVATION
 40
0.0
  9
$THICKNESS
 40
0.0
  9
$LIMCHECK
 70
     0
  9
$CHAMFERA
 40
0.5
  9
$CHAMFERB
 40
0.5
  9
$CHAMFERC
 40
1.0
  9
$CHAMFERD
 40
0.0
  9
$SKPOLY
 70
     0
  9
$TDCREATE
 40
2457917.622847222
  9
$TDUCREATE
 40
2457917.247847222
  9
$TDUPDATE
 40
2457917.622847222
  9
$TDUUPDATE
 40
2457917.247847222
  9
$TDINDWG
 40
0.0000000116
  9
$TDUSRTIMER
 40
0.0000000116
  9
$USRTIMER
 70
     1
  9
$ANGBASE
 50
0.0
  9
$ANGDIR
 70
     0
  9
$PDMODE
 70
     0
  9
$PDSIZE
 40
0.0
  9
$PLINEWID
 40
0.0
  9
$SPLFRAME
 70
     0
  9
$SPLINETYPE
 70
     6
  9
$SPLINESEGS
 70
     8
  9
$HANDSEED
  5
14B
  9
$SURFTAB1
 70
     6
  9
$SURFTAB2
 70
     6
  9
$SURFTYPE
 70
     6
  9
$SURFU
 70
     6
  9
$SURFV
 70
     6
  9
$UCSBASE
  2

  9
$UCSNAME
  2

  9
$UCSORG
 10
0.0
 20
0.0
 30
0.0
  9
$UCSXDIR
 10
1.0
 20
0.0
 30
0.0
  9
$UCSYDIR
 10
0.0
 20
1.0
 30
0.0
  9
$UCSORTHOREF
  2

  9
$UCSORTHOVIEW
 70
     0
  9
$UCSORGTOP
 10
0.0
 20
0.0
 30
0.0
  9
$UCSORGBOTTOM
 10
0.0
 20
0.0
 30
0.0
  9
$UCSORGLEFT
 10
0.0
 20
0.0
 30
0.0
  9
$UCSORGRIGHT
 10
0.0
 20
0.0
 30
0.0
  9
$UCSORGFRONT
 10
0.0
 20
0.0
 30
0.0
  9
$UCSORGBACK
 10
0.0
 20
0.0
 30
0.0
  9
$PUCSBASE
  2

  9
$PUCSNAME
  2

  9
$PUCSORG
 10
0.0
 20
0.0
 30
0.0
  9
$PUCSXDIR
 10
1.0
 20
0.0
 30
0.0
  9
$PUCSYDIR
 10
0.0
 20
1.0
 30
0.0
  9
$PUCSORTHOREF
  2

  9
$PUCSORTHOVIEW
 70
     0
  9
$PUCSORGTOP
 10
0.0
 20
0.0
 30
0.0
  9
$PUCSORGBOTTOM
 10
0.0
 20
0.0
 30
0.0
  9
$PUCSORGLEFT
 10
0.0
 20
0.0
 30
0.0
  9
$PUCSORGRIGHT
 10
0.0
 20
0.0
 30
0.0
  9
$PUCSORGFRONT
 10
0.0
 20
0.0
 30
0.0
  9
$PUCSORGBACK
 10
0.0
 20
0.0
 30
0.0
  9
$USERI1
 70
     0
  9
$USERI2
 70
     0
  9
$USERI3
 70
     0
  9
$USERI4
 70
     0
  9
$USERI5
 70
     0
  9
$USERR1
 40
0.0
  9
$USERR2
 40
0.0
  9
$USERR3
 40
0.0
  9
$USERR4
 40
0.0
  9
$USERR5
 40
0.0
  9
$WORLDVIEW
 70
     1
  9
$SHADEDGE
 70
     3
  9
$SHADEDIF
 70
    70
  9
$TILEMODE
 70
     1
  9
$MAXACTVP
 70
    64
  9
$PINSBASE
 10
0.0
 20
0.0
 30
0.0
  9
$PLIMCHECK
 70
     0
  9
$PEXTMIN
 10
1.000000000000000E+20
 20
1.000000000000000E+20
 30
1.000000000000000E+20
  9
$PEXTMAX
 10
-1.000000000000000E+20
 20
-1.000000000000000E+20
 30
-1.000000000000000E+20
  9
$PLIMMIN
 10
0.0
 20
0.0
  9
$PLIMMAX
 10
12.0
 20
9.0
  9
$UNITMODE
 70
     0
  9
$VISRETAIN
 70
     1
  9
$PLINEGEN
 70
     0
  9
$PSLTSCALE
 70
     1
  9
$TREEDEPTH
 70
  3020
  9
$CMLSTYLE
  2
Standard
  9
$CMLJUST
 70
     0
  9
$CMLSCALE
 40
1.0
  9
$PROXYGRAPHICS
 70
     1
  9
$MEASUREMENT
 70
     0
  9
$CELWEIGHT
370
    -1
  9
$ENDCAPS
280
     0
  9
$JOINSTYLE
280
     0
  9
$LWDISPLAY
290
     1
  9
$INSUNITS
 70
     1
  9
$HYPERLINKBASE
  1

  9
$STYLESHEET
  1

  9
$XEDIT
290
     1
  9
$CEPSNTYPE
380
     0
  9
$PSTYLEMODE
290
     1
  9
$FINGERPRINTGUID
  2
{6C702A1F-5258-00EF-41F7-FA6856935A05}
  9
$VERSIONGUID
  2
{FAEB1C32-E019-11D5-929B-00C0DF256EC4}
  9
$EXTNAMES
290
     1
  9
$PSVPSCALE
 40
0.0
  9
$OLESTARTUP
290
     0
  9
$SORTENTS
280
   127
  9
$INDEXCTL
280
     0
  9
$HIDETEXT
280
     1
  9
$XCLIPFRAME
280
     2
  9
$HALOGAP
280
     0
  9
$OBSCOLOR
 70
   257
  9
$OBSLTYPE
280
     0
  9
$INTERSECTIONDISPLAY
280
     0
  9
$INTERSECTIONCOLOR
 70
   257
  9
$DIMASSOC
280
     2
  9
$PROJECTNAME
  1

  9
$CAMERADISPLAY
290
     0
  9
$LENSLENGTH
 40
50.0
  9
$CAMERAHEIGHT
 40
0.0
  9
$STEPSPERSEC
 40
2.0
  9
$STEPSIZE
 40
6.0
  9
$3DDWFPREC
 40
2.0
  9
$PSOLWIDTH
 40
0.25
  9
$PSOLHEIGHT
 40
4.0
  9
$LOFTANG1
 40
1.570796326794897
  9
$LOFTANG2
 40
1.570796326794897
  9
$LOFTMAG1
 40
0.0
  9
$LOFTMAG2
 40
0.0
  9
$LOFTPARAM
 70
     7
  9
$LOFTNORMALS
280
     1
  9
$LATITUDE
 40
37.795
  9
$LONGITUDE
 40
-122.394
  9
$NORTHDIRECTION
 40
0.0
  9
$TIMEZONE
 70
 -8000
  9
$LIGHTGLYPHDISPLAY
280
     1
  9
$TILEMODELIGHTSYNCH
280
     1
  9
$CMATERIAL
347
3C
  9
$SOLIDHIST
280
     1
  9
$SHOWHIST
280
     1
  9
$DWFFRAME
280
     2
  9
$DGNFRAME
280
     2
  9
$REALWORLDSCALE
290
     1
  9
$INTERFERECOLOR
 62
   256
  9
$CSHADOW
280
     0
  9
$SHADOWPLANELOCATION
 40
0.0
  0
ENDSEC
  0
SECTION
  2
CLASSES
  0
CLASS
  1
ACDBDICTIONARYWDFLT
  2
AcDbDictionaryWithDefault
  3
ObjectDBX Classes
 90
        0
 91
        4
280
     0
281
     0
  0
CLASS
  1
VISUALSTYLE
  2
AcDbVisualStyle
  3
ObjectDBX Classes
 90
     4095
 91
        4
280
     0
281
     0
  0
CLASS
  1
MATERIAL
  2
AcDbMaterial
  3
ObjectDBX Classes
 90
     1153
 91
        4
280
     0
281
     0
  0
CLASS
  1
SUN
  2
AcDbSun
  3
SCENEOE
 90
     1024
 91
        4
280
     0
281
     0
  0
ENDSEC
  0
SECTION
  2
TABLES
  0
TABLE
  2
VPORT
  5
8
330
0
100
AcDbSymbolTable
 70
     1
  0
VPORT
  5
29
330
8
100
AcDbSymbolTableRecord
100
AcDbViewportTableRecord
  2
*Active
 70
     0
 10
0.0
 20
0.0
 11
1.0
 21
1.0
 12
0.0
 22
0.0
 13
0.0
 23
0.0
 14
0.5
 24
0.5
 15
0.5
 25
0.5
 16
0.0
 26
0.0
 36
1.0
 17
91.00082462281999
 27
-128.4993055234307
 37
0.0
 40
256.9986110468615
 41
0.7081814508812795
 42
50.0
 43
0.0
 44
0.0
 50
0.0
 51
0.0
 71
     0
 72
   100
 73
     1
 74
     3
 75
     0
 76
     0
 77
     0
 78
     0
281
     0
 65
     1
110
0.0
120
0.0
130
0.0
111
1.0
121
0.0
131
0.0
112
0.0
122
1.0
132
0.0
 79
     0
146
0.0
 60
     3
 61
     5
292
     1
282
     1
141
0.0
142
0.0
 63
   250
361
3F
  0
ENDTAB
  0
TABLE
  2
LTYPE
  5
5
330
0
100
AcDbSymbolTable
 70
     1
  0
LTYPE
  5
14
330
5
100
AcDbSymbolTableRecord
100
AcDbLinetypeTableRecord
  2
ByBlock
 70
     0
  3

 72
    65
 73
     0
 40
0.0
  0
LTYPE
  5
15
330
5
100
AcDbSymbolTableRecord
100
AcDbLinetypeTableRecord
  2
ByLayer
 70
     0
  3

 72
    65
 73
     0
 40
0.0
  0
LTYPE
  5
16
330
5
100
AcDbSymbolTableRecord
100
AcDbLinetypeTableRecord
  2
Continuous
 70
     0
  3
Solid line
 72
    65
 73
     0
 40
0.0
  0
ENDTAB
  0
TABLE
  2
LAYER
  5
2
330
0
100
AcDbSymbolTable
 70
     2
  0
LAYER
  5
10
330
2
100
AcDbSymbolTableRecord
100
AcDbLayerTableRecord
  2
0
 70
     0
 62
     7
  6
Continuous
370
    -3
390
F
347
3E
  0
LAYER
  5
40
330
2
100
AcDbSymbolTableRecord
100
AcDbLayerTableRecord
  2
_U+30EC_U+30A4_U+30E4_U+30FC 1
 70
     0
 62
     7
  6
Continuous
370
    -3
390
F
347
3E
  0
ENDTAB
  0
TABLE
  2
STYLE
  5
3
330
0
100
AcDbSymbolTable
 70
     1
  0
STYLE
  5
11
330
3
100
AcDbSymbolTableRecord
100
AcDbTextStyleTableRecord
  2
Standard
 70
     0
 40
0.0
 41
1.0
 50
0.0
 71
     0
 42
0.2
  3
txt
  4

  0
ENDTAB
  0
TABLE
  2
VIEW
  5
6
330
0
100
AcDbSymbolTable
 70
     0
  0
ENDTAB
  0
TABLE
  2
UCS
  5
7
330
0
100
AcDbSymbolTable
 70
     0
  0
ENDTAB
  0
TABLE
  2
APPID
  5
9
330
0
100
AcDbSymbolTable
 70
     1
  0
APPID
  5
12
330
9
100
AcDbSymbolTableRecord
100
AcDbRegAppTableRecord
  2
ACAD
 70
     0
  0
ENDTAB
  0
TABLE
  2
DIMSTYLE
  5
A
330
0
100
AcDbSymbolTable
 70
     1
100
AcDbDimStyleTable
  0
DIMSTYLE
105
27
330
A
100
AcDbSymbolTableRecord
100
AcDbDimStyleTableRecord
  2
Standard
 70
     0
178
     0
340
11
  0
ENDTAB
  0
TABLE
  2
BLOCK_RECORD
  5
1
330
0
100
AcDbSymbolTable
 70
     8
  0
BLOCK_RECORD
  5
1F
330
1
100
AcDbSymbolTableRecord
100
AcDbBlockTableRecord
  2
*Model_Space
340
22
 70
     0
280
     1
281
     0
  0
BLOCK_RECORD
  5
1B
330
1
100
AcDbSymbolTableRecord
100
AcDbBlockTableRecord
  2
*Paper_Space
340
1E
 70
     0
280
     1
281
     0
  0
BLOCK_RECORD
  5
23
330
1
100
AcDbSymbolTableRecord
100
AcDbBlockTableRecord
  2
*Paper_Space0
340
26
 70
     0
280
     1
281
     0
  0
BLOCK_RECORD
  5
B4
330
1
100
AcDbSymbolTableRecord
100
AcDbBlockTableRecord
  2
block 2
340
0
102
{BLKREFS
331
B5
102
}
 70
     0
280
     1
281
     0
  0
BLOCK_RECORD
  5
CC
330
1
100
AcDbSymbolTableRecord
100
AcDbBlockTableRecord
  2
block 3
340
0
102
{BLKREFS
331
CD
102
}
 70
     0
280
     1
281
     0
  0
BLOCK_RECORD
  5
DE
330
1
100
AcDbSymbolTableRecord
100
AcDbBlockTableRecord
  2
block 4
340
0
102
{BLKREFS
331
DF
102
}
 70
     0
280
     1
281
     0
  0
BLOCK_RECORD
  5
102
330
1
100
AcDbSymbolTableRecord
100
AcDbBlockTableRecord
  2
block 5
340
0
102
{BLKREFS
331
103
102
}
 70
     0
280
     1
281
     0
  0
BLOCK_RECORD
  5
11A
330
1
100
AcDbSymbolTableRecord
100
AcDbBlockTableRecord
  2
block 6
340
0
102
{BLKREFS
331
11B
102
}
 70
     0
280
     1
281
     0
  0
BLOCK_RECORD
  5
12C
330
1
100
AcDbSymbolTableRecord
100
AcDbBlockTableRecord
  2
block 7
340
0
102
{BLKREFS
331
12D
102
}
 70
     0
280
     1
281
     0
  0
BLOCK_RECORD
  5
142
330
1
100
AcDbSymbolTableRecord
100
AcDbBlockTableRecord
  2
block 8
340
0
102
{BLKREFS
331
143
102
}
 70
     0
280
     1
281
     0
  0
ENDTAB
  0
ENDSEC
  0
SECTION
  2
BLOCKS
  0
BLOCK
  5
20
330
1F
100
AcDbEntity
  8
0
100
AcDbBlockBegin
  2
*Model_Space
 70
     0
 10
0.0
 20
0.0
 30
0.0
  3
*Model_Space
  1

  0
ENDBLK
  5
21
330
1F
100
AcDbEntity
  8
0
100
AcDbBlockEnd
  0
BLOCK
  5
1C
330
1B
100
AcDbEntity
 67
     1
  8
0
100
AcDbBlockBegin
  2
*Paper_Space
 70
     0
 10
0.0
 20
0.0
 30
0.0
  3
*Paper_Space
  1

  0
ENDBLK
  5
1D
330
1B
100
AcDbEntity
 67
     1
  8
0
100
AcDbBlockEnd
  0
BLOCK
  5
24
330
23
100
AcDbEntity
  8
0
100
AcDbBlockBegin
  2
*Paper_Space0
 70
     0
 10
0.0
 20
0.0
 30
0.0
  3
*Paper_Space0
  1

  0
ENDBLK
  5
25
330
23
100
AcDbEntity
  8
0
100
AcDbBlockEnd
  0
BLOCK
  5
B6
330
B4
100
AcDbEntity
  8
0
100
AcDbBlockBegin
  2
block 2
 70
     0
 10
0.0
 20
0.0
 30
0.0
  3
block 2
  1

  0
SPLINE
  5
B8
330
B4
100
AcDbEntity
  8
_U+30EC_U+30A4_U+30E4_U+30FC 1
370
     0
100
AcDbSpline
210
0.0
220
0.0
230
1.0
 70
    11
 71
     3
 72
    44
 73
    40
 74
     0
 42
0.0000000001
 43
0.0000000001
 12
1.0
 22
0.0
 32
0.0
 13
1.0
 23
0.0
 33
0.0
 40
0.0
 40
0.0
 40
0.0
 40
0.0
 40
1.0
 40
1.0
 40
1.0
 40
2.0
 40
2.0
 40
2.0
 40
3.0
 40
3.0
 40
3.0
 40
4.0
 40
4.0
 40
4.0
 40
5.0
 40
5.0
 40
5.0
 40
6.0
 40
6.0
 40
6.0
 40
7.0
 40
7.0
 40
7.0
 40
8.0
 40
8.0
 40
8.0
 40
9.0
 40
9.0
 40
9.0
 40
10.0
 40
10.0
 40
10.0
 40
11.0
 40
11.0
 40
11.0
 40
12.0
 40
12.0
 40
12.0
 40
13.0
 40
13.0
 40
13.0
 40
13.0
 10
80.44590791174616
 20
-114.9239067638038
 30
0.0
 10
80.21301945694327
 20
-115.0825534108995
 30
0.0
 10
80.11362845219382
 20
-115.1566229638324
 30
0.0
 10
80.06160751036654
 20
-115.3004557003416
 30
0.0
 10
80.06160751036654
 20
-115.3004557003416
 30
0.0
 10
80.89359807005438
 20
-115.3004557003416
 30
0.0
 10
80.89359807005438
 20
-115.3004557003416
 30
0.0
 10
80.89359807005438
 20
-115.3004557003416
 30
0.0
 10
80.89359807005438
 20
-115.5056111364882
 30
0.0
 10
80.89359807005438
 20
-115.5056111364882
 30
0.0
 10
80.89359807005438
 20
-115.5056111364882
 30
0.0
 10
79.79478486503395
 20
-115.5056111364882
 30
0.0
 10
79.79478486503395
 20
-115.5056111364882
 30
0.0
 10
79.82871905556365
 20
-115.1480102251193
 30
0.0
 10
79.89882674868849
 20
-115.0698065576041
 30
0.0
 10
80.31034340440158
 20
-114.7714612885814
 30
0.0
 10
80.58388398593043
 20
-114.5726792790825
 30
0.0
 10
80.65399167905525
 20
-114.5049831527974
 30
0.0
 10
80.65399167905525
 20
-114.3675238429359
 30
0.0
 10
80.65399167905525
 20
-114.2490125582433
 30
0.0
 10
80.57716604973419
 20
-114.1177544202553
 30
0.0
 10
80.36684297035968
 20
-114.1177544202553
 30
0.0
 10
80.08865150992575
 20
-114.1177544202553
 30
0.0
 10
80.0796942616641
 20
-114.3484035629928
 30
0.0
 10
80.07521563753328
 20
-114.4648477903942
 30
0.0
 10
80.07521563753328
 20
-114.4648477903942
 30
0.0
 10
79.83543699175989
 20
-114.4648477903942
 30
0.0
 10
79.83543699175989
 20
-114.4648477903942
 30
0.0
 10
79.8445664947958
 20
-114.3378960217628
 30
0.0
 10
79.85593530989713
 20
-114.2257581637179
 30
0.0
 10
79.94171818747985
 20
-114.1072468790253
 30
0.0
 10
80.05936819830113
 20
-113.9465331746384
 30
0.0
 10
80.25832246257431
 20
-113.9125989841087
 30
0.0
 10
80.38269040959183
 20
-113.9125989841087
 30
0.0
 10
80.67879636654905
 20
-113.9125989841087
 30
0.0
 10
80.90031600625062
 20
-114.0967393377953
 30
0.0
 10
80.90031600625062
 20
-114.3695909002271
 30
0.0
 10
80.90031600625062
 20
-114.5980007308991
 30
0.0
 10
80.7759480592331
 20
-114.6975639904228
 30
0.0
 10
80.44590791174616
 20
-114.9239067638038
 30
0.0
  0
HATCH
  5
B9
330
B4
100
AcDbEntity
  8
_U+30EC_U+30A4_U+30E4_U+30FC 1
 62
     7
420
 16777215
100
AcDbHatch
 10
0.0
 20
0.0
 30
0.0
210
0.0
220
0.0
230
1.0
  2
SOLID
 70
     1
 71
     0
 91
        1
 92
        1
 93
        1
 72
     4
 94
        3
 73
     0
 74
     1
 95
       44
 96
       40
 40
0.0
 40
0.0
 40
0.0
 40
0.0
 40
1.0
 40
1.0
 40
1.0
 40
2.0
 40
2.0
 40
2.0
 40
3.0
 40
3.0
 40
3.0
 40
4.0
 40
4.0
 40
4.0
 40
5.0
 40
5.0
 40
5.0
 40
6.0
 40
6.0
 40
6.0
 40
7.0
 40
7.0
 40
7.0
 40
8.0
 40
8.0
 40
8.0
 40
9.0
 40
9.0
 40
9.0
 40
10.0
 40
10.0
 40
10.0
 40
11.0
 40
11.0
 40
11.0
 40
12.0
 40
12.0
 40
12.0
 40
13.0
 40
13.0
 40
13.0
 40
13.0
 10
80.44590791174616
 20
-114.9239067638038
 10
80.21301945694327
 20
-115.0825534108995
 10
80.11362845219382
 20
-115.1566229638324
 10
80.06160751036654
 20
-115.3004557003416
 10
80.06160751036654
 20
-115.3004557003416
 10
80.89359807005438
 20
-115.3004557003416
 10
80.89359807005438
 20
-115.3004557003416
 10
80.89359807005438
 20
-115.3004557003416
 10
80.89359807005438
 20
-115.5056111364882
 10
80.89359807005438
 20
-115.5056111364882
 10
80.89359807005438
 20
-115.5056111364882
 10
79.79478486503395
 20
-115.5056111364882
 10
79.79478486503395
 20
-115.5056111364882
 10
79.82871905556365
 20
-115.1480102251193
 10
79.89882674868849
 20
-115.0698065576041
 10
80.31034340440158
 20
-114.7714612885814
 10
80.58388398593043
 20
-114.5726792790825
 10
80.65399167905525
 20
-114.5049831527974
 10
80.65399167905525
 20
-114.3675238429359
 10
80.65399167905525
 20
-114.2490125582433
 10
80.57716604973419
 20
-114.1177544202553
 10
80.36684297035968
 20
-114.1177544202553
 10
80.08865150992575
 20
-114.1177544202553
 10
80.0796942616641
 20
-114.3484035629928
 10
80.07521563753328
 20
-114.4648477903942
 10
80.07521563753328
 20
-114.4648477903942
 10
79.83543699175989
 20
-114.4648477903942
 10
79.83543699175989
 20
-114.4648477903942
 10
79.8445664947958
 20
-114.3378960217628
 10
79.85593530989713
 20
-114.2257581637179
 10
79.94171818747985
 20
-114.1072468790253
 10
80.05936819830113
 20
-113.9465331746384
 10
80.25832246257431
 20
-113.9125989841087
 10
80.38269040959183
 20
-113.9125989841087
 10
80.67879636654905
 20
-113.9125989841087
 10
80.90031600625062
 20
-114.0967393377953
 10
80.90031600625062
 20
-114.3695909002271
 10
80.90031600625062
 20
-114.5980007308991
 10
80.7759480592331
 20
-114.6975639904228
 10
80.44590791174616
 20
-114.9239067638038
 97
        0
 97
        0
 75
     2
 76
     1
 98
        0
  0
POLYLINE
  5
BA
330
B4
100
AcDbEntity
  8
_U+30EC_U+30A4_U+30E4_U+30FC 1
370
     0
100
AcDb2dPolyline
 66
     1
 10
0.0
 20
0.0
 30
0.0
  0
VERTEX
  5
BB
330
BA
100
AcDbEntity
  8
_U+30EC_U+30A4_U+30E4_U+30FC 1
370
     0
100
AcDbVertex
100
AcDb2dVertex
 10
81.13406573492482
 20
-115.5056111364882
 30
0.0
  0
VERTEX
  5
BC
330
BA
100
AcDbEntity
  8
_U+30EC_U+30A4_U+30E4_U+30FC 1
370
     0
100
AcDbVertex
100
AcDb2dVertex
 10
81.13406573492482
 20
-115.2539469112907
 30
0.0
  0
VERTEX
  5
BD
330
BA
100
AcDbEntity
  8
_U+30EC_U+30A4_U+30E4_U+30FC 1
370
     0
100
AcDbVertex
100
AcDb2dVertex
 10
81.40312769232283
 20
-115.2539469112907
 30
0.0
  0
VERTEX
  5
BE
330
BA
100
AcDbEntity
  8
_U+30EC_U+30A4_U+30E4_U+30FC 1
370
     0
100
AcDbVertex
100
AcDb2dVertex
 10
81.40312769232283
 20
-115.5056111364882
 30
0.0
  0
VERTEX
  5
BF
330
BA
100
AcDbEntity
  8
_U+30EC_U+30A4_U+30E4_U+30FC 1
370
     0
100
AcDbVertex
100
AcDb2dVertex
 10
81.13406573492482
 20
-115.5056111364882
 30
0.0
  0
SEQEND
  5
C0
330
BA
100
AcDbEntity
  8
_U+30EC_U+30A4_U+30E4_U+30FC 1
370
     0
  0
HATCH
  5
C1
330
B4
100
AcDbEntity
  8
_U+30EC_U+30A4_U+30E4_U+30FC 1
 62
     7
420
 16777215
100
AcDbHatch
 10
0.0
 20
0.0
 30
0.0
210
0.0
220
0.0
230
1.0
  2
SOLID
 70
     1
 71
     0
 91
        1
 92
        1
 93
        4
 72
     1
 10
81.13406573492482
 20
-115.5056111364882
 11
81.13406573492482
 21
-115.2539469112907
 72
     1
 10
81.13406573492482
 20
-115.2539469112907
 11
81.40312769232283
 21
-115.2539469112907
 72
     1
 10
81.40312769232283
 20
-115.2539469112907
 11
81.40312769232283
 21
-115.5056111364882
 72
     1
 10
81.40312769232283
 20
-115.5056111364882
 11
81.13406573492482
 21
-115.5056111364882
 97
        0
 75
     2
 76
     1
 98
        0
  0
SPLINE
  5
C2
330
B4
100
AcDbEntity
  8
_U+30EC_U+30A4_U+30E4_U+30FC 1
370
     0
100
AcDbSpline
210
0.0
220
0.0
230
1.0
 70
    11
 71
     3
 72
    53
 73
    49
 74
     0
 42
0.0000000001
 43
0.0000000001
 12
1.0
 22
0.0
 32
0.0
 13
1.0
 23
0.0
 33
0.0
 40
0.0
 40
0.0
 40
0.0
 40
0.0
 40
1.0
 40
1.0
 40
1.0
 40
2.0
 40
2.0
 40
2.0
 40
3.0
 40
3.0
 40
3.0
 40
4.0
 40
4.0
 40
4.0
 40
5.0
 40
5.0
 40
5.0
 40
6.0
 40
6.0
 40
6.0
 40
7.0
 40
7.0
 40
7.0
 40
8.0
 40
8.0
 40
8.0
 40
9.0
 40
9.0
 40
9.0
 40
10.0
 40
10.0
 40
10.0
 40
11.0
 40
11.0
 40
11.0
 40
12.0
 40
12.0
 40
12.0
 40
13.0
 40
13.0
 40
13.0
 40
14.0
 40
14.0
 40
14.0
 40
15.0
 40
15.0
 40
15.0
 40
16.0
 40
16.0
 40
16.0
 40
16.0
 10
82.16983369256518
 20
-115.5564262948956
 30
0.0
 10
82.08611787227362
 20
-115.5564262948956
 30
0.0
 10
81.97759736448825
 20
-115.5395453270179
 30
0.0
 10
81.86907685670288
 20
-115.475983315315
 30
0.0
 10
81.68373071959643
 20
-115.3659125145613
 30
0.0
 10
81.66099308939378
 20
-115.2348266313475
 30
0.0
 10
81.64066702603081
 20
-115.1269951426592
 30
0.0
 10
81.64066702603081
 20
-115.1269951426592
 30
0.0
 10
81.87803410496453
 20
-115.1269951426592
 30
0.0
 10
81.87803410496453
 20
-115.1269951426592
 30
0.0
 10
81.9369452377623
 20
-115.3257771521581
 30
0.0
 10
82.07250974510687
 20
-115.3554049733313
 30
0.0
 10
82.17207300463059
 20
-115.3554049733313
 30
0.0
 10
82.32124563914192
 20
-115.3554049733313
 30
0.0
 10
82.48402640081997
 20
-115.2560139685818
 30
0.0
 10
82.48402640081997
 20
-115.0232977685532
 30
0.0
 10
82.48402640081997
 20
-114.7673271739991
 30
0.0
 10
82.29179007274303
 20
-114.6975639904228
 30
0.0
 10
82.16294350159468
 20
-114.6975639904228
 30
0.0
 10
82.12900931106498
 20
-114.6975639904228
 30
0.0
 10
81.97759736448825
 20
-114.6975639904228
 30
0.0
 10
81.88268498386961
 20
-114.8265828163454
 30
0.0
 10
81.88268498386961
 20
-114.8265828163454
 30
0.0
 10
81.69492727992349
 20
-114.8074625364023
 30
0.0
 10
81.69492727992349
 20
-114.8074625364023
 30
0.0
 10
81.69492727992349
 20
-114.8074625364023
 30
0.0
 10
81.8239461058461
 20
-113.9613470852249
 30
0.0
 10
81.8239461058461
 20
-113.9613470852249
 30
0.0
 10
81.8239461058461
 20
-113.9613470852249
 30
0.0
 10
82.65593666553394
 20
-113.9613470852249
 30
0.0
 10
82.65593666553394
 20
-113.9613470852249
 30
0.0
 10
82.65593666553394
 20
-113.9613470852249
 30
0.0
 10
82.65593666553394
 20
-114.1559949801416
 30
0.0
 10
82.65593666553394
 20
-114.1559949801416
 30
0.0
 10
82.65593666553394
 20
-114.1559949801416
 30
0.0
 10
81.99792342785122
 20
-114.1559949801416
 30
0.0
 10
81.99792342785122
 20
-114.1559949801416
 30
0.0
 10
81.99792342785122
 20
-114.1559949801416
 30
0.0
 10
81.92781573472638
 20
-114.5790527057302
 30
0.0
 10
81.92781573472638
 20
-114.5790527057302
 30
0.0
 10
81.9934448037204
 20
-114.5451185152005
 30
0.0
 10
82.08163924814279
 20
-114.5049831527974
 30
0.0
 10
82.20824650722572
 20
-114.5049831527974
 30
0.0
 10
82.47954777668915
 20
-114.5049831527974
 30
0.0
 10
82.73276229485501
 20
-114.6911905637751
 30
0.0
 10
82.73276229485501
 20
-115.0041774886101
 30
0.0
 10
82.73276229485501
 20
-115.3216430375758
 30
0.0
 10
82.49298364908162
 20
-115.5564262948956
 30
0.0
 10
82.16983369256518
 20
-115.5564262948956
 30
0.0
  0
HATCH
  5
C3
330
B4
100
AcDbEntity
  8
_U+30EC_U+30A4_U+30E4_U+30FC 1
 62
     7
420
 16777215
100
AcDbHatch
 10
0.0
 20
0.0
 30
0.0
210
0.0
220
0.0
230
1.0
  2
SOLID
 70
     1
 71
     0
 91
        1
 92
        1
 93
        1
 72
     4
 94
        3
 73
     0
 74
     1
 95
       53
 96
       49
 40
0.0
 40
0.0
 40
0.0
 40
0.0
 40
1.0
 40
1.0
 40
1.0
 40
2.0
 40
2.0
 40
2.0
 40
3.0
 40
3.0
 40
3.0
 40
4.0
 40
4.0
 40
4.0
 40
5.0
 40
5.0
 40
5.0
 40
6.0
 40
6.0
 40
6.0
 40
7.0
 40
7.0
 40
7.0
 40
8.0
 40
8.0
 40
8.0
 40
9.0
 40
9.0
 40
9.0
 40
10.0
 40
10.0
 40
10.0
 40
11.0
 40
11.0
 40
11.0
 40
12.0
 40
12.0
 40
12.0
 40
13.0
 40
13.0
 40
13.0
 40
14.0
 40
14.0
 40
14.0
 40
15.0
 40
15.0
 40
15.0
 40
16.0
 40
16.0
 40
16.0
 40
16.0
 10
82.16983369256518
 20
-115.5564262948956
 10
82.08611787227362
 20
-115.5564262948956
 10
81.97759736448825
 20
-115.5395453270179
 10
81.86907685670288
 20
-115.475983315315
 10
81.68373071959643
 20
-115.3659125145613
 10
81.66099308939378
 20
-115.2348266313475
 10
81.64066702603081
 20
-115.1269951426592
 10
81.64066702603081
 20
-115.1269951426592
 10
81.87803410496453
 20
-115.1269951426592
 10
81.87803410496453
 20
-115.1269951426592
 10
81.9369452377623
 20
-115.3257771521581
 10
82.07250974510687
 20
-115.3554049733313
 10
82.17207300463059
 20
-115.3554049733313
 10
82.32124563914192
 20
-115.3554049733313
 10
82.48402640081997
 20
-115.2560139685818
 10
82.48402640081997
 20
-115.0232977685532
 10
82.48402640081997
 20
-114.7673271739991
 10
82.29179007274303
 20
-114.6975639904228
 10
82.16294350159468
 20
-114.6975639904228
 10
82.12900931106498
 20
-114.6975639904228
 10
81.97759736448825
 20
-114.6975639904228
 10
81.88268498386961
 20
-114.8265828163454
 10
81.88268498386961
 20
-114.8265828163454
 10
81.69492727992349
 20
-114.8074625364023
 10
81.69492727992349
 20
-114.8074625364023
 10
81.69492727992349
 20
-114.8074625364023
 10
81.8239461058461
 20
-113.9613470852249
 10
81.8239461058461
 20
-113.9613470852249
 10
81.8239461058461
 20
-113.9613470852249
 10
82.65593666553394
 20
-113.9613470852249
 10
82.65593666553394
 20
-113.9613470852249
 10
82.65593666553394
 20
-113.9613470852249
 10
82.65593666553394
 20
-114.1559949801416
 10
82.65593666553394
 20
-114.1559949801416
 10
82.65593666553394
 20
-114.1559949801416
 10
81.99792342785122
 20
-114.1559949801416
 10
81.99792342785122
 20
-114.1559949801416
 10
81.99792342785122
 20
-114.1559949801416
 10
81.92781573472638
 20
-114.5790527057302
 10
81.92781573472638
 20
-114.5790527057302
 10
81.9934448037204
 20
-114.5451185152005
 10
82.08163924814279
 20
-114.5049831527974
 10
82.20824650722572
 20
-114.5049831527974
 10
82.47954777668915
 20
-114.5049831527974
 10
82.73276229485501
 20
-114.6911905637751
 10
82.73276229485501
 20
-115.0041774886101
 10
82.73276229485501
 20
-115.3216430375758
 10
82.49298364908162
 20
-115.5564262948956
 10
82.16983369256518
 20
-115.5564262948956
 97
        0
 97
        0
 75
     2
 76
     1
 98
        0
  0
ENDBLK
  5
B7
330
B4
100
AcDbEntity
  8
0
100
AcDbBlockEnd
  0
BLOCK
  5
CE
330
CC
100
AcDbEntity
  8
0
100
AcDbBlockBegin
  2
block 3
 70
     0
 10
0.0
 20
0.0
 30
0.0
  3
block 3
  1

  0
SPLINE
  5
D0
330
CC
100
AcDbEntity
  8
_U+30EC_U+30A4_U+30E4_U+30FC 1
370
     0
100
AcDbSpline
210
0.0
220
0.0
230
1.0
 70
    11
 71
     3
 72
    26
 73
    22
 74
     0
 42
0.0000000001
 43
0.0000000001
 12
1.0
 22
0.0
 32
0.0
 13
1.0
 23
0.0
 33
0.0
 40
0.0
 40
0.0
 40
0.0
 40
0.0
 40
1.0
 40
1.0
 40
1.0
 40
2.0
 40
2.0
 40
2.0
 40
3.0
 40
3.0
 40
3.0
 40
4.0
 40
4.0
 40
4.0
 40
5.0
 40
5.0
 40
5.0
 40
6.0
 40
6.0
 40
6.0
 40
7.0
 40
7.0
 40
7.0
 40
7.0
 10
87.00726451817874
 20
-116.4318250576976
 30
0.0
 10
87.00726451817874
 20
-116.4318250576976
 30
0.0
 10
86.75405000001288
 20
-116.4318250576976
 30
0.0
 10
86.75405000001288
 20
-116.4318250576976
 30
0.0
 10
86.7810939995721
 20
-116.122972247445
 30
0.0
 10
86.9867662000415
 20
-115.6046576316891
 30
0.0
 10
87.42084823118299
 20
-115.0990898692287
 30
0.0
 10
87.42084823118299
 20
-115.0990898692287
 30
0.0
 10
86.52564016934082
 20
-115.0990898692287
 30
0.0
 10
86.52564016934082
 20
-115.0990898692287
 30
0.0
 10
86.52564016934082
 20
-115.0990898692287
 30
0.0
 10
86.52564016934082
 20
-114.8875610064344
 30
0.0
 10
86.52564016934082
 20
-114.8875610064344
 30
0.0
 10
86.52564016934082
 20
-114.8875610064344
 30
0.0
 10
87.67406274934885
 20
-114.8875610064344
 30
0.0
 10
87.67406274934885
 20
-114.8875610064344
 30
0.0
 10
87.67406274934885
 20
-114.8875610064344
 30
0.0
 10
87.67406274934885
 20
-115.0990898692287
 30
0.0
 10
87.67406274934885
 20
-115.0990898692287
 30
0.0
 10
87.32817516262976
 20
-115.3888223995382
 30
0.0
 10
87.04343802077386
 20
-115.9812065682269
 30
0.0
 10
87.00726451817874
 20
-116.4318250576976
 30
0.0
  0
HATCH
  5
D1
330
CC
100
AcDbEntity
  8
_U+30EC_U+30A4_U+30E4_U+30FC 1
 62
     7
420
 16777215
100
AcDbHatch
 10
0.0
 20
0.0
 30
0.0
210
0.0
220
0.0
230
1.0
  2
SOLID
 70
     1
 71
     0
 91
        1
 92
        1
 93
        1
 72
     4
 94
        3
 73
     0
 74
     1
 95
       26
 96
       22
 40
0.0
 40
0.0
 40
0.0
 40
0.0
 40
1.0
 40
1.0
 40
1.0
 40
2.0
 40
2.0
 40
2.0
 40
3.0
 40
3.0
 40
3.0
 40
4.0
 40
4.0
 40
4.0
 40
5.0
 40
5.0
 40
5.0
 40
6.0
 40
6.0
 40
6.0
 40
7.0
 40
7.0
 40
7.0
 40
7.0
 10
87.00726451817874
 20
-116.4318250576976
 10
87.00726451817874
 20
-116.4318250576976
 10
86.75405000001288
 20
-116.4318250576976
 10
86.75405000001288
 20
-116.4318250576976
 10
86.7810939995721
 20
-116.122972247445
 10
86.9867662000415
 20
-115.6046576316891
 10
87.42084823118299
 20
-115.0990898692287
 10
87.42084823118299
 20
-115.0990898692287
 10
86.52564016934082
 20
-115.0990898692287
 10
86.52564016934082
 20
-115.0990898692287
 10
86.52564016934082
 20
-115.0990898692287
 10
86.52564016934082
 20
-114.8875610064344
 10
86.52564016934082
 20
-114.8875610064344
 10
86.52564016934082
 20
-114.8875610064344
 10
87.67406274934885
 20
-114.8875610064344
 10
87.67406274934885
 20
-114.8875610064344
 10
87.67406274934885
 20
-114.8875610064344
 10
87.67406274934885
 20
-115.0990898692287
 10
87.67406274934885
 20
-115.0990898692287
 10
87.32817516262976
 20
-115.3888223995382
 10
87.04343802077386
 20
-115.9812065682269
 10
87.00726451817874
 20
-116.4318250576976
 97
        0
 97
        0
 75
     2
 76
     1
 98
        0
  0
ENDBLK
  5
CF
330
CC
100
AcDbEntity
  8
0
100
AcDbBlockEnd
  0
BLOCK
  5
E0
330
DE
100
AcDbEntity
  8
0
100
AcDbBlockBegin
  2
block 4
 70
     0
 10
0.0
 20
0.0
 30
0.0
  3
block 4
  1

  0
SPLINE
  5
E2
330
DE
100
AcDbEntity
  8
_U+30EC_U+30A4_U+30E4_U+30FC 1
370
     0
100
AcDbSpline
210
0.0
220
0.0
230
1.0
 70
    11
 71
     3
 72
    26
 73
    22
 74
     0
 42
0.0000000001
 43
0.0000000001
 12
1.0
 22
0.0
 32
0.0
 13
1.0
 23
0.0
 33
0.0
 40
0.0
 40
0.0
 40
0.0
 40
0.0
 40
1.0
 40
1.0
 40
1.0
 40
2.0
 40
2.0
 40
2.0
 40
3.0
 40
3.0
 40
3.0
 40
4.0
 40
4.0
 40
4.0
 40
5.0
 40
5.0
 40
5.0
 40
6.0
 40
6.0
 40
6.0
 40
7.0
 40
7.0
 40
7.0
 40
7.0
 10
74.58166637675389
 20
-131.881700270849
 30
0.0
 10
74.58166637675389
 20
-131.881700270849
 30
0.0
 10
73.47734101895706
 20
-131.881700270849
 30
0.0
 10
73.47734101895706
 20
-131.881700270849
 30
0.0
 10
73.47734101895706
 20
-131.881700270849
 30
0.0
 10
73.47734101895706
 20
-132.2341335389901
 30
0.0
 10
73.47734101895706
 20
-132.2341335389901
 30
0.0
 10
73.47734101895706
 20
-132.2341335389901
 30
0.0
 10
73.32937416786558
 20
-132.2341335389901
 30
0.0
 10
73.32937416786558
 20
-132.2341335389901
 30
0.0
 10
73.314560257279
 20
-131.8792887040094
 30
0.0
 10
73.15160724082668
 20
-131.8296793290218
 30
0.0
 10
73.03740232549065
 20
-131.7979844505575
 30
0.0
 10
73.03740232549065
 20
-131.7979844505575
 30
0.0
 10
73.03740232549065
 20
-131.6419216250756
 30
0.0
 10
73.03740232549065
 20
-131.6419216250756
 30
0.0
 10
73.03740232549065
 20
-131.6419216250756
 30
0.0
 10
74.58166637675389
 20
-131.6419216250756
 30
0.0
 10
74.58166637675389
 20
-131.6419216250756
 30
0.0
 10
74.58166637675389
 20
-131.6419216250756
 30
0.0
 10
74.58166637675389
 20
-131.881700270849
 30
0.0
 10
74.58166637675389
 20
-131.881700270849
 30
0.0
  0
HATCH
  5
E3
330
DE
100
AcDbEntity
  8
_U+30EC_U+30A4_U+30E4_U+30FC 1
 62
     7
420
 16777215
100
AcDbHatch
 10
0.0
 20
0.0
 30
0.0
210
0.0
220
0.0
230
1.0
  2
SOLID
 70
     1
 71
     0
 91
        1
 92
        1
 93
        1
 72
     4
 94
        3
 73
     0
 74
     1
 95
       26
 96
       22
 40
0.0
 40
0.0
 40
0.0
 40
0.0
 40
1.0
 40
1.0
 40
1.0
 40
2.0
 40
2.0
 40
2.0
 40
3.0
 40
3.0
 40
3.0
 40
4.0
 40
4.0
 40
4.0
 40
5.0
 40
5.0
 40
5.0
 40
6.0
 40
6.0
 40
6.0
 40
7.0
 40
7.0
 40
7.0
 40
7.0
 10
74.58166637675389
 20
-131.881700270849
 10
74.58166637675389
 20
-131.881700270849
 10
73.47734101895706
 20
-131.881700270849
 10
73.47734101895706
 20
-131.881700270849
 10
73.47734101895706
 20
-131.881700270849
 10
73.47734101895706
 20
-132.2341335389901
 10
73.47734101895706
 20
-132.2341335389901
 10
73.47734101895706
 20
-132.2341335389901
 10
73.32937416786558
 20
-132.2341335389901
 10
73.32937416786558
 20
-132.2341335389901
 10
73.314560257279
 20
-131.8792887040094
 10
73.15160724082668
 20
-131.8296793290218
 10
73.03740232549065
 20
-131.7979844505575
 10
73.03740232549065
 20
-131.7979844505575
 10
73.03740232549065
 20
-131.6419216250756
 10
73.03740232549065
 20
-131.6419216250756
 10
73.03740232549065
 20
-131.6419216250756
 10
74.58166637675389
 20
-131.6419216250756
 10
74.58166637675389
 20
-131.6419216250756
 10
74.58166637675389
 20
-131.6419216250756
 10
74.58166637675389
 20
-131.881700270849
 10
74.58166637675389
 20
-131.881700270849
 97
        0
 97
        0
 75
     2
 76
     1
 98
        0
  0
SPLINE
  5
E4
330
DE
100
AcDbEntity
  8
_U+30EC_U+30A4_U+30E4_U+30FC 1
370
     0
100
AcDbSpline
210
0.0
220
0.0
230
1.0
 70
    11
 71
     3
 72
    32
 73
    28
 74
     0
 42
0.0000000001
 43
0.0000000001
 12
1.0
 22
0.0
 32
0.0
 13
1.0
 23
0.0
 33
0.0
 40
0.0
 40
0.0
 40
0.0
 40
0.0
 40
1.0
 40
1.0
 40
1.0
 40
2.0
 40
2.0
 40
2.0
 40
3.0
 40
3.0
 40
3.0
 40
4.0
 40
4.0
 40
4.0
 40
5.0
 40
5.0
 40
5.0
 40
6.0
 40
6.0
 40
6.0
 40
7.0
 40
7.0
 40
7.0
 40
8.0
 40
8.0
 40
8.0
 40
9.0
 40
9.0
 40
9.0
 40
9.0
 10
74.63248153516133
 20
-130.5670518336777
 30
0.0
 10
74.63248153516133
 20
-131.1189561304147
 30
0.0
 10
74.07816567158463
 20
-131.1279133786764
 30
0.0
 10
73.86456975149913
 20
-131.1279133786764
 30
0.0
 10
73.63392060876166
 20
-131.1279133786764
 30
0.0
 10
72.98658716708321
 20
-131.1075873153134
 30
0.0
 10
72.98658716708321
 20
-130.5263997069517
 30
0.0
 10
72.98658716708321
 20
-130.3410535698453
 30
0.0
 10
73.05635035065953
 20
-130.0788818034178
 30
0.0
 10
73.38845755543761
 20
-130.0382296766918
 30
0.0
 10
73.38845755543761
 20
-130.0382296766918
 30
0.0
 10
73.38845755543761
 20
-130.2666395073639
 30
0.0
 10
73.38845755543761
 20
-130.2666395073639
 30
0.0
 10
73.33144122515672
 20
-130.2776638129167
 30
0.0
 10
73.18330211929099
 20
-130.3117702582207
 30
0.0
 10
73.18330211929099
 20
-130.5288112737914
 30
0.0
 10
73.18330211929099
 20
-130.8409369247551
 30
0.0
 10
73.51127520948677
 20
-130.8836561087722
 30
0.0
 10
73.7164306456334
 20
-130.8974364907131
 30
0.0
 10
73.63822697811823
 20
-130.7978732311894
 30
0.0
 10
73.57897133577193
 20
-130.7255262259992
 30
0.0
 10
73.57897133577193
 20
-130.5312228406311
 30
0.0
 10
73.57897133577193
 20
-130.3389865125542
 30
0.0
 10
73.68680282446024
 20
-130.0154920464892
 30
0.0
 10
74.0929795821712
 20
-130.0154920464892
 30
0.0
 10
74.41251218842812
 20
-130.0154920464892
 30
0.0
 10
74.63248153516133
 20
-130.2280544379291
 30
0.0
 10
74.63248153516133
 20
-130.5670518336777
 30
0.0
  0
SPLINE
  5
E5
330
DE
100
AcDbEntity
  8
_U+30EC_U+30A4_U+30E4_U+30FC 1
370
     0
100
AcDbSpline
210
0.0
220
0.0
230
1.0
 70
    11
 71
     3
 72
    17
 73
    13
 74
     0
 42
0.0000000001
 43
0.0000000001
 12
1.0
 22
0.0
 32
0.0
 13
1.0
 23
0.0
 33
0.0
 40
0.0
 40
0.0
 40
0.0
 40
0.0
 40
1.0
 40
1.0
 40
1.0
 40
2.0
 40
2.0
 40
2.0
 40
3.0
 40
3.0
 40
3.0
 40
4.0
 40
4.0
 40
4.0
 40
4.0
 10
73.77361923068854
 20
-130.5491373371544
 30
0.0
 10
73.77361923068854
 20
-130.8295681096537
 30
0.0
 10
73.98514809348288
 20
-130.8702202363797
 30
0.0
 10
74.10142006611007
 20
-130.8702202363797
 30
0.0
 10
74.27711993585781
 20
-130.8702202363797
 30
0.0
 10
74.43990069753586
 20
-130.7685899195648
 30
0.0
 10
74.43990069753586
 20
-130.571874967357
 30
0.0
 10
74.43990069753586
 20
-130.4430283962087
 30
0.0
 10
74.38064505518956
 20
-130.2552706922626
 30
0.0
 10
74.09504663946235
 20
-130.2552706922626
 30
0.0
 10
73.87094317814685
 20
-130.2552706922626
 30
0.0
 10
73.77361923068854
 20
-130.4044433267739
 30
0.0
 10
73.77361923068854
 20
-130.5491373371544
 30
0.0
  0
HATCH
  5
E6
330
DE
100
AcDbEntity
  8
_U+30EC_U+30A4_U+30E4_U+30FC 1
 62
     7
420
 16777215
100
AcDbHatch
 10
0.0
 20
0.0
 30
0.0
210
0.0
220
0.0
230
1.0
  2
SOLID
 70
     1
 71
     0
 91
        2
 92
        1
 93
        1
 72
     4
 94
        3
 73
     0
 74
     1
 95
       32
 96
       28
 40
0.0
 40
0.0
 40
0.0
 40
0.0
 40
1.0
 40
1.0
 40
1.0
 40
2.0
 40
2.0
 40
2.0
 40
3.0
 40
3.0
 40
3.0
 40
4.0
 40
4.0
 40
4.0
 40
5.0
 40
5.0
 40
5.0
 40
6.0
 40
6.0
 40
6.0
 40
7.0
 40
7.0
 40
7.0
 40
8.0
 40
8.0
 40
8.0
 40
9.0
 40
9.0
 40
9.0
 40
9.0
 10
74.63248153516133
 20
-130.5670518336777
 10
74.63248153516133
 20
-131.1189561304147
 10
74.07816567158463
 20
-131.1279133786764
 10
73.86456975149913
 20
-131.1279133786764
 10
73.63392060876166
 20
-131.1279133786764
 10
72.98658716708321
 20
-131.1075873153134
 10
72.98658716708321
 20
-130.5263997069517
 10
72.98658716708321
 20
-130.3410535698453
 10
73.05635035065953
 20
-130.0788818034178
 10
73.38845755543761
 20
-130.0382296766918
 10
73.38845755543761
 20
-130.0382296766918
 10
73.38845755543761
 20
-130.2666395073639
 10
73.38845755543761
 20
-130.2666395073639
 10
73.33144122515672
 20
-130.2776638129167
 10
73.18330211929099
 20
-130.3117702582207
 10
73.18330211929099
 20
-130.5288112737914
 10
73.18330211929099
 20
-130.8409369247551
 10
73.51127520948677
 20
-130.8836561087722
 10
73.7164306456334
 20
-130.8974364907131
 10
73.63822697811823
 20
-130.7978732311894
 10
73.57897133577193
 20
-130.7255262259992
 10
73.57897133577193
 20
-130.5312228406311
 10
73.57897133577193
 20
-130.3389865125542
 10
73.68680282446024
 20
-130.0154920464892
 10
74.0929795821712
 20
-130.0154920464892
 10
74.41251218842812
 20
-130.0154920464892
 10
74.63248153516133
 20
-130.2280544379291
 10
74.63248153516133
 20
-130.5670518336777
 97
        0
 97
        0
 92
        1
 93
        1
 72
     4
 94
        3
 73
     0
 74
     1
 95
       17
 96
       13
 40
0.0
 40
0.0
 40
0.0
 40
0.0
 40
1.0
 40
1.0
 40
1.0
 40
2.0
 40
2.0
 40
2.0
 40
3.0
 40
3.0
 40
3.0
 40
4.0
 40
4.0
 40
4.0
 40
4.0
 10
73.77361923068854
 20
-130.5491373371544
 10
73.77361923068854
 20
-130.8295681096537
 10
73.98514809348288
 20
-130.8702202363797
 10
74.10142006611007
 20
-130.8702202363797
 10
74.27711993585781
 20
-130.8702202363797
 10
74.43990069753586
 20
-130.7685899195648
 10
74.43990069753586
 20
-130.571874967357
 10
74.43990069753586
 20
-130.4430283962087
 10
74.38064505518956
 20
-130.2552706922626
 10
74.09504663946235
 20
-130.2552706922626
 10
73.87094317814685
 20
-130.2552706922626
 10
73.77361923068854
 20
-130.4044433267739
 10
73.77361923068854
 20
-130.5491373371544
 97
        0
 97
        0
 75
     2
 76
     1
 98
        0
  0
POLYLINE
  5
E7
330
DE
100
AcDbEntity
  8
_U+30EC_U+30A4_U+30E4_U+30FC 1
370
     0
100
AcDb2dPolyline
 66
     1
 10
0.0
 20
0.0
 30
0.0
  0
VERTEX
  5
E8
330
E7
100
AcDbEntity
  8
_U+30EC_U+30A4_U+30E4_U+30FC 1
370
     0
100
AcDbVertex
100
AcDb2dVertex
 10
74.58166637675389
 20
-129.7843261394289
 30
0.0
  0
VERTEX
  5
E9
330
E7
100
AcDbEntity
  8
_U+30EC_U+30A4_U+30E4_U+30FC 1
370
     0
100
AcDbVertex
100
AcDb2dVertex
 10
74.33000215155639
 20
-129.7843261394289
 30
0.0
  0
VERTEX
  5
EA
330
E7
100
AcDbEntity
  8
_U+30EC_U+30A4_U+30E4_U+30FC 1
370
     0
100
AcDbVertex
100
AcDb2dVertex
 10
74.33000215155639
 20
-129.5152641820309
 30
0.0
  0
VERTEX
  5
EB
330
E7
100
AcDbEntity
  8
_U+30EC_U+30A4_U+30E4_U+30FC 1
370
     0
100
AcDbVertex
100
AcDb2dVertex
 10
74.58166637675389
 20
-129.5152641820309
 30
0.0
  0
VERTEX
  5
EC
330
E7
100
AcDbEntity
  8
_U+30EC_U+30A4_U+30E4_U+30FC 1
370
     0
100
AcDbVertex
100
AcDb2dVertex
 10
74.58166637675389
 20
-129.7843261394289
 30
0.0
  0
SEQEND
  5
ED
330
E7
100
AcDbEntity
  8
_U+30EC_U+30A4_U+30E4_U+30FC 1
370
     0
  0
HATCH
  5
EE
330
DE
100
AcDbEntity
  8
_U+30EC_U+30A4_U+30E4_U+30FC 1
 62
     7
420
 16777215
100
AcDbHatch
 10
0.0
 20
0.0
 30
0.0
210
0.0
220
0.0
230
1.0
  2
SOLID
 70
     1
 71
     0
 91
        1
 92
        1
 93
        4
 72
     1
 10
74.58166637675389
 20
-129.7843261394289
 11
74.33000215155639
 21
-129.7843261394289
 72
     1
 10
74.33000215155639
 20
-129.7843261394289
 11
74.33000215155639
 21
-129.5152641820309
 72
     1
 10
74.33000215155639
 20
-129.5152641820309
 11
74.58166637675389
 21
-129.5152641820309
 72
     1
 10
74.58166637675389
 20
-129.5152641820309
 11
74.58166637675389
 21
-129.7843261394289
 97
        0
 75
     2
 76
     1
 98
        0
  0
SPLINE
  5
EF
330
DE
100
AcDbEntity
  8
_U+30EC_U+30A4_U+30E4_U+30FC 1
370
     0
100
AcDbSpline
210
0.0
220
0.0
230
1.0
 70
    11
 71
     3
 72
    53
 73
    49
 74
     0
 42
0.0000000001
 43
0.0000000001
 12
1.0
 22
0.0
 32
0.0
 13
1.0
 23
0.0
 33
0.0
 40
0.0
 40
0.0
 40
0.0
 40
0.0
 40
1.0
 40
1.0
 40
1.0
 40
2.0
 40
2.0
 40
2.0
 40
3.0
 40
3.0
 40
3.0
 40
4.0
 40
4.0
 40
4.0
 40
5.0
 40
5.0
 40
5.0
 40
6.0
 40
6.0
 40
6.0
 40
7.0
 40
7.0
 40
7.0
 40
8.0
 40
8.0
 40
8.0
 40
9.0
 40
9.0
 40
9.0
 40
10.0
 40
10.0
 40
10.0
 40
11.0
 40
11.0
 40
11.0
 40
12.0
 40
12.0
 40
12.0
 40
13.0
 40
13.0
 40
13.0
 40
14.0
 40
14.0
 40
14.0
 40
15.0
 40
15.0
 40
15.0
 40
16.0
 40
16.0
 40
16.0
 40
16.0
 10
74.63248153516133
 20
-128.7485581817886
 30
0.0
 10
74.63248153516133
 20
-128.8321017473059
 30
0.0
 10
74.61542831250934
 20
-128.9406222550912
 30
0.0
 10
74.55203855558075
 20
-129.0491427628766
 30
0.0
 10
74.441967754827
 20
-129.2348334095316
 30
0.0
 10
74.31088187161326
 20
-129.2572265301857
 30
0.0
 10
74.20305038292493
 20
-129.2775525935487
 30
0.0
 10
74.20305038292493
 20
-129.2775525935487
 30
0.0
 10
74.20305038292493
 20
-129.040185514615
 30
0.0
 10
74.20305038292493
 20
-129.040185514615
 30
0.0
 10
74.40183239242386
 20
-128.9812743818172
 30
0.0
 10
74.431460213597
 20
-128.8458821292469
 30
0.0
 10
74.431460213597
 20
-128.7463188697232
 30
0.0
 10
74.431460213597
 20
-128.5971462352118
 30
0.0
 10
74.33206920884754
 20
-128.4343654735338
 30
0.0
 10
74.09935300881891
 20
-128.4343654735338
 30
0.0
 10
73.84338241426485
 20
-128.4343654735338
 30
0.0
 10
73.77361923068854
 20
-128.6266018016107
 30
0.0
 10
73.77361923068854
 20
-128.755448372759
 30
0.0
 10
73.77361923068854
 20
-128.7893825632888
 30
0.0
 10
73.77361923068854
 20
-128.9406222550912
 30
0.0
 10
73.90263805661115
 20
-129.0357068904841
 30
0.0
 10
73.90263805661115
 20
-129.0357068904841
 30
0.0
 10
73.88351777666801
 20
-129.2234645944303
 30
0.0
 10
73.88351777666801
 20
-129.2234645944303
 30
0.0
 10
73.88351777666801
 20
-129.2234645944303
 30
0.0
 10
73.03740232549065
 20
-129.0946180232819
 30
0.0
 10
73.03740232549065
 20
-129.0946180232819
 30
0.0
 10
73.03740232549065
 20
-129.0946180232819
 30
0.0
 10
73.03740232549065
 20
-128.2626274635941
 30
0.0
 10
73.03740232549065
 20
-128.2626274635941
 30
0.0
 10
73.03740232549065
 20
-128.2626274635941
 30
0.0
 10
73.23205022040727
 20
-128.2626274635941
 30
0.0
 10
73.23205022040727
 20
-128.2626274635941
 30
0.0
 10
73.23205022040727
 20
-128.2626274635941
 30
0.0
 10
73.23205022040727
 20
-128.9202961917283
 30
0.0
 10
73.23205022040727
 20
-128.9202961917283
 30
0.0
 10
73.23205022040727
 20
-128.9202961917283
 30
0.0
 10
73.65510794599595
 20
-128.9905761396274
 30
0.0
 10
73.65510794599595
 20
-128.9905761396274
 30
0.0
 10
73.62117375546623
 20
-128.9247748158591
 30
0.0
 10
73.58103839306308
 20
-128.8365803714367
 30
0.0
 10
73.58103839306308
 20
-128.710145367128
 30
0.0
 10
73.58103839306308
 20
-128.4388440976646
 30
0.0
 10
73.76724580404083
 20
-128.1856295794987
 30
0.0
 10
74.08023272887579
 20
-128.1856295794987
 30
0.0
 10
74.39769827784156
 20
-128.1856295794987
 30
0.0
 10
74.63248153516133
 20
-128.4252359704979
 30
0.0
 10
74.63248153516133
 20
-128.7485581817886
 30
0.0
  0
HATCH
  5
F0
330
DE
100
AcDbEntity
  8
_U+30EC_U+30A4_U+30E4_U+30FC 1
 62
     7
420
 16777215
100
AcDbHatch
 10
0.0
 20
0.0
 30
0.0
210
0.0
220
0.0
230
1.0
  2
SOLID
 70
     1
 71
     0
 91
        1
 92
        1
 93
        1
 72
     4
 94
        3
 73
     0
 74
     1
 95
       53
 96
       49
 40
0.0
 40
0.0
 40
0.0
 40
0.0
 40
1.0
 40
1.0
 40
1.0
 40
2.0
 40
2.0
 40
2.0
 40
3.0
 40
3.0
 40
3.0
 40
4.0
 40
4.0
 40
4.0
 40
5.0
 40
5.0
 40
5.0
 40
6.0
 40
6.0
 40
6.0
 40
7.0
 40
7.0
 40
7.0
 40
8.0
 40
8.0
 40
8.0
 40
9.0
 40
9.0
 40
9.0
 40
10.0
 40
10.0
 40
10.0
 40
11.0
 40
11.0
 40
11.0
 40
12.0
 40
12.0
 40
12.0
 40
13.0
 40
13.0
 40
13.0
 40
14.0
 40
14.0
 40
14.0
 40
15.0
 40
15.0
 40
15.0
 40
16.0
 40
16.0
 40
16.0
 40
16.0
 10
74.63248153516133
 20
-128.7485581817886
 10
74.63248153516133
 20
-128.8321017473059
 10
74.61542831250934
 20
-128.9406222550912
 10
74.55203855558075
 20
-129.0491427628766
 10
74.441967754827
 20
-129.2348334095316
 10
74.31088187161326
 20
-129.2572265301857
 10
74.20305038292493
 20
-129.2775525935487
 10
74.20305038292493
 20
-129.2775525935487
 10
74.20305038292493
 20
-129.040185514615
 10
74.20305038292493
 20
-129.040185514615
 10
74.40183239242386
 20
-128.9812743818172
 10
74.431460213597
 20
-128.8458821292469
 10
74.431460213597
 20
-128.7463188697232
 10
74.431460213597
 20
-128.5971462352118
 10
74.33206920884754
 20
-128.4343654735338
 10
74.09935300881891
 20
-128.4343654735338
 10
73.84338241426485
 20
-128.4343654735338
 10
73.77361923068854
 20
-128.6266018016107
 10
73.77361923068854
 20
-128.755448372759
 10
73.77361923068854
 20
-128.7893825632888
 10
73.77361923068854
 20
-128.9406222550912
 10
73.90263805661115
 20
-129.0357068904841
 10
73.90263805661115
 20
-129.0357068904841
 10
73.88351777666801
 20
-129.2234645944303
 10
73.88351777666801
 20
-129.2234645944303
 10
73.88351777666801
 20
-129.2234645944303
 10
73.03740232549065
 20
-129.0946180232819
 10
73.03740232549065
 20
-129.0946180232819
 10
73.03740232549065
 20
-129.0946180232819
 10
73.03740232549065
 20
-128.2626274635941
 10
73.03740232549065
 20
-128.2626274635941
 10
73.03740232549065
 20
-128.2626274635941
 10
73.23205022040727
 20
-128.2626274635941
 10
73.23205022040727
 20
-128.2626274635941
 10
73.23205022040727
 20
-128.2626274635941
 10
73.23205022040727
 20
-128.9202961917283
 10
73.23205022040727
 20
-128.9202961917283
 10
73.23205022040727
 20
-128.9202961917283
 10
73.65510794599595
 20
-128.9905761396274
 10
73.65510794599595
 20
-128.9905761396274
 10
73.62117375546623
 20
-128.9247748158591
 10
73.58103839306308
 20
-128.8365803714367
 10
73.58103839306308
 20
-128.710145367128
 10
73.58103839306308
 20
-128.4388440976646
 10
73.76724580404083
 20
-128.1856295794987
 10
74.08023272887579
 20
-128.1856295794987
 10
74.39769827784156
 20
-128.1856295794987
 10
74.63248153516133
 20
-128.4252359704979
 10
74.63248153516133
 20
-128.7485581817886
 97
        0
 97
        0
 75
     2
 76
     1
 98
        0
  0
ENDBLK
  5
E1
330
DE
100
AcDbEntity
  8
0
100
AcDbBlockEnd
  0
BLOCK
  5
104
330
102
100
AcDbEntity
  8
0
100
AcDbBlockBegin
  2
block 5
 70
     0
 10
0.0
 20
0.0
 30
0.0
  3
block 5
  1

  0
SPLINE
  5
106
330
102
100
AcDbEntity
  8
_U+30EC_U+30A4_U+30E4_U+30FC 1
370
     0
100
AcDbSpline
210
0.0
220
0.0
230
1.0
 70
    11
 71
     3
 72
    44
 73
    40
 74
     0
 42
0.0000000001
 43
0.0000000001
 12
1.0
 22
0.0
 32
0.0
 13
1.0
 23
0.0
 33
0.0
 40
0.0
 40
0.0
 40
0.0
 40
0.0
 40
1.0
 40
1.0
 40
1.0
 40
2.0
 40
2.0
 40
2.0
 40
3.0
 40
3.0
 40
3.0
 40
4.0
 40
4.0
 40
4.0
 40
5.0
 40
5.0
 40
5.0
 40
6.0
 40
6.0
 40
6.0
 40
7.0
 40
7.0
 40
7.0
 40
8.0
 40
8.0
 40
8.0
 40
9.0
 40
9.0
 40
9.0
 40
10.0
 40
10.0
 40
10.0
 40
11.0
 40
11.0
 40
11.0
 40
12.0
 40
12.0
 40
12.0
 40
13.0
 40
13.0
 40
13.0
 40
13.0
 10
108.3806369086687
 20
-137.2340006167332
 30
0.0
 10
108.5394558105388
 20
-137.4668890715361
 30
0.0
 10
108.6135253634716
 20
-137.5664523310598
 30
0.0
 10
108.7571858452065
 20
-137.6181287633385
 30
0.0
 10
108.7571858452065
 20
-137.6181287633385
 30
0.0
 10
108.7571858452065
 20
-136.7864827131992
 30
0.0
 10
108.7571858452065
 20
-136.7864827131992
 30
0.0
 10
108.7571858452065
 20
-136.7864827131992
 30
0.0
 10
108.9625135361274
 20
-136.7864827131992
 30
0.0
 10
108.9625135361274
 20
-136.7864827131992
 30
0.0
 10
108.9625135361274
 20
-136.7864827131992
 30
0.0
 10
108.9625135361274
 20
-137.8851236634454
 30
0.0
 10
108.9625135361274
 20
-137.8851236634454
 30
0.0
 10
108.6049126247585
 20
-137.8510172181414
 30
0.0
 10
108.5267089572433
 20
-137.7810817797908
 30
0.0
 10
108.2283636882207
 20
-137.369737378852
 30
0.0
 10
108.0295816787218
 20
-137.0961967973232
 30
0.0
 10
107.9617132976624
 20
-137.0259168494241
 30
0.0
 10
107.8242539878009
 20
-137.0259168494241
 30
0.0
 10
107.7057427031083
 20
-137.0259168494241
 30
0.0
 10
107.5748290746688
 20
-137.1027424787451
 30
0.0
 10
107.5748290746688
 20
-137.3132378128939
 30
0.0
 10
107.5748290746688
 20
-137.5912570185536
 30
0.0
 10
107.805305962632
 20
-137.6002142668152
 30
0.0
 10
107.9217501900334
 20
-137.6046928909461
 30
0.0
 10
107.9217501900334
 20
-137.6046928909461
 30
0.0
 10
107.9217501900334
 20
-137.8444715367195
 30
0.0
 10
107.9217501900334
 20
-137.8444715367195
 30
0.0
 10
107.7946261666277
 20
-137.8351697789093
 30
0.0
 10
107.6826605633571
 20
-137.8241454733565
 30
0.0
 10
107.5641492786645
 20
-137.7380180862252
 30
0.0
 10
107.4032633195034
 20
-137.6205403301782
 30
0.0
 10
107.3695013837479
 20
-137.4217583206793
 30
0.0
 10
107.3695013837479
 20
-137.2973903736618
 30
0.0
 10
107.3695013837479
 20
-137.0011121619303
 30
0.0
 10
107.5534694826602
 20
-136.7795925222287
 30
0.0
 10
107.826321045092
 20
-136.7795925222287
 30
0.0
 10
108.0550753853126
 20
-136.7795925222287
 30
0.0
 10
108.1542941352878
 20
-136.9039604692462
 30
0.0
 10
108.3806369086687
 20
-137.2340006167332
 30
0.0
  0
HATCH
  5
107
330
102
100
AcDbEntity
  8
_U+30EC_U+30A4_U+30E4_U+30FC 1
 62
     7
420
 16777215
100
AcDbHatch
 10
0.0
 20
0.0
 30
0.0
210
0.0
220
0.0
230
1.0
  2
SOLID
 70
     1
 71
     0
 91
        1
 92
        1
 93
        1
 72
     4
 94
        3
 73
     0
 74
     1
 95
       44
 96
       40
 40
0.0
 40
0.0
 40
0.0
 40
0.0
 40
1.0
 40
1.0
 40
1.0
 40
2.0
 40
2.0
 40
2.0
 40
3.0
 40
3.0
 40
3.0
 40
4.0
 40
4.0
 40
4.0
 40
5.0
 40
5.0
 40
5.0
 40
6.0
 40
6.0
 40
6.0
 40
7.0
 40
7.0
 40
7.0
 40
8.0
 40
8.0
 40
8.0
 40
9.0
 40
9.0
 40
9.0
 40
10.0
 40
10.0
 40
10.0
 40
11.0
 40
11.0
 40
11.0
 40
12.0
 40
12.0
 40
12.0
 40
13.0
 40
13.0
 40
13.0
 40
13.0
 10
108.3806369086687
 20
-137.2340006167332
 10
108.5394558105388
 20
-137.4668890715361
 10
108.6135253634716
 20
-137.5664523310598
 10
108.7571858452065
 20
-137.6181287633385
 10
108.7571858452065
 20
-137.6181287633385
 10
108.7571858452065
 20
-136.7864827131992
 10
108.7571858452065
 20
-136.7864827131992
 10
108.7571858452065
 20
-136.7864827131992
 10
108.9625135361274
 20
-136.7864827131992
 10
108.9625135361274
 20
-136.7864827131992
 10
108.9625135361274
 20
-136.7864827131992
 10
108.9625135361274
 20
-137.8851236634454
 10
108.9625135361274
 20
-137.8851236634454
 10
108.6049126247585
 20
-137.8510172181414
 10
108.5267089572433
 20
-137.7810817797908
 10
108.2283636882207
 20
-137.369737378852
 10
108.0295816787218
 20
-137.0961967973232
 10
107.9617132976624
 20
-137.0259168494241
 10
107.8242539878009
 20
-137.0259168494241
 10
107.7057427031083
 20
-137.0259168494241
 10
107.5748290746688
 20
-137.1027424787451
 10
107.5748290746688
 20
-137.3132378128939
 10
107.5748290746688
 20
-137.5912570185536
 10
107.805305962632
 20
-137.6002142668152
 10
107.9217501900334
 20
-137.6046928909461
 10
107.9217501900334
 20
-137.6046928909461
 10
107.9217501900334
 20
-137.8444715367195
 10
107.9217501900334
 20
-137.8444715367195
 10
107.7946261666277
 20
-137.8351697789093
 10
107.6826605633571
 20
-137.8241454733565
 10
107.5641492786645
 20
-137.7380180862252
 10
107.4032633195034
 20
-137.6205403301782
 10
107.3695013837479
 20
-137.4217583206793
 10
107.3695013837479
 20
-137.2973903736618
 10
107.3695013837479
 20
-137.0011121619303
 10
107.5534694826602
 20
-136.7795925222287
 10
107.826321045092
 20
-136.7795925222287
 10
108.0550753853126
 20
-136.7795925222287
 10
108.1542941352878
 20
-136.9039604692462
 10
108.3806369086687
 20
-137.2340006167332
 97
        0
 97
        0
 75
     2
 76
     1
 98
        0
  0
POLYLINE
  5
108
330
102
100
AcDbEntity
  8
_U+30EC_U+30A4_U+30E4_U+30FC 1
370
     0
100
AcDb2dPolyline
 66
     1
 10
0.0
 20
0.0
 30
0.0
  0
VERTEX
  5
109
330
108
100
AcDbEntity
  8
_U+30EC_U+30A4_U+30E4_U+30FC 1
370
     0
100
AcDbVertex
100
AcDb2dVertex
 10
108.9625135361274
 20
-136.5460150483288
 30
0.0
  0
VERTEX
  5
10A
330
108
100
AcDbEntity
  8
_U+30EC_U+30A4_U+30E4_U+30FC 1
370
     0
100
AcDbVertex
100
AcDb2dVertex
 10
108.7106770561557
 20
-136.5460150483288
 30
0.0
  0
VERTEX
  5
10B
330
108
100
AcDbEntity
  8
_U+30EC_U+30A4_U+30E4_U+30FC 1
370
     0
100
AcDbVertex
100
AcDb2dVertex
 10
108.7106770561557
 20
-136.2769530909308
 30
0.0
  0
VERTEX
  5
10C
330
108
100
AcDbEntity
  8
_U+30EC_U+30A4_U+30E4_U+30FC 1
370
     0
100
AcDbVertex
100
AcDb2dVertex
 10
108.9625135361274
 20
-136.2769530909308
 30
0.0
  0
VERTEX
  5
10D
330
108
100
AcDbEntity
  8
_U+30EC_U+30A4_U+30E4_U+30FC 1
370
     0
100
AcDbVertex
100
AcDb2dVertex
 10
108.9625135361274
 20
-136.5460150483288
 30
0.0
  0
SEQEND
  5
10E
330
108
100
AcDbEntity
  8
_U+30EC_U+30A4_U+30E4_U+30FC 1
370
     0
  0
HATCH
  5
10F
330
102
100
AcDbEntity
  8
_U+30EC_U+30A4_U+30E4_U+30FC 1
 62
     7
420
 16777215
100
AcDbHatch
 10
0.0
 20
0.0
 30
0.0
210
0.0
220
0.0
230
1.0
  2
SOLID
 70
     1
 71
     0
 91
        1
 92
        1
 93
        4
 72
     1
 10
108.9625135361274
 20
-136.5460150483288
 11
108.7106770561557
 21
-136.5460150483288
 72
     1
 10
108.7106770561557
 20
-136.5460150483288
 11
108.7106770561557
 21
-136.2769530909308
 72
     1
 10
108.7106770561557
 20
-136.2769530909308
 11
108.9625135361274
 21
-136.2769530909308
 72
     1
 10
108.9625135361274
 20
-136.2769530909308
 11
108.9625135361274
 21
-136.5460150483288
 97
        0
 75
     2
 76
     1
 98
        0
  0
SPLINE
  5
110
330
102
100
AcDbEntity
  8
_U+30EC_U+30A4_U+30E4_U+30FC 1
370
     0
100
AcDbSpline
210
0.0
220
0.0
230
1.0
 70
    11
 71
     3
 72
    53
 73
    49
 74
     0
 42
0.0000000001
 43
0.0000000001
 12
1.0
 22
0.0
 32
0.0
 13
1.0
 23
0.0
 33
0.0
 40
0.0
 40
0.0
 40
0.0
 40
0.0
 40
1.0
 40
1.0
 40
1.0
 40
2.0
 40
2.0
 40
2.0
 40
3.0
 40
3.0
 40
3.0
 40
4.0
 40
4.0
 40
4.0
 40
5.0
 40
5.0
 40
5.0
 40
6.0
 40
6.0
 40
6.0
 40
7.0
 40
7.0
 40
7.0
 40
8.0
 40
8.0
 40
8.0
 40
9.0
 40
9.0
 40
9.0
 40
10.0
 40
10.0
 40
10.0
 40
11.0
 40
11.0
 40
11.0
 40
12.0
 40
12.0
 40
12.0
 40
13.0
 40
13.0
 40
13.0
 40
14.0
 40
14.0
 40
14.0
 40
15.0
 40
15.0
 40
15.0
 40
16.0
 40
16.0
 40
16.0
 40
16.0
 10
109.0131564397606
 20
-135.5100748359142
 30
0.0
 10
109.0131564397606
 20
-135.5937906562057
 30
0.0
 10
108.9962754718829
 20
-135.7019666544426
 30
0.0
 10
108.9328857149543
 20
-135.8108316717765
 30
0.0
 10
108.8229871689748
 20
-135.9961778088829
 30
0.0
 10
108.6917290309868
 20
-136.018570929537
 30
0.0
 10
108.5838975422985
 20
-136.0388969929
 30
0.0
 10
108.5838975422985
 20
-136.0388969929
 30
0.0
 10
108.5838975422985
 20
-135.8015299139663
 30
0.0
 10
108.5838975422985
 20
-135.8015299139663
 30
0.0
 10
108.7826795517974
 20
-135.7429632907171
 30
0.0
 10
108.8123073729705
 20
-135.6072265285982
 30
0.0
 10
108.8123073729705
 20
-135.5076632690745
 30
0.0
 10
108.8123073729705
 20
-135.3584906345632
 30
0.0
 10
108.7127441134468
 20
-135.1955376181108
 30
0.0
 10
108.4802001681925
 20
-135.1955376181108
 30
0.0
 10
108.2242295736384
 20
-135.1955376181108
 30
0.0
 10
108.1542941352878
 20
-135.3877739461878
 30
0.0
 10
108.1542941352878
 20
-135.5166205173361
 30
0.0
 10
108.1542941352878
 20
-135.5507269626401
 30
0.0
 10
108.1542941352878
 20
-135.7019666544426
 30
0.0
 10
108.2834852159847
 20
-135.7970512898355
 30
0.0
 10
108.2834852159847
 20
-135.7970512898355
 30
0.0
 10
108.2645371908158
 20
-135.9848089937816
 30
0.0
 10
108.2645371908158
 20
-135.9848089937816
 30
0.0
 10
108.2645371908158
 20
-135.9848089937816
 30
0.0
 10
107.4180772300899
 20
-135.8559624226332
 30
0.0
 10
107.4180772300899
 20
-135.8559624226332
 30
0.0
 10
107.4180772300899
 20
-135.8559624226332
 30
0.0
 10
107.4180772300899
 20
-135.0239718629454
 30
0.0
 10
107.4180772300899
 20
-135.0239718629454
 30
0.0
 10
107.4180772300899
 20
-135.0239718629454
 30
0.0
 10
107.6127251250065
 20
-135.0239718629454
 30
0.0
 10
107.6127251250065
 20
-135.0239718629454
 30
0.0
 10
107.6127251250065
 20
-135.0239718629454
 30
0.0
 10
107.6127251250065
 20
-135.6816405910796
 30
0.0
 10
107.6127251250065
 20
-135.6816405910796
 30
0.0
 10
107.6127251250065
 20
-135.6816405910796
 30
0.0
 10
108.0357828505952
 20
-135.7519205389787
 30
0.0
 10
108.0357828505952
 20
-135.7519205389787
 30
0.0
 10
108.0020209148398
 20
-135.6864637247589
 30
0.0
 10
107.9617132976624
 20
-135.5982692803366
 30
0.0
 10
107.9617132976624
 20
-135.4714897664794
 30
0.0
 10
107.9617132976624
 20
-135.2003607517902
 30
0.0
 10
108.1480929634144
 20
-134.9471462336243
 30
0.0
 10
108.4612521430236
 20
-134.9471462336243
 30
0.0
 10
108.7785454372151
 20
-134.9471462336243
 30
0.0
 10
109.0131564397606
 20
-135.1865803698492
 30
0.0
 10
109.0131564397606
 20
-135.5100748359142
 30
0.0
  0
HATCH
  5
111
330
102
100
AcDbEntity
  8
_U+30EC_U+30A4_U+30E4_U+30FC 1
 62
     7
420
 16777215
100
AcDbHatch
 10
0.0
 20
0.0
 30
0.0
210
0.0
220
0.0
230
1.0
  2
SOLID
 70
     1
 71
     0
 91
        1
 92
        1
 93
        1
 72
     4
 94
        3
 73
     0
 74
     1
 95
       53
 96
       49
 40
0.0
 40
0.0
 40
0.0
 40
0.0
 40
1.0
 40
1.0
 40
1.0
 40
2.0
 40
2.0
 40
2.0
 40
3.0
 40
3.0
 40
3.0
 40
4.0
 40
4.0
 40
4.0
 40
5.0
 40
5.0
 40
5.0
 40
6.0
 40
6.0
 40
6.0
 40
7.0
 40
7.0
 40
7.0
 40
8.0
 40
8.0
 40
8.0
 40
9.0
 40
9.0
 40
9.0
 40
10.0
 40
10.0
 40
10.0
 40
11.0
 40
11.0
 40
11.0
 40
12.0
 40
12.0
 40
12.0
 40
13.0
 40
13.0
 40
13.0
 40
14.0
 40
14.0
 40
14.0
 40
15.0
 40
15.0
 40
15.0
 40
16.0
 40
16.0
 40
16.0
 40
16.0
 10
109.0131564397606
 20
-135.5100748359142
 10
109.0131564397606
 20
-135.5937906562057
 10
108.9962754718829
 20
-135.7019666544426
 10
108.9328857149543
 20
-135.8108316717765
 10
108.8229871689748
 20
-135.9961778088829
 10
108.6917290309868
 20
-136.018570929537
 10
108.5838975422985
 20
-136.0388969929
 10
108.5838975422985
 20
-136.0388969929
 10
108.5838975422985
 20
-135.8015299139663
 10
108.5838975422985
 20
-135.8015299139663
 10
108.7826795517974
 20
-135.7429632907171
 10
108.8123073729705
 20
-135.6072265285982
 10
108.8123073729705
 20
-135.5076632690745
 10
108.8123073729705
 20
-135.3584906345632
 10
108.7127441134468
 20
-135.1955376181108
 10
108.4802001681925
 20
-135.1955376181108
 10
108.2242295736384
 20
-135.1955376181108
 10
108.1542941352878
 20
-135.3877739461878
 10
108.1542941352878
 20
-135.5166205173361
 10
108.1542941352878
 20
-135.5507269626401
 10
108.1542941352878
 20
-135.7019666544426
 10
108.2834852159847
 20
-135.7970512898355
 10
108.2834852159847
 20
-135.7970512898355
 10
108.2645371908158
 20
-135.9848089937816
 10
108.2645371908158
 20
-135.9848089937816
 10
108.2645371908158
 20
-135.9848089937816
 10
107.4180772300899
 20
-135.8559624226332
 10
107.4180772300899
 20
-135.8559624226332
 10
107.4180772300899
 20
-135.8559624226332
 10
107.4180772300899
 20
-135.0239718629454
 10
107.4180772300899
 20
-135.0239718629454
 10
107.4180772300899
 20
-135.0239718629454
 10
107.6127251250065
 20
-135.0239718629454
 10
107.6127251250065
 20
-135.0239718629454
 10
107.6127251250065
 20
-135.0239718629454
 10
107.6127251250065
 20
-135.6816405910796
 10
107.6127251250065
 20
-135.6816405910796
 10
107.6127251250065
 20
-135.6816405910796
 10
108.0357828505952
 20
-135.7519205389787
 10
108.0357828505952
 20
-135.7519205389787
 10
108.0020209148398
 20
-135.6864637247589
 10
107.9617132976624
 20
-135.5982692803366
 10
107.9617132976624
 20
-135.4714897664794
 10
107.9617132976624
 20
-135.2003607517902
 10
108.1480929634144
 20
-134.9471462336243
 10
108.4612521430236
 20
-134.9471462336243
 10
108.7785454372151
 20
-134.9471462336243
 10
109.0131564397606
 20
-135.1865803698492
 10
109.0131564397606
 20
-135.5100748359142
 97
        0
 97
        0
 75
     2
 76
     1
 98
        0
  0
ENDBLK
  5
105
330
102
100
AcDbEntity
  8
0
100
AcDbBlockEnd
  0
BLOCK
  5
11C
330
11A
100
AcDbEntity
  8
0
100
AcDbBlockBegin
  2
block 6
 70
     0
 10
0.0
 20
0.0
 30
0.0
  3
block 6
  1

  0
SPLINE
  5
11E
330
11A
100
AcDbEntity
  8
_U+30EC_U+30A4_U+30E4_U+30FC 1
370
     0
100
AcDbSpline
210
0.0
220
0.0
230
1.0
 70
    11
 71
     3
 72
    26
 73
    22
 74
     0
 42
0.0000000001
 43
0.0000000001
 12
1.0
 22
0.0
 32
0.0
 13
1.0
 23
0.0
 33
0.0
 40
0.0
 40
0.0
 40
0.0
 40
0.0
 40
1.0
 40
1.0
 40
1.0
 40
2.0
 40
2.0
 40
2.0
 40
3.0
 40
3.0
 40
3.0
 40
4.0
 40
4.0
 40
4.0
 40
5.0
 40
5.0
 40
5.0
 40
6.0
 40
6.0
 40
6.0
 40
7.0
 40
7.0
 40
7.0
 40
7.0
 10
105.0823024910905
 20
-130.6989989907628
 30
0.0
 10
105.0823024910905
 20
-130.6989989907628
 30
0.0
 10
105.0823024910905
 20
-130.9522135089286
 30
0.0
 10
105.0823024910905
 20
-130.9522135089286
 30
0.0
 10
104.7732774260636
 20
-130.9253417641437
 30
0.0
 10
104.2551350650821
 20
-130.7193250541257
 30
0.0
 10
103.7493950478474
 20
-130.2852430229842
 30
0.0
 10
103.7493950478474
 20
-130.2852430229842
 30
0.0
 10
103.7493950478474
 20
-131.1806233396007
 30
0.0
 10
103.7493950478474
 20
-131.1806233396007
 30
0.0
 10
103.7493950478474
 20
-131.1806233396007
 30
0.0
 10
103.537866185053
 20
-131.1806233396007
 30
0.0
 10
103.537866185053
 20
-131.1806233396007
 30
0.0
 10
103.537866185053
 20
-131.1806233396007
 30
0.0
 10
103.537866185053
 20
-130.0320285048184
 30
0.0
 10
103.537866185053
 20
-130.0320285048184
 30
0.0
 10
103.537866185053
 20
-130.0320285048184
 30
0.0
 10
103.7493950478474
 20
-130.0320285048184
 30
0.0
 10
103.7493950478474
 20
-130.0320285048184
 30
0.0
 10
104.0394720877054
 20
-130.3779160915375
 30
0.0
 10
104.6316840016199
 20
-130.6628254881676
 30
0.0
 10
105.0823024910905
 20
-130.6989989907628
 30
0.0
  0
HATCH
  5
11F
330
11A
100
AcDbEntity
  8
_U+30EC_U+30A4_U+30E4_U+30FC 1
 62
     7
420
 16777215
100
AcDbHatch
 10
0.0
 20
0.0
 30
0.0
210
0.0
220
0.0
230
1.0
  2
SOLID
 70
     1
 71
     0
 91
        1
 92
        1
 93
        1
 72
     4
 94
        3
 73
     0
 74
     1
 95
       26
 96
       22
 40
0.0
 40
0.0
 40
0.0
 40
0.0
 40
1.0
 40
1.0
 40
1.0
 40
2.0
 40
2.0
 40
2.0
 40
3.0
 40
3.0
 40
3.0
 40
4.0
 40
4.0
 40
4.0
 40
5.0
 40
5.0
 40
5.0
 40
6.0
 40
6.0
 40
6.0
 40
7.0
 40
7.0
 40
7.0
 40
7.0
 10
105.0823024910905
 20
-130.6989989907628
 10
105.0823024910905
 20
-130.6989989907628
 10
105.0823024910905
 20
-130.9522135089286
 10
105.0823024910905
 20
-130.9522135089286
 10
104.7732774260636
 20
-130.9253417641437
 10
104.2551350650821
 20
-130.7193250541257
 10
103.7493950478474
 20
-130.2852430229842
 10
103.7493950478474
 20
-130.2852430229842
 10
103.7493950478474
 20
-131.1806233396007
 10
103.7493950478474
 20
-131.1806233396007
 10
103.7493950478474
 20
-131.1806233396007
 10
103.537866185053
 20
-131.1806233396007
 10
103.537866185053
 20
-131.1806233396007
 10
103.537866185053
 20
-131.1806233396007
 10
103.537866185053
 20
-130.0320285048184
 10
103.537866185053
 20
-130.0320285048184
 10
103.537866185053
 20
-130.0320285048184
 10
103.7493950478474
 20
-130.0320285048184
 10
103.7493950478474
 20
-130.0320285048184
 10
104.0394720877054
 20
-130.3779160915375
 10
104.6316840016199
 20
-130.6628254881676
 10
105.0823024910905
 20
-130.6989989907628
 97
        0
 97
        0
 75
     2
 76
     1
 98
        0
  0
ENDBLK
  5
11D
330
11A
100
AcDbEntity
  8
0
100
AcDbBlockEnd
  0
BLOCK
  5
12E
330
12C
100
AcDbEntity
  8
0
100
AcDbBlockBegin
  2
block 7
 70
     0
 10
0.0
 20
0.0
 30
0.0
  3
block 7
  1

  0
SPLINE
  5
130
330
12C
100
AcDbEntity
  8
_U+30EC_U+30A4_U+30E4_U+30FC 1
370
     0
100
AcDbSpline
210
0.0
220
0.0
230
1.0
 70
    11
 71
     3
 72
    44
 73
    40
 74
     0
 42
0.0000000001
 43
0.0000000001
 12
1.0
 22
0.0
 32
0.0
 13
1.0
 23
0.0
 33
0.0
 40
0.0
 40
0.0
 40
0.0
 40
0.0
 40
1.0
 40
1.0
 40
1.0
 40
2.0
 40
2.0
 40
2.0
 40
3.0
 40
3.0
 40
3.0
 40
4.0
 40
4.0
 40
4.0
 40
5.0
 40
5.0
 40
5.0
 40
6.0
 40
6.0
 40
6.0
 40
7.0
 40
7.0
 40
7.0
 40
8.0
 40
8.0
 40
8.0
 40
9.0
 40
9.0
 40
9.0
 40
10.0
 40
10.0
 40
10.0
 40
11.0
 40
11.0
 40
11.0
 40
12.0
 40
12.0
 40
12.0
 40
13.0
 40
13.0
 40
13.0
 40
13.0
 10
88.52672388194819
 20
-141.3498561929611
 30
0.0
 10
88.2938354271453
 20
-141.5086750948312
 30
0.0
 10
88.19444442239583
 20
-141.582744647764
 30
0.0
 10
88.14242348056857
 20
-141.726405129499
 30
0.0
 10
88.14242348056857
 20
-141.726405129499
 30
0.0
 10
88.97458629503066
 20
-141.726405129499
 30
0.0
 10
88.97458629503066
 20
-141.726405129499
 30
0.0
 10
88.97458629503066
 20
-141.726405129499
 30
0.0
 10
88.97458629503066
 20
-141.9317328204199
 30
0.0
 10
88.97458629503066
 20
-141.9317328204199
 30
0.0
 10
88.97458629503066
 20
-141.9317328204199
 30
0.0
 10
87.87560083523597
 20
-141.9317328204199
 30
0.0
 10
87.87560083523597
 20
-141.9317328204199
 30
0.0
 10
87.90953502576568
 20
-141.5741319090509
 30
0.0
 10
87.97964271889052
 20
-141.4959282415358
 30
0.0
 10
88.3911593746036
 20
-141.1975829725131
 30
0.0
 10
88.66469995613244
 20
-140.9988009630142
 30
0.0
 10
88.73480764925728
 20
-140.9309325819548
 30
0.0
 10
88.73480764925728
 20
-140.7934732720933
 30
0.0
 10
88.73480764925728
 20
-140.6749619874007
 30
0.0
 10
88.6579820199362
 20
-140.5440483589612
 30
0.0
 10
88.4476589405617
 20
-140.5440483589612
 30
0.0
 10
88.16946748012778
 20
-140.5440483589612
 30
0.0
 10
88.16051023186613
 20
-140.7745252469244
 30
0.0
 10
88.1560316077353
 20
-140.8909694743259
 30
0.0
 10
88.1560316077353
 20
-140.8909694743259
 30
0.0
 10
87.91625296196192
 20
-140.8909694743259
 30
0.0
 10
87.91625296196192
 20
-140.8909694743259
 30
0.0
 10
87.92538246499782
 20
-140.7638454509201
 30
0.0
 10
87.93675128009914
 20
-140.6518798476495
 30
0.0
 10
88.02253415768187
 20
-140.533368562957
 30
0.0
 10
88.14018416850315
 20
-140.3724826037958
 30
0.0
 10
88.33913843277634
 20
-140.3387206680403
 30
0.0
 10
88.46350637979386
 20
-140.3387206680403
 30
0.0
 10
88.75961233675108
 20
-140.3387206680403
 30
0.0
 10
88.98113197645264
 20
-140.5226887669527
 30
0.0
 10
88.98113197645264
 20
-140.7955403293845
 30
0.0
 10
88.98113197645264
 20
-141.024294669605
 30
0.0
 10
88.85676402943511
 20
-141.1235134195802
 30
0.0
 10
88.52672388194819
 20
-141.3498561929611
 30
0.0
  0
HATCH
  5
131
330
12C
100
AcDbEntity
  8
_U+30EC_U+30A4_U+30E4_U+30FC 1
 62
     7
420
 16777215
100
AcDbHatch
 10
0.0
 20
0.0
 30
0.0
210
0.0
220
0.0
230
1.0
  2
SOLID
 70
     1
 71
     0
 91
        1
 92
        1
 93
        1
 72
     4
 94
        3
 73
     0
 74
     1
 95
       44
 96
       40
 40
0.0
 40
0.0
 40
0.0
 40
0.0
 40
1.0
 40
1.0
 40
1.0
 40
2.0
 40
2.0
 40
2.0
 40
3.0
 40
3.0
 40
3.0
 40
4.0
 40
4.0
 40
4.0
 40
5.0
 40
5.0
 40
5.0
 40
6.0
 40
6.0
 40
6.0
 40
7.0
 40
7.0
 40
7.0
 40
8.0
 40
8.0
 40
8.0
 40
9.0
 40
9.0
 40
9.0
 40
10.0
 40
10.0
 40
10.0
 40
11.0
 40
11.0
 40
11.0
 40
12.0
 40
12.0
 40
12.0
 40
13.0
 40
13.0
 40
13.0
 40
13.0
 10
88.52672388194819
 20
-141.3498561929611
 10
88.2938354271453
 20
-141.5086750948312
 10
88.19444442239583
 20
-141.582744647764
 10
88.14242348056857
 20
-141.726405129499
 10
88.14242348056857
 20
-141.726405129499
 10
88.97458629503066
 20
-141.726405129499
 10
88.97458629503066
 20
-141.726405129499
 10
88.97458629503066
 20
-141.726405129499
 10
88.97458629503066
 20
-141.9317328204199
 10
88.97458629503066
 20
-141.9317328204199
 10
88.97458629503066
 20
-141.9317328204199
 10
87.87560083523597
 20
-141.9317328204199
 10
87.87560083523597
 20
-141.9317328204199
 10
87.90953502576568
 20
-141.5741319090509
 10
87.97964271889052
 20
-141.4959282415358
 10
88.3911593746036
 20
-141.1975829725131
 10
88.66469995613244
 20
-140.9988009630142
 10
88.73480764925728
 20
-140.9309325819548
 10
88.73480764925728
 20
-140.7934732720933
 10
88.73480764925728
 20
-140.6749619874007
 10
88.6579820199362
 20
-140.5440483589612
 10
88.4476589405617
 20
-140.5440483589612
 10
88.16946748012778
 20
-140.5440483589612
 10
88.16051023186613
 20
-140.7745252469244
 10
88.1560316077353
 20
-140.8909694743259
 10
88.1560316077353
 20
-140.8909694743259
 10
87.91625296196192
 20
-140.8909694743259
 10
87.91625296196192
 20
-140.8909694743259
 10
87.92538246499782
 20
-140.7638454509201
 10
87.93675128009914
 20
-140.6518798476495
 10
88.02253415768187
 20
-140.533368562957
 10
88.14018416850315
 20
-140.3724826037958
 10
88.33913843277634
 20
-140.3387206680403
 10
88.46350637979386
 20
-140.3387206680403
 10
88.75961233675108
 20
-140.3387206680403
 10
88.98113197645264
 20
-140.5226887669527
 10
88.98113197645264
 20
-140.7955403293845
 10
88.98113197645264
 20
-141.024294669605
 10
88.85676402943511
 20
-141.1235134195802
 10
88.52672388194819
 20
-141.3498561929611
 97
        0
 97
        0
 75
     2
 76
     1
 98
        0
  0
SPLINE
  5
132
330
12C
100
AcDbEntity
  8
_U+30EC_U+30A4_U+30E4_U+30FC 1
370
     0
100
AcDbSpline
210
0.0
220
0.0
230
1.0
 70
    11
 71
     3
 72
    26
 73
    22
 74
     0
 42
0.0000000001
 43
0.0000000001
 12
1.0
 22
0.0
 32
0.0
 13
1.0
 23
0.0
 33
0.0
 40
0.0
 40
0.0
 40
0.0
 40
0.0
 40
1.0
 40
1.0
 40
1.0
 40
2.0
 40
2.0
 40
2.0
 40
3.0
 40
3.0
 40
3.0
 40
4.0
 40
4.0
 40
4.0
 40
5.0
 40
5.0
 40
5.0
 40
6.0
 40
6.0
 40
6.0
 40
7.0
 40
7.0
 40
7.0
 40
7.0
 10
89.63294404226191
 20
-141.9317328204199
 30
0.0
 10
89.63294404226191
 20
-141.9317328204199
 30
0.0
 10
89.63294404226191
 20
-140.8275797173973
 30
0.0
 10
89.63294404226191
 20
-140.8275797173973
 30
0.0
 10
89.63294404226191
 20
-140.8275797173973
 30
0.0
 10
89.28051077412084
 20
-140.8275797173973
 30
0.0
 10
89.28051077412084
 20
-140.8275797173973
 30
0.0
 10
89.28051077412084
 20
-140.8275797173973
 30
0.0
 10
89.28051077412084
 20
-140.6794406115315
 30
0.0
 10
89.28051077412084
 20
-140.6794406115315
 30
0.0
 10
89.63535560910158
 20
-140.664626700945
 30
0.0
 10
89.68496498408918
 20
-140.5016736844926
 30
0.0
 10
89.71665986255348
 20
-140.3872965143823
 30
0.0
 10
89.71665986255348
 20
-140.3872965143823
 30
0.0
 10
89.8727226880353
 20
-140.3872965143823
 30
0.0
 10
89.8727226880353
 20
-140.3872965143823
 30
0.0
 10
89.8727226880353
 20
-140.3872965143823
 30
0.0
 10
89.8727226880353
 20
-141.9317328204199
 30
0.0
 10
89.8727226880353
 20
-141.9317328204199
 30
0.0
 10
89.8727226880353
 20
-141.9317328204199
 30
0.0
 10
89.63294404226191
 20
-141.9317328204199
 30
0.0
 10
89.63294404226191
 20
-141.9317328204199
 30
0.0
  0
HATCH
  5
133
330
12C
100
AcDbEntity
  8
_U+30EC_U+30A4_U+30E4_U+30FC 1
 62
     7
420
 16777215
100
AcDbHatch
 10
0.0
 20
0.0
 30
0.0
210
0.0
220
0.0
230
1.0
  2
SOLID
 70
     1
 71
     0
 91
        1
 92
        1
 93
        1
 72
     4
 94
        3
 73
     0
 74
     1
 95
       26
 96
       22
 40
0.0
 40
0.0
 40
0.0
 40
0.0
 40
1.0
 40
1.0
 40
1.0
 40
2.0
 40
2.0
 40
2.0
 40
3.0
 40
3.0
 40
3.0
 40
4.0
 40
4.0
 40
4.0
 40
5.0
 40
5.0
 40
5.0
 40
6.0
 40
6.0
 40
6.0
 40
7.0
 40
7.0
 40
7.0
 40
7.0
 10
89.63294404226191
 20
-141.9317328204199
 10
89.63294404226191
 20
-141.9317328204199
 10
89.63294404226191
 20
-140.8275797173973
 10
89.63294404226191
 20
-140.8275797173973
 10
89.63294404226191
 20
-140.8275797173973
 10
89.28051077412084
 20
-140.8275797173973
 10
89.28051077412084
 20
-140.8275797173973
 10
89.28051077412084
 20
-140.8275797173973
 10
89.28051077412084
 20
-140.6794406115315
 10
89.28051077412084
 20
-140.6794406115315
 10
89.63535560910158
 20
-140.664626700945
 10
89.68496498408918
 20
-140.5016736844926
 10
89.71665986255348
 20
-140.3872965143823
 10
89.71665986255348
 20
-140.3872965143823
 10
89.8727226880353
 20
-140.3872965143823
 10
89.8727226880353
 20
-140.3872965143823
 10
89.8727226880353
 20
-140.3872965143823
 10
89.8727226880353
 20
-141.9317328204199
 10
89.8727226880353
 20
-141.9317328204199
 10
89.8727226880353
 20
-141.9317328204199
 10
89.63294404226191
 20
-141.9317328204199
 10
89.63294404226191
 20
-141.9317328204199
 97
        0
 97
        0
 75
     2
 76
     1
 98
        0
  0
POLYLINE
  5
134
330
12C
100
AcDbEntity
  8
_U+30EC_U+30A4_U+30E4_U+30FC 1
370
     0
100
AcDb2dPolyline
 66
     1
 10
0.0
 20
0.0
 30
0.0
  0
VERTEX
  5
135
330
134
100
AcDbEntity
  8
_U+30EC_U+30A4_U+30E4_U+30FC 1
370
     0
100
AcDbVertex
100
AcDb2dVertex
 10
90.4725138120173
 20
-141.9317328204199
 30
0.0
  0
VERTEX
  5
136
330
134
100
AcDbEntity
  8
_U+30EC_U+30A4_U+30E4_U+30FC 1
370
     0
100
AcDbVertex
100
AcDb2dVertex
 10
90.4725138120173
 20
-141.6798963404481
 30
0.0
  0
VERTEX
  5
137
330
134
100
AcDbEntity
  8
_U+30EC_U+30A4_U+30E4_U+30FC 1
370
     0
100
AcDbVertex
100
AcDb2dVertex
 10
90.7415757694153
 20
-141.6798963404481
 30
0.0
  0
VERTEX
  5
138
330
134
100
AcDbEntity
  8
_U+30EC_U+30A4_U+30E4_U+30FC 1
370
     0
100
AcDbVertex
100
AcDb2dVertex
 10
90.7415757694153
 20
-141.9317328204199
 30
0.0
  0
VERTEX
  5
139
330
134
100
AcDbEntity
  8
_U+30EC_U+30A4_U+30E4_U+30FC 1
370
     0
100
AcDbVertex
100
AcDb2dVertex
 10
90.4725138120173
 20
-141.9317328204199
 30
0.0
  0
SEQEND
  5
13A
330
134
100
AcDbEntity
  8
_U+30EC_U+30A4_U+30E4_U+30FC 1
370
     0
  0
HATCH
  5
13B
330
12C
100
AcDbEntity
  8
_U+30EC_U+30A4_U+30E4_U+30FC 1
 62
     7
420
 16777215
100
AcDbHatch
 10
0.0
 20
0.0
 30
0.0
210
0.0
220
0.0
230
1.0
  2
SOLID
 70
     1
 71
     0
 91
        1
 92
        1
 93
        4
 72
     1
 10
90.4725138120173
 20
-141.9317328204199
 11
90.4725138120173
 21
-141.6798963404481
 72
     1
 10
90.4725138120173
 20
-141.6798963404481
 11
90.7415757694153
 21
-141.6798963404481
 72
     1
 10
90.7415757694153
 20
-141.6798963404481
 11
90.7415757694153
 21
-141.9317328204199
 72
     1
 10
90.7415757694153
 20
-141.9317328204199
 11
90.4725138120173
 21
-141.9317328204199
 97
        0
 75
     2
 76
     1
 98
        0
  0
SPLINE
  5
13C
330
12C
100
AcDbEntity
  8
_U+30EC_U+30A4_U+30E4_U+30FC 1
370
     0
100
AcDbSpline
210
0.0
220
0.0
230
1.0
 70
    11
 71
     3
 72
    53
 73
    49
 74
     0
 42
0.0000000001
 43
0.0000000001
 12
1.0
 22
0.0
 32
0.0
 13
1.0
 23
0.0
 33
0.0
 40
0.0
 40
0.0
 40
0.0
 40
0.0
 40
1.0
 40
1.0
 40
1.0
 40
2.0
 40
2.0
 40
2.0
 40
3.0
 40
3.0
 40
3.0
 40
4.0
 40
4.0
 40
4.0
 40
5.0
 40
5.0
 40
5.0
 40
6.0
 40
6.0
 40
6.0
 40
7.0
 40
7.0
 40
7.0
 40
8.0
 40
8.0
 40
8.0
 40
9.0
 40
9.0
 40
9.0
 40
10.0
 40
10.0
 40
10.0
 40
11.0
 40
11.0
 40
11.0
 40
12.0
 40
12.0
 40
12.0
 40
13.0
 40
13.0
 40
13.0
 40
14.0
 40
14.0
 40
14.0
 40
15.0
 40
15.0
 40
15.0
 40
16.0
 40
16.0
 40
16.0
 40
16.0
 10
91.50828176965766
 20
-141.982375724053
 30
0.0
 10
91.42491045891461
 20
-141.982375724053
 30
0.0
 10
91.31587318680646
 20
-141.9654947561753
 30
0.0
 10
91.20769718856961
 20
-141.9021049992467
 30
0.0
 10
91.02200654191464
 20
-141.7922064532672
 30
0.0
 10
90.99961342126052
 20
-141.6609483152792
 30
0.0
 10
90.97928735789755
 20
-141.5531168265909
 30
0.0
 10
90.97928735789755
 20
-141.5531168265909
 30
0.0
 10
91.21665443683126
 20
-141.5531168265909
 30
0.0
 10
91.21665443683126
 20
-141.5531168265909
 30
0.0
 10
91.27522106008051
 20
-141.7518988360898
 30
0.0
 10
91.4111300769736
 20
-141.781526657263
 30
0.0
 10
91.51069333649733
 20
-141.781526657263
 30
0.0
 10
91.65986597100864
 20
-141.781526657263
 30
0.0
 10
91.82247447791244
 20
-141.6819633977392
 30
0.0
 10
91.82247447791244
 20
-141.4494194524849
 30
0.0
 10
91.82247447791244
 20
-141.1934488579308
 30
0.0
 10
91.63058265938403
 20
-141.1235134195802
 30
0.0
 10
91.50173608823569
 20
-141.1235134195802
 30
0.0
 10
91.46762964293171
 20
-141.1235134195802
 30
0.0
 10
91.31587318680646
 20
-141.1235134195802
 30
0.0
 10
91.22113306096209
 20
-141.2527045002771
 30
0.0
 10
91.22113306096209
 20
-141.2527045002771
 30
0.0
 10
91.03337535701597
 20
-141.2337564751082
 30
0.0
 10
91.03337535701597
 20
-141.2337564751082
 30
0.0
 10
91.03337535701597
 20
-141.2337564751082
 30
0.0
 10
91.16222192816431
 20
-140.3872965143823
 30
0.0
 10
91.16222192816431
 20
-140.3872965143823
 30
0.0
 10
91.16222192816431
 20
-140.3872965143823
 30
0.0
 10
91.99438474262641
 20
-140.3872965143823
 30
0.0
 10
91.99438474262641
 20
-140.3872965143823
 30
0.0
 10
91.99438474262641
 20
-140.3872965143823
 30
0.0
 10
91.99438474262641
 20
-140.581944409299
 30
0.0
 10
91.99438474262641
 20
-140.581944409299
 30
0.0
 10
91.99438474262641
 20
-140.581944409299
 30
0.0
 10
91.33654375971796
 20
-140.581944409299
 30
0.0
 10
91.33654375971796
 20
-140.581944409299
 30
0.0
 10
91.33654375971796
 20
-140.581944409299
 30
0.0
 10
91.26626381181886
 20
-141.0050021348876
 30
0.0
 10
91.26626381181886
 20
-141.0050021348876
 30
0.0
 10
91.3317206260386
 20
-140.9712401991322
 30
0.0
 10
91.42008732523526
 20
-140.9309325819548
 30
0.0
 10
91.54686683909246
 20
-140.9309325819548
 30
0.0
 10
91.81799585378161
 20
-140.9309325819548
 30
0.0
 10
92.07121037194747
 20
-141.1173122477068
 30
0.0
 10
92.07121037194747
 20
-141.430471427316
 30
0.0
 10
92.07121037194747
 20
-141.7477647215075
 30
0.0
 10
91.83177623572261
 20
-141.982375724053
 30
0.0
 10
91.50828176965766
 20
-141.982375724053
 30
0.0
  0
HATCH
  5
13D
330
12C
100
AcDbEntity
  8
_U+30EC_U+30A4_U+30E4_U+30FC 1
 62
     7
420
 16777215
100
AcDbHatch
 10
0.0
 20
0.0
 30
0.0
210
0.0
220
0.0
230
1.0
  2
SOLID
 70
     1
 71
     0
 91
        1
 92
        1
 93
        1
 72
     4
 94
        3
 73
     0
 74
     1
 95
       53
 96
       49
 40
0.0
 40
0.0
 40
0.0
 40
0.0
 40
1.0
 40
1.0
 40
1.0
 40
2.0
 40
2.0
 40
2.0
 40
3.0
 40
3.0
 40
3.0
 40
4.0
 40
4.0
 40
4.0
 40
5.0
 40
5.0
 40
5.0
 40
6.0
 40
6.0
 40
6.0
 40
7.0
 40
7.0
 40
7.0
 40
8.0
 40
8.0
 40
8.0
 40
9.0
 40
9.0
 40
9.0
 40
10.0
 40
10.0
 40
10.0
 40
11.0
 40
11.0
 40
11.0
 40
12.0
 40
12.0
 40
12.0
 40
13.0
 40
13.0
 40
13.0
 40
14.0
 40
14.0
 40
14.0
 40
15.0
 40
15.0
 40
15.0
 40
16.0
 40
16.0
 40
16.0
 40
16.0
 10
91.50828176965766
 20
-141.982375724053
 10
91.42491045891461
 20
-141.982375724053
 10
91.31587318680646
 20
-141.9654947561753
 10
91.20769718856961
 20
-141.9021049992467
 10
91.02200654191464
 20
-141.7922064532672
 10
90.99961342126052
 20
-141.6609483152792
 10
90.97928735789755
 20
-141.5531168265909
 10
90.97928735789755
 20
-141.5531168265909
 10
91.21665443683126
 20
-141.5531168265909
 10
91.21665443683126
 20
-141.5531168265909
 10
91.27522106008051
 20
-141.7518988360898
 10
91.4111300769736
 20
-141.781526657263
 10
91.51069333649733
 20
-141.781526657263
 10
91.65986597100864
 20
-141.781526657263
 10
91.82247447791244
 20
-141.6819633977392
 10
91.82247447791244
 20
-141.4494194524849
 10
91.82247447791244
 20
-141.1934488579308
 10
91.63058265938403
 20
-141.1235134195802
 10
91.50173608823569
 20
-141.1235134195802
 10
91.46762964293171
 20
-141.1235134195802
 10
91.31587318680646
 20
-141.1235134195802
 10
91.22113306096209
 20
-141.2527045002771
 10
91.22113306096209
 20
-141.2527045002771
 10
91.03337535701597
 20
-141.2337564751082
 10
91.03337535701597
 20
-141.2337564751082
 10
91.03337535701597
 20
-141.2337564751082
 10
91.16222192816431
 20
-140.3872965143823
 10
91.16222192816431
 20
-140.3872965143823
 10
91.16222192816431
 20
-140.3872965143823
 10
91.99438474262641
 20
-140.3872965143823
 10
91.99438474262641
 20
-140.3872965143823
 10
91.99438474262641
 20
-140.3872965143823
 10
91.99438474262641
 20
-140.581944409299
 10
91.99438474262641
 20
-140.581944409299
 10
91.99438474262641
 20
-140.581944409299
 10
91.33654375971796
 20
-140.581944409299
 10
91.33654375971796
 20
-140.581944409299
 10
91.33654375971796
 20
-140.581944409299
 10
91.26626381181886
 20
-141.0050021348876
 10
91.26626381181886
 20
-141.0050021348876
 10
91.3317206260386
 20
-140.9712401991322
 10
91.42008732523526
 20
-140.9309325819548
 10
91.54686683909246
 20
-140.9309325819548
 10
91.81799585378161
 20
-140.9309325819548
 10
92.07121037194747
 20
-141.1173122477068
 10
92.07121037194747
 20
-141.430471427316
 10
92.07121037194747
 20
-141.7477647215075
 10
91.83177623572261
 20
-141.982375724053
 10
91.50828176965766
 20
-141.982375724053
 97
        0
 97
        0
 75
     2
 76
     1
 98
        0
  0
ENDBLK
  5
12F
330
12C
100
AcDbEntity
  8
0
100
AcDbBlockEnd
  0
BLOCK
  5
144
330
142
100
AcDbEntity
  8
0
100
AcDbBlockBegin
  2
block 8
 70
     0
 10
0.0
 20
0.0
 30
0.0
  3
block 8
  1

  0
SPLINE
  5
146
330
142
100
AcDbEntity
  8
_U+30EC_U+30A4_U+30E4_U+30FC 1
370
     0
100
AcDbSpline
210
0.0
220
0.0
230
1.0
 70
    11
 71
     3
 72
    26
 73
    22
 74
     0
 42
0.0000000001
 43
0.0000000001
 12
1.0
 22
0.0
 32
0.0
 13
1.0
 23
0.0
 33
0.0
 40
0.0
 40
0.0
 40
0.0
 40
0.0
 40
1.0
 40
1.0
 40
1.0
 40
2.0
 40
2.0
 40
2.0
 40
3.0
 40
3.0
 40
3.0
 40
4.0
 40
4.0
 40
4.0
 40
5.0
 40
5.0
 40
5.0
 40
6.0
 40
6.0
 40
6.0
 40
7.0
 40
7.0
 40
7.0
 40
7.0
 10
78.11943493055695
 20
-116.4316528029233
 30
0.0
 10
78.11943493055695
 20
-116.4316528029233
 30
0.0
 10
78.11943493055695
 20
-115.3273274451265
 30
0.0
 10
78.11943493055695
 20
-115.3273274451265
 30
0.0
 10
78.11943493055695
 20
-115.3273274451265
 30
0.0
 10
77.76665715286737
 20
-115.3273274451265
 30
0.0
 10
77.76665715286737
 20
-115.3273274451265
 30
0.0
 10
77.76665715286737
 20
-115.3273274451265
 30
0.0
 10
77.76665715286737
 20
-115.1791883392608
 30
0.0
 10
77.76665715286737
 20
-115.1791883392608
 30
0.0
 10
78.12167424262236
 20
-115.1645466834484
 30
0.0
 10
78.17145587238423
 20
-115.0015936669961
 30
0.0
 10
78.20297849607427
 20
-114.8873887516601
 30
0.0
 10
78.20297849607427
 20
-114.8873887516601
 30
0.0
 10
78.35904132155608
 20
-114.8873887516601
 30
0.0
 10
78.35904132155608
 20
-114.8873887516601
 30
0.0
 10
78.35904132155608
 20
-114.8873887516601
 30
0.0
 10
78.35904132155608
 20
-116.4316528029233
 30
0.0
 10
78.35904132155608
 20
-116.4316528029233
 30
0.0
 10
78.35904132155608
 20
-116.4316528029233
 30
0.0
 10
78.11943493055695
 20
-116.4316528029233
 30
0.0
 10
78.11943493055695
 20
-116.4316528029233
 30
0.0
  0
HATCH
  5
147
330
142
100
AcDbEntity
  8
_U+30EC_U+30A4_U+30E4_U+30FC 1
 62
     7
420
 16777215
100
AcDbHatch
 10
0.0
 20
0.0
 30
0.0
210
0.0
220
0.0
230
1.0
  2
SOLID
 70
     1
 71
     0
 91
        1
 92
        1
 93
        1
 72
     4
 94
        3
 73
     0
 74
     1
 95
       26
 96
       22
 40
0.0
 40
0.0
 40
0.0
 40
0.0
 40
1.0
 40
1.0
 40
1.0
 40
2.0
 40
2.0
 40
2.0
 40
3.0
 40
3.0
 40
3.0
 40
4.0
 40
4.0
 40
4.0
 40
5.0
 40
5.0
 40
5.0
 40
6.0
 40
6.0
 40
6.0
 40
7.0
 40
7.0
 40
7.0
 40
7.0
 10
78.11943493055695
 20
-116.4316528029233
 10
78.11943493055695
 20
-116.4316528029233
 10
78.11943493055695
 20
-115.3273274451265
 10
78.11943493055695
 20
-115.3273274451265
 10
78.11943493055695
 20
-115.3273274451265
 10
77.76665715286737
 20
-115.3273274451265
 10
77.76665715286737
 20
-115.3273274451265
 10
77.76665715286737
 20
-115.3273274451265
 10
77.76665715286737
 20
-115.1791883392608
 10
77.76665715286737
 20
-115.1791883392608
 10
78.12167424262236
 20
-115.1645466834484
 10
78.17145587238423
 20
-115.0015936669961
 10
78.20297849607427
 20
-114.8873887516601
 10
78.20297849607427
 20
-114.8873887516601
 10
78.35904132155608
 20
-114.8873887516601
 10
78.35904132155608
 20
-114.8873887516601
 10
78.35904132155608
 20
-114.8873887516601
 10
78.35904132155608
 20
-116.4316528029233
 10
78.35904132155608
 20
-116.4316528029233
 10
78.35904132155608
 20
-116.4316528029233
 10
78.11943493055695
 20
-116.4316528029233
 10
78.11943493055695
 20
-116.4316528029233
 97
        0
 97
        0
 75
     2
 76
     1
 98
        0
  0
ENDBLK
  5
145
330
142
100
AcDbEntity
  8
0
100
AcDbBlockEnd
  0
ENDSEC
  0
SECTION
  2
ENTITIES
  0
SPLINE
  5
41
330
1F
100
AcDbEntity
  8
_U+30EC_U+30A4_U+30E4_U+30FC 1
370
     0
100
AcDbSpline
210
0.0
220
0.0
230
1.0
 70
    11
 71
     3
 72
    74
 73
    70
 74
     0
 42
0.0000000001
 43
0.0000000001
 12
1.0
 22
0.0
 32
0.0
 13
1.0
 23
0.0
 33
0.0
 40
0.0
 40
0.0
 40
0.0
 40
0.0
 40
1.0
 40
1.0
 40
1.0
 40
2.0
 40
2.0
 40
2.0
 40
3.0
 40
3.0
 40
3.0
 40
4.0
 40
4.0
 40
4.0
 40
5.0
 40
5.0
 40
5.0
 40
6.0
 40
6.0
 40
6.0
 40
7.0
 40
7.0
 40
7.0
 40
8.0
 40
8.0
 40
8.0
 40
9.0
 40
9.0
 40
9.0
 40
10.0
 40
10.0
 40
10.0
 40
11.0
 40
11.0
 40
11.0
 40
12.0
 40
12.0
 40
12.0
 40
13.0
 40
13.0
 40
13.0
 40
14.0
 40
14.0
 40
14.0
 40
15.0
 40
15.0
 40
15.0
 40
16.0
 40
16.0
 40
16.0
 40
17.0
 40
17.0
 40
17.0
 40
18.0
 40
18.0
 40
18.0
 40
19.0
 40
19.0
 40
19.0
 40
20.0
 40
20.0
 40
20.0
 40
21.0
 40
21.0
 40
21.0
 40
22.0
 40
22.0
 40
22.0
 40
23.0
 40
23.0
 40
23.0
 40
23.0
 10
100.1781971664635
 20
-138.0277627432708
 30
0.0
 10
100.1781971664635
 20
-138.0277627432708
 30
0.0
 10
92.05192598489305
 20
-138.0277627432708
 30
0.0
 10
92.05192598489305
 20
-138.0277627432708
 30
0.0
 10
92.05192598489305
 20
-138.0277627432708
 30
0.0
 10
90.67870553288601
 20
-137.5282294100626
 30
0.0
 10
90.67870553288601
 20
-137.5282294100626
 30
0.0
 10
90.67870553288601
 20
-137.5282294100626
 30
0.0
 10
83.5923150896046
 20
-137.5282294100626
 30
0.0
 10
83.5923150896046
 20
-137.5282294100626
 30
0.0
 10
83.5923150896046
 20
-137.5282294100626
 30
0.0
 10
82.30968567788275
 20
-136.245247188161
 30
0.0
 10
82.30968567788275
 20
-136.245247188161
 30
0.0
 10
82.30968567788275
 20
-136.245247188161
 30
0.0
 10
83.52669842461195
 20
-135.0277757995764
 30
0.0
 10
83.52669842461195
 20
-135.0277757995764
 30
0.0
 10
83.52669842461195
 20
-135.0277757995764
 30
0.0
 10
90.67870553288601
 20
-135.0277757995764
 30
0.0
 10
90.67870553288601
 20
-135.0277757995764
 30
0.0
 10
90.67870553288601
 20
-135.0277757995764
 30
0.0
 10
90.67870553288601
 20
-134.5275369108127
 30
0.0
 10
90.67870553288601
 20
-134.5275369108127
 30
0.0
 10
90.67870553288601
 20
-134.5275369108127
 30
0.0
 10
88.6784885709566
 20
-134.0280035776039
 30
0.0
 10
88.6784885709566
 20
-134.0280035776039
 30
0.0
 10
88.6784885709566
 20
-134.0280035776039
 30
0.0
 10
83.67825175407883
 20
-134.0280035776039
 30
0.0
 10
83.67825175407883
 20
-134.0280035776039
 30
0.0
 10
83.67825175407883
 20
-134.0280035776039
 30
0.0
 10
83.67825175407883
 20
-129.0277666344096
 30
0.0
 10
83.67825175407883
 20
-129.0277666344096
 30
0.0
 10
83.67825175407883
 20
-129.0277666344096
 30
0.0
 10
83.17871843348966
 20
-127.0280810793541
 30
0.0
 10
83.17871843348966
 20
-127.0280810793541
 30
0.0
 10
83.17871843348966
 20
-127.0280810793541
 30
0.0
 10
82.67851483513981
 20
-127.0280810793541
 30
0.0
 10
82.67851483513981
 20
-127.0280810793541
 30
0.0
 10
82.67851483513981
 20
-127.0280810793541
 30
0.0
 10
82.67851483513981
 20
-134.1795921886773
 30
0.0
 10
82.67851483513981
 20
-134.1795921886773
 30
0.0
 10
82.67851483513981
 20
-134.1795921886773
 30
0.0
 10
81.4611845884187
 20
-135.3963932994845
 30
0.0
 10
81.4611845884187
 20
-135.3963932994845
 30
0.0
 10
81.4611845884187
 20
-135.3963932994845
 30
0.0
 10
80.17823767670497
 20
-134.1141166331379
 30
0.0
 10
80.17823767670497
 20
-134.1141166331379
 30
0.0
 10
80.17823767670497
 20
-134.1141166331379
 30
0.0
 10
80.17823767670497
 20
-127.0280810793541
 30
0.0
 10
80.17823767670497
 20
-127.0280810793541
 30
0.0
 10
80.17823767670497
 20
-127.0280810793541
 30
0.0
 10
79.678351578347
 20
-125.6545055241418
 30
0.0
 10
79.678351578347
 20
-125.6545055241418
 30
0.0
 10
79.678351578347
 20
-125.6545055241418
 30
0.0
 10
79.678351578347
 20
-122.5280830249235
 30
0.0
 10
79.678351578347
 20
-122.5280830249235
 30
0.0
 10
79.678351578347
 20
-122.2517874694371
 30
0.0
 10
79.45440825072694
 20
-122.0281969139372
 30
0.0
 10
79.17846547998906
 20
-122.0281969139372
 30
0.0
 10
79.17846547998906
 20
-122.0281969139372
 30
0.0
 10
79.17846547998906
 20
-134.5282071885901
 30
0.0
 10
79.17846547998906
 20
-134.5282071885901
 30
0.0
 10
79.17846547998906
 20
-134.5282071885901
 30
0.0
 10
83.17822454461337
 20
-138.527966354257
 30
0.0
 10
83.17822454461337
 20
-138.527966354257
 30
0.0
 10
83.17822454461337
 20
-138.527966354257
 30
0.0
 10
100.6784360425902
 20
-138.527966354257
 30
0.0
 10
100.6784360425902
 20
-138.527966354257
 30
0.0
 10
100.6784360425902
 20
-138.2516707987705
 30
0.0
 10
100.4544927149702
 20
-138.0277627432708
 30
0.0
 10
100.1781971664635
 20
-138.0277627432708
 30
0.0
  0
HATCH
  5
42
330
1F
100
AcDbEntity
  8
_U+30EC_U+30A4_U+30E4_U+30FC 1
 62
   253
420
 11711154
100
AcDbHatch
 10
0.0
 20
0.0
 30
0.0
210
0.0
220
0.0
230
1.0
  2
SOLID
 70
     1
 71
     0
 91
        1
 92
        1
 93
        1
 72
     4
 94
        3
 73
     0
 74
     1
 95
       74
 96
       70
 40
0.0
 40
0.0
 40
0.0
 40
0.0
 40
1.0
 40
1.0
 40
1.0
 40
2.0
 40
2.0
 40
2.0
 40
3.0
 40
3.0
 40
3.0
 40
4.0
 40
4.0
 40
4.0
 40
5.0
 40
5.0
 40
5.0
 40
6.0
 40
6.0
 40
6.0
 40
7.0
 40
7.0
 40
7.0
 40
8.0
 40
8.0
 40
8.0
 40
9.0
 40
9.0
 40
9.0
 40
10.0
 40
10.0
 40
10.0
 40
11.0
 40
11.0
 40
11.0
 40
12.0
 40
12.0
 40
12.0
 40
13.0
 40
13.0
 40
13.0
 40
14.0
 40
14.0
 40
14.0
 40
15.0
 40
15.0
 40
15.0
 40
16.0
 40
16.0
 40
16.0
 40
17.0
 40
17.0
 40
17.0
 40
18.0
 40
18.0
 40
18.0
 40
19.0
 40
19.0
 40
19.0
 40
20.0
 40
20.0
 40
20.0
 40
21.0
 40
21.0
 40
21.0
 40
22.0
 40
22.0
 40
22.0
 40
23.0
 40
23.0
 40
23.0
 40
23.0
 10
100.1781971664635
 20
-138.0277627432708
 10
100.1781971664635
 20
-138.0277627432708
 10
92.05192598489305
 20
-138.0277627432708
 10
92.05192598489305
 20
-138.0277627432708
 10
92.05192598489305
 20
-138.0277627432708
 10
90.67870553288601
 20
-137.5282294100626
 10
90.67870553288601
 20
-137.5282294100626
 10
90.67870553288601
 20
-137.5282294100626
 10
83.5923150896046
 20
-137.5282294100626
 10
83.5923150896046
 20
-137.5282294100626
 10
83.5923150896046
 20
-137.5282294100626
 10
82.30968567788275
 20
-136.245247188161
 10
82.30968567788275
 20
-136.245247188161
 10
82.30968567788275
 20
-136.245247188161
 10
83.52669842461195
 20
-135.0277757995764
 10
83.52669842461195
 20
-135.0277757995764
 10
83.52669842461195
 20
-135.0277757995764
 10
90.67870553288601
 20
-135.0277757995764
 10
90.67870553288601
 20
-135.0277757995764
 10
90.67870553288601
 20
-135.0277757995764
 10
90.67870553288601
 20
-134.5275369108127
 10
90.67870553288601
 20
-134.5275369108127
 10
90.67870553288601
 20
-134.5275369108127
 10
88.6784885709566
 20
-134.0280035776039
 10
88.6784885709566
 20
-134.0280035776039
 10
88.6784885709566
 20
-134.0280035776039
 10
83.67825175407883
 20
-134.0280035776039
 10
83.67825175407883
 20
-134.0280035776039
 10
83.67825175407883
 20
-134.0280035776039
 10
83.67825175407883
 20
-129.0277666344096
 10
83.67825175407883
 20
-129.0277666344096
 10
83.67825175407883
 20
-129.0277666344096
 10
83.17871843348966
 20
-127.0280810793541
 10
83.17871843348966
 20
-127.0280810793541
 10
83.17871843348966
 20
-127.0280810793541
 10
82.67851483513981
 20
-127.0280810793541
 10
82.67851483513981
 20
-127.0280810793541
 10
82.67851483513981
 20
-127.0280810793541
 10
82.67851483513981
 20
-134.1795921886773
 10
82.67851483513981
 20
-134.1795921886773
 10
82.67851483513981
 20
-134.1795921886773
 10
81.4611845884187
 20
-135.3963932994845
 10
81.4611845884187
 20
-135.3963932994845
 10
81.4611845884187
 20
-135.3963932994845
 10
80.17823767670497
 20
-134.1141166331379
 10
80.17823767670497
 20
-134.1141166331379
 10
80.17823767670497
 20
-134.1141166331379
 10
80.17823767670497
 20
-127.0280810793541
 10
80.17823767670497
 20
-127.0280810793541
 10
80.17823767670497
 20
-127.0280810793541
 10
79.678351578347
 20
-125.6545055241418
 10
79.678351578347
 20
-125.6545055241418
 10
79.678351578347
 20
-125.6545055241418
 10
79.678351578347
 20
-122.5280830249235
 10
79.678351578347
 20
-122.5280830249235
 10
79.678351578347
 20
-122.2517874694371
 10
79.45440825072694
 20
-122.0281969139372
 10
79.17846547998906
 20
-122.0281969139372
 10
79.17846547998906
 20
-122.0281969139372
 10
79.17846547998906
 20
-134.5282071885901
 10
79.17846547998906
 20
-134.5282071885901
 10
79.17846547998906
 20
-134.5282071885901
 10
83.17822454461337
 20
-138.527966354257
 10
83.17822454461337
 20
-138.527966354257
 10
83.17822454461337
 20
-138.527966354257
 10
100.6784360425902
 20
-138.527966354257
 10
100.6784360425902
 20
-138.527966354257
 10
100.6784360425902
 20
-138.2516707987705
 10
100.4544927149702
 20
-138.0277627432708
 10
100.1781971664635
 20
-138.0277627432708
 97
        0
 97
        0
 75
     2
 76
     1
 98
        0
  0
POLYLINE
  5
43
330
1F
100
AcDbEntity
  8
_U+30EC_U+30A4_U+30E4_U+30FC 1
 62
     7
420
 16777215
370
    25
100
AcDb2dPolyline
 66
     1
 10
0.0
 20
0.0
 30
0.0
  0
VERTEX
  5
44
330
43
100
AcDbEntity
  8
_U+30EC_U+30A4_U+30E4_U+30FC 1
 62
     7
420
 16777215
370
    25
100
AcDbVertex
100
AcDb2dVertex
 10
79.17846547998906
 20
-122.0281969139372
 30
0.0
  0
VERTEX
  5
45
330
43
100
AcDbEntity
  8
_U+30EC_U+30A4_U+30E4_U+30FC 1
 62
     7
420
 16777215
370
    25
100
AcDbVertex
100
AcDb2dVertex
 10
79.17846547998906
 20
-134.5282071885901
 30
0.0
  0
SEQEND
  5
46
330
43
100
AcDbEntity
  8
_U+30EC_U+30A4_U+30E4_U+30FC 1
 62
     7
420
 16777215
370
    25
  0
POLYLINE
  5
47
330
1F
100
AcDbEntity
  8
_U+30EC_U+30A4_U+30E4_U+30FC 1
 62
     7
420
 16777215
370
    25
100
AcDb2dPolyline
 66
     1
 10
0.0
 20
0.0
 30
0.0
  0
VERTEX
  5
48
330
47
100
AcDbEntity
  8
_U+30EC_U+30A4_U+30E4_U+30FC 1
 62
     7
420
 16777215
370
    25
100
AcDbVertex
100
AcDb2dVertex
 10
83.17822454461337
 20
-138.527966354257
 30
0.0
  0
VERTEX
  5
49
330
47
100
AcDbEntity
  8
_U+30EC_U+30A4_U+30E4_U+30FC 1
 62
     7
420
 16777215
370
    25
100
AcDbVertex
100
AcDb2dVertex
 10
100.6784360425902
 20
-138.527966354257
 30
0.0
  0
SEQEND
  5
4A
330
47
100
AcDbEntity
  8
_U+30EC_U+30A4_U+30E4_U+30FC 1
 62
     7
420
 16777215
370
    25
  0
POLYLINE
  5
4B
330
1F
100
AcDbEntity
  8
_U+30EC_U+30A4_U+30E4_U+30FC 1
 62
     7
420
 16777215
370
    25
100
AcDb2dPolyline
 66
     1
 10
0.0
 20
0.0
 30
0.0
  0
VERTEX
  5
4C
330
4B
100
AcDbEntity
  8
_U+30EC_U+30A4_U+30E4_U+30FC 1
 62
     7
420
 16777215
370
    25
100
AcDbVertex
100
AcDb2dVertex
 10
83.17822454461337
 20
-138.527966354257
 30
0.0
  0
VERTEX
  5
4D
330
4B
100
AcDbEntity
  8
_U+30EC_U+30A4_U+30E4_U+30FC 1
 62
     7
420
 16777215
370
    25
100
AcDbVertex
100
AcDb2dVertex
 10
79.17846547998906
 20
-134.5282071885901
 30
0.0
  0
SEQEND
  5
4E
330
4B
100
AcDbEntity
  8
_U+30EC_U+30A4_U+30E4_U+30FC 1
 62
     7
420
 16777215
370
    25
  0
POLYLINE
  5
4F
330
1F
100
AcDbEntity
  8
_U+30EC_U+30A4_U+30E4_U+30FC 1
 62
     7
420
 16777215
370
    25
100
AcDb2dPolyline
 66
     1
 10
0.0
 20
0.0
 30
0.0
  0
VERTEX
  5
50
330
4F
100
AcDbEntity
  8
_U+30EC_U+30A4_U+30E4_U+30FC 1
 62
     7
420
 16777215
370
    25
100
AcDbVertex
100
AcDb2dVertex
 10
80.17823767670497
 20
-127.0280810793541
 30
0.0
  0
VERTEX
  5
51
330
4F
100
AcDbEntity
  8
_U+30EC_U+30A4_U+30E4_U+30FC 1
 62
     7
420
 16777215
370
    25
100
AcDbVertex
100
AcDb2dVertex
 10
80.17823767670497
 20
-134.1141166331379
 30
0.0
  0
SEQEND
  5
52
330
4F
100
AcDbEntity
  8
_U+30EC_U+30A4_U+30E4_U+30FC 1
 62
     7
420
 16777215
370
    25
  0
POLYLINE
  5
53
330
1F
100
AcDbEntity
  8
_U+30EC_U+30A4_U+30E4_U+30FC 1
 62
     7
420
 16777215
370
    25
100
AcDb2dPolyline
 66
     1
 10
0.0
 20
0.0
 30
0.0
  0
VERTEX
  5
54
330
53
100
AcDbEntity
  8
_U+30EC_U+30A4_U+30E4_U+30FC 1
 62
     7
420
 16777215
370
    25
100
AcDbVertex
100
AcDb2dVertex
 10
83.5923150896046
 20
-137.5282294100626
 30
0.0
  0
VERTEX
  5
55
330
53
100
AcDbEntity
  8
_U+30EC_U+30A4_U+30E4_U+30FC 1
 62
     7
420
 16777215
370
    25
100
AcDbVertex
100
AcDb2dVertex
 10
82.30968567788275
 20
-136.245247188161
 30
0.0
  0
SEQEND
  5
56
330
53
100
AcDbEntity
  8
_U+30EC_U+30A4_U+30E4_U+30FC 1
 62
     7
420
 16777215
370
    25
  0
POLYLINE
  5
57
330
1F
100
AcDbEntity
  8
_U+30EC_U+30A4_U+30E4_U+30FC 1
 62
     7
420
 16777215
370
    25
100
AcDb2dPolyline
 66
     1
 10
0.0
 20
0.0
 30
0.0
  0
VERTEX
  5
58
330
57
100
AcDbEntity
  8
_U+30EC_U+30A4_U+30E4_U+30FC 1
 62
     7
420
 16777215
370
    25
100
AcDbVertex
100
AcDb2dVertex
 10
83.5923150896046
 20
-137.5282294100626
 30
0.0
  0
VERTEX
  5
59
330
57
100
AcDbEntity
  8
_U+30EC_U+30A4_U+30E4_U+30FC 1
 62
     7
420
 16777215
370
    25
100
AcDbVertex
100
AcDb2dVertex
 10
90.67870553288601
 20
-137.5282294100626
 30
0.0
  0
SEQEND
  5
5A
330
57
100
AcDbEntity
  8
_U+30EC_U+30A4_U+30E4_U+30FC 1
 62
     7
420
 16777215
370
    25
  0
POLYLINE
  5
5B
330
1F
100
AcDbEntity
  8
_U+30EC_U+30A4_U+30E4_U+30FC 1
 62
     7
420
 16777215
370
    25
100
AcDb2dPolyline
 66
     1
 10
0.0
 20
0.0
 30
0.0
  0
VERTEX
  5
5C
330
5B
100
AcDbEntity
  8
_U+30EC_U+30A4_U+30E4_U+30FC 1
 62
     7
420
 16777215
370
    25
100
AcDbVertex
100
AcDb2dVertex
 10
82.67851483513981
 20
-127.0280810793541
 30
0.0
  0
VERTEX
  5
5D
330
5B
100
AcDbEntity
  8
_U+30EC_U+30A4_U+30E4_U+30FC 1
 62
     7
420
 16777215
370
    25
100
AcDbVertex
100
AcDb2dVertex
 10
82.67851483513981
 20
-134.1795921886773
 30
0.0
  0
SEQEND
  5
5E
330
5B
100
AcDbEntity
  8
_U+30EC_U+30A4_U+30E4_U+30FC 1
 62
     7
420
 16777215
370
    25
  0
POLYLINE
  5
5F
330
1F
100
AcDbEntity
  8
_U+30EC_U+30A4_U+30E4_U+30FC 1
 62
     7
420
 16777215
370
    25
100
AcDb2dPolyline
 66
     1
 10
0.0
 20
0.0
 30
0.0
  0
VERTEX
  5
60
330
5F
100
AcDbEntity
  8
_U+30EC_U+30A4_U+30E4_U+30FC 1
 62
     7
420
 16777215
370
    25
100
AcDbVertex
100
AcDb2dVertex
 10
83.67825175407883
 20
-129.0277666344096
 30
0.0
  0
VERTEX
  5
61
330
5F
100
AcDbEntity
  8
_U+30EC_U+30A4_U+30E4_U+30FC 1
 62
     7
420
 16777215
370
    25
100
AcDbVertex
100
AcDb2dVertex
 10
83.67825175407883
 20
-134.0280035776039
 30
0.0
  0
SEQEND
  5
62
330
5F
100
AcDbEntity
  8
_U+30EC_U+30A4_U+30E4_U+30FC 1
 62
     7
420
 16777215
370
    25
  0
POLYLINE
  5
63
330
1F
100
AcDbEntity
  8
_U+30EC_U+30A4_U+30E4_U+30FC 1
 62
     7
420
 16777215
370
    25
100
AcDb2dPolyline
 66
     1
 10
0.0
 20
0.0
 30
0.0
  0
VERTEX
  5
64
330
63
100
AcDbEntity
  8
_U+30EC_U+30A4_U+30E4_U+30FC 1
 62
     7
420
 16777215
370
    25
100
AcDbVertex
100
AcDb2dVertex
 10
83.52669842461195
 20
-135.0277757995764
 30
0.0
  0
VERTEX
  5
65
330
63
100
AcDbEntity
  8
_U+30EC_U+30A4_U+30E4_U+30FC 1
 62
     7
420
 16777215
370
    25
100
AcDbVertex
100
AcDb2dVertex
 10
90.67870553288601
 20
-135.0277757995764
 30
0.0
  0
SEQEND
  5
66
330
63
100
AcDbEntity
  8
_U+30EC_U+30A4_U+30E4_U+30FC 1
 62
     7
420
 16777215
370
    25
  0
POLYLINE
  5
67
330
1F
100
AcDbEntity
  8
_U+30EC_U+30A4_U+30E4_U+30FC 1
 62
     7
420
 16777215
370
    25
100
AcDb2dPolyline
 66
     1
 10
0.0
 20
0.0
 30
0.0
  0
VERTEX
  5
68
330
67
100
AcDbEntity
  8
_U+30EC_U+30A4_U+30E4_U+30FC 1
 62
     7
420
 16777215
370
    25
100
AcDbVertex
100
AcDb2dVertex
 10
83.67825175407883
 20
-134.0280035776039
 30
0.0
  0
VERTEX
  5
69
330
67
100
AcDbEntity
  8
_U+30EC_U+30A4_U+30E4_U+30FC 1
 62
     7
420
 16777215
370
    25
100
AcDbVertex
100
AcDb2dVertex
 10
88.6784885709566
 20
-134.0280035776039
 30
0.0
  0
SEQEND
  5
6A
330
67
100
AcDbEntity
  8
_U+30EC_U+30A4_U+30E4_U+30FC 1
 62
     7
420
 16777215
370
    25
  0
POLYLINE
  5
6B
330
1F
100
AcDbEntity
  8
_U+30EC_U+30A4_U+30E4_U+30FC 1
 62
     7
420
 16777215
370
    25
100
AcDb2dPolyline
 66
     1
 10
0.0
 20
0.0
 30
0.0
  0
VERTEX
  5
6C
330
6B
100
AcDbEntity
  8
_U+30EC_U+30A4_U+30E4_U+30FC 1
 62
     7
420
 16777215
370
    25
100
AcDbVertex
100
AcDb2dVertex
 10
81.4611845884187
 20
-135.3963932994845
 30
0.0
  0
VERTEX
  5
6D
330
6B
100
AcDbEntity
  8
_U+30EC_U+30A4_U+30E4_U+30FC 1
 62
     7
420
 16777215
370
    25
100
AcDbVertex
100
AcDb2dVertex
 10
80.17823767670497
 20
-134.1141166331379
 30
0.0
  0
SEQEND
  5
6E
330
6B
100
AcDbEntity
  8
_U+30EC_U+30A4_U+30E4_U+30FC 1
 62
     7
420
 16777215
370
    25
  0
POLYLINE
  5
6F
330
1F
100
AcDbEntity
  8
_U+30EC_U+30A4_U+30E4_U+30FC 1
 62
     7
420
 16777215
370
    25
100
AcDb2dPolyline
 66
     1
 10
0.0
 20
0.0
 30
0.0
  0
VERTEX
  5
70
330
6F
100
AcDbEntity
  8
_U+30EC_U+30A4_U+30E4_U+30FC 1
 62
     7
420
 16777215
370
    25
100
AcDbVertex
100
AcDb2dVertex
 10
82.67851483513981
 20
-127.0280810793541
 30
0.0
  0
VERTEX
  5
71
330
6F
100
AcDbEntity
  8
_U+30EC_U+30A4_U+30E4_U+30FC 1
 62
     7
420
 16777215
370
    25
100
AcDbVertex
100
AcDb2dVertex
 10
83.17871843348966
 20
-127.0280810793541
 30
0.0
  0
SEQEND
  5
72
330
6F
100
AcDbEntity
  8
_U+30EC_U+30A4_U+30E4_U+30FC 1
 62
     7
420
 16777215
370
    25
  0
POLYLINE
  5
73
330
1F
100
AcDbEntity
  8
_U+30EC_U+30A4_U+30E4_U+30FC 1
 62
     7
420
 16777215
370
    25
100
AcDb2dPolyline
 66
     1
 10
0.0
 20
0.0
 30
0.0
  0
VERTEX
  5
74
330
73
100
AcDbEntity
  8
_U+30EC_U+30A4_U+30E4_U+30FC 1
 62
     7
420
 16777215
370
    25
100
AcDbVertex
100
AcDb2dVertex
 10
90.67870553288601
 20
-134.5275369108127
 30
0.0
  0
VERTEX
  5
75
330
73
100
AcDbEntity
  8
_U+30EC_U+30A4_U+30E4_U+30FC 1
 62
     7
420
 16777215
370
    25
100
AcDbVertex
100
AcDb2dVertex
 10
90.67870553288601
 20
-135.0277757995764
 30
0.0
  0
SEQEND
  5
76
330
73
100
AcDbEntity
  8
_U+30EC_U+30A4_U+30E4_U+30FC 1
 62
     7
420
 16777215
370
    25
  0
POLYLINE
  5
77
330
1F
100
AcDbEntity
  8
_U+30EC_U+30A4_U+30E4_U+30FC 1
 62
     7
420
 16777215
370
    25
100
AcDb2dPolyline
 66
     1
 10
0.0
 20
0.0
 30
0.0
  0
VERTEX
  5
78
330
77
100
AcDbEntity
  8
_U+30EC_U+30A4_U+30E4_U+30FC 1
 62
     7
420
 16777215
370
    25
100
AcDbVertex
100
AcDb2dVertex
 10
79.678351578347
 20
-122.5280830249235
 30
0.0
  0
VERTEX
  5
79
330
77
100
AcDbEntity
  8
_U+30EC_U+30A4_U+30E4_U+30FC 1
 62
     7
420
 16777215
370
    25
100
AcDbVertex
100
AcDb2dVertex
 10
79.678351578347
 20
-125.6545055241418
 30
0.0
  0
SEQEND
  5
7A
330
77
100
AcDbEntity
  8
_U+30EC_U+30A4_U+30E4_U+30FC 1
 62
     7
420
 16777215
370
    25
  0
POLYLINE
  5
7B
330
1F
100
AcDbEntity
  8
_U+30EC_U+30A4_U+30E4_U+30FC 1
 62
     7
420
 16777215
370
    25
100
AcDb2dPolyline
 66
     1
 10
0.0
 20
0.0
 30
0.0
  0
VERTEX
  5
7C
330
7B
100
AcDbEntity
  8
_U+30EC_U+30A4_U+30E4_U+30FC 1
 62
     7
420
 16777215
370
    25
100
AcDbVertex
100
AcDb2dVertex
 10
80.17823767670497
 20
-127.0280810793541
 30
0.0
  0
VERTEX
  5
7D
330
7B
100
AcDbEntity
  8
_U+30EC_U+30A4_U+30E4_U+30FC 1
 62
     7
420
 16777215
370
    25
100
AcDbVertex
100
AcDb2dVertex
 10
79.678351578347
 20
-125.6545055241418
 30
0.0
  0
SEQEND
  5
7E
330
7B
100
AcDbEntity
  8
_U+30EC_U+30A4_U+30E4_U+30FC 1
 62
     7
420
 16777215
370
    25
  0
POLYLINE
  5
7F
330
1F
100
AcDbEntity
  8
_U+30EC_U+30A4_U+30E4_U+30FC 1
 62
     7
420
 16777215
370
    25
100
AcDb2dPolyline
 66
     1
 10
0.0
 20
0.0
 30
0.0
  0
VERTEX
  5
80
330
7F
100
AcDbEntity
  8
_U+30EC_U+30A4_U+30E4_U+30FC 1
 62
     7
420
 16777215
370
    25
100
AcDbVertex
100
AcDb2dVertex
 10
92.05192598489305
 20
-138.0277627432708
 30
0.0
  0
VERTEX
  5
81
330
7F
100
AcDbEntity
  8
_U+30EC_U+30A4_U+30E4_U+30FC 1
 62
     7
420
 16777215
370
    25
100
AcDbVertex
100
AcDb2dVertex
 10
100.1781971664635
 20
-138.0277627432708
 30
0.0
  0
SEQEND
  5
82
330
7F
100
AcDbEntity
  8
_U+30EC_U+30A4_U+30E4_U+30FC 1
 62
     7
420
 16777215
370
    25
  0
POLYLINE
  5
83
330
1F
100
AcDbEntity
  8
_U+30EC_U+30A4_U+30E4_U+30FC 1
 62
     7
420
 16777215
370
    25
100
AcDb2dPolyline
 66
     1
 10
0.0
 20
0.0
 30
0.0
  0
VERTEX
  5
84
330
83
100
AcDbEntity
  8
_U+30EC_U+30A4_U+30E4_U+30FC 1
 62
     7
420
 16777215
370
    25
100
AcDbVertex
100
AcDb2dVertex
 10
90.67870553288601
 20
-137.5282294100626
 30
0.0
  0
VERTEX
  5
85
330
83
100
AcDbEntity
  8
_U+30EC_U+30A4_U+30E4_U+30FC 1
 62
     7
420
 16777215
370
    25
100
AcDbVertex
100
AcDb2dVertex
 10
92.05192598489305
 20
-138.0277627432708
 30
0.0
  0
SEQEND
  5
86
330
83
100
AcDbEntity
  8
_U+30EC_U+30A4_U+30E4_U+30FC 1
 62
     7
420
 16777215
370
    25
  0
POLYLINE
  5
87
330
1F
100
AcDbEntity
  8
_U+30EC_U+30A4_U+30E4_U+30FC 1
 62
     7
420
 16777215
370
    25
100
AcDb2dPolyline
 66
     1
 10
0.0
 20
0.0
 30
0.0
  0
VERTEX
  5
88
330
87
100
AcDbEntity
  8
_U+30EC_U+30A4_U+30E4_U+30FC 1
 62
     7
420
 16777215
370
    25
100
AcDbVertex
100
AcDb2dVertex
 10
82.30968567788275
 20
-136.245247188161
 30
0.0
  0
VERTEX
  5
89
330
87
100
AcDbEntity
  8
_U+30EC_U+30A4_U+30E4_U+30FC 1
 62
     7
420
 16777215
370
    25
100
AcDbVertex
100
AcDb2dVertex
 10
83.52669842461195
 20
-135.0277757995764
 30
0.0
  0
SEQEND
  5
8A
330
87
100
AcDbEntity
  8
_U+30EC_U+30A4_U+30E4_U+30FC 1
 62
     7
420
 16777215
370
    25
  0
POLYLINE
  5
8B
330
1F
100
AcDbEntity
  8
_U+30EC_U+30A4_U+30E4_U+30FC 1
 62
     7
420
 16777215
370
    25
100
AcDb2dPolyline
 66
     1
 10
0.0
 20
0.0
 30
0.0
  0
VERTEX
  5
8C
330
8B
100
AcDbEntity
  8
_U+30EC_U+30A4_U+30E4_U+30FC 1
 62
     7
420
 16777215
370
    25
100
AcDbVertex
100
AcDb2dVertex
 10
81.4611845884187
 20
-135.3963932994845
 30
0.0
  0
VERTEX
  5
8D
330
8B
100
AcDbEntity
  8
_U+30EC_U+30A4_U+30E4_U+30FC 1
 62
     7
420
 16777215
370
    25
100
AcDbVertex
100
AcDb2dVertex
 10
82.67851483513981
 20
-134.1795921886773
 30
0.0
  0
SEQEND
  5
8E
330
8B
100
AcDbEntity
  8
_U+30EC_U+30A4_U+30E4_U+30FC 1
 62
     7
420
 16777215
370
    25
  0
POLYLINE
  5
8F
330
1F
100
AcDbEntity
  8
_U+30EC_U+30A4_U+30E4_U+30FC 1
 62
     7
420
 16777215
370
    25
100
AcDb2dPolyline
 66
     1
 10
0.0
 20
0.0
 30
0.0
  0
VERTEX
  5
90
330
8F
100
AcDbEntity
  8
_U+30EC_U+30A4_U+30E4_U+30FC 1
 62
     7
420
 16777215
370
    25
100
AcDbVertex
100
AcDb2dVertex
 10
83.67825175407883
 20
-129.0277666344096
 30
0.0
  0
VERTEX
  5
91
330
8F
100
AcDbEntity
  8
_U+30EC_U+30A4_U+30E4_U+30FC 1
 62
     7
420
 16777215
370
    25
100
AcDbVertex
100
AcDb2dVertex
 10
83.17871843348966
 20
-127.0280810793541
 30
0.0
  0
SEQEND
  5
92
330
8F
100
AcDbEntity
  8
_U+30EC_U+30A4_U+30E4_U+30FC 1
 62
     7
420
 16777215
370
    25
  0
POLYLINE
  5
93
330
1F
100
AcDbEntity
  8
_U+30EC_U+30A4_U+30E4_U+30FC 1
 62
     7
420
 16777215
370
    25
100
AcDb2dPolyline
 66
     1
 10
0.0
 20
0.0
 30
0.0
  0
VERTEX
  5
94
330
93
100
AcDbEntity
  8
_U+30EC_U+30A4_U+30E4_U+30FC 1
 62
     7
420
 16777215
370
    25
100
AcDbVertex
100
AcDb2dVertex
 10
88.6784885709566
 20
-134.0280035776039
 30
0.0
  0
VERTEX
  5
95
330
93
100
AcDbEntity
  8
_U+30EC_U+30A4_U+30E4_U+30FC 1
 62
     7
420
 16777215
370
    25
100
AcDbVertex
100
AcDb2dVertex
 10
90.67870553288601
 20
-134.5275369108127
 30
0.0
  0
SEQEND
  5
96
330
93
100
AcDbEntity
  8
_U+30EC_U+30A4_U+30E4_U+30FC 1
 62
     7
420
 16777215
370
    25
  0
SPLINE
  5
97
330
1F
100
AcDbEntity
  8
_U+30EC_U+30A4_U+30E4_U+30FC 1
 62
     7
420
 16777215
370
    25
100
AcDbSpline
210
0.0
220
0.0
230
1.0
 70
     8
 71
     3
 72
     8
 73
     4
 74
     0
 42
0.0000000001
 43
0.0000000001
 12
1.0
 22
0.0
 32
0.0
 13
1.0
 23
0.0
 33
0.0
 40
0.0
 40
0.0
 40
0.0
 40
0.0
 40
1.0
 40
1.0
 40
1.0
 40
1.0
 10
79.678351578347
 20
-122.5280830249235
 30
0.0
 10
79.678351578347
 20
-122.2517874694371
 30
0.0
 10
79.45440825072694
 20
-122.0281969139372
 30
0.0
 10
79.17846547998906
 20
-122.0281969139372
 30
0.0
  0
SPLINE
  5
98
330
1F
100
AcDbEntity
  8
_U+30EC_U+30A4_U+30E4_U+30FC 1
 62
     7
420
 16777215
370
    25
100
AcDbSpline
210
0.0
220
0.0
230
1.0
 70
     8
 71
     3
 72
     8
 73
     4
 74
     0
 42
0.0000000001
 43
0.0000000001
 12
1.0
 22
0.0
 32
0.0
 13
1.0
 23
0.0
 33
0.0
 40
0.0
 40
0.0
 40
0.0
 40
0.0
 40
1.0
 40
1.0
 40
1.0
 40
1.0
 10
100.6784360425902
 20
-138.527966354257
 30
0.0
 10
100.6784360425902
 20
-138.2516707987705
 30
0.0
 10
100.4544927149702
 20
-138.0277627432708
 30
0.0
 10
100.1781971664635
 20
-138.0277627432708
 30
0.0
  0
SPLINE
  5
99
330
1F
100
AcDbEntity
  8
_U+30EC_U+30A4_U+30E4_U+30FC 1
 62
     7
420
 16777215
370
     9
100
AcDbSpline
210
0.0
220
0.0
230
1.0
 70
    11
 71
     3
 72
    17
 73
    13
 74
     0
 42
0.0000000001
 43
0.0000000001
 12
1.0
 22
0.0
 32
0.0
 13
1.0
 23
0.0
 33
0.0
 40
0.0
 40
0.0
 40
0.0
 40
0.0
 40
1.0
 40
1.0
 40
1.0
 40
2.0
 40
2.0
 40
2.0
 40
3.0
 40
3.0
 40
3.0
 40
4.0
 40
4.0
 40
4.0
 40
4.0
 10
75.2782603017138
 20
-122.0281969139372
 30
0.0
 10
75.2782603017138
 20
-121.9727402472846
 30
0.0
 10
75.23381030284781
 20
-121.9279727472957
 30
0.0
 10
75.17835553676106
 20
-121.9279727472957
 30
0.0
 10
75.12289697234412
 20
-121.9279727472957
 30
0.0
 10
75.07809419570935
 20
-121.9727402472846
 30
0.0
 10
75.07809419570935
 20
-122.0281969139372
 30
0.0
 10
75.07809419570935
 20
-122.0833360805903
 30
0.0
 10
75.12289697234412
 20
-122.1281035805792
 30
0.0
 10
75.17835553676106
 20
-122.1281035805792
 30
0.0
 10
75.23381030284781
 20
-122.1281035805792
 30
0.0
 10
75.2782603017138
 20
-122.0833360805903
 30
0.0
 10
75.2782603017138
 20
-122.0281969139372
 30
0.0
  0
SPLINE
  5
9A
330
1F
100
AcDbEntity
  8
_U+30EC_U+30A4_U+30E4_U+30FC 1
 62
     7
420
 16777215
370
     9
100
AcDbSpline
210
0.0
220
0.0
230
1.0
 70
    11
 71
     3
 72
    17
 73
    13
 74
     0
 42
0.0000000001
 43
0.0000000001
 12
1.0
 22
0.0
 32
0.0
 13
1.0
 23
0.0
 33
0.0
 40
0.0
 40
0.0
 40
0.0
 40
0.0
 40
1.0
 40
1.0
 40
1.0
 40
2.0
 40
2.0
 40
2.0
 40
3.0
 40
3.0
 40
3.0
 40
4.0
 40
4.0
 40
4.0
 40
4.0
 10
80.2781443408228
 20
-117.0278188596319
 30
0.0
 10
80.2781443408228
 20
-116.972714970757
 30
0.0
 10
80.23334156418804
 20
-116.9279121929903
 30
0.0
 10
80.17823767670497
 20
-116.9279121929903
 30
0.0
 10
80.12309851144502
 20
-116.9279121929903
 30
0.0
 10
80.07833101258713
 20
-116.972714970757
 30
0.0
 10
80.07833101258713
 20
-117.0278188596319
 30
0.0
 10
80.07833101258713
 20
-117.0832755262849
 30
0.0
 10
80.12309851144502
 20
-117.1280783040513
 30
0.0
 10
80.17823767670497
 20
-117.1280783040513
 30
0.0
 10
80.23334156418804
 20
-117.1280783040513
 30
0.0
 10
80.2781443408228
 20
-117.0832755262849
 30
0.0
 10
80.2781443408228
 20
-117.0278188596319
 30
0.0
  0
SPLINE
  5
9B
330
1F
100
AcDbEntity
  8
_U+30EC_U+30A4_U+30E4_U+30FC 1
 62
     7
420
 16777215
370
     9
100
AcDbSpline
210
0.0
220
0.0
230
1.0
 70
    11
 71
     3
 72
    17
 73
    13
 74
     0
 42
0.0000000001
 43
0.0000000001
 12
1.0
 22
0.0
 32
0.0
 13
1.0
 23
0.0
 33
0.0
 40
0.0
 40
0.0
 40
0.0
 40
0.0
 40
1.0
 40
1.0
 40
1.0
 40
2.0
 40
2.0
 40
2.0
 40
3.0
 40
3.0
 40
3.0
 40
4.0
 40
4.0
 40
4.0
 40
4.0
 10
82.77842149925763
 20
-117.0278188596319
 30
0.0
 10
82.77842149925763
 20
-116.972714970757
 30
0.0
 10
82.73361872262288
 20
-116.9279121929903
 30
0.0
 10
82.67851483513981
 20
-116.9279121929903
 30
0.0
 10
82.6233777571218
 20
-116.9279121929903
 30
0.0
 10
82.57860817102197
 20
-116.972714970757
 30
0.0
 10
82.57860817102197
 20
-117.0278188596319
 30
0.0
 10
82.57860817102197
 20
-117.0832755262849
 30
0.0
 10
82.6233777571218
 20
-117.1280783040513
 30
0.0
 10
82.67851483513981
 20
-117.1280783040513
 30
0.0
 10
82.73361872262288
 20
-117.1280783040513
 30
0.0
 10
82.77842149925763
 20
-117.0832755262849
 30
0.0
 10
82.77842149925763
 20
-117.0278188596319
 30
0.0
  0
SPLINE
  5
9C
330
1F
100
AcDbEntity
  8
_U+30EC_U+30A4_U+30E4_U+30FC 1
 62
     7
420
 16777215
370
     9
100
AcDbSpline
210
0.0
220
0.0
230
1.0
 70
    11
 71
     3
 72
    17
 73
    13
 74
     0
 42
0.0000000001
 43
0.0000000001
 12
1.0
 22
0.0
 32
0.0
 13
1.0
 23
0.0
 33
0.0
 40
0.0
 40
0.0
 40
0.0
 40
0.0
 40
1.0
 40
1.0
 40
1.0
 40
2.0
 40
2.0
 40
2.0
 40
3.0
 40
3.0
 40
3.0
 40
4.0
 40
4.0
 40
4.0
 40
4.0
 10
90.77860990626694
 20
-117.0278188596319
 30
0.0
 10
90.77860990626694
 20
-116.972714970757
 30
0.0
 10
90.73380712963217
 20
-116.9279121929903
 30
0.0
 10
90.67870553288601
 20
-116.9279121929903
 30
0.0
 10
90.62289379912848
 20
-116.9279121929903
 30
0.0
 10
90.57809102249371
 20
-116.972714970757
 30
0.0
 10
90.57809102249371
 20
-117.0278188596319
 30
0.0
 10
90.57809102249371
 20
-117.0832755262849
 30
0.0
 10
90.62289379912848
 20
-117.1280783040513
 30
0.0
 10
90.67870553288601
 20
-117.1280783040513
 30
0.0
 10
90.73380712963217
 20
-117.1280783040513
 30
0.0
 10
90.77860990626694
 20
-117.0832755262849
 30
0.0
 10
90.77860990626694
 20
-117.0278188596319
 30
0.0
  0
SPLINE
  5
9D
330
1F
100
AcDbEntity
  8
_U+30EC_U+30A4_U+30E4_U+30FC 1
 62
     7
420
 16777215
370
     9
100
AcDbSpline
210
0.0
220
0.0
230
1.0
 70
    11
 71
     3
 72
    17
 73
    13
 74
     0
 42
0.0000000001
 43
0.0000000001
 12
1.0
 22
0.0
 32
0.0
 13
1.0
 23
0.0
 33
0.0
 40
0.0
 40
0.0
 40
0.0
 40
0.0
 40
1.0
 40
1.0
 40
1.0
 40
2.0
 40
2.0
 40
2.0
 40
3.0
 40
3.0
 40
3.0
 40
4.0
 40
4.0
 40
4.0
 40
4.0
 10
105.7782267458171
 20
-127.0280810793541
 30
0.0
 10
105.7782267458171
 20
-126.9726244127014
 30
0.0
 10
105.7334239691823
 20
-126.9278216349347
 30
0.0
 10
105.6782848039223
 20
-126.9278216349347
 30
0.0
 10
105.6231809164393
 20
-126.9278216349347
 30
0.0
 10
105.5783781398045
 20
-126.9726244127014
 30
0.0
 10
105.5783781398045
 20
-127.0280810793541
 30
0.0
 10
105.5783781398045
 20
-127.0831849682293
 30
0.0
 10
105.6231809164393
 20
-127.1279877459957
 30
0.0
 10
105.6782848039223
 20
-127.1279877459957
 30
0.0
 10
105.7334239691823
 20
-127.1279877459957
 30
0.0
 10
105.7782267458171
 20
-127.0831849682293
 30
0.0
 10
105.7782267458171
 20
-127.0280810793541
 30
0.0
  0
SPLINE
  5
9E
330
1F
100
AcDbEntity
  8
_U+30EC_U+30A4_U+30E4_U+30FC 1
 62
     7
420
 16777215
370
     9
100
AcDbSpline
210
0.0
220
0.0
230
1.0
 70
    11
 71
     3
 72
    17
 73
    13
 74
     0
 42
0.0000000001
 43
0.0000000001
 12
1.0
 22
0.0
 32
0.0
 13
1.0
 23
0.0
 33
0.0
 40
0.0
 40
0.0
 40
0.0
 40
0.0
 40
1.0
 40
1.0
 40
1.0
 40
2.0
 40
2.0
 40
2.0
 40
3.0
 40
3.0
 40
3.0
 40
4.0
 40
4.0
 40
4.0
 40
4.0
 10
105.7782267458171
 20
-135.0277757995764
 30
0.0
 10
105.7782267458171
 20
-134.9726366329234
 30
0.0
 10
105.7334239691823
 20
-134.9278691329348
 30
0.0
 10
105.6782848039223
 20
-134.9278691329348
 30
0.0
 10
105.6231809164393
 20
-134.9278691329348
 30
0.0
 10
105.5783781398045
 20
-134.9726366329234
 30
0.0
 10
105.5783781398045
 20
-135.0277757995764
 30
0.0
 10
105.5783781398045
 20
-135.0828796884514
 30
0.0
 10
105.6231809164393
 20
-135.1276824662181
 30
0.0
 10
105.6782848039223
 20
-135.1276824662181
 30
0.0
 10
105.7334239691823
 20
-135.1276824662181
 30
0.0
 10
105.7782267458171
 20
-135.0828796884514
 30
0.0
 10
105.7782267458171
 20
-135.0277757995764
 30
0.0
  0
SPLINE
  5
9F
330
1F
100
AcDbEntity
  8
_U+30EC_U+30A4_U+30E4_U+30FC 1
 62
     7
420
 16777215
370
     9
100
AcDbSpline
210
0.0
220
0.0
230
1.0
 70
    11
 71
     3
 72
    17
 73
    13
 74
     0
 42
0.0000000001
 43
0.0000000001
 12
1.0
 22
0.0
 32
0.0
 13
1.0
 23
0.0
 33
0.0
 40
0.0
 40
0.0
 40
0.0
 40
0.0
 40
1.0
 40
1.0
 40
1.0
 40
2.0
 40
2.0
 40
2.0
 40
3.0
 40
3.0
 40
3.0
 40
4.0
 40
4.0
 40
4.0
 40
4.0
 10
105.7782267458171
 20
-137.5282294100626
 30
0.0
 10
105.7782267458171
 20
-137.4730902434095
 30
0.0
 10
105.7334239691823
 20
-137.4282874656428
 30
0.0
 10
105.6782848039223
 20
-137.4282874656428
 30
0.0
 10
105.6231809164393
 20
-137.4282874656428
 30
0.0
 10
105.5783781398045
 20
-137.4730902434095
 30
0.0
 10
105.5783781398045
 20
-137.5282294100626
 30
0.0
 10
105.5783781398045
 20
-137.5833332989375
 30
0.0
 10
105.6231809164393
 20
-137.6281360767042
 30
0.0
 10
105.6782848039223
 20
-137.6281360767042
 30
0.0
 10
105.7334239691823
 20
-137.6281360767042
 30
0.0
 10
105.7782267458171
 20
-137.5833332989375
 30
0.0
 10
105.7782267458171
 20
-137.5282294100626
 30
0.0
  0
SPLINE
  5
A0
330
1F
100
AcDbEntity
  8
_U+30EC_U+30A4_U+30E4_U+30FC 1
 62
     7
420
 16777215
370
     9
100
AcDbSpline
210
0.0
220
0.0
230
1.0
 70
    11
 71
     3
 72
    17
 73
    13
 74
     0
 42
0.0000000001
 43
0.0000000001
 12
1.0
 22
0.0
 32
0.0
 13
1.0
 23
0.0
 33
0.0
 40
0.0
 40
0.0
 40
0.0
 40
0.0
 40
1.0
 40
1.0
 40
1.0
 40
2.0
 40
2.0
 40
2.0
 40
3.0
 40
3.0
 40
3.0
 40
4.0
 40
4.0
 40
4.0
 40
4.0
 10
100.8782493708259
 20
-142.5277255199238
 30
0.0
 10
100.8782493708259
 20
-142.4726216310483
 30
0.0
 10
100.8334465941911
 20
-142.4278188532822
 30
0.0
 10
100.7783427067081
 20
-142.4278188532822
 30
0.0
 10
100.7232035414481
 20
-142.4278188532822
 30
0.0
 10
100.6784360425902
 20
-142.4726216310483
 30
0.0
 10
100.6784360425902
 20
-142.5277255199238
 30
0.0
 10
100.6784360425902
 20
-142.5835349643543
 30
0.0
 10
100.7232035414481
 20
-142.628337742121
 30
0.0
 10
100.7783427067081
 20
-142.628337742121
 30
0.0
 10
100.8334465941911
 20
-142.628337742121
 30
0.0
 10
100.8782493708259
 20
-142.5835349643543
 30
0.0
 10
100.8782493708259
 20
-142.5277255199238
 30
0.0
  0
SPLINE
  5
A1
330
1F
100
AcDbEntity
  8
_U+30EC_U+30A4_U+30E4_U+30FC 1
 62
     7
420
 16777215
370
     9
100
AcDbSpline
210
0.0
220
0.0
230
1.0
 70
    11
 71
     3
 72
    17
 73
    13
 74
     0
 42
0.0000000001
 43
0.0000000001
 12
1.0
 22
0.0
 32
0.0
 13
1.0
 23
0.0
 33
0.0
 40
0.0
 40
0.0
 40
0.0
 40
0.0
 40
1.0
 40
1.0
 40
1.0
 40
2.0
 40
2.0
 40
2.0
 40
3.0
 40
3.0
 40
3.0
 40
4.0
 40
4.0
 40
4.0
 40
4.0
 10
79.2783721441069
 20
-142.5277255199238
 30
0.0
 10
79.2783721441069
 20
-142.4726216310483
 30
0.0
 10
79.23356936747213
 20
-142.4278188532822
 30
0.0
 10
79.17846547998906
 20
-142.4278188532822
 30
0.0
 10
79.12332631472911
 20
-142.4278188532822
 30
0.0
 10
79.07855881587122
 20
-142.4726216310483
 30
0.0
 10
79.07855881587122
 20
-142.5277255199238
 30
0.0
 10
79.07855881587122
 20
-142.5835349643543
 30
0.0
 10
79.12332631472911
 20
-142.628337742121
 30
0.0
 10
79.17846547998906
 20
-142.628337742121
 30
0.0
 10
79.23356936747213
 20
-142.628337742121
 30
0.0
 10
79.2783721441069
 20
-142.5835349643543
 30
0.0
 10
79.2783721441069
 20
-142.5277255199238
 30
0.0
  0
SPLINE
  5
A2
330
1F
100
AcDbEntity
  8
_U+30EC_U+30A4_U+30E4_U+30FC 1
 62
     7
420
 16777215
370
     9
100
AcDbSpline
210
0.0
220
0.0
230
1.0
 70
    11
 71
     3
 72
    17
 73
    13
 74
     0
 42
0.0000000001
 43
0.0000000001
 12
1.0
 22
0.0
 32
0.0
 13
1.0
 23
0.0
 33
0.0
 40
0.0
 40
0.0
 40
0.0
 40
0.0
 40
1.0
 40
1.0
 40
1.0
 40
2.0
 40
2.0
 40
2.0
 40
3.0
 40
3.0
 40
3.0
 40
4.0
 40
4.0
 40
4.0
 40
4.0
 10
75.2782603017138
 20
-138.527966354257
 30
0.0
 10
75.2782603017138
 20
-138.4728624653821
 30
0.0
 10
75.23381030284781
 20
-138.4280596876153
 30
0.0
 10
75.17835553676106
 20
-138.4280596876153
 30
0.0
 10
75.12289697234412
 20
-138.4280596876153
 30
0.0
 10
75.07809419570935
 20
-138.4728624653821
 30
0.0
 10
75.07809419570935
 20
-138.527966354257
 30
0.0
 10
75.07809419570935
 20
-138.58310552091
 30
0.0
 10
75.12289697234412
 20
-138.6278730208986
 30
0.0
 10
75.17835553676106
 20
-138.6278730208986
 30
0.0
 10
75.23381030284781
 20
-138.6278730208986
 30
0.0
 10
75.2782603017138
 20
-138.58310552091
 30
0.0
 10
75.2782603017138
 20
-138.527966354257
 30
0.0
  0
POLYLINE
  5
A3
330
1F
100
AcDbEntity
  8
_U+30EC_U+30A4_U+30E4_U+30FC 1
 62
     7
420
 16777215
370
     9
100
AcDb2dPolyline
 66
     1
 10
0.0
 20
0.0
 30
0.0
  0
VERTEX
  5
A4
330
A3
100
AcDbEntity
  8
_U+30EC_U+30A4_U+30E4_U+30FC 1
 62
     7
420
 16777215
370
     9
100
AcDbVertex
100
AcDb2dVertex
 10
77.35601552648363
 20
-117.0278188596319
 30
0.0
  0
VERTEX
  5
A5
330
A3
100
AcDbEntity
  8
_U+30EC_U+30A4_U+30E4_U+30FC 1
 62
     7
420
 16777215
370
     9
100
AcDbVertex
100
AcDb2dVertex
 10
82.67851483513981
 20
-117.0278188596319
 30
0.0
  0
SEQEND
  5
A6
330
A3
100
AcDbEntity
  8
_U+30EC_U+30A4_U+30E4_U+30FC 1
 62
     7
420
 16777215
370
     9
  0
POLYLINE
  5
A7
330
1F
100
AcDbEntity
  8
_U+30EC_U+30A4_U+30E4_U+30FC 1
 62
     7
420
 16777215
370
     9
100
AcDb2dPolyline
 66
     1
 10
0.0
 20
0.0
 30
0.0
  0
VERTEX
  5
A8
330
A7
100
AcDbEntity
  8
_U+30EC_U+30A4_U+30E4_U+30FC 1
 62
     7
420
 16777215
370
     9
100
AcDbVertex
100
AcDb2dVertex
 10
80.17823767670497
 20
-124.4880105244335
 30
0.0
  0
VERTEX
  5
A9
330
A7
100
AcDbEntity
  8
_U+30EC_U+30A4_U+30E4_U+30FC 1
 62
     7
420
 16777215
370
     9
100
AcDbVertex
100
AcDb2dVertex
 10
80.17823767670497
 20
-116.0280466376597
 30
0.0
  0
SEQEND
  5
AA
330
A7
100
AcDbEntity
  8
_U+30EC_U+30A4_U+30E4_U+30FC 1
 62
     7
420
 16777215
370
     9
  0
POLYLINE
  5
AB
330
1F
100
AcDbEntity
  8
_U+30EC_U+30A4_U+30E4_U+30FC 1
 62
     7
420
 16777215
370
     9
100
AcDb2dPolyline
 66
     1
 10
0.0
 20
0.0
 30
0.0
  0
VERTEX
  5
AC
330
AB
100
AcDbEntity
  8
_U+30EC_U+30A4_U+30E4_U+30FC 1
 62
     7
420
 16777215
370
     9
100
AcDbVertex
100
AcDb2dVertex
 10
82.67851483513981
 20
-123.4880619135724
 30
0.0
  0
VERTEX
  5
AD
330
AB
100
AcDbEntity
  8
_U+30EC_U+30A4_U+30E4_U+30FC 1
 62
     7
420
 16777215
370
     9
100
AcDbVertex
100
AcDb2dVertex
 10
82.67851483513981
 20
-116.0280466376597
 30
0.0
  0
SEQEND
  5
AE
330
AB
100
AcDbEntity
  8
_U+30EC_U+30A4_U+30E4_U+30FC 1
 62
     7
420
 16777215
370
     9
  0
SPLINE
  5
AF
330
1F
100
AcDbEntity
  8
_U+30EC_U+30A4_U+30E4_U+30FC 1
 62
     7
420
 16777215
370
     9
100
AcDbSpline
210
0.0
220
0.0
230
1.0
 70
    11
 71
     3
 72
    17
 73
    13
 74
     0
 42
0.0000000001
 43
0.0000000001
 12
1.0
 22
0.0
 32
0.0
 13
1.0
 23
0.0
 33
0.0
 40
0.0
 40
0.0
 40
0.0
 40
0.0
 40
1.0
 40
1.0
 40
1.0
 40
2.0
 40
2.0
 40
2.0
 40
3.0
 40
3.0
 40
3.0
 40
4.0
 40
4.0
 40
4.0
 40
4.0
 10
83.77815841819667
 20
-117.0278188596319
 30
0.0
 10
83.77815841819667
 20
-116.972714970757
 30
0.0
 10
83.73339091933879
 20
-116.9279121929903
 30
0.0
 10
83.67825175407883
 20
-116.9279121929903
 30
0.0
 10
83.62314997909435
 20
-116.9279121929903
 30
0.0
 10
83.57834720132763
 20
-116.972714970757
 30
0.0
 10
83.57834720132763
 20
-117.0278188596319
 30
0.0
 10
83.57834720132763
 20
-117.0832755262849
 30
0.0
 10
83.62314997909435
 20
-117.1280783040513
 30
0.0
 10
83.67825175407883
 20
-117.1280783040513
 30
0.0
 10
83.73339091933879
 20
-117.1280783040513
 30
0.0
 10
83.77815841819667
 20
-117.0832755262849
 30
0.0
 10
83.77815841819667
 20
-117.0278188596319
 30
0.0
  0
POLYLINE
  5
B0
330
1F
100
AcDbEntity
  8
_U+30EC_U+30A4_U+30E4_U+30FC 1
 62
     7
420
 16777215
370
     9
100
AcDb2dPolyline
 66
     1
 10
0.0
 20
0.0
 30
0.0
  0
VERTEX
  5
B1
330
B0
100
AcDbEntity
  8
_U+30EC_U+30A4_U+30E4_U+30FC 1
 62
     7
420
 16777215
370
     9
100
AcDbVertex
100
AcDb2dVertex
 10
83.67825175407883
 20
-123.4880619135724
 30
0.0
  0
VERTEX
  5
B2
330
B0
100
AcDbEntity
  8
_U+30EC_U+30A4_U+30E4_U+30FC 1
 62
     7
420
 16777215
370
     9
100
AcDbVertex
100
AcDb2dVertex
 10
83.67825175407883
 20
-116.0280466376597
 30
0.0
  0
SEQEND
  5
B3
330
B0
100
AcDbEntity
  8
_U+30EC_U+30A4_U+30E4_U+30FC 1
 62
     7
420
 16777215
370
     9
  0
INSERT
  5
B5
330
1F
100
AcDbEntity
  8
_U+30EC_U+30A4_U+30E4_U+30FC 1
100
AcDbBlockReference
  2
block 2
 10
0.0
 20
0.0
 30
0.0
  0
POLYLINE
  5
C4
330
1F
100
AcDbEntity
  8
_U+30EC_U+30A4_U+30E4_U+30FC 1
 62
     7
420
 16777215
370
     9
100
AcDb2dPolyline
 66
     1
 10
0.0
 20
0.0
 30
0.0
  0
VERTEX
  5
C5
330
C4
100
AcDbEntity
  8
_U+30EC_U+30A4_U+30E4_U+30FC 1
 62
     7
420
 16777215
370
     9
100
AcDbVertex
100
AcDb2dVertex
 10
82.67851483513981
 20
-117.0278188596319
 30
0.0
  0
VERTEX
  5
C6
330
C4
100
AcDbEntity
  8
_U+30EC_U+30A4_U+30E4_U+30FC 1
 62
     7
420
 16777215
370
     9
100
AcDbVertex
100
AcDb2dVertex
 10
90.67870553288601
 20
-117.0278188596319
 30
0.0
  0
SEQEND
  5
C7
330
C4
100
AcDbEntity
  8
_U+30EC_U+30A4_U+30E4_U+30FC 1
 62
     7
420
 16777215
370
     9
  0
POLYLINE
  5
C8
330
1F
100
AcDbEntity
  8
_U+30EC_U+30A4_U+30E4_U+30FC 1
 62
     7
420
 16777215
370
     9
100
AcDb2dPolyline
 66
     1
 10
0.0
 20
0.0
 30
0.0
  0
VERTEX
  5
C9
330
C8
100
AcDbEntity
  8
_U+30EC_U+30A4_U+30E4_U+30FC 1
 62
     7
420
 16777215
370
     9
100
AcDbVertex
100
AcDb2dVertex
 10
90.67870553288601
 20
-130.9432441339309
 30
0.0
  0
VERTEX
  5
CA
330
C8
100
AcDbEntity
  8
_U+30EC_U+30A4_U+30E4_U+30FC 1
 62
     7
420
 16777215
370
     9
100
AcDbVertex
100
AcDb2dVertex
 10
90.67870553288601
 20
-116.0280466376597
 30
0.0
  0
SEQEND
  5
CB
330
C8
100
AcDbEntity
  8
_U+30EC_U+30A4_U+30E4_U+30FC 1
 62
     7
420
 16777215
370
     9
  0
INSERT
  5
CD
330
1F
100
AcDbEntity
  8
_U+30EC_U+30A4_U+30E4_U+30FC 1
100
AcDbBlockReference
  2
block 3
 10
0.0
 20
0.0
 30
0.0
  0
POLYLINE
  5
D2
330
1F
100
AcDbEntity
  8
_U+30EC_U+30A4_U+30E4_U+30FC 1
 62
     7
420
 16777215
370
     9
100
AcDb2dPolyline
 66
     1
 10
0.0
 20
0.0
 30
0.0
  0
VERTEX
  5
D3
330
D2
100
AcDbEntity
  8
_U+30EC_U+30A4_U+30E4_U+30FC 1
 62
     7
420
 16777215
370
     9
100
AcDbVertex
100
AcDb2dVertex
 10
75.17835553676106
 20
-138.527966354257
 30
0.0
  0
VERTEX
  5
D4
330
D2
100
AcDbEntity
  8
_U+30EC_U+30A4_U+30E4_U+30FC 1
 62
     7
420
 16777215
370
     9
100
AcDbVertex
100
AcDb2dVertex
 10
75.17835553676106
 20
-122.0281969139372
 30
0.0
  0
SEQEND
  5
D5
330
D2
100
AcDbEntity
  8
_U+30EC_U+30A4_U+30E4_U+30FC 1
 62
     7
420
 16777215
370
     9
  0
POLYLINE
  5
D6
330
1F
100
AcDbEntity
  8
_U+30EC_U+30A4_U+30E4_U+30FC 1
 62
     7
420
 16777215
370
     9
100
AcDb2dPolyline
 66
     1
 10
0.0
 20
0.0
 30
0.0
  0
VERTEX
  5
D7
330
D6
100
AcDbEntity
  8
_U+30EC_U+30A4_U+30E4_U+30FC 1
 62
     7
420
 16777215
370
     9
100
AcDbVertex
100
AcDb2dVertex
 10
80.63847155385231
 20
-138.527966354257
 30
0.0
  0
VERTEX
  5
D8
330
D6
100
AcDbEntity
  8
_U+30EC_U+30A4_U+30E4_U+30FC 1
 62
     7
420
 16777215
370
     9
100
AcDbVertex
100
AcDb2dVertex
 10
74.17823053701109
 20
-138.527966354257
 30
0.0
  0
SEQEND
  5
D9
330
D6
100
AcDbEntity
  8
_U+30EC_U+30A4_U+30E4_U+30FC 1
 62
     7
420
 16777215
370
     9
  0
POLYLINE
  5
DA
330
1F
100
AcDbEntity
  8
_U+30EC_U+30A4_U+30E4_U+30FC 1
 62
     7
420
 16777215
370
     9
100
AcDb2dPolyline
 66
     1
 10
0.0
 20
0.0
 30
0.0
  0
VERTEX
  5
DB
330
DA
100
AcDbEntity
  8
_U+30EC_U+30A4_U+30E4_U+30FC 1
 62
     7
420
 16777215
370
     9
100
AcDbVertex
100
AcDb2dVertex
 10
76.6383949892361
 20
-122.0281969139372
 30
0.0
  0
VERTEX
  5
DC
330
DA
100
AcDbEntity
  8
_U+30EC_U+30A4_U+30E4_U+30FC 1
 62
     7
420
 16777215
370
     9
100
AcDbVertex
100
AcDb2dVertex
 10
74.17823053701109
 20
-122.0281969139372
 30
0.0
  0
SEQEND
  5
DD
330
DA
100
AcDbEntity
  8
_U+30EC_U+30A4_U+30E4_U+30FC 1
 62
     7
420
 16777215
370
     9
  0
INSERT
  5
DF
330
1F
100
AcDbEntity
  8
_U+30EC_U+30A4_U+30E4_U+30FC 1
100
AcDbBlockReference
  2
block 4
 10
0.0
 20
0.0
 30
0.0
  0
POLYLINE
  5
F1
330
1F
100
AcDbEntity
  8
_U+30EC_U+30A4_U+30E4_U+30FC 1
 62
     7
420
 16777215
370
     9
100
AcDb2dPolyline
 66
     1
 10
0.0
 20
0.0
 30
0.0
  0
VERTEX
  5
F2
330
F1
100
AcDbEntity
  8
_U+30EC_U+30A4_U+30E4_U+30FC 1
 62
     7
420
 16777215
370
     9
100
AcDbVertex
100
AcDb2dVertex
 10
105.6782848039223
 20
-137.5282294100626
 30
0.0
  0
VERTEX
  5
F3
330
F1
100
AcDbEntity
  8
_U+30EC_U+30A4_U+30E4_U+30FC 1
 62
     7
420
 16777215
370
     9
100
AcDbVertex
100
AcDb2dVertex
 10
105.6782848039223
 20
-135.0277757995764
 30
0.0
  0
SEQEND
  5
F4
330
F1
100
AcDbEntity
  8
_U+30EC_U+30A4_U+30E4_U+30FC 1
 62
     7
420
 16777215
370
     9
  0
POLYLINE
  5
F5
330
1F
100
AcDbEntity
  8
_U+30EC_U+30A4_U+30E4_U+30FC 1
 62
     7
420
 16777215
370
     9
100
AcDb2dPolyline
 66
     1
 10
0.0
 20
0.0
 30
0.0
  0
VERTEX
  5
F6
330
F5
100
AcDbEntity
  8
_U+30EC_U+30A4_U+30E4_U+30FC 1
 62
     7
420
 16777215
370
     9
100
AcDbVertex
100
AcDb2dVertex
 10
93.21842095513328
 20
-137.5282294100626
 30
0.0
  0
VERTEX
  5
F7
330
F5
100
AcDbEntity
  8
_U+30EC_U+30A4_U+30E4_U+30FC 1
 62
     7
420
 16777215
370
     9
100
AcDbVertex
100
AcDb2dVertex
 10
106.6787625561758
 20
-137.5282294100626
 30
0.0
  0
SEQEND
  5
F8
330
F5
100
AcDbEntity
  8
_U+30EC_U+30A4_U+30E4_U+30FC 1
 62
     7
420
 16777215
370
     9
  0
POLYLINE
  5
F9
330
1F
100
AcDbEntity
  8
_U+30EC_U+30A4_U+30E4_U+30FC 1
 62
     7
420
 16777215
370
     9
100
AcDb2dPolyline
 66
     1
 10
0.0
 20
0.0
 30
0.0
  0
VERTEX
  5
FA
330
F9
100
AcDbEntity
  8
_U+30EC_U+30A4_U+30E4_U+30FC 1
 62
     7
420
 16777215
370
     9
100
AcDbVertex
100
AcDb2dVertex
 10
94.21854592961797
 20
-135.0277757995764
 30
0.0
  0
VERTEX
  5
FB
330
F9
100
AcDbEntity
  8
_U+30EC_U+30A4_U+30E4_U+30FC 1
 62
     7
420
 16777215
370
     9
100
AcDbVertex
100
AcDb2dVertex
 10
106.6787625561758
 20
-135.0277757995764
 30
0.0
  0
SEQEND
  5
FC
330
F9
100
AcDbEntity
  8
_U+30EC_U+30A4_U+30E4_U+30FC 1
 62
     7
420
 16777215
370
     9
  0
SPLINE
  5
FD
330
1F
100
AcDbEntity
  8
_U+30EC_U+30A4_U+30E4_U+30FC 1
 62
     7
420
 16777215
370
     9
100
AcDbSpline
210
0.0
220
0.0
230
1.0
 70
    11
 71
     3
 72
    17
 73
    13
 74
     0
 42
0.0000000001
 43
0.0000000001
 12
1.0
 22
0.0
 32
0.0
 13
1.0
 23
0.0
 33
0.0
 40
0.0
 40
0.0
 40
0.0
 40
0.0
 40
1.0
 40
1.0
 40
1.0
 40
2.0
 40
2.0
 40
2.0
 40
3.0
 40
3.0
 40
3.0
 40
4.0
 40
4.0
 40
4.0
 40
4.0
 10
105.7782267458171
 20
-134.0280035776039
 30
0.0
 10
105.7782267458171
 20
-133.9728644109514
 30
0.0
 10
105.7334239691823
 20
-133.9280969109623
 30
0.0
 10
105.6782848039223
 20
-133.9280969109623
 30
0.0
 10
105.6231809164393
 20
-133.9280969109623
 30
0.0
 10
105.5783781398045
 20
-133.9728644109514
 30
0.0
 10
105.5783781398045
 20
-134.0280035776039
 30
0.0
 10
105.5783781398045
 20
-134.0831074664794
 30
0.0
 10
105.6231809164393
 20
-134.1279102442455
 30
0.0
 10
105.6782848039223
 20
-134.1279102442455
 30
0.0
 10
105.7334239691823
 20
-134.1279102442455
 30
0.0
 10
105.7782267458171
 20
-134.0831074664794
 30
0.0
 10
105.7782267458171
 20
-134.0280035776039
 30
0.0
  0
POLYLINE
  5
FE
330
1F
100
AcDbEntity
  8
_U+30EC_U+30A4_U+30E4_U+30FC 1
 62
     7
420
 16777215
370
     9
100
AcDb2dPolyline
 66
     1
 10
0.0
 20
0.0
 30
0.0
  0
VERTEX
  5
FF
330
FE
100
AcDbEntity
  8
_U+30EC_U+30A4_U+30E4_U+30FC 1
 62
     7
420
 16777215
370
     9
100
AcDbVertex
100
AcDb2dVertex
 10
94.21854592961797
 20
-134.0280035776039
 30
0.0
  0
VERTEX
  5
100
330
FE
100
AcDbEntity
  8
_U+30EC_U+30A4_U+30E4_U+30FC 1
 62
     7
420
 16777215
370
     9
100
AcDbVertex
100
AcDb2dVertex
 10
106.6787625561758
 20
-134.0280035776039
 30
0.0
  0
SEQEND
  5
101
330
FE
100
AcDbEntity
  8
_U+30EC_U+30A4_U+30E4_U+30FC 1
 62
     7
420
 16777215
370
     9
  0
INSERT
  5
103
330
1F
100
AcDbEntity
  8
_U+30EC_U+30A4_U+30E4_U+30FC 1
100
AcDbBlockReference
  2
block 5
 10
0.0
 20
0.0
 30
0.0
  0
POLYLINE
  5
112
330
1F
100
AcDbEntity
  8
_U+30EC_U+30A4_U+30E4_U+30FC 1
 62
     7
420
 16777215
370
     9
100
AcDb2dPolyline
 66
     1
 10
0.0
 20
0.0
 30
0.0
  0
VERTEX
  5
113
330
112
100
AcDbEntity
  8
_U+30EC_U+30A4_U+30E4_U+30FC 1
 62
     7
420
 16777215
370
     9
100
AcDbVertex
100
AcDb2dVertex
 10
105.6782848039223
 20
-135.0277757995764
 30
0.0
  0
VERTEX
  5
114
330
112
100
AcDbEntity
  8
_U+30EC_U+30A4_U+30E4_U+30FC 1
 62
     7
420
 16777215
370
     9
100
AcDbVertex
100
AcDb2dVertex
 10
105.6782848039223
 20
-127.0280810793541
 30
0.0
  0
SEQEND
  5
115
330
112
100
AcDbEntity
  8
_U+30EC_U+30A4_U+30E4_U+30FC 1
 62
     7
420
 16777215
370
     9
  0
POLYLINE
  5
116
330
1F
100
AcDbEntity
  8
_U+30EC_U+30A4_U+30E4_U+30FC 1
 62
     7
420
 16777215
370
     9
100
AcDb2dPolyline
 66
     1
 10
0.0
 20
0.0
 30
0.0
  0
VERTEX
  5
117
330
116
100
AcDbEntity
  8
_U+30EC_U+30A4_U+30E4_U+30FC 1
 62
     7
420
 16777215
370
     9
100
AcDbVertex
100
AcDb2dVertex
 10
86.76248195317135
 20
-127.0280810793541
 30
0.0
  0
VERTEX
  5
118
330
116
100
AcDbEntity
  8
_U+30EC_U+30A4_U+30E4_U+30FC 1
 62
     7
420
 16777215
370
     9
100
AcDbVertex
100
AcDb2dVertex
 10
106.6787625561758
 20
-127.0280810793541
 30
0.0
  0
SEQEND
  5
119
330
116
100
AcDbEntity
  8
_U+30EC_U+30A4_U+30E4_U+30FC 1
 62
     7
420
 16777215
370
     9
  0
INSERT
  5
11B
330
1F
100
AcDbEntity
  8
_U+30EC_U+30A4_U+30E4_U+30FC 1
100
AcDbBlockReference
  2
block 6
 10
0.0
 20
0.0
 30
0.0
  0
POLYLINE
  5
120
330
1F
100
AcDbEntity
  8
_U+30EC_U+30A4_U+30E4_U+30FC 1
 62
     7
420
 16777215
370
     9
100
AcDb2dPolyline
 66
     1
 10
0.0
 20
0.0
 30
0.0
  0
VERTEX
  5
121
330
120
100
AcDbEntity
  8
_U+30EC_U+30A4_U+30E4_U+30FC 1
 62
     7
420
 16777215
370
     9
100
AcDbVertex
100
AcDb2dVertex
 10
79.17846547998906
 20
-142.5277255199238
 30
0.0
  0
VERTEX
  5
122
330
120
100
AcDbEntity
  8
_U+30EC_U+30A4_U+30E4_U+30FC 1
 62
     7
420
 16777215
370
     9
100
AcDbVertex
100
AcDb2dVertex
 10
100.7783427067081
 20
-142.5277255199238
 30
0.0
  0
SEQEND
  5
123
330
120
100
AcDbEntity
  8
_U+30EC_U+30A4_U+30E4_U+30FC 1
 62
     7
420
 16777215
370
     9
  0
POLYLINE
  5
124
330
1F
100
AcDbEntity
  8
_U+30EC_U+30A4_U+30E4_U+30FC 1
 62
     7
420
 16777215
370
     9
100
AcDb2dPolyline
 66
     1
 10
0.0
 20
0.0
 30
0.0
  0
VERTEX
  5
125
330
124
100
AcDbEntity
  8
_U+30EC_U+30A4_U+30E4_U+30FC 1
 62
     7
420
 16777215
370
     9
100
AcDbVertex
100
AcDb2dVertex
 10
79.17846547998906
 20
-137.0679602435108
 30
0.0
  0
VERTEX
  5
126
330
124
100
AcDbEntity
  8
_U+30EC_U+30A4_U+30E4_U+30FC 1
 62
     7
420
 16777215
370
     9
100
AcDbVertex
100
AcDb2dVertex
 10
79.17846547998906
 20
-143.5282032974513
 30
0.0
  0
SEQEND
  5
127
330
124
100
AcDbEntity
  8
_U+30EC_U+30A4_U+30E4_U+30FC 1
 62
     7
420
 16777215
370
     9
  0
POLYLINE
  5
128
330
1F
100
AcDbEntity
  8
_U+30EC_U+30A4_U+30E4_U+30FC 1
 62
     7
420
 16777215
370
     9
100
AcDb2dPolyline
 66
     1
 10
0.0
 20
0.0
 30
0.0
  0
VERTEX
  5
129
330
128
100
AcDbEntity
  8
_U+30EC_U+30A4_U+30E4_U+30FC 1
 62
     7
420
 16777215
370
     9
100
AcDbVertex
100
AcDb2dVertex
 10
100.7783427067081
 20
-141.0677194091777
 30
0.0
  0
VERTEX
  5
12A
330
128
100
AcDbEntity
  8
_U+30EC_U+30A4_U+30E4_U+30FC 1
 62
     7
420
 16777215
370
     9
100
AcDbVertex
100
AcDb2dVertex
 10
100.7783427067081
 20
-143.5282032974513
 30
0.0
  0
SEQEND
  5
12B
330
128
100
AcDbEntity
  8
_U+30EC_U+30A4_U+30E4_U+30FC 1
 62
     7
420
 16777215
370
     9
  0
INSERT
  5
12D
330
1F
100
AcDbEntity
  8
_U+30EC_U+30A4_U+30E4_U+30FC 1
100
AcDbBlockReference
  2
block 7
 10
0.0
 20
0.0
 30
0.0
  0
POLYLINE
  5
13E
330
1F
100
AcDbEntity
  8
_U+30EC_U+30A4_U+30E4_U+30FC 1
 62
     7
420
 16777215
370
     9
100
AcDb2dPolyline
 66
     1
 10
0.0
 20
0.0
 30
0.0
  0
VERTEX
  5
13F
330
13E
100
AcDbEntity
  8
_U+30EC_U+30A4_U+30E4_U+30FC 1
 62
     7
420
 16777215
370
     9
100
AcDbVertex
100
AcDb2dVertex
 10
79.17846547998906
 20
-118.8578535813966
 30
0.0
  0
VERTEX
  5
140
330
13E
100
AcDbEntity
  8
_U+30EC_U+30A4_U+30E4_U+30FC 1
 62
     7
420
 16777215
370
     9
100
AcDbVertex
100
AcDb2dVertex
 10
79.17846547998906
 20
-116.0482255265436
 30
0.0
  0
SEQEND
  5
141
330
13E
100
AcDbEntity
  8
_U+30EC_U+30A4_U+30E4_U+30FC 1
 62
     7
420
 16777215
370
     9
  0
INSERT
  5
143
330
1F
100
AcDbEntity
  8
_U+30EC_U+30A4_U+30E4_U+30FC 1
100
AcDbBlockReference
  2
block 8
 10
0.0
 20
0.0
 30
0.0
  0
SPLINE
  5
148
330
1F
100
AcDbEntity
  8
_U+30EC_U+30A4_U+30E4_U+30FC 1
 62
     7
420
 16777215
370
     9
100
AcDbSpline
210
0.0
220
0.0
230
1.0
 70
    11
 71
     3
 72
    17
 73
    13
 74
     0
 42
0.0000000001
 43
0.0000000001
 12
1.0
 22
0.0
 32
0.0
 13
1.0
 23
0.0
 33
0.0
 40
0.0
 40
0.0
 40
0.0
 40
0.0
 40
1.0
 40
1.0
 40
1.0
 40
2.0
 40
2.0
 40
2.0
 40
3.0
 40
3.0
 40
3.0
 40
4.0
 40
4.0
 40
4.0
 40
4.0
 10
79.27872492187566
 20
-117.027642470743
 30
0.0
 10
79.27872492187566
 20
-116.9725385818681
 30
0.0
 10
79.23392214524091
 20
-116.9277358041014
 30
0.0
 10
79.17878297998095
 20
-116.9277358041014
 30
0.0
 10
79.12297353696033
 20
-116.9277358041014
 30
0.0
 10
79.07820603810245
 20
-116.9725385818681
 30
0.0
 10
79.07820603810245
 20
-117.027642470743
 30
0.0
 10
79.07820603810245
 20
-117.0831344151735
 30
0.0
 10
79.12297353696033
 20
-117.1279019151624
 30
0.0
 10
79.17878297998095
 20
-117.1279019151624
 30
0.0
 10
79.23392214524091
 20
-117.1279019151624
 30
0.0
 10
79.27872492187566
 20
-117.0831344151735
 30
0.0
 10
79.27872492187566
 20
-117.027642470743
 30
0.0
  0
ENDSEC
  0
SECTION
  2
OBJECTS
  0
DICTIONARY
  5
C
330
0
100
AcDbDictionary
281
     1
  3
ACAD_GROUP
350
D
  3
ACAD_LAYOUT
350
1A
  3
ACAD_MATERIAL
350
3B
  3
ACAD_MLEADERSTYLE
350
14A
  3
ACAD_MLINESTYLE
350
17
  3
ACAD_PLOTSETTINGS
350
19
  3
ACAD_PLOTSTYLENAME
350
E
  3
ACAD_TABLESTYLE
350
149
  3
ACAD_VISUALSTYLE
350
2A
  0
SUN
  5
3F
330
29
100
AcDbSun
 90
        1
290
     0
 63
     7
421
 16777215
 40
1.0
291
     1
 91
  2455826
 92
 54000000
292
     0
 70
     2
 71
   256
280
     1
  0
DICTIONARY
  5
D
102
{ACAD_REACTORS
330
C
102
}
330
C
100
AcDbDictionary
281
     1
  0
DICTIONARY
  5
1A
102
{ACAD_REACTORS
330
C
102
}
330
C
100
AcDbDictionary
281
     1
  3
Layout1
350
1E
  3
Layout2
350
26
  3
Model
350
22
  0
DICTIONARY
  5
3B
102
{ACAD_REACTORS
330
C
102
}
330
C
100
AcDbDictionary
281
     1
  3
ByBlock
350
3D
  3
ByLayer
350
3C
  3
Global
350
3E
  0
DICTIONARY
  5
14A
102
{ACAD_REACTORS
330
C
102
}
330
C
100
AcDbDictionary
281
     1
  0
DICTIONARY
  5
17
102
{ACAD_REACTORS
330
C
102
}
330
C
100
AcDbDictionary
281
     1
  3
Standard
350
18
  0
DICTIONARY
  5
19
102
{ACAD_REACTORS
330
C
102
}
330
C
100
AcDbDictionary
281
     1
  0
ACDBDICTIONARYWDFLT
  5
E
102
{ACAD_REACTORS
330
C
102
}
330
C
100
AcDbDictionary
281
     1
  3
Normal
350
F
100
AcDbDictionaryWithDefault
340
F
  0
DICTIONARY
  5
149
102
{ACAD_REACTORS
330
C
102
}
330
C
100
AcDbDictionary
281
     1
  0
DICTIONARY
  5
2A
102
{ACAD_REACTORS
330
C
102
}
330
C
100
AcDbDictionary
281
     1
  3
2dWireframe
350
2F
  3
3D Hidden
350
31
  3
3dWireframe
350
30
  3
Basic
350
32
  3
Brighten
350
36
  3
ColorChange
350
3A
  3
Conceptual
350
34
  3
Dim
350
35
  3
Facepattern
350
39
  3
Flat
350
2B
  3
FlatWithEdges
350
2C
  3
Gouraud
350
2D
  3
GouraudWithEdges
350
2E
  3
Linepattern
350
38
  3
Realistic
350
33
  3
Thicken
350
37
  0
LAYOUT
  5
1E
102
{ACAD_REACTORS
330
1A
102
}
330
1A
100
AcDbPlotSettings
  1

  2
none_device
  4

  6

 40
0.0
 41
0.0
 42
0.0
 43
0.0
 44
0.0
 45
0.0
 46
0.0
 47
0.0
 48
0.0
 49
0.0
140
0.0
141
0.0
142
1.0
143
1.0
 70
   688
 72
     0
 73
     0
 74
     5
  7

 75
    16
 76
     0
 77
     2
 78
   300
147
1.0
148
0.0
149
0.0
100
AcDbLayout
  1
Layout1
 70
     1
 71
     1
 10
0.0
 20
0.0
 11
12.0
 21
9.0
 12
0.0
 22
0.0
 32
0.0
 14
1.000000000000000E+20
 24
1.000000000000000E+20
 34
1.000000000000000E+20
 15
-1.000000000000000E+20
 25
-1.000000000000000E+20
 35
-1.000000000000000E+20
146
0.0
 13
0.0
 23
0.0
 33
0.0
 16
1.0
 26
0.0
 36
0.0
 17
0.0
 27
1.0
 37
0.0
 76
     0
330
1B
  0
LAYOUT
  5
26
102
{ACAD_REACTORS
330
1A
102
}
330
1A
100
AcDbPlotSettings
  1

  2
none_device
  4

  6

 40
0.0
 41
0.0
 42
0.0
 43
0.0
 44
0.0
 45
0.0
 46
0.0
 47
0.0
 48
0.0
 49
0.0
140
0.0
141
0.0
142
1.0
143
1.0
 70
   688
 72
     0
 73
     0
 74
     5
  7

 75
    16
 76
     0
 77
     2
 78
   300
147
1.0
148
0.0
149
0.0
100
AcDbLayout
  1
Layout2
 70
     1
 71
     2
 10
0.0
 20
0.0
 11
0.0
 21
0.0
 12
0.0
 22
0.0
 32
0.0
 14
0.0
 24
0.0
 34
0.0
 15
0.0
 25
0.0
 35
0.0
146
0.0
 13
0.0
 23
0.0
 33
0.0
 16
1.0
 26
0.0
 36
0.0
 17
0.0
 27
1.0
 37
0.0
 76
     0
330
23
  0
LAYOUT
  5
22
102
{ACAD_REACTORS
330
1A
102
}
330
1A
100
AcDbPlotSettings
  1

  2
none_device
  4

  6

 40
0.0
 41
0.0
 42
0.0
 43
0.0
 44
0.0
 45
0.0
 46
0.0
 47
0.0
 48
0.0
 49
0.0
140
0.0
141
0.0
142
1.0
143
1.0
 70
  1712
 72
     0
 73
     0
 74
     0
  7

 75
     0
 76
     0
 77
     2
 78
   300
147
1.0
148
0.0
149
0.0
100
AcDbLayout
  1
Model
 70
     1
 71
     0
 10
0.0
 20
0.0
 11
12.0
 21
9.0
 12
0.0
 22
0.0
 32
0.0
 14
1.000000000000000E+20
 24
1.000000000000000E+20
 34
1.000000000000000E+20
 15
-1.000000000000000E+20
 25
-1.000000000000000E+20
 35
-1.000000000000000E+20
146
0.0
 13
0.0
 23
0.0
 33
0.0
 16
1.0
 26
0.0
 36
0.0
 17
0.0
 27
1.0
 37
0.0
 76
     0
330
1F
331
29
  0
MATERIAL
  5
3D
102
{ACAD_REACTORS
330
3B
102
}
330
3B
100
AcDbMaterial
  1
ByBlock
 72
     1
 94
      127
  0
MATERIAL
  5
3C
102
{ACAD_REACTORS
330
3B
102
}
330
3B
100
AcDbMaterial
  1
ByLayer
 72
     1
 94
      127
  0
MATERIAL
  5
3E
102
{ACAD_REACTORS
330
3B
102
}
330
3B
100
AcDbMaterial
  1
Global
 72
     1
 94
      127
  0
MLINESTYLE
  5
18
102
{ACAD_REACTORS
330
17
102
}
330
17
100
AcDbMlineStyle
  2
Standard
 70
     0
  3

 62
   256
 51
90.0
 52
90.0
 71
     2
 49
0.5
 62
   256
  6
BYLAYER
 49
-0.5
 62
   256
  6
BYLAYER
  0
ACDBPLACEHOLDER
  5
F
102
{ACAD_REACTORS
330
E
102
}
330
E
  0
VISUALSTYLE
  5
2F
102
{ACAD_REACTORS
330
2A
102
}
330
2A
100
AcDbVisualStyle
  2
2dWireframe
 70
     4
177
     2
291
     0
 71
     0
176
     1
 72
     2
176
     1
 73
     0
176
     1
 90
        0
176
     1
 40
-0.6
176
     1
 41
-30.0
176
     1
 62
     5
 63
     7
421
 16777215
176
     1
 74
     1
176
     1
 91
        4
176
     1
 64
     7
176
     1
 65
   257
176
     1
 75
     1
176
     1
175
     1
176
     1
 42
1.0
176
     1
 92
        0
176
     1
 66
   257
176
     1
 43
1.0
176
     1
 76
     1
176
     1
 77
     6
176
     1
 78
     2
176
     1
 67
     7
176
     1
 79
     5
176
     1
170
     0
176
     1
171
     0
176
     1
290
     0
176
     1
 93
        1
176
     1
 44
0.0
176
     1
173
     0
176
     1
  0
VISUALSTYLE
  5
31
102
{ACAD_REACTORS
330
2A
102
}
330
2A
100
AcDbVisualStyle
  2
3D Hidden
 70
     6
177
     2
291
     0
 71
     1
176
     1
 72
     2
176
     1
 73
     2
176
     1
 90
        0
176
     1
 40
-0.6
176
     1
 41
-30.0
176
     1
 62
     5
 63
     7
421
 16777215
176
     1
 74
     2
176
     1
 91
        2
176
     1
 64
     7
176
     1
 65
   257
176
     1
 75
     2
176
     1
175
     1
176
     1
 42
40.0
176
     1
 92
        0
176
     1
 66
   257
176
     1
 43
1.0
176
     1
 76
     1
176
     1
 77
     6
176
     1
 78
     2
176
     1
 67
     7
176
     1
 79
     3
176
     1
170
     0
176
     1
171
     0
176
     1
290
     0
176
     1
 93
        1
176
     1
 44
0.0
176
     1
173
     0
176
     1
  0
VISUALSTYLE
  5
30
102
{ACAD_REACTORS
330
2A
102
}
330
2A
100
AcDbVisualStyle
  2
3dWireframe
 70
     5
177
     2
291
     0
 71
     0
176
     1
 72
     2
176
     1
 73
     0
176
     1
 90
        0
176
     1
 40
-0.6
176
     1
 41
-30.0
176
     1
 62
     5
 63
     7
421
 16777215
176
     1
 74
     1
176
     1
 91
        4
176
     1
 64
     7
176
     1
 65
   257
176
     1
 75
     1
176
     1
175
     1
176
     1
 42
1.0
176
     1
 92
        0
176
     1
 66
   257
176
     1
 43
1.0
176
     1
 76
     1
176
     1
 77
     6
176
     1
 78
     2
176
     1
 67
     7
176
     1
 79
     5
176
     1
170
     0
176
     1
171
     0
176
     1
290
     0
176
     1
 93
        1
176
     1
 44
0.0
176
     1
173
     0
176
     1
  0
VISUALSTYLE
  5
32
102
{ACAD_REACTORS
330
2A
102
}
330
2A
100
AcDbVisualStyle
  2
Basic
 70
     7
177
     2
291
     1
 71
     1
176
     1
 72
     0
176
     1
 73
     1
176
     1
 90
        0
176
     1
 40
-0.6
176
     1
 41
-30.0
176
     1
 62
     5
 63
     7
421
 16777215
176
     1
 74
     0
176
     1
 91
        4
176
     1
 64
     7
176
     1
 65
   257
176
     1
 75
     1
176
     1
175
     1
176
     1
 42
1.0
176
     1
 92
        8
176
     1
 66
     7
176
     1
 43
1.0
176
     1
 76
     1
176
     1
 77
     6
176
     1
 78
     2
176
     1
 67
     7
176
     1
 79
     5
176
     1
170
     0
176
     1
171
     0
176
     1
290
     0
176
     1
 93
        1
176
     1
 44
0.0
176
     1
173
     0
176
     1
  0
VISUALSTYLE
  5
36
102
{ACAD_REACTORS
330
2A
102
}
330
2A
100
AcDbVisualStyle
  2
Brighten
 70
    12
177
     2
291
     1
 71
     2
176
     1
 72
     2
176
     1
 73
     0
176
     1
 90
        0
176
     1
 40
-0.6
176
     1
 41
-30.0
176
     1
 62
     5
 63
     7
421
 16777215
176
     1
 74
     1
176
     1
 91
        4
176
     1
 64
     7
176
     1
 65
   257
176
     1
 75
     1
176
     1
175
     1
176
     1
 42
1.0
176
     1
 92
        8
176
     1
 66
     7
176
     1
 43
1.0
176
     1
 76
     1
176
     1
 77
     6
176
     1
 78
     2
176
     1
 67
     7
176
     1
 79
     5
176
     1
170
     0
176
     1
171
     0
176
     1
290
     0
176
     1
 93
        1
176
     1
 44
50.0
176
     1
173
     0
176
     1
  0
VISUALSTYLE
  5
3A
102
{ACAD_REACTORS
330
2A
102
}
330
2A
100
AcDbVisualStyle
  2
ColorChange
 70
    16
177
     2
291
     1
 71
     2
176
     1
 72
     2
176
     1
 73
     3
176
     1
 90
        0
176
     1
 40
-0.6
176
     1
 41
-30.0
176
     1
 62
     5
 63
     8
421
  8421504
176
     1
 74
     1
176
     1
 91
        4
176
     1
 64
     7
176
     1
 65
   257
176
     1
 75
     1
176
     1
175
     1
176
     1
 42
1.0
176
     1
 92
        8
176
     1
 66
     8
424
  8421504
176
     1
 43
1.0
176
     1
 76
     1
176
     1
 77
     6
176
     1
 78
     2
176
     1
 67
     7
176
     1
 79
     5
176
     1
170
     0
176
     1
171
     0
176
     1
290
     0
176
     1
 93
        1
176
     1
 44
0.0
176
     1
173
     0
176
     1
  0
VISUALSTYLE
  5
34
102
{ACAD_REACTORS
330
2A
102
}
330
2A
100
AcDbVisualStyle
  2
Conceptual
 70
     9
177
     2
291
     0
 71
     3
176
     1
 72
     2
176
     1
 73
     0
176
     1
 90
        0
176
     1
 40
-0.6
176
     1
 41
-30.0
176
     1
 62
     5
 63
     7
421
 16777215
176
     1
 74
     2
176
     1
 91
        2
176
     1
 64
     7
176
     1
 65
   257
176
     1
 75
     1
176
     1
175
     1
176
     1
 42
40.0
176
     1
 92
        8
176
     1
 66
     7
176
     1
 43
1.0
176
     1
 76
     1
176
     1
 77
     6
176
     1
 78
     2
176
     1
 67
     7
176
     1
 79
     3
176
     1
170
     0
176
     1
171
     0
176
     1
290
     0
176
     1
 93
        1
176
     1
 44
0.0
176
     1
173
     0
176
     1
  0
VISUALSTYLE
  5
35
102
{ACAD_REACTORS
330
2A
102
}
330
2A
100
AcDbVisualStyle
  2
Dim
 70
    11
177
     2
291
     1
 71
     2
176
     1
 72
     2
176
     1
 73
     0
176
     1
 90
        0
176
     1
 40
-0.6
176
     1
 41
-30.0
176
     1
 62
     5
 63
     7
421
 16777215
176
     1
 74
     1
176
     1
 91
        4
176
     1
 64
     7
176
     1
 65
   257
176
     1
 75
     1
176
     1
175
     1
176
     1
 42
1.0
176
     1
 92
        8
176
     1
 66
     7
176
     1
 43
1.0
176
     1
 76
     1
176
     1
 77
     6
176
     1
 78
     2
176
     1
 67
     7
176
     1
 79
     5
176
     1
170
     0
176
     1
171
     0
176
     1
290
     0
176
     1
 93
        1
176
     1
 44
-50.0
176
     1
173
     0
176
     1
  0
VISUALSTYLE
  5
39
102
{ACAD_REACTORS
330
2A
102
}
330
2A
100
AcDbVisualStyle
  2
Facepattern
 70
    15
177
     2
291
     1
 71
     2
176
     1
 72
     2
176
     1
 73
     0
176
     1
 90
        0
176
     1
 40
-0.6
176
     1
 41
-30.0
176
     1
 62
     5
 63
     7
421
 16777215
176
     1
 74
     1
176
     1
 91
        4
176
     1
 64
     7
176
     1
 65
   257
176
     1
 75
     1
176
     1
175
     1
176
     1
 42
1.0
176
     1
 92
        8
176
     1
 66
     7
176
     1
 43
1.0
176
     1
 76
     1
176
     1
 77
     6
176
     1
 78
     2
176
     1
 67
     7
176
     1
 79
     5
176
     1
170
     0
176
     1
171
     0
176
     1
290
     0
176
     1
 93
        1
176
     1
 44
0.0
176
     1
173
     0
176
     1
  0
VISUALSTYLE
  5
2B
102
{ACAD_REACTORS
330
2A
102
}
330
2A
100
AcDbVisualStyle
  2
Flat
 70
     0
177
     2
291
     1
 71
     2
176
     1
 72
     1
176
     1
 73
     1
176
     1
 90
        2
176
     1
 40
-0.6
176
     1
 41
30.0
176
     1
 62
     5
 63
     7
421
 16777215
176
     1
 74
     0
176
     1
 91
        4
176
     1
 64
     7
176
     1
 65
   257
176
     1
 75
     1
176
     1
175
     1
176
     1
 42
1.0
176
     1
 92
        8
176
     1
 66
     7
176
     1
 43
1.0
176
     1
 76
     1
176
     1
 77
     6
176
     1
 78
     2
176
     1
 67
     7
176
     1
 79
     5
176
     1
170
     0
176
     1
171
     0
176
     1
290
     0
176
     1
 93
       13
176
     1
 44
0.0
176
     1
173
     0
176
     1
  0
VISUALSTYLE
  5
2C
102
{ACAD_REACTORS
330
2A
102
}
330
2A
100
AcDbVisualStyle
  2
FlatWithEdges
 70
     1
177
     2
291
     1
 71
     2
176
     1
 72
     1
176
     1
 73
     1
176
     1
 90
        2
176
     1
 40
-0.6
176
     1
 41
30.0
176
     1
 62
     5
 63
     7
421
 16777215
176
     1
 74
     1
176
     1
 91
        4
176
     1
 64
     7
176
     1
 65
   257
176
     1
 75
     1
176
     1
175
     1
176
     1
 42
1.0
176
     1
 92
        0
176
     1
 66
   257
176
     1
 43
1.0
176
     1
 76
     1
176
     1
 77
     6
176
     1
 78
     2
176
     1
 67
     7
176
     1
 79
     5
176
     1
170
     0
176
     1
171
     0
176
     1
290
     0
176
     1
 93
       13
176
     1
 44
0.0
176
     1
173
     0
176
     1
  0
VISUALSTYLE
  5
2D
102
{ACAD_REACTORS
330
2A
102
}
330
2A
100
AcDbVisualStyle
  2
Gouraud
 70
     2
177
     2
291
     1
 71
     2
176
     1
 72
     2
176
     1
 73
     1
176
     1
 90
        2
176
     1
 40
-0.6
176
     1
 41
30.0
176
     1
 62
     5
 63
     7
421
 16777215
176
     1
 74
     0
176
     1
 91
        4
176
     1
 64
     7
176
     1
 65
   257
176
     1
 75
     1
176
     1
175
     1
176
     1
 42
1.0
176
     1
 92
        0
176
     1
 66
     7
176
     1
 43
1.0
176
     1
 76
     1
176
     1
 77
     6
176
     1
 78
     2
176
     1
 67
     7
176
     1
 79
     5
176
     1
170
     0
176
     1
171
     0
176
     1
290
     0
176
     1
 93
       13
176
     1
 44
0.0
176
     1
173
     0
176
     1
  0
VISUALSTYLE
  5
2E
102
{ACAD_REACTORS
330
2A
102
}
330
2A
100
AcDbVisualStyle
  2
GouraudWithEdges
 70
     3
177
     2
291
     1
 71
     2
176
     1
 72
     2
176
     1
 73
     1
176
     1
 90
        2
176
     1
 40
-0.6
176
     1
 41
30.0
176
     1
 62
     5
 63
     7
421
 16777215
176
     1
 74
     1
176
     1
 91
        4
176
     1
 64
     7
176
     1
 65
   257
176
     1
 75
     1
176
     1
175
     1
176
     1
 42
1.0
176
     1
 92
        0
176
     1
 66
   257
176
     1
 43
1.0
176
     1
 76
     1
176
     1
 77
     6
176
     1
 78
     2
176
     1
 67
     7
176
     1
 79
     5
176
     1
170
     0
176
     1
171
     0
176
     1
290
     0
176
     1
 93
       13
176
     1
 44
0.0
176
     1
173
     0
176
     1
  0
VISUALSTYLE
  5
38
102
{ACAD_REACTORS
330
2A
102
}
330
2A
100
AcDbVisualStyle
  2
Linepattern
 70
    14
177
     2
291
     1
 71
     2
176
     1
 72
     2
176
     1
 73
     0
176
     1
 90
        0
176
     1
 40
-0.6
176
     1
 41
-30.0
176
     1
 62
     5
 63
     7
421
 16777215
176
     1
 74
     1
176
     1
 91
        4
176
     1
 64
     7
176
     1
 65
   257
176
     1
 75
     7
176
     1
175
     7
176
     1
 42
1.0
176
     1
 92
        8
176
     1
 66
     7
176
     1
 43
1.0
176
     1
 76
     1
176
     1
 77
     6
176
     1
 78
     2
176
     1
 67
     7
176
     1
 79
     5
176
     1
170
     0
176
     1
171
     0
176
     1
290
     0
176
     1
 93
        1
176
     1
 44
0.0
176
     1
173
     0
176
     1
  0
VISUALSTYLE
  5
33
102
{ACAD_REACTORS
330
2A
102
}
330
2A
100
AcDbVisualStyle
  2
Realistic
 70
     8
177
     2
291
     0
 71
     2
176
     1
 72
     2
176
     1
 73
     0
176
     1
 90
        0
176
     1
 40
-0.6
176
     1
 41
-30.0
176
     1
 62
     5
 63
     7
421
 16777215
176
     1
 74
     1
176
     1
 91
        0
176
     1
 64
     7
176
     1
 65
   257
176
     1
 75
     1
176
     1
175
     1
176
     1
 42
1.0
176
     1
 92
        8
176
     1
 66
     8
424
  7895160
176
     1
 43
1.0
176
     1
 76
     1
176
     1
 77
     6
176
     1
 78
     2
176
     1
 67
     7
176
     1
 79
     5
176
     1
170
     0
176
     1
171
     0
176
     1
290
     0
176
     1
 93
       13
176
     1
 44
0.0
176
     1
173
     0
176
     1
  0
VISUALSTYLE
  5
37
102
{ACAD_REACTORS
330
2A
102
}
330
2A
100
AcDbVisualStyle
  2
Thicken
 70
    13
177
     2
291
     1
 71
     2
176
     1
 72
     2
176
     1
 73
     0
176
     1
 90
        0
176
     1
 40
-0.6
176
     1
 41
-30.0
176
     1
 62
     5
 63
     7
421
 16777215
176
     1
 74
     1
176
     1
 91
        4
176
     1
 64
     7
176
     1
 65
   257
176
     1
 75
     1
176
     1
175
     1
176
     1
 42
1.0
176
     1
 92
       12
176
     1
 66
     7
176
     1
 43
1.0
176
     1
 76
     1
176
     1
 77
     6
176
     1
 78
     2
176
     1
 67
     7
176
     1
 79
     5
176
     1
170
     0
176
     1
171
     0
176
     1
290
     0
176
     1
 93
        1
176
     1
 44
0.0
176
     1
173
     0
176
     1
  0
ENDSEC
  0
EOF
