  0
SECTION
  2
HEADER
  9
$ACADVER
  1
AC1024
  9
$ACADMAINTVER
 70
     6
  9
$DWGCODEPAGE
  3
UNDEFINED
  9
$INSBASE
 10
0.0
 20
0.0
 30
0.0
  9
$EXTMIN
 10
1.000000000000000E+20
 20
1.000000000000000E+20
 30
1.000000000000000E+20
  9
$EXTMAX
 10
-1.000000000000000E+20
 20
-1.000000000000000E+20
 30
-1.000000000000000E+20
  9
$LIMMIN
 10
0.0
 20
0.0
  9
$LIMMAX
 10
12.0
 20
9.0
  9
$ORTHOMODE
 70
     0
  9
$REGENMODE
 70
     1
  9
$FILLMODE
 70
     1
  9
$QTEXTMODE
 70
     0
  9
$MIRRTEXT
 70
     1
  9
$LTSCALE
 40
1.0
  9
$ATTMODE
 70
     1
  9
$TEXTSIZE
 40
0.2
  9
$TRACEWID
 40
0.05
  9
$TEXTSTYLE
  7
Standard
  9
$CLAYER
  8
0
  9
$CELTYPE
  6
ByLayer
  9
$CECOLOR
 62
   256
  9
$CELTSCALE
 40
1.0
  9
$DISPSILH
 70
     0
  9
$DIMSCALE
 40
1.0
  9
$DIMASZ
 40
0.18
  9
$DIMEXO
 40
0.0625
  9
$DIMDLI
 40
0.38
  9
$DIMRND
 40
0.0
  9
$DIMDLE
 40
0.0
  9
$DIMEXE
 40
0.18
  9
$DIMTP
 40
0.0
  9
$DIMTM
 40
0.0
  9
$DIMTXT
 40
0.18
  9
$DIMCEN
 40
0.09
  9
$DIMTSZ
 40
0.0
  9
$DIMTOL
 70
     0
  9
$DIMLIM
 70
     0
  9
$DIMTIH
 70
     1
  9
$DIMTOH
 70
     1
  9
$DIMSE1
 70
     0
  9
$DIMSE2
 70
     0
  9
$DIMTAD
 70
     0
  9
$DIMZIN
 70
     0
  9
$DIMBLK
  1

  9
$DIMASO
 70
     1
  9
$DIMSHO
 70
     1
  9
$DIMPOST
  1

  9
$DIMAPOST
  1

  9
$DIMALT
 70
     0
  9
$DIMALTD
 70
     2
  9
$DIMALTF
 40
25.4
  9
$DIMLFAC
 40
1.0
  9
$DIMTOFL
 70
     0
  9
$DIMTVP
 40
0.0
  9
$DIMTIX
 70
     0
  9
$DIMSOXD
 70
     0
  9
$DIMSAH
 70
     0
  9
$DIMBLK1
  1

  9
$DIMBLK2
  1

  9
$DIMSTYLE
  2
Standard
  9
$DIMCLRD
 70
     0
  9
$DIMCLRE
 70
     0
  9
$DIMCLRT
 70
     0
  9
$DIMTFAC
 40
1.0
  9
$DIMGAP
 40
0.09
  9
$DIMJUST
 70
     0
  9
$DIMSD1
 70
     0
  9
$DIMSD2
 70
     0
  9
$DIMTOLJ
 70
     1
  9
$DIMTZIN
 70
     0
  9
$DIMALTZ
 70
     0
  9
$DIMALTTZ
 70
     0
  9
$DIMUPT
 70
     0
  9
$DIMDEC
 70
     4
  9
$DIMTDEC
 70
     4
  9
$DIMALTU
 70
     2
  9
$DIMALTTD
 70
     2
  9
$DIMTXSTY
  7
Standard
  9
$DIMAUNIT
 70
     0
  9
$DIMADEC
 70
     0
  9
$DIMALTRND
 40
0.0
  9
$DIMAZIN
 70
     0
  9
$DIMDSEP
 70
    46
  9
$DIMATFIT
 70
     3
  9
$DIMFRAC
 70
     0
  9
$DIMLDRBLK
  1

  9
$DIMLUNIT
 70
     2
  9
$DIMLWD
 70
    -2
  9
$DIMLWE
 70
    -2
  9
$DIMTMOVE
 70
     0
  9
$DIMFXL
 40
1.0
  9
$DIMFXLON
 70
     0
  9
$DIMJOGANG
 40
0.7853981633974483
  9
$DIMTFILL
 70
     0
  9
$DIMTFILLCLR
 70
     0
  9
$DIMARCSYM
 70
     0
  9
$DIMLTYPE
  6

  9
$DIMLTEX1
  6

  9
$DIMLTEX2
  6

  9
$DIMTXTDIRECTION
 70
     0
  9
$LUNITS
 70
     2
  9
$LUPREC
 70
     4
  9
$SKETCHINC
 40
0.1
  9
$FILLETRAD
 40
0.5
  9
$AUNITS
 70
     0
  9
$AUPREC
 70
     0
  9
$MENU
  1
.
  9
$ELEVATION
 40
0.0
  9
$PELEVATION
 40
0.0
  9
$THICKNESS
 40
0.0
  9
$LIMCHECK
 70
     0
  9
$CHAMFERA
 40
0.5
  9
$CHAMFERB
 40
0.5
  9
$CHAMFERC
 40
1.0
  9
$CHAMFERD
 40
0.0
  9
$SKPOLY
 70
     0
  9
$TDCREATE
 40
2457917.622685174
  9
$TDUCREATE
 40
2457917.247685185
  9
$TDUPDATE
 40
2457917.622685174
  9
$TDUUPDATE
 40
2457917.247685185
  9
$TDINDWG
 40
0.0000000116
  9
$TDUSRTIMER
 40
0.0000000116
  9
$USRTIMER
 70
     1
  9
$ANGBASE
 50
0.0
  9
$ANGDIR
 70
     0
  9
$PDMODE
 70
     0
  9
$PDSIZE
 40
0.0
  9
$PLINEWID
 40
0.0
  9
$SPLFRAME
 70
     0
  9
$SPLINETYPE
 70
     6
  9
$SPLINESEGS
 70
     8
  9
$HANDSEED
  5
AA
  9
$SURFTAB1
 70
     6
  9
$SURFTAB2
 70
     6
  9
$SURFTYPE
 70
     6
  9
$SURFU
 70
     6
  9
$SURFV
 70
     6
  9
$UCSBASE
  2

  9
$UCSNAME
  2

  9
$UCSORG
 10
0.0
 20
0.0
 30
0.0
  9
$UCSXDIR
 10
1.0
 20
0.0
 30
0.0
  9
$UCSYDIR
 10
0.0
 20
1.0
 30
0.0
  9
$UCSORTHOREF
  2

  9
$UCSORTHOVIEW
 70
     0
  9
$UCSORGTOP
 10
0.0
 20
0.0
 30
0.0
  9
$UCSORGBOTTOM
 10
0.0
 20
0.0
 30
0.0
  9
$UCSORGLEFT
 10
0.0
 20
0.0
 30
0.0
  9
$UCSORGRIGHT
 10
0.0
 20
0.0
 30
0.0
  9
$UCSORGFRONT
 10
0.0
 20
0.0
 30
0.0
  9
$UCSORGBACK
 10
0.0
 20
0.0
 30
0.0
  9
$PUCSBASE
  2

  9
$PUCSNAME
  2

  9
$PUCSORG
 10
0.0
 20
0.0
 30
0.0
  9
$PUCSXDIR
 10
1.0
 20
0.0
 30
0.0
  9
$PUCSYDIR
 10
0.0
 20
1.0
 30
0.0
  9
$PUCSORTHOREF
  2

  9
$PUCSORTHOVIEW
 70
     0
  9
$PUCSORGTOP
 10
0.0
 20
0.0
 30
0.0
  9
$PUCSORGBOTTOM
 10
0.0
 20
0.0
 30
0.0
  9
$PUCSORGLEFT
 10
0.0
 20
0.0
 30
0.0
  9
$PUCSORGRIGHT
 10
0.0
 20
0.0
 30
0.0
  9
$PUCSORGFRONT
 10
0.0
 20
0.0
 30
0.0
  9
$PUCSORGBACK
 10
0.0
 20
0.0
 30
0.0
  9
$USERI1
 70
     0
  9
$USERI2
 70
     0
  9
$USERI3
 70
     0
  9
$USERI4
 70
     0
  9
$USERI5
 70
     0
  9
$USERR1
 40
0.0
  9
$USERR2
 40
0.0
  9
$USERR3
 40
0.0
  9
$USERR4
 40
0.0
  9
$USERR5
 40
0.0
  9
$WORLDVIEW
 70
     1
  9
$SHADEDGE
 70
     3
  9
$SHADEDIF
 70
    70
  9
$TILEMODE
 70
     1
  9
$MAXACTVP
 70
    64
  9
$PINSBASE
 10
0.0
 20
0.0
 30
0.0
  9
$PLIMCHECK
 70
     0
  9
$PEXTMIN
 10
1.000000000000000E+20
 20
1.000000000000000E+20
 30
1.000000000000000E+20
  9
$PEXTMAX
 10
-1.000000000000000E+20
 20
-1.000000000000000E+20
 30
-1.000000000000000E+20
  9
$PLIMMIN
 10
0.0
 20
0.0
  9
$PLIMMAX
 10
12.0
 20
9.0
  9
$UNITMODE
 70
     0
  9
$VISRETAIN
 70
     1
  9
$PLINEGEN
 70
     0
  9
$PSLTSCALE
 70
     1
  9
$TREEDEPTH
 70
  3020
  9
$CMLSTYLE
  2
Standard
  9
$CMLJUST
 70
     0
  9
$CMLSCALE
 40
1.0
  9
$PROXYGRAPHICS
 70
     1
  9
$MEASUREMENT
 70
     0
  9
$CELWEIGHT
370
    -1
  9
$ENDCAPS
280
     0
  9
$JOINSTYLE
280
     0
  9
$LWDISPLAY
290
     1
  9
$INSUNITS
 70
     1
  9
$HYPERLINKBASE
  1

  9
$STYLESHEET
  1

  9
$XEDIT
290
     1
  9
$CEPSNTYPE
380
     0
  9
$PSTYLEMODE
290
     1
  9
$FINGERPRINTGUID
  2
{B05FC609-8C37-E09C-4711-4034CF3E5935}
  9
$VERSIONGUID
  2
{FAEB1C32-E019-11D5-929B-00C0DF256EC4}
  9
$EXTNAMES
290
     1
  9
$PSVPSCALE
 40
0.0
  9
$OLESTARTUP
290
     0
  9
$SORTENTS
280
   127
  9
$INDEXCTL
280
     0
  9
$HIDETEXT
280
     1
  9
$XCLIPFRAME
280
     2
  9
$HALOGAP
280
     0
  9
$OBSCOLOR
 70
   257
  9
$OBSLTYPE
280
     0
  9
$INTERSECTIONDISPLAY
280
     0
  9
$INTERSECTIONCOLOR
 70
   257
  9
$DIMASSOC
280
     2
  9
$PROJECTNAME
  1

  9
$CAMERADISPLAY
290
     0
  9
$LENSLENGTH
 40
50.0
  9
$CAMERAHEIGHT
 40
0.0
  9
$STEPSPERSEC
 40
2.0
  9
$STEPSIZE
 40
6.0
  9
$3DDWFPREC
 40
2.0
  9
$PSOLWIDTH
 40
0.25
  9
$PSOLHEIGHT
 40
4.0
  9
$LOFTANG1
 40
1.570796326794897
  9
$LOFTANG2
 40
1.570796326794897
  9
$LOFTMAG1
 40
0.0
  9
$LOFTMAG2
 40
0.0
  9
$LOFTPARAM
 70
     7
  9
$LOFTNORMALS
280
     1
  9
$LATITUDE
 40
37.795
  9
$LONGITUDE
 40
-122.394
  9
$NORTHDIRECTION
 40
0.0
  9
$TIMEZONE
 70
 -8000
  9
$LIGHTGLYPHDISPLAY
280
     1
  9
$TILEMODELIGHTSYNCH
280
     1
  9
$CMATERIAL
347
3C
  9
$SOLIDHIST
280
     1
  9
$SHOWHIST
280
     1
  9
$DWFFRAME
280
     2
  9
$DGNFRAME
280
     2
  9
$REALWORLDSCALE
290
     1
  9
$INTERFERECOLOR
 62
   256
  9
$CSHADOW
280
     0
  9
$SHADOWPLANELOCATION
 40
0.0
  0
ENDSEC
  0
SECTION
  2
CLASSES
  0
CLASS
  1
ACDBDICTIONARYWDFLT
  2
AcDbDictionaryWithDefault
  3
ObjectDBX Classes
 90
        0
 91
        4
280
     0
281
     0
  0
CLASS
  1
VISUALSTYLE
  2
AcDbVisualStyle
  3
ObjectDBX Classes
 90
     4095
 91
        4
280
     0
281
     0
  0
CLASS
  1
MATERIAL
  2
AcDbMaterial
  3
ObjectDBX Classes
 90
     1153
 91
        4
280
     0
281
     0
  0
CLASS
  1
SUN
  2
AcDbSun
  3
SCENEOE
 90
     1024
 91
        4
280
     0
281
     0
  0
ENDSEC
  0
SECTION
  2
TABLES
  0
TABLE
  2
VPORT
  5
8
330
0
100
AcDbSymbolTable
 70
     1
  0
VPORT
  5
29
330
8
100
AcDbSymbolTableRecord
100
AcDbViewportTableRecord
  2
*Active
 70
     0
 10
0.0
 20
0.0
 11
1.0
 21
1.0
 12
0.0
 22
0.0
 13
0.0
 23
0.0
 14
0.5
 24
0.5
 15
0.5
 25
0.5
 16
0.0
 26
0.0
 36
1.0
 17
91.00082462281999
 27
-128.4993055234307
 37
0.0
 40
256.9986110468615
 41
0.7081814508812795
 42
50.0
 43
0.0
 44
0.0
 50
0.0
 51
0.0
 71
     0
 72
   100
 73
     1
 74
     3
 75
     0
 76
     0
 77
     0
 78
     0
281
     0
 65
     1
110
0.0
120
0.0
130
0.0
111
1.0
121
0.0
131
0.0
112
0.0
122
1.0
132
0.0
 79
     0
146
0.0
 60
     3
 61
     5
292
     1
282
     1
141
0.0
142
0.0
 63
   250
361
3F
  0
ENDTAB
  0
TABLE
  2
LTYPE
  5
5
330
0
100
AcDbSymbolTable
 70
     1
  0
LTYPE
  5
14
330
5
100
AcDbSymbolTableRecord
100
AcDbLinetypeTableRecord
  2
ByBlock
 70
     0
  3

 72
    65
 73
     0
 40
0.0
  0
LTYPE
  5
15
330
5
100
AcDbSymbolTableRecord
100
AcDbLinetypeTableRecord
  2
ByLayer
 70
     0
  3

 72
    65
 73
     0
 40
0.0
  0
LTYPE
  5
16
330
5
100
AcDbSymbolTableRecord
100
AcDbLinetypeTableRecord
  2
Continuous
 70
     0
  3
Solid line
 72
    65
 73
     0
 40
0.0
  0
ENDTAB
  0
TABLE
  2
LAYER
  5
2
330
0
100
AcDbSymbolTable
 70
     2
  0
LAYER
  5
10
330
2
100
AcDbSymbolTableRecord
100
AcDbLayerTableRecord
  2
0
 70
     0
 62
     7
  6
Continuous
370
    -3
390
F
347
3E
  0
LAYER
  5
40
330
2
100
AcDbSymbolTableRecord
100
AcDbLayerTableRecord
  2
_U+30EC_U+30A4_U+30E4_U+30FC 1
 70
     0
 62
     7
  6
Continuous
370
    -3
390
F
347
3E
  0
ENDTAB
  0
TABLE
  2
STYLE
  5
3
330
0
100
AcDbSymbolTable
 70
     1
  0
STYLE
  5
11
330
3
100
AcDbSymbolTableRecord
100
AcDbTextStyleTableRecord
  2
Standard
 70
     0
 40
0.0
 41
1.0
 50
0.0
 71
     0
 42
0.2
  3
txt
  4

  0
ENDTAB
  0
TABLE
  2
VIEW
  5
6
330
0
100
AcDbSymbolTable
 70
     0
  0
ENDTAB
  0
TABLE
  2
UCS
  5
7
330
0
100
AcDbSymbolTable
 70
     0
  0
ENDTAB
  0
TABLE
  2
APPID
  5
9
330
0
100
AcDbSymbolTable
 70
     1
  0
APPID
  5
12
330
9
100
AcDbSymbolTableRecord
100
AcDbRegAppTableRecord
  2
ACAD
 70
     0
  0
ENDTAB
  0
TABLE
  2
DIMSTYLE
  5
A
330
0
100
AcDbSymbolTable
 70
     1
100
AcDbDimStyleTable
  0
DIMSTYLE
105
27
330
A
100
AcDbSymbolTableRecord
100
AcDbDimStyleTableRecord
  2
Standard
 70
     0
178
     0
340
11
  0
ENDTAB
  0
TABLE
  2
BLOCK_RECORD
  5
1
330
0
100
AcDbSymbolTable
 70
     6
  0
BLOCK_RECORD
  5
1F
330
1
100
AcDbSymbolTableRecord
100
AcDbBlockTableRecord
  2
*Model_Space
340
22
 70
     0
280
     1
281
     0
  0
BLOCK_RECORD
  5
1B
330
1
100
AcDbSymbolTableRecord
100
AcDbBlockTableRecord
  2
*Paper_Space
340
1E
 70
     0
280
     1
281
     0
  0
BLOCK_RECORD
  5
23
330
1
100
AcDbSymbolTableRecord
100
AcDbBlockTableRecord
  2
*Paper_Space0
340
26
 70
     0
280
     1
281
     0
  0
BLOCK_RECORD
  5
54
330
1
100
AcDbSymbolTableRecord
100
AcDbBlockTableRecord
  2
block 2
340
0
102
{BLKREFS
331
55
102
}
 70
     0
280
     1
281
     0
  0
BLOCK_RECORD
  5
64
330
1
100
AcDbSymbolTableRecord
100
AcDbBlockTableRecord
  2
block 3
340
0
102
{BLKREFS
331
65
102
}
 70
     0
280
     1
281
     0
  0
BLOCK_RECORD
  5
6C
330
1
100
AcDbSymbolTableRecord
100
AcDbBlockTableRecord
  2
block 4
340
0
102
{BLKREFS
331
6D
102
}
 70
     0
280
     1
281
     0
  0
BLOCK_RECORD
  5
87
330
1
100
AcDbSymbolTableRecord
100
AcDbBlockTableRecord
  2
block 5
340
0
102
{BLKREFS
331
88
102
}
 70
     0
280
     1
281
     0
  0
BLOCK_RECORD
  5
9E
330
1
100
AcDbSymbolTableRecord
100
AcDbBlockTableRecord
  2
block 6
340
0
102
{BLKREFS
331
9F
102
}
 70
     0
280
     1
281
     0
  0
ENDTAB
  0
ENDSEC
  0
SECTION
  2
BLOCKS
  0
BLOCK
  5
20
330
1F
100
AcDbEntity
  8
0
100
AcDbBlockBegin
  2
*Model_Space
 70
     0
 10
0.0
 20
0.0
 30
0.0
  3
*Model_Space
  1

  0
ENDBLK
  5
21
330
1F
100
AcDbEntity
  8
0
100
AcDbBlockEnd
  0
BLOCK
  5
1C
330
1B
100
AcDbEntity
 67
     1
  8
0
100
AcDbBlockBegin
  2
*Paper_Space
 70
     0
 10
0.0
 20
0.0
 30
0.0
  3
*Paper_Space
  1

  0
ENDBLK
  5
1D
330
1B
100
AcDbEntity
 67
     1
  8
0
100
AcDbBlockEnd
  0
BLOCK
  5
24
330
23
100
AcDbEntity
  8
0
100
AcDbBlockBegin
  2
*Paper_Space0
 70
     0
 10
0.0
 20
0.0
 30
0.0
  3
*Paper_Space0
  1

  0
ENDBLK
  5
25
330
23
100
AcDbEntity
  8
0
100
AcDbBlockEnd
  0
BLOCK
  5
56
330
54
100
AcDbEntity
  8
0
100
AcDbBlockBegin
  2
block 2
 70
     0
 10
0.0
 20
0.0
 30
0.0
  3
block 2
  1

  0
SPLINE
  5
58
330
54
100
AcDbEntity
  8
_U+30EC_U+30A4_U+30E4_U+30FC 1
370
     0
100
AcDbSpline
210
0.0
220
0.0
230
1.0
 70
    11
 71
     3
 72
    62
 73
    58
 74
     0
 42
0.0000000001
 43
0.0000000001
 12
1.0
 22
0.0
 32
0.0
 13
1.0
 23
0.0
 33
0.0
 40
0.0
 40
0.0
 40
0.0
 40
0.0
 40
1.0
 40
1.0
 40
1.0
 40
2.0
 40
2.0
 40
2.0
 40
3.0
 40
3.0
 40
3.0
 40
4.0
 40
4.0
 40
4.0
 40
5.0
 40
5.0
 40
5.0
 40
6.0
 40
6.0
 40
6.0
 40
7.0
 40
7.0
 40
7.0
 40
8.0
 40
8.0
 40
8.0
 40
9.0
 40
9.0
 40
9.0
 40
10.0
 40
10.0
 40
10.0
 40
11.0
 40
11.0
 40
11.0
 40
12.0
 40
12.0
 40
12.0
 40
13.0
 40
13.0
 40
13.0
 40
14.0
 40
14.0
 40
14.0
 40
15.0
 40
15.0
 40
15.0
 40
16.0
 40
16.0
 40
16.0
 40
17.0
 40
17.0
 40
17.0
 40
18.0
 40
18.0
 40
18.0
 40
19.0
 40
19.0
 40
19.0
 40
19.0
 10
105.1977131898464
 20
-132.7491753140349
 30
0.0
 10
105.1977131898464
 20
-132.8508056308498
 30
0.0
 10
105.1766981073864
 20
-133.0836940856527
 30
0.0
 10
104.9906629511829
 20
-133.2170192809319
 30
0.0
 10
104.8783528383638
 20
-133.2962564770926
 30
0.0
 10
104.7791340883886
 20
-133.3007351012234
 30
0.0
 10
104.6943847394514
 20
-133.3052137253543
 30
0.0
 10
104.6943847394514
 20
-133.3052137253543
 30
0.0
 10
104.6943847394514
 20
-133.0702582132602
 30
0.0
 10
104.6943847394514
 20
-133.0702582132602
 30
0.0
 10
104.7684542923843
 20
-133.0678466464205
 30
0.0
 10
105.0030652949298
 20
-133.0564778313192
 30
0.0
 10
105.0030652949298
 20
-132.7536539381658
 30
0.0
 10
105.0030652949298
 20
-132.6065483609456
 30
0.0
 10
104.9334743661278
 20
-132.4439398540418
 30
0.0
 10
104.7050645354557
 20
-132.4439398540418
 30
0.0
 10
104.5886203080542
 20
-132.4439398540418
 30
0.0
 10
104.5400444617122
 20
-132.4845919807678
 30
0.0
 10
104.5083495832479
 20
-132.5183539165232
 30
0.0
 10
104.4342800303151
 20
-132.5975911126839
 30
0.0
 10
104.4215331770196
 20
-132.7219590597014
 30
0.0
 10
104.4215331770196
 20
-132.7808701924992
 30
0.0
 10
104.4215331770196
 20
-132.8011962558622
 30
0.0
 10
104.4236002343108
 20
-132.8394368157485
 30
0.0
 10
104.4277343488931
 20
-132.8690646369216
 30
0.0
 10
104.4277343488931
 20
-132.8690646369216
 30
0.0
 10
104.2330864539765
 20
-132.8690646369216
 30
0.0
 10
104.2330864539765
 20
-132.8690646369216
 30
0.0
 10
104.2396321353984
 20
-132.8284125101957
 30
0.0
 10
104.2416991926896
 20
-132.7829372497904
 30
0.0
 10
104.2416991926896
 20
-132.7763915683684
 30
0.0
 10
104.2416991926896
 20
-132.7061116204693
 30
0.0
 10
104.220339600681
 20
-132.4935492290294
 30
0.0
 10
103.9836615408444
 20
-132.4935492290294
 30
0.0
 10
103.8058946138055
 20
-132.4935492290294
 30
0.0
 10
103.7507730860415
 20
-132.6337646152791
 30
0.0
 10
103.7507730860415
 20
-132.7512423713261
 30
0.0
 10
103.7507730860415
 20
-133.0340847106651
 30
0.0
 10
103.9836615408444
 20
-133.0430419589268
 30
0.0
 10
104.0553195269376
 20
-133.0475205830576
 30
0.0
 10
104.0553195269376
 20
-133.0475205830576
 30
0.0
 10
104.0553195269376
 20
-133.2645615986283
 30
0.0
 10
104.0553195269376
 20
-133.2645615986283
 30
0.0
 10
103.9306070703715
 20
-133.2556043503667
 30
0.0
 10
103.5540581338337
 20
-133.226321038742
 30
0.0
 10
103.5540581338337
 20
-132.7378064989336
 30
0.0
 10
103.5540581338337
 20
-132.4980278531602
 30
0.0
 10
103.6811821572394
 20
-132.2403347108635
 30
0.0
 10
103.9771158594224
 20
-132.2403347108635
 30
0.0
 10
104.1634955251744
 20
-132.2403347108635
 30
0.0
 10
104.2458333072719
 20
-132.3423095372269
 30
0.0
 10
104.3071560069093
 20
-132.4484184781726
 30
0.0
 10
104.3347167707913
 20
-132.3829616639529
 30
0.0
 10
104.4149874955976
 20
-132.1883137690363
 30
0.0
 10
104.6923176821603
 20
-132.1883137690363
 30
0.0
 10
105.0306260588118
 20
-132.1883137690363
 30
0.0
 10
105.1977131898464
 20
-132.4528971023034
 30
0.0
 10
105.1977131898464
 20
-132.7491753140349
 30
0.0
  0
HATCH
  5
59
330
54
100
AcDbEntity
  8
_U+30EC_U+30A4_U+30E4_U+30FC 1
 62
     7
420
 16777215
100
AcDbHatch
 10
0.0
 20
0.0
 30
0.0
210
0.0
220
0.0
230
1.0
  2
SOLID
 70
     1
 71
     0
 91
        1
 92
        1
 93
        1
 72
     4
 94
        3
 73
     0
 74
     1
 95
       62
 96
       58
 40
0.0
 40
0.0
 40
0.0
 40
0.0
 40
1.0
 40
1.0
 40
1.0
 40
2.0
 40
2.0
 40
2.0
 40
3.0
 40
3.0
 40
3.0
 40
4.0
 40
4.0
 40
4.0
 40
5.0
 40
5.0
 40
5.0
 40
6.0
 40
6.0
 40
6.0
 40
7.0
 40
7.0
 40
7.0
 40
8.0
 40
8.0
 40
8.0
 40
9.0
 40
9.0
 40
9.0
 40
10.0
 40
10.0
 40
10.0
 40
11.0
 40
11.0
 40
11.0
 40
12.0
 40
12.0
 40
12.0
 40
13.0
 40
13.0
 40
13.0
 40
14.0
 40
14.0
 40
14.0
 40
15.0
 40
15.0
 40
15.0
 40
16.0
 40
16.0
 40
16.0
 40
17.0
 40
17.0
 40
17.0
 40
18.0
 40
18.0
 40
18.0
 40
19.0
 40
19.0
 40
19.0
 40
19.0
 10
105.1977131898464
 20
-132.7491753140349
 10
105.1977131898464
 20
-132.8508056308498
 10
105.1766981073864
 20
-133.0836940856527
 10
104.9906629511829
 20
-133.2170192809319
 10
104.8783528383638
 20
-133.2962564770926
 10
104.7791340883886
 20
-133.3007351012234
 10
104.6943847394514
 20
-133.3052137253543
 10
104.6943847394514
 20
-133.3052137253543
 10
104.6943847394514
 20
-133.0702582132602
 10
104.6943847394514
 20
-133.0702582132602
 10
104.7684542923843
 20
-133.0678466464205
 10
105.0030652949298
 20
-133.0564778313192
 10
105.0030652949298
 20
-132.7536539381658
 10
105.0030652949298
 20
-132.6065483609456
 10
104.9334743661278
 20
-132.4439398540418
 10
104.7050645354557
 20
-132.4439398540418
 10
104.5886203080542
 20
-132.4439398540418
 10
104.5400444617122
 20
-132.4845919807678
 10
104.5083495832479
 20
-132.5183539165232
 10
104.4342800303151
 20
-132.5975911126839
 10
104.4215331770196
 20
-132.7219590597014
 10
104.4215331770196
 20
-132.7808701924992
 10
104.4215331770196
 20
-132.8011962558622
 10
104.4236002343108
 20
-132.8394368157485
 10
104.4277343488931
 20
-132.8690646369216
 10
104.4277343488931
 20
-132.8690646369216
 10
104.2330864539765
 20
-132.8690646369216
 10
104.2330864539765
 20
-132.8690646369216
 10
104.2396321353984
 20
-132.8284125101957
 10
104.2416991926896
 20
-132.7829372497904
 10
104.2416991926896
 20
-132.7763915683684
 10
104.2416991926896
 20
-132.7061116204693
 10
104.220339600681
 20
-132.4935492290294
 10
103.9836615408444
 20
-132.4935492290294
 10
103.8058946138055
 20
-132.4935492290294
 10
103.7507730860415
 20
-132.6337646152791
 10
103.7507730860415
 20
-132.7512423713261
 10
103.7507730860415
 20
-133.0340847106651
 10
103.9836615408444
 20
-133.0430419589268
 10
104.0553195269376
 20
-133.0475205830576
 10
104.0553195269376
 20
-133.0475205830576
 10
104.0553195269376
 20
-133.2645615986283
 10
104.0553195269376
 20
-133.2645615986283
 10
103.9306070703715
 20
-133.2556043503667
 10
103.5540581338337
 20
-133.226321038742
 10
103.5540581338337
 20
-132.7378064989336
 10
103.5540581338337
 20
-132.4980278531602
 10
103.6811821572394
 20
-132.2403347108635
 10
103.9771158594224
 20
-132.2403347108635
 10
104.1634955251744
 20
-132.2403347108635
 10
104.2458333072719
 20
-132.3423095372269
 10
104.3071560069093
 20
-132.4484184781726
 10
104.3347167707913
 20
-132.3829616639529
 10
104.4149874955976
 20
-132.1883137690363
 10
104.6923176821603
 20
-132.1883137690363
 10
105.0306260588118
 20
-132.1883137690363
 10
105.1977131898464
 20
-132.4528971023034
 10
105.1977131898464
 20
-132.7491753140349
 97
        0
 97
        0
 75
     2
 76
     1
 98
        0
  0
POLYLINE
  5
5A
330
54
100
AcDbEntity
  8
_U+30EC_U+30A4_U+30E4_U+30FC 1
370
     0
100
AcDb2dPolyline
 66
     1
 10
0.0
 20
0.0
 30
0.0
  0
VERTEX
  5
5B
330
5A
100
AcDbEntity
  8
_U+30EC_U+30A4_U+30E4_U+30FC 1
370
     0
100
AcDbVertex
100
AcDb2dVertex
 10
105.1470702862132
 20
-131.9526692378452
 30
0.0
  0
VERTEX
  5
5C
330
5A
100
AcDbEntity
  8
_U+30EC_U+30A4_U+30E4_U+30FC 1
370
     0
100
AcDbVertex
100
AcDb2dVertex
 10
104.8952338062415
 20
-131.9526692378452
 30
0.0
  0
VERTEX
  5
5D
330
5A
100
AcDbEntity
  8
_U+30EC_U+30A4_U+30E4_U+30FC 1
370
     0
100
AcDbVertex
100
AcDb2dVertex
 10
104.8952338062415
 20
-131.6836072804471
 30
0.0
  0
VERTEX
  5
5E
330
5A
100
AcDbEntity
  8
_U+30EC_U+30A4_U+30E4_U+30FC 1
370
     0
100
AcDbVertex
100
AcDb2dVertex
 10
105.1470702862132
 20
-131.6836072804471
 30
0.0
  0
VERTEX
  5
5F
330
5A
100
AcDbEntity
  8
_U+30EC_U+30A4_U+30E4_U+30FC 1
370
     0
100
AcDbVertex
100
AcDb2dVertex
 10
105.1470702862132
 20
-131.9526692378452
 30
0.0
  0
SEQEND
  5
60
330
5A
100
AcDbEntity
  8
_U+30EC_U+30A4_U+30E4_U+30FC 1
370
     0
  0
HATCH
  5
61
330
54
100
AcDbEntity
  8
_U+30EC_U+30A4_U+30E4_U+30FC 1
 62
     7
420
 16777215
100
AcDbHatch
 10
0.0
 20
0.0
 30
0.0
210
0.0
220
0.0
230
1.0
  2
SOLID
 70
     1
 71
     0
 91
        1
 92
        1
 93
        4
 72
     1
 10
105.1470702862132
 20
-131.9526692378452
 11
104.8952338062415
 21
-131.9526692378452
 72
     1
 10
104.8952338062415
 20
-131.9526692378452
 11
104.8952338062415
 21
-131.6836072804471
 72
     1
 10
104.8952338062415
 20
-131.6836072804471
 11
105.1470702862132
 21
-131.6836072804471
 72
     1
 10
105.1470702862132
 20
-131.6836072804471
 11
105.1470702862132
 21
-131.9526692378452
 97
        0
 75
     2
 76
     1
 98
        0
  0
SPLINE
  5
62
330
54
100
AcDbEntity
  8
_U+30EC_U+30A4_U+30E4_U+30FC 1
370
     0
100
AcDbSpline
210
0.0
220
0.0
230
1.0
 70
    11
 71
     3
 72
    53
 73
    49
 74
     0
 42
0.0000000001
 43
0.0000000001
 12
1.0
 22
0.0
 32
0.0
 13
1.0
 23
0.0
 33
0.0
 40
0.0
 40
0.0
 40
0.0
 40
0.0
 40
1.0
 40
1.0
 40
1.0
 40
2.0
 40
2.0
 40
2.0
 40
3.0
 40
3.0
 40
3.0
 40
4.0
 40
4.0
 40
4.0
 40
5.0
 40
5.0
 40
5.0
 40
6.0
 40
6.0
 40
6.0
 40
7.0
 40
7.0
 40
7.0
 40
8.0
 40
8.0
 40
8.0
 40
9.0
 40
9.0
 40
9.0
 40
10.0
 40
10.0
 40
10.0
 40
11.0
 40
11.0
 40
11.0
 40
12.0
 40
12.0
 40
12.0
 40
13.0
 40
13.0
 40
13.0
 40
14.0
 40
14.0
 40
14.0
 40
15.0
 40
15.0
 40
15.0
 40
16.0
 40
16.0
 40
16.0
 40
16.0
 10
105.1977131898464
 20
-130.9167290254306
 30
0.0
 10
105.1977131898464
 20
-131.0004448457221
 30
0.0
 10
105.1808322219687
 20
-131.108620843959
 30
0.0
 10
105.1174424650401
 20
-131.2174858612929
 30
0.0
 10
105.0075439190606
 20
-131.4028319983993
 30
0.0
 10
104.8762857810726
 20
-131.4252251190534
 30
0.0
 10
104.7684542923843
 20
-131.4455511824164
 30
0.0
 10
104.7684542923843
 20
-131.4455511824164
 30
0.0
 10
104.7684542923843
 20
-131.2081841034827
 30
0.0
 10
104.7684542923843
 20
-131.2081841034827
 30
0.0
 10
104.9672363018832
 20
-131.1496174802334
 30
0.0
 10
104.9968641230563
 20
-131.0138807181146
 30
0.0
 10
104.9968641230563
 20
-130.9143174585909
 30
0.0
 10
104.9968641230563
 20
-130.7651448240796
 30
0.0
 10
104.8973008635326
 20
-130.6021918076272
 30
0.0
 10
104.6647569182783
 20
-130.6021918076272
 30
0.0
 10
104.4087863237242
 20
-130.6021918076272
 30
0.0
 10
104.3388508853736
 20
-130.7944281357042
 30
0.0
 10
104.3388508853736
 20
-130.9232747068525
 30
0.0
 10
104.3388508853736
 20
-130.9573811521565
 30
0.0
 10
104.3388508853736
 20
-131.108620843959
 30
0.0
 10
104.4680419660705
 20
-131.2037054793519
 30
0.0
 10
104.4680419660705
 20
-131.2037054793519
 30
0.0
 10
104.4490939409016
 20
-131.391463183298
 30
0.0
 10
104.4490939409016
 20
-131.391463183298
 30
0.0
 10
104.4490939409016
 20
-131.391463183298
 30
0.0
 10
103.6026339801757
 20
-131.2626166121496
 30
0.0
 10
103.6026339801757
 20
-131.2626166121496
 30
0.0
 10
103.6026339801757
 20
-131.2626166121496
 30
0.0
 10
103.6026339801757
 20
-130.4306260524618
 30
0.0
 10
103.6026339801757
 20
-130.4306260524618
 30
0.0
 10
103.6026339801757
 20
-130.4306260524618
 30
0.0
 10
103.7972818750924
 20
-130.4306260524618
 30
0.0
 10
103.7972818750924
 20
-130.4306260524618
 30
0.0
 10
103.7972818750924
 20
-130.4306260524618
 30
0.0
 10
103.7972818750924
 20
-131.088294780596
 30
0.0
 10
103.7972818750924
 20
-131.088294780596
 30
0.0
 10
103.7972818750924
 20
-131.088294780596
 30
0.0
 10
104.220339600681
 20
-131.1585747284951
 30
0.0
 10
104.220339600681
 20
-131.1585747284951
 30
0.0
 10
104.1865776649256
 20
-131.0931179142753
 30
0.0
 10
104.1462700477482
 20
-131.0049234698529
 30
0.0
 10
104.1462700477482
 20
-130.8781439559957
 30
0.0
 10
104.1462700477482
 20
-130.6070149413066
 30
0.0
 10
104.3326497135002
 20
-130.3538004231407
 30
0.0
 10
104.6458088931094
 20
-130.3538004231407
 30
0.0
 10
104.9631021873009
 20
-130.3538004231407
 30
0.0
 10
105.1977131898464
 20
-130.5932345593656
 30
0.0
 10
105.1977131898464
 20
-130.9167290254306
 30
0.0
  0
HATCH
  5
63
330
54
100
AcDbEntity
  8
_U+30EC_U+30A4_U+30E4_U+30FC 1
 62
     7
420
 16777215
100
AcDbHatch
 10
0.0
 20
0.0
 30
0.0
210
0.0
220
0.0
230
1.0
  2
SOLID
 70
     1
 71
     0
 91
        1
 92
        1
 93
        1
 72
     4
 94
        3
 73
     0
 74
     1
 95
       53
 96
       49
 40
0.0
 40
0.0
 40
0.0
 40
0.0
 40
1.0
 40
1.0
 40
1.0
 40
2.0
 40
2.0
 40
2.0
 40
3.0
 40
3.0
 40
3.0
 40
4.0
 40
4.0
 40
4.0
 40
5.0
 40
5.0
 40
5.0
 40
6.0
 40
6.0
 40
6.0
 40
7.0
 40
7.0
 40
7.0
 40
8.0
 40
8.0
 40
8.0
 40
9.0
 40
9.0
 40
9.0
 40
10.0
 40
10.0
 40
10.0
 40
11.0
 40
11.0
 40
11.0
 40
12.0
 40
12.0
 40
12.0
 40
13.0
 40
13.0
 40
13.0
 40
14.0
 40
14.0
 40
14.0
 40
15.0
 40
15.0
 40
15.0
 40
16.0
 40
16.0
 40
16.0
 40
16.0
 10
105.1977131898464
 20
-130.9167290254306
 10
105.1977131898464
 20
-131.0004448457221
 10
105.1808322219687
 20
-131.108620843959
 10
105.1174424650401
 20
-131.2174858612929
 10
105.0075439190606
 20
-131.4028319983993
 10
104.8762857810726
 20
-131.4252251190534
 10
104.7684542923843
 20
-131.4455511824164
 10
104.7684542923843
 20
-131.4455511824164
 10
104.7684542923843
 20
-131.2081841034827
 10
104.7684542923843
 20
-131.2081841034827
 10
104.9672363018832
 20
-131.1496174802334
 10
104.9968641230563
 20
-131.0138807181146
 10
104.9968641230563
 20
-130.9143174585909
 10
104.9968641230563
 20
-130.7651448240796
 10
104.8973008635326
 20
-130.6021918076272
 10
104.6647569182783
 20
-130.6021918076272
 10
104.4087863237242
 20
-130.6021918076272
 10
104.3388508853736
 20
-130.7944281357042
 10
104.3388508853736
 20
-130.9232747068525
 10
104.3388508853736
 20
-130.9573811521565
 10
104.3388508853736
 20
-131.108620843959
 10
104.4680419660705
 20
-131.2037054793519
 10
104.4680419660705
 20
-131.2037054793519
 10
104.4490939409016
 20
-131.391463183298
 10
104.4490939409016
 20
-131.391463183298
 10
104.4490939409016
 20
-131.391463183298
 10
103.6026339801757
 20
-131.2626166121496
 10
103.6026339801757
 20
-131.2626166121496
 10
103.6026339801757
 20
-131.2626166121496
 10
103.6026339801757
 20
-130.4306260524618
 10
103.6026339801757
 20
-130.4306260524618
 10
103.6026339801757
 20
-130.4306260524618
 10
103.7972818750924
 20
-130.4306260524618
 10
103.7972818750924
 20
-130.4306260524618
 10
103.7972818750924
 20
-130.4306260524618
 10
103.7972818750924
 20
-131.088294780596
 10
103.7972818750924
 20
-131.088294780596
 10
103.7972818750924
 20
-131.088294780596
 10
104.220339600681
 20
-131.1585747284951
 10
104.220339600681
 20
-131.1585747284951
 10
104.1865776649256
 20
-131.0931179142753
 10
104.1462700477482
 20
-131.0049234698529
 10
104.1462700477482
 20
-130.8781439559957
 10
104.1462700477482
 20
-130.6070149413066
 10
104.3326497135002
 20
-130.3538004231407
 10
104.6458088931094
 20
-130.3538004231407
 10
104.9631021873009
 20
-130.3538004231407
 10
105.1977131898464
 20
-130.5932345593656
 10
105.1977131898464
 20
-130.9167290254306
 97
        0
 97
        0
 75
     2
 76
     1
 98
        0
  0
ENDBLK
  5
57
330
54
100
AcDbEntity
  8
0
100
AcDbBlockEnd
  0
BLOCK
  5
66
330
64
100
AcDbEntity
  8
0
100
AcDbBlockBegin
  2
block 3
 70
     0
 10
0.0
 20
0.0
 30
0.0
  3
block 3
  1

  0
SPLINE
  5
68
330
64
100
AcDbEntity
  8
_U+30EC_U+30A4_U+30E4_U+30FC 1
370
     0
100
AcDbSpline
210
0.0
220
0.0
230
1.0
 70
    11
 71
     3
 72
    26
 73
    22
 74
     0
 42
0.0000000001
 43
0.0000000001
 12
1.0
 22
0.0
 32
0.0
 13
1.0
 23
0.0
 33
0.0
 40
0.0
 40
0.0
 40
0.0
 40
0.0
 40
1.0
 40
1.0
 40
1.0
 40
2.0
 40
2.0
 40
2.0
 40
3.0
 40
3.0
 40
3.0
 40
4.0
 40
4.0
 40
4.0
 40
5.0
 40
5.0
 40
5.0
 40
6.0
 40
6.0
 40
6.0
 40
7.0
 40
7.0
 40
7.0
 40
7.0
 10
104.9827392315668
 20
-127.2332329326014
 30
0.0
 10
104.9827392315668
 20
-127.2332329326014
 30
0.0
 10
103.8785861285442
 20
-127.2332329326014
 30
0.0
 10
103.8785861285442
 20
-127.2332329326014
 30
0.0
 10
103.8785861285442
 20
-127.2332329326014
 30
0.0
 10
103.8785861285442
 20
-127.5856662007425
 30
0.0
 10
103.8785861285442
 20
-127.5856662007425
 30
0.0
 10
103.8785861285442
 20
-127.5856662007425
 30
0.0
 10
103.7304470226785
 20
-127.5856662007425
 30
0.0
 10
103.7304470226785
 20
-127.5856662007425
 30
0.0
 10
103.7156331120919
 20
-127.2308213657617
 30
0.0
 10
103.5526800956396
 20
-127.1812119907741
 30
0.0
 10
103.4383029255293
 20
-127.1495171123099
 30
0.0
 10
103.4383029255293
 20
-127.1495171123099
 30
0.0
 10
103.4383029255293
 20
-126.993454286828
 30
0.0
 10
103.4383029255293
 20
-126.993454286828
 30
0.0
 10
103.4383029255293
 20
-126.993454286828
 30
0.0
 10
104.9827392315668
 20
-126.993454286828
 30
0.0
 10
104.9827392315668
 20
-126.993454286828
 30
0.0
 10
104.9827392315668
 20
-126.993454286828
 30
0.0
 10
104.9827392315668
 20
-127.2332329326014
 30
0.0
 10
104.9827392315668
 20
-127.2332329326014
 30
0.0
  0
HATCH
  5
69
330
64
100
AcDbEntity
  8
_U+30EC_U+30A4_U+30E4_U+30FC 1
 62
     7
420
 16777215
100
AcDbHatch
 10
0.0
 20
0.0
 30
0.0
210
0.0
220
0.0
230
1.0
  2
SOLID
 70
     1
 71
     0
 91
        1
 92
        1
 93
        1
 72
     4
 94
        3
 73
     0
 74
     1
 95
       26
 96
       22
 40
0.0
 40
0.0
 40
0.0
 40
0.0
 40
1.0
 40
1.0
 40
1.0
 40
2.0
 40
2.0
 40
2.0
 40
3.0
 40
3.0
 40
3.0
 40
4.0
 40
4.0
 40
4.0
 40
5.0
 40
5.0
 40
5.0
 40
6.0
 40
6.0
 40
6.0
 40
7.0
 40
7.0
 40
7.0
 40
7.0
 10
104.9827392315668
 20
-127.2332329326014
 10
104.9827392315668
 20
-127.2332329326014
 10
103.8785861285442
 20
-127.2332329326014
 10
103.8785861285442
 20
-127.2332329326014
 10
103.8785861285442
 20
-127.2332329326014
 10
103.8785861285442
 20
-127.5856662007425
 10
103.8785861285442
 20
-127.5856662007425
 10
103.8785861285442
 20
-127.5856662007425
 10
103.7304470226785
 20
-127.5856662007425
 10
103.7304470226785
 20
-127.5856662007425
 10
103.7156331120919
 20
-127.2308213657617
 10
103.5526800956396
 20
-127.1812119907741
 10
103.4383029255293
 20
-127.1495171123099
 10
103.4383029255293
 20
-127.1495171123099
 10
103.4383029255293
 20
-126.993454286828
 10
103.4383029255293
 20
-126.993454286828
 10
103.4383029255293
 20
-126.993454286828
 10
104.9827392315668
 20
-126.993454286828
 10
104.9827392315668
 20
-126.993454286828
 10
104.9827392315668
 20
-126.993454286828
 10
104.9827392315668
 20
-127.2332329326014
 10
104.9827392315668
 20
-127.2332329326014
 97
        0
 97
        0
 75
     2
 76
     1
 98
        0
  0
ENDBLK
  5
67
330
64
100
AcDbEntity
  8
0
100
AcDbBlockEnd
  0
BLOCK
  5
6E
330
6C
100
AcDbEntity
  8
0
100
AcDbBlockBegin
  2
block 4
 70
     0
 10
0.0
 20
0.0
 30
0.0
  3
block 4
  1

  0
SPLINE
  5
70
330
6C
100
AcDbEntity
  8
_U+30EC_U+30A4_U+30E4_U+30FC 1
370
     0
100
AcDbSpline
210
0.0
220
0.0
230
1.0
 70
    11
 71
     3
 72
    26
 73
    22
 74
     0
 42
0.0000000001
 43
0.0000000001
 12
1.0
 22
0.0
 32
0.0
 13
1.0
 23
0.0
 33
0.0
 40
0.0
 40
0.0
 40
0.0
 40
0.0
 40
1.0
 40
1.0
 40
1.0
 40
2.0
 40
2.0
 40
2.0
 40
3.0
 40
3.0
 40
3.0
 40
4.0
 40
4.0
 40
4.0
 40
5.0
 40
5.0
 40
5.0
 40
6.0
 40
6.0
 40
6.0
 40
7.0
 40
7.0
 40
7.0
 40
7.0
 10
90.83407658319426
 20
-124.2487467137295
 30
0.0
 10
90.83407658319426
 20
-124.2487467137295
 30
0.0
 10
91.25678979923441
 20
-123.2283094309985
 30
0.0
 10
91.25678979923441
 20
-123.2283094309985
 30
0.0
 10
91.25678979923441
 20
-123.2283094309985
 30
0.0
 10
90.93122827587831
 20
-123.0932616879767
 30
0.0
 10
90.93122827587831
 20
-123.0932616879767
 30
0.0
 10
90.93122827587831
 20
-123.0932616879767
 30
0.0
 10
90.9877278418364
 20
-122.9568359067608
 30
0.0
 10
90.9877278418364
 20
-122.9568359067608
 30
0.0
 10
91.32121308480859
 20
-123.0787922869386
 30
0.0
 10
91.42938908304544
 20
-122.9471896394021
 30
0.0
 10
91.50242510733273
 20
-122.8541720613003
 30
0.0
 10
91.50242510733273
 20
-122.8541720613003
 30
0.0
 10
91.64643009861618
 20
-122.9134277036466
 30
0.0
 10
91.64643009861618
 20
-122.9134277036466
 30
0.0
 10
91.64643009861618
 20
-122.9134277036466
 30
0.0
 10
91.05559622289583
 20
-124.3403862536371
 30
0.0
 10
91.05559622289583
 20
-124.3403862536371
 30
0.0
 10
91.05559622289583
 20
-124.3403862536371
 30
0.0
 10
90.83407658319426
 20
-124.2487467137295
 30
0.0
 10
90.83407658319426
 20
-124.2487467137295
 30
0.0
  0
HATCH
  5
71
330
6C
100
AcDbEntity
  8
_U+30EC_U+30A4_U+30E4_U+30FC 1
 62
     7
420
 16777215
100
AcDbHatch
 10
0.0
 20
0.0
 30
0.0
210
0.0
220
0.0
230
1.0
  2
SOLID
 70
     1
 71
     0
 91
        1
 92
        1
 93
        1
 72
     4
 94
        3
 73
     0
 74
     1
 95
       26
 96
       22
 40
0.0
 40
0.0
 40
0.0
 40
0.0
 40
1.0
 40
1.0
 40
1.0
 40
2.0
 40
2.0
 40
2.0
 40
3.0
 40
3.0
 40
3.0
 40
4.0
 40
4.0
 40
4.0
 40
5.0
 40
5.0
 40
5.0
 40
6.0
 40
6.0
 40
6.0
 40
7.0
 40
7.0
 40
7.0
 40
7.0
 10
90.83407658319426
 20
-124.2487467137295
 10
90.83407658319426
 20
-124.2487467137295
 10
91.25678979923441
 20
-123.2283094309985
 10
91.25678979923441
 20
-123.2283094309985
 10
91.25678979923441
 20
-123.2283094309985
 10
90.93122827587831
 20
-123.0932616879767
 10
90.93122827587831
 20
-123.0932616879767
 10
90.93122827587831
 20
-123.0932616879767
 10
90.9877278418364
 20
-122.9568359067608
 10
90.9877278418364
 20
-122.9568359067608
 10
91.32121308480859
 20
-123.0787922869386
 10
91.42938908304544
 20
-122.9471896394021
 10
91.50242510733273
 20
-122.8541720613003
 10
91.50242510733273
 20
-122.8541720613003
 10
91.64643009861618
 20
-122.9134277036466
 10
91.64643009861618
 20
-122.9134277036466
 10
91.64643009861618
 20
-122.9134277036466
 10
91.05559622289583
 20
-124.3403862536371
 10
91.05559622289583
 20
-124.3403862536371
 10
91.05559622289583
 20
-124.3403862536371
 10
90.83407658319426
 20
-124.2487467137295
 10
90.83407658319426
 20
-124.2487467137295
 97
        0
 97
        0
 75
     2
 76
     1
 98
        0
  0
SPLINE
  5
72
330
6C
100
AcDbEntity
  8
_U+30EC_U+30A4_U+30E4_U+30FC 1
370
     0
100
AcDbSpline
210
0.0
220
0.0
230
1.0
 70
    11
 71
     3
 72
    62
 73
    58
 74
     0
 42
0.0000000001
 43
0.0000000001
 12
1.0
 22
0.0
 32
0.0
 13
1.0
 23
0.0
 33
0.0
 40
0.0
 40
0.0
 40
0.0
 40
0.0
 40
1.0
 40
1.0
 40
1.0
 40
2.0
 40
2.0
 40
2.0
 40
3.0
 40
3.0
 40
3.0
 40
4.0
 40
4.0
 40
4.0
 40
5.0
 40
5.0
 40
5.0
 40
6.0
 40
6.0
 40
6.0
 40
7.0
 40
7.0
 40
7.0
 40
8.0
 40
8.0
 40
8.0
 40
9.0
 40
9.0
 40
9.0
 40
10.0
 40
10.0
 40
10.0
 40
11.0
 40
11.0
 40
11.0
 40
12.0
 40
12.0
 40
12.0
 40
13.0
 40
13.0
 40
13.0
 40
14.0
 40
14.0
 40
14.0
 40
15.0
 40
15.0
 40
15.0
 40
16.0
 40
16.0
 40
16.0
 40
17.0
 40
17.0
 40
17.0
 40
18.0
 40
18.0
 40
18.0
 40
19.0
 40
19.0
 40
19.0
 40
19.0
 10
92.01643335373201
 20
-124.793071800399
 30
0.0
 10
91.92272675653321
 20
-124.7544867309642
 30
0.0
 10
91.7156765178697
 20
-124.6456217136303
 30
0.0
 10
91.66365557604243
 20
-124.4227240357346
 30
0.0
 10
91.63333873577223
 20
-124.2887098213584
 30
0.0
 10
91.6674451810762
 20
-124.1950032241596
 30
0.0
 10
91.69569496405525
 20
-124.1150770089018
 30
0.0
 10
91.69569496405525
 20
-124.1150770089018
 30
0.0
 10
91.91273597962599
 20
-124.2053385106153
 30
0.0
 10
91.91273597962599
 20
-124.2053385106153
 30
0.0
 10
91.88620874438956
 20
-124.2745849298689
 30
0.0
 10
91.80731605777734
 20
-124.4961045695704
 30
0.0
 10
92.08705781117963
 20
-124.6118597778748
 30
0.0
 10
92.22279457329847
 20
-124.6680148342844
 30
0.0
 10
92.39952797169178
 20
-124.6656032674447
 30
0.0
 10
92.48703339701713
 20
-124.4547634237474
 30
0.0
 10
92.53147512877686
 20
-124.3472764446076
 30
0.0
 10
92.51252710360798
 20
-124.2866427640672
 30
0.0
 10
92.49357907843911
 20
-124.2442680895987
 30
0.0
 10
92.44879283713087
 20
-124.145393849172
 30
0.0
 10
92.33889429115139
 20
-124.0864827163742
 30
0.0
 10
92.28446178248444
 20
-124.0640895957201
 30
0.0
 10
92.26551375731557
 20
-124.056165876104
 30
0.0
 10
92.22968476426897
 20
-124.0434190228086
 30
0.0
 10
92.20040145264434
 20
-124.035839812741
 30
0.0
 10
92.20040145264434
 20
-124.035839812741
 30
0.0
 10
92.27481551512574
 20
-123.856005828411
 30
0.0
 10
92.27481551512574
 20
-123.856005828411
 30
0.0
 10
92.30995548907529
 20
-123.8773654204196
 30
0.0
 10
92.35129663489829
 20
-123.896657955137
 30
0.0
 10
92.35749780677175
 20
-123.8994140315252
 30
0.0
 10
92.42226560189444
 20
-123.9262857763101
 30
0.0
 10
92.62655976416976
 20
-123.9882974950446
 30
0.0
 10
92.71716577543182
 20
-123.7691894221827
 30
0.0
 10
92.78537866603978
 20
-123.6052028770848
 30
0.0
 10
92.6768581582544
 20
-123.5004719743332
 30
0.0
 10
92.56833765046903
 20
-123.455685733025
 30
0.0
 10
92.3071994126871
 20
-123.3471652252396
 30
0.0
 10
92.21004772000305
 20
-123.5590385975825
 30
0.0
 10
92.17835284153875
 20
-123.6238063927052
 30
0.0
 10
92.17835284153875
 20
-123.6238063927052
 30
0.0
 10
91.97784828429721
 20
-123.5404350819621
 30
0.0
 10
91.97784828429721
 20
-123.5404350819621
 30
0.0
 10
92.03365883115826
 20
-123.42881398824
 30
0.0
 10
92.20453556722664
 20
-123.0918836497826
 30
0.0
 10
92.65584307579438
 20
-123.2789523346317
 30
0.0
 10
92.87770722504446
 20
-123.3705918745393
 30
0.0
 10
93.06718747673321
 20
-123.5865993614645
 30
0.0
 10
92.95384383526849
 20
-123.8601399429933
 30
0.0
 10
92.88253035872381
 20
-124.0323947172558
 30
0.0
 10
92.7567843735122
 20
-124.0696017484965
 30
0.0
 10
92.63517250288288
 20
-124.0854491877286
 30
0.0
 10
92.685126387419
 20
-124.1357475818133
 30
0.0
 10
92.83429902193032
 20
-124.2845757067761
 30
0.0
 10
92.72819008098462
 20
-124.5408908108787
 30
0.0
 10
92.59865449073924
 20
-124.8537054809394
 30
0.0
 10
92.28997393526085
 20
-124.9067599514122
 30
0.0
 10
92.01643335373201
 20
-124.793071800399
 30
0.0
  0
HATCH
  5
73
330
6C
100
AcDbEntity
  8
_U+30EC_U+30A4_U+30E4_U+30FC 1
 62
     7
420
 16777215
100
AcDbHatch
 10
0.0
 20
0.0
 30
0.0
210
0.0
220
0.0
230
1.0
  2
SOLID
 70
     1
 71
     0
 91
        1
 92
        1
 93
        1
 72
     4
 94
        3
 73
     0
 74
     1
 95
       62
 96
       58
 40
0.0
 40
0.0
 40
0.0
 40
0.0
 40
1.0
 40
1.0
 40
1.0
 40
2.0
 40
2.0
 40
2.0
 40
3.0
 40
3.0
 40
3.0
 40
4.0
 40
4.0
 40
4.0
 40
5.0
 40
5.0
 40
5.0
 40
6.0
 40
6.0
 40
6.0
 40
7.0
 40
7.0
 40
7.0
 40
8.0
 40
8.0
 40
8.0
 40
9.0
 40
9.0
 40
9.0
 40
10.0
 40
10.0
 40
10.0
 40
11.0
 40
11.0
 40
11.0
 40
12.0
 40
12.0
 40
12.0
 40
13.0
 40
13.0
 40
13.0
 40
14.0
 40
14.0
 40
14.0
 40
15.0
 40
15.0
 40
15.0
 40
16.0
 40
16.0
 40
16.0
 40
17.0
 40
17.0
 40
17.0
 40
18.0
 40
18.0
 40
18.0
 40
19.0
 40
19.0
 40
19.0
 40
19.0
 10
92.01643335373201
 20
-124.793071800399
 10
91.92272675653321
 20
-124.7544867309642
 10
91.7156765178697
 20
-124.6456217136303
 10
91.66365557604243
 20
-124.4227240357346
 10
91.63333873577223
 20
-124.2887098213584
 10
91.6674451810762
 20
-124.1950032241596
 10
91.69569496405525
 20
-124.1150770089018
 10
91.69569496405525
 20
-124.1150770089018
 10
91.91273597962599
 20
-124.2053385106153
 10
91.91273597962599
 20
-124.2053385106153
 10
91.88620874438956
 20
-124.2745849298689
 10
91.80731605777734
 20
-124.4961045695704
 10
92.08705781117963
 20
-124.6118597778748
 10
92.22279457329847
 20
-124.6680148342844
 10
92.39952797169178
 20
-124.6656032674447
 10
92.48703339701713
 20
-124.4547634237474
 10
92.53147512877686
 20
-124.3472764446076
 10
92.51252710360798
 20
-124.2866427640672
 10
92.49357907843911
 20
-124.2442680895987
 10
92.44879283713087
 20
-124.145393849172
 10
92.33889429115139
 20
-124.0864827163742
 10
92.28446178248444
 20
-124.0640895957201
 10
92.26551375731557
 20
-124.056165876104
 10
92.22968476426897
 20
-124.0434190228086
 10
92.20040145264434
 20
-124.035839812741
 10
92.20040145264434
 20
-124.035839812741
 10
92.27481551512574
 20
-123.856005828411
 10
92.27481551512574
 20
-123.856005828411
 10
92.30995548907529
 20
-123.8773654204196
 10
92.35129663489829
 20
-123.896657955137
 10
92.35749780677175
 20
-123.8994140315252
 10
92.42226560189444
 20
-123.9262857763101
 10
92.62655976416976
 20
-123.9882974950446
 10
92.71716577543182
 20
-123.7691894221827
 10
92.78537866603978
 20
-123.6052028770848
 10
92.6768581582544
 20
-123.5004719743332
 10
92.56833765046903
 20
-123.455685733025
 10
92.3071994126871
 20
-123.3471652252396
 10
92.21004772000305
 20
-123.5590385975825
 10
92.17835284153875
 20
-123.6238063927052
 10
92.17835284153875
 20
-123.6238063927052
 10
91.97784828429721
 20
-123.5404350819621
 10
91.97784828429721
 20
-123.5404350819621
 10
92.03365883115826
 20
-123.42881398824
 10
92.20453556722664
 20
-123.0918836497826
 10
92.65584307579438
 20
-123.2789523346317
 10
92.87770722504446
 20
-123.3705918745393
 10
93.06718747673321
 20
-123.5865993614645
 10
92.95384383526849
 20
-123.8601399429933
 10
92.88253035872381
 20
-124.0323947172558
 10
92.7567843735122
 20
-124.0696017484965
 10
92.63517250288288
 20
-124.0854491877286
 10
92.685126387419
 20
-124.1357475818133
 10
92.83429902193032
 20
-124.2845757067761
 10
92.72819008098462
 20
-124.5408908108787
 10
92.59865449073924
 20
-124.8537054809394
 10
92.28997393526085
 20
-124.9067599514122
 10
92.01643335373201
 20
-124.793071800399
 97
        0
 97
        0
 75
     2
 76
     1
 98
        0
  0
SPLINE
  5
74
330
6C
100
AcDbEntity
  8
_U+30EC_U+30A4_U+30E4_U+30FC 1
370
     0
100
AcDbSpline
210
0.0
220
0.0
230
1.0
 70
    11
 71
     3
 72
    53
 73
    49
 74
     0
 42
0.0000000001
 43
0.0000000001
 12
1.0
 22
0.0
 32
0.0
 13
1.0
 23
0.0
 33
0.0
 40
0.0
 40
0.0
 40
0.0
 40
0.0
 40
1.0
 40
1.0
 40
1.0
 40
2.0
 40
2.0
 40
2.0
 40
3.0
 40
3.0
 40
3.0
 40
4.0
 40
4.0
 40
4.0
 40
5.0
 40
5.0
 40
5.0
 40
6.0
 40
6.0
 40
6.0
 40
7.0
 40
7.0
 40
7.0
 40
8.0
 40
8.0
 40
8.0
 40
9.0
 40
9.0
 40
9.0
 40
10.0
 40
10.0
 40
10.0
 40
11.0
 40
11.0
 40
11.0
 40
12.0
 40
12.0
 40
12.0
 40
13.0
 40
13.0
 40
13.0
 40
14.0
 40
14.0
 40
14.0
 40
15.0
 40
15.0
 40
15.0
 40
16.0
 40
16.0
 40
16.0
 40
16.0
 10
93.16847328399955
 20
-125.2702175251061
 30
0.0
 10
93.0906141260329
 20
-125.2381781370932
 30
0.0
 10
92.99725203838264
 20
-125.1809895520381
 30
0.0
 10
92.92111542815861
 20
-125.0810817829659
 30
0.0
 10
92.79192434746174
 20
-124.9081379896063
 30
0.0
 10
92.8215521686349
 20
-124.7786023993609
 30
0.0
 10
92.84394528928902
 20
-124.6711154202211
 30
0.0
 10
92.84394528928902
 20
-124.6711154202211
 30
0.0
 10
93.06305336215091
 20
-124.7620659410317
 30
0.0
 10
93.06305336215091
 20
-124.7620659410317
 30
0.0
 10
93.04134926059383
 20
-124.9680826510497
 30
0.0
 10
93.15538192115561
 20
-125.0473198472104
 30
0.0
 10
93.24736597061177
 20
-125.0852158975482
 30
0.0
 10
93.38516979002176
 20
-125.1424044826033
 30
0.0
 10
93.57361651306493
 20
-125.1131211709787
 30
0.0
 10
93.6628444861329
 20
-124.8978027031506
 30
0.0
 10
93.760685197914
 20
-124.6614691528624
 30
0.0
 10
93.61013452520858
 20
-124.5236653334524
 30
0.0
 10
93.49093422141894
 20
-124.4740559584648
 30
0.0
 10
93.45923934295463
 20
-124.4609645956209
 30
0.0
 10
93.3193684662535
 20
-124.4030869914687
 30
0.0
 10
93.18225366594055
 20
-124.4857692831147
 30
0.0
 10
93.18225366594055
 20
-124.4857692831147
 30
0.0
 10
93.01620006355151
 20
-124.3965413100467
 30
0.0
 10
93.01620006355151
 20
-124.3965413100467
 30
0.0
 10
93.01620006355151
 20
-124.3965413100467
 30
0.0
 10
93.45889483340612
 20
-123.6644585194311
 30
0.0
 10
93.45889483340612
 20
-123.6644585194311
 30
0.0
 10
93.45889483340612
 20
-123.6644585194311
 30
0.0
 10
94.22749563616536
 20
-123.9827853422682
 30
0.0
 10
94.22749563616536
 20
-123.9827853422682
 30
0.0
 10
94.22749563616536
 20
-123.9827853422682
 30
0.0
 10
94.15308157368396
 20
-124.1626193265982
 30
0.0
 10
94.15308157368396
 20
-124.1626193265982
 30
0.0
 10
94.15308157368396
 20
-124.1626193265982
 30
0.0
 10
93.54536673008589
 20
-123.9107828466265
 30
0.0
 10
93.54536673008589
 20
-123.9107828466265
 30
0.0
 10
93.54536673008589
 20
-123.9107828466265
 30
0.0
 10
93.31867944715644
 20
-124.2749294394174
 30
0.0
 10
93.31867944715644
 20
-124.2749294394174
 30
0.0
 10
93.3924044905408
 20
-124.2683837579954
 30
0.0
 10
93.48886716412778
 20
-124.2649386625102
 30
0.0
 10
93.60600041062628
 20
-124.3135145088522
 30
0.0
 10
93.85680336195247
 20
-124.4172118829582
 30
0.0
 10
94.01941186885627
 20
-124.6862738403562
 30
0.0
 10
93.89952254596957
 20
-124.9753173515687
 30
0.0
 10
93.77791067534025
 20
-125.2684949773634
 30
0.0
 10
93.4668185530222
 20
-125.3938964530265
 30
0.0
 10
93.16847328399955
 20
-125.2702175251061
 30
0.0
  0
HATCH
  5
75
330
6C
100
AcDbEntity
  8
_U+30EC_U+30A4_U+30E4_U+30FC 1
 62
     7
420
 16777215
100
AcDbHatch
 10
0.0
 20
0.0
 30
0.0
210
0.0
220
0.0
230
1.0
  2
SOLID
 70
     1
 71
     0
 91
        1
 92
        1
 93
        1
 72
     4
 94
        3
 73
     0
 74
     1
 95
       53
 96
       49
 40
0.0
 40
0.0
 40
0.0
 40
0.0
 40
1.0
 40
1.0
 40
1.0
 40
2.0
 40
2.0
 40
2.0
 40
3.0
 40
3.0
 40
3.0
 40
4.0
 40
4.0
 40
4.0
 40
5.0
 40
5.0
 40
5.0
 40
6.0
 40
6.0
 40
6.0
 40
7.0
 40
7.0
 40
7.0
 40
8.0
 40
8.0
 40
8.0
 40
9.0
 40
9.0
 40
9.0
 40
10.0
 40
10.0
 40
10.0
 40
11.0
 40
11.0
 40
11.0
 40
12.0
 40
12.0
 40
12.0
 40
13.0
 40
13.0
 40
13.0
 40
14.0
 40
14.0
 40
14.0
 40
15.0
 40
15.0
 40
15.0
 40
16.0
 40
16.0
 40
16.0
 40
16.0
 10
93.16847328399955
 20
-125.2702175251061
 10
93.0906141260329
 20
-125.2381781370932
 10
92.99725203838264
 20
-125.1809895520381
 10
92.92111542815861
 20
-125.0810817829659
 10
92.79192434746174
 20
-124.9081379896063
 10
92.8215521686349
 20
-124.7786023993609
 10
92.84394528928902
 20
-124.6711154202211
 10
92.84394528928902
 20
-124.6711154202211
 10
93.06305336215091
 20
-124.7620659410317
 10
93.06305336215091
 20
-124.7620659410317
 10
93.04134926059383
 20
-124.9680826510497
 10
93.15538192115561
 20
-125.0473198472104
 10
93.24736597061177
 20
-125.0852158975482
 10
93.38516979002176
 20
-125.1424044826033
 10
93.57361651306493
 20
-125.1131211709787
 10
93.6628444861329
 20
-124.8978027031506
 10
93.760685197914
 20
-124.6614691528624
 10
93.61013452520858
 20
-124.5236653334524
 10
93.49093422141894
 20
-124.4740559584648
 10
93.45923934295463
 20
-124.4609645956209
 10
93.3193684662535
 20
-124.4030869914687
 10
93.18225366594055
 20
-124.4857692831147
 10
93.18225366594055
 20
-124.4857692831147
 10
93.01620006355151
 20
-124.3965413100467
 10
93.01620006355151
 20
-124.3965413100467
 10
93.01620006355151
 20
-124.3965413100467
 10
93.45889483340612
 20
-123.6644585194311
 10
93.45889483340612
 20
-123.6644585194311
 10
93.45889483340612
 20
-123.6644585194311
 10
94.22749563616536
 20
-123.9827853422682
 10
94.22749563616536
 20
-123.9827853422682
 10
94.22749563616536
 20
-123.9827853422682
 10
94.15308157368396
 20
-124.1626193265982
 10
94.15308157368396
 20
-124.1626193265982
 10
94.15308157368396
 20
-124.1626193265982
 10
93.54536673008589
 20
-123.9107828466265
 10
93.54536673008589
 20
-123.9107828466265
 10
93.54536673008589
 20
-123.9107828466265
 10
93.31867944715644
 20
-124.2749294394174
 10
93.31867944715644
 20
-124.2749294394174
 10
93.3924044905408
 20
-124.2683837579954
 10
93.48886716412778
 20
-124.2649386625102
 10
93.60600041062628
 20
-124.3135145088522
 10
93.85680336195247
 20
-124.4172118829582
 10
94.01941186885627
 20
-124.6862738403562
 10
93.89952254596957
 20
-124.9753173515687
 10
93.77791067534025
 20
-125.2684949773634
 10
93.4668185530222
 20
-125.3938964530265
 10
93.16847328399955
 20
-125.2702175251061
 97
        0
 97
        0
 75
     2
 76
     1
 98
        0
  0
SPLINE
  5
76
330
6C
100
AcDbEntity
  8
_U+30EC_U+30A4_U+30E4_U+30FC 1
370
     0
100
AcDbSpline
210
0.0
220
0.0
230
1.0
 70
    11
 71
     3
 72
    17
 73
    13
 74
     0
 42
0.0000000001
 43
0.0000000001
 12
1.0
 22
0.0
 32
0.0
 13
1.0
 23
0.0
 33
0.0
 40
0.0
 40
0.0
 40
0.0
 40
0.0
 40
1.0
 40
1.0
 40
1.0
 40
2.0
 40
2.0
 40
2.0
 40
3.0
 40
3.0
 40
3.0
 40
4.0
 40
4.0
 40
4.0
 40
4.0
 10
94.98679468111442
 20
-124.5739637275371
 30
0.0
 10
94.92374943373434
 20
-124.7262369479851
 30
0.0
 10
94.73909231572496
 20
-124.8006510104665
 30
0.0
 10
94.56959361785066
 20
-124.7307155721159
 30
0.0
 10
94.40250648681605
 20
-124.6614691528624
 30
0.0
 10
94.32120223336415
 20
-124.4792236016927
 30
0.0
 10
94.3852810093898
 20
-124.3248833239535
 30
0.0
 10
94.44935978541544
 20
-124.1701985366658
 30
0.0
 10
94.63539494161893
 20
-124.0985405505726
 30
0.0
 10
94.80282658220207
 20
-124.1677869698261
 30
0.0
 10
94.97232528007636
 20
-124.2377224081767
 30
0.0
 10
95.04983992849449
 20
-124.4213459975405
 30
0.0
 10
94.98679468111442
 20
-124.5739637275371
 30
0.0
  0
SPLINE
  5
77
330
6C
100
AcDbEntity
  8
_U+30EC_U+30A4_U+30E4_U+30FC 1
370
     0
100
AcDbSpline
210
0.0
220
0.0
230
1.0
 70
    11
 71
     3
 72
    17
 73
    13
 74
     0
 42
0.0000000001
 43
0.0000000001
 12
1.0
 22
0.0
 32
0.0
 13
1.0
 23
0.0
 33
0.0
 40
0.0
 40
0.0
 40
0.0
 40
0.0
 40
1.0
 40
1.0
 40
1.0
 40
2.0
 40
2.0
 40
2.0
 40
3.0
 40
3.0
 40
3.0
 40
4.0
 40
4.0
 40
4.0
 40
4.0
 10
94.50861542776174
 20
-124.3758707371352
 30
0.0
 10
94.47071937742399
 20
-124.4678547865914
 30
0.0
 10
94.51929522376601
 20
-124.5749972561826
 30
0.0
 10
94.61713593554711
 20
-124.6153048733601
 30
0.0
 10
94.71532115687673
 20
-124.655957000086
 30
0.0
 10
94.82590872195325
 20
-124.614615854263
 30
0.0
 10
94.863804772291
 20
-124.5229763143554
 30
0.0
 10
94.90204533217727
 20
-124.4309922648992
 30
0.0
 10
94.85519203357788
 20
-124.324538814405
 30
0.0
 10
94.7549397549571
 20
-124.283197668582
 30
0.0
 10
94.65468747633633
 20
-124.241856522759
 30
0.0
 10
94.54685598764802
 20
-124.283886687679
 30
0.0
 10
94.50861542776174
 20
-124.3758707371352
 30
0.0
  0
HATCH
  5
78
330
6C
100
AcDbEntity
  8
_U+30EC_U+30A4_U+30E4_U+30FC 1
 62
     7
420
 16777215
100
AcDbHatch
 10
0.0
 20
0.0
 30
0.0
210
0.0
220
0.0
230
1.0
  2
SOLID
 70
     1
 71
     0
 91
        2
 92
        1
 93
        1
 72
     4
 94
        3
 73
     0
 74
     1
 95
       17
 96
       13
 40
0.0
 40
0.0
 40
0.0
 40
0.0
 40
1.0
 40
1.0
 40
1.0
 40
2.0
 40
2.0
 40
2.0
 40
3.0
 40
3.0
 40
3.0
 40
4.0
 40
4.0
 40
4.0
 40
4.0
 10
94.98679468111442
 20
-124.5739637275371
 10
94.92374943373434
 20
-124.7262369479851
 10
94.73909231572496
 20
-124.8006510104665
 10
94.56959361785066
 20
-124.7307155721159
 10
94.40250648681605
 20
-124.6614691528624
 10
94.32120223336415
 20
-124.4792236016927
 10
94.3852810093898
 20
-124.3248833239535
 10
94.44935978541544
 20
-124.1701985366658
 10
94.63539494161893
 20
-124.0985405505726
 10
94.80282658220207
 20
-124.1677869698261
 10
94.97232528007636
 20
-124.2377224081767
 10
95.04983992849449
 20
-124.4213459975405
 10
94.98679468111442
 20
-124.5739637275371
 97
        0
 97
        0
 92
        1
 93
        1
 72
     4
 94
        3
 73
     0
 74
     1
 95
       17
 96
       13
 40
0.0
 40
0.0
 40
0.0
 40
0.0
 40
1.0
 40
1.0
 40
1.0
 40
2.0
 40
2.0
 40
2.0
 40
3.0
 40
3.0
 40
3.0
 40
4.0
 40
4.0
 40
4.0
 40
4.0
 10
94.50861542776174
 20
-124.3758707371352
 10
94.47071937742399
 20
-124.4678547865914
 10
94.51929522376601
 20
-124.5749972561826
 10
94.61713593554711
 20
-124.6153048733601
 10
94.71532115687673
 20
-124.655957000086
 10
94.82590872195325
 20
-124.614615854263
 10
94.863804772291
 20
-124.5229763143554
 10
94.90204533217727
 20
-124.4309922648992
 10
94.85519203357788
 20
-124.324538814405
 10
94.7549397549571
 20
-124.283197668582
 10
94.65468747633633
 20
-124.241856522759
 10
94.54685598764802
 20
-124.283886687679
 10
94.50861542776174
 20
-124.3758707371352
 97
        0
 97
        0
 75
     2
 76
     1
 98
        0
  0
ENDBLK
  5
6F
330
6C
100
AcDbEntity
  8
0
100
AcDbBlockEnd
  0
BLOCK
  5
89
330
87
100
AcDbEntity
  8
0
100
AcDbBlockBegin
  2
block 5
 70
     0
 10
0.0
 20
0.0
 30
0.0
  3
block 5
  1

  0
SPLINE
  5
8B
330
87
100
AcDbEntity
  8
_U+30EC_U+30A4_U+30E4_U+30FC 1
370
     0
100
AcDbSpline
210
0.0
220
0.0
230
1.0
 70
    11
 71
     3
 72
    29
 73
    25
 74
     0
 42
0.0000000001
 43
0.0000000001
 12
1.0
 22
0.0
 32
0.0
 13
1.0
 23
0.0
 33
0.0
 40
0.0
 40
0.0
 40
0.0
 40
0.0
 40
1.0
 40
1.0
 40
1.0
 40
2.0
 40
2.0
 40
2.0
 40
3.0
 40
3.0
 40
3.0
 40
4.0
 40
4.0
 40
4.0
 40
5.0
 40
5.0
 40
5.0
 40
6.0
 40
6.0
 40
6.0
 40
7.0
 40
7.0
 40
7.0
 40
8.0
 40
8.0
 40
8.0
 40
8.0
 10
94.48312172117089
 20
-119.1717094971168
 30
0.0
 10
94.19855683408926
 20
-119.1717094971168
 30
0.0
 10
93.92708330985157
 20
-119.0342501872553
 30
0.0
 10
93.92708330985157
 20
-118.6852620145995
 30
0.0
 10
93.92708330985157
 20
-118.4292914200455
 30
0.0
 10
94.07866751120255
 20
-118.3342067846526
 30
0.0
 10
94.19166664311875
 20
-118.2728840850151
 30
0.0
 10
94.05834144783958
 20
-118.2136284426688
 30
0.0
 10
93.97669268483916
 20
-118.0992512725585
 30
0.0
 10
93.97669268483916
 20
-117.9383653133974
 30
0.0
 10
93.97669268483916
 20
-117.6634466936744
 30
0.0
 10
94.18925507627908
 20
-117.5280544411041
 30
0.0
 10
94.48312172117089
 20
-117.5280544411041
 30
0.0
 10
94.78629012387287
 20
-117.5280544411041
 30
0.0
 10
94.98955075750261
 20
-117.6720594323875
 30
0.0
 10
94.98955075750261
 20
-117.9383653133974
 30
0.0
 10
94.98955075750261
 20
-118.0992512725585
 30
0.0
 10
94.90617944675957
 20
-118.2136284426688
 30
0.0
 10
94.77250974193187
 20
-118.2728840850151
 30
0.0
 10
94.86759437732478
 20
-118.3235269886483
 30
0.0
 10
95.03709307519907
 20
-118.4186116240412
 30
0.0
 10
95.03709307519907
 20
-118.6811279000172
 30
0.0
 10
95.03709307519907
 20
-119.0556097792639
 30
0.0
 10
94.73874780617643
 20
-119.1717094971168
 30
0.0
 10
94.48312172117089
 20
-119.1717094971168
 30
0.0
  0
SPLINE
  5
8C
330
87
100
AcDbEntity
  8
_U+30EC_U+30A4_U+30E4_U+30FC 1
370
     0
100
AcDbSpline
210
0.0
220
0.0
230
1.0
 70
    11
 71
     3
 72
    17
 73
    13
 74
     0
 42
0.0000000001
 43
0.0000000001
 12
1.0
 22
0.0
 32
0.0
 13
1.0
 23
0.0
 33
0.0
 40
0.0
 40
0.0
 40
0.0
 40
0.0
 40
1.0
 40
1.0
 40
1.0
 40
2.0
 40
2.0
 40
2.0
 40
3.0
 40
3.0
 40
3.0
 40
4.0
 40
4.0
 40
4.0
 40
4.0
 10
94.48312172117089
 20
-118.3807155737034
 30
0.0
 10
94.32947046252875
 20
-118.3807155737034
 30
0.0
 10
94.16686195562495
 20
-118.4675319799317
 30
0.0
 10
94.16686195562495
 20
-118.6704481040129
 30
0.0
 10
94.16686195562495
 20
-118.8757757949338
 30
0.0
 10
94.30225420819528
 20
-118.9770616022002
 30
0.0
 10
94.48312172117089
 20
-118.9770616022002
 30
0.0
 10
94.68224824021833
 20
-118.9770616022002
 30
0.0
 10
94.79972599626535
 20
-118.8544162029253
 30
0.0
 10
94.79972599626535
 20
-118.6766492758864
 30
0.0
 10
94.79972599626535
 20
-118.4547851266363
 30
0.0
 10
94.62574867426024
 20
-118.3807155737034
 30
0.0
 10
94.48312172117089
 20
-118.3807155737034
 30
0.0
  0
SPLINE
  5
8D
330
87
100
AcDbEntity
  8
_U+30EC_U+30A4_U+30E4_U+30FC 1
370
     0
100
AcDbSpline
210
0.0
220
0.0
230
1.0
 70
    11
 71
     3
 72
    17
 73
    13
 74
     0
 42
0.0000000001
 43
0.0000000001
 12
1.0
 22
0.0
 32
0.0
 13
1.0
 23
0.0
 33
0.0
 40
0.0
 40
0.0
 40
0.0
 40
0.0
 40
1.0
 40
1.0
 40
1.0
 40
2.0
 40
2.0
 40
2.0
 40
3.0
 40
3.0
 40
3.0
 40
4.0
 40
4.0
 40
4.0
 40
4.0
 10
94.48312172117089
 20
-117.7206352787296
 30
0.0
 10
94.3067328323261
 20
-117.7206352787296
 30
0.0
 10
94.21647133061255
 20
-117.8157199141225
 30
0.0
 10
94.21647133061255
 20
-117.9511121666928
 30
0.0
 10
94.21647133061255
 20
-118.0737575659677
 30
0.0
 10
94.29329695993363
 20
-118.1922688506603
 30
0.0
 10
94.48312172117089
 20
-118.1922688506603
 30
0.0
 10
94.67329099195668
 20
-118.1922688506603
 30
0.0
 10
94.75011662127775
 20
-118.0737575659677
 30
0.0
 10
94.75011662127775
 20
-117.9511121666928
 30
0.0
 10
94.75011662127775
 20
-117.8157199141225
 30
0.0
 10
94.65744355272453
 20
-117.7206352787296
 30
0.0
 10
94.48312172117089
 20
-117.7206352787296
 30
0.0
  0
HATCH
  5
8E
330
87
100
AcDbEntity
  8
_U+30EC_U+30A4_U+30E4_U+30FC 1
 62
     7
420
 16777215
100
AcDbHatch
 10
0.0
 20
0.0
 30
0.0
210
0.0
220
0.0
230
1.0
  2
SOLID
 70
     1
 71
     0
 91
        3
 92
        1
 93
        1
 72
     4
 94
        3
 73
     0
 74
     1
 95
       29
 96
       25
 40
0.0
 40
0.0
 40
0.0
 40
0.0
 40
1.0
 40
1.0
 40
1.0
 40
2.0
 40
2.0
 40
2.0
 40
3.0
 40
3.0
 40
3.0
 40
4.0
 40
4.0
 40
4.0
 40
5.0
 40
5.0
 40
5.0
 40
6.0
 40
6.0
 40
6.0
 40
7.0
 40
7.0
 40
7.0
 40
8.0
 40
8.0
 40
8.0
 40
8.0
 10
94.48312172117089
 20
-119.1717094971168
 10
94.19855683408926
 20
-119.1717094971168
 10
93.92708330985157
 20
-119.0342501872553
 10
93.92708330985157
 20
-118.6852620145995
 10
93.92708330985157
 20
-118.4292914200455
 10
94.07866751120255
 20
-118.3342067846526
 10
94.19166664311875
 20
-118.2728840850151
 10
94.05834144783958
 20
-118.2136284426688
 10
93.97669268483916
 20
-118.0992512725585
 10
93.97669268483916
 20
-117.9383653133974
 10
93.97669268483916
 20
-117.6634466936744
 10
94.18925507627908
 20
-117.5280544411041
 10
94.48312172117089
 20
-117.5280544411041
 10
94.78629012387287
 20
-117.5280544411041
 10
94.98955075750261
 20
-117.6720594323875
 10
94.98955075750261
 20
-117.9383653133974
 10
94.98955075750261
 20
-118.0992512725585
 10
94.90617944675957
 20
-118.2136284426688
 10
94.77250974193187
 20
-118.2728840850151
 10
94.86759437732478
 20
-118.3235269886483
 10
95.03709307519907
 20
-118.4186116240412
 10
95.03709307519907
 20
-118.6811279000172
 10
95.03709307519907
 20
-119.0556097792639
 10
94.73874780617643
 20
-119.1717094971168
 10
94.48312172117089
 20
-119.1717094971168
 97
        0
 97
        0
 92
        1
 93
        1
 72
     4
 94
        3
 73
     0
 74
     1
 95
       17
 96
       13
 40
0.0
 40
0.0
 40
0.0
 40
0.0
 40
1.0
 40
1.0
 40
1.0
 40
2.0
 40
2.0
 40
2.0
 40
3.0
 40
3.0
 40
3.0
 40
4.0
 40
4.0
 40
4.0
 40
4.0
 10
94.48312172117089
 20
-118.3807155737034
 10
94.32947046252875
 20
-118.3807155737034
 10
94.16686195562495
 20
-118.4675319799317
 10
94.16686195562495
 20
-118.6704481040129
 10
94.16686195562495
 20
-118.8757757949338
 10
94.30225420819528
 20
-118.9770616022002
 10
94.48312172117089
 20
-118.9770616022002
 10
94.68224824021833
 20
-118.9770616022002
 10
94.79972599626535
 20
-118.8544162029253
 10
94.79972599626535
 20
-118.6766492758864
 10
94.79972599626535
 20
-118.4547851266363
 10
94.62574867426024
 20
-118.3807155737034
 10
94.48312172117089
 20
-118.3807155737034
 97
        0
 97
        0
 92
        1
 93
        1
 72
     4
 94
        3
 73
     0
 74
     1
 95
       17
 96
       13
 40
0.0
 40
0.0
 40
0.0
 40
0.0
 40
1.0
 40
1.0
 40
1.0
 40
2.0
 40
2.0
 40
2.0
 40
3.0
 40
3.0
 40
3.0
 40
4.0
 40
4.0
 40
4.0
 40
4.0
 10
94.48312172117089
 20
-117.7206352787296
 10
94.3067328323261
 20
-117.7206352787296
 10
94.21647133061255
 20
-117.8157199141225
 10
94.21647133061255
 20
-117.9511121666928
 10
94.21647133061255
 20
-118.0737575659677
 10
94.29329695993363
 20
-118.1922688506603
 10
94.48312172117089
 20
-118.1922688506603
 10
94.67329099195668
 20
-118.1922688506603
 10
94.75011662127775
 20
-118.0737575659677
 10
94.75011662127775
 20
-117.9511121666928
 10
94.75011662127775
 20
-117.8157199141225
 10
94.65744355272453
 20
-117.7206352787296
 10
94.48312172117089
 20
-117.7206352787296
 97
        0
 97
        0
 75
     2
 76
     1
 98
        0
  0
ENDBLK
  5
8A
330
87
100
AcDbEntity
  8
0
100
AcDbBlockEnd
  0
BLOCK
  5
A0
330
9E
100
AcDbEntity
  8
0
100
AcDbBlockBegin
  2
block 6
 70
     0
 10
0.0
 20
0.0
 30
0.0
  3
block 6
  1

  0
SPLINE
  5
A2
330
9E
100
AcDbEntity
  8
_U+30EC_U+30A4_U+30E4_U+30FC 1
370
     0
100
AcDbSpline
210
0.0
220
0.0
230
1.0
 70
    11
 71
     3
 72
    26
 73
    22
 74
     0
 42
0.0000000001
 43
0.0000000001
 12
1.0
 22
0.0
 32
0.0
 13
1.0
 23
0.0
 33
0.0
 40
0.0
 40
0.0
 40
0.0
 40
0.0
 40
1.0
 40
1.0
 40
1.0
 40
2.0
 40
2.0
 40
2.0
 40
3.0
 40
3.0
 40
3.0
 40
4.0
 40
4.0
 40
4.0
 40
5.0
 40
5.0
 40
5.0
 40
6.0
 40
6.0
 40
6.0
 40
7.0
 40
7.0
 40
7.0
 40
7.0
 10
96.0813015167783
 20
-138.3974093621021
 30
0.0
 10
96.0813015167783
 20
-138.3974093621021
 30
0.0
 10
96.0813015167783
 20
-137.2932562590795
 30
0.0
 10
96.0813015167783
 20
-137.2932562590795
 30
0.0
 10
96.0813015167783
 20
-137.2932562590795
 30
0.0
 10
95.72886824863723
 20
-137.2932562590795
 30
0.0
 10
95.72886824863723
 20
-137.2932562590795
 30
0.0
 10
95.72886824863723
 20
-137.2932562590795
 30
0.0
 10
95.72886824863723
 20
-137.1451171532137
 30
0.0
 10
95.72886824863723
 20
-137.1451171532137
 30
0.0
 10
96.08371308361797
 20
-137.1303032426271
 30
0.0
 10
96.13332245860556
 20
-136.9673502261748
 30
0.0
 10
96.16501733706986
 20
-136.8529730560645
 30
0.0
 10
96.16501733706986
 20
-136.8529730560645
 30
0.0
 10
96.32108016255168
 20
-136.8529730560645
 30
0.0
 10
96.32108016255168
 20
-136.8529730560645
 30
0.0
 10
96.32108016255168
 20
-136.8529730560645
 30
0.0
 10
96.32108016255168
 20
-138.3974093621021
 30
0.0
 10
96.32108016255168
 20
-138.3974093621021
 30
0.0
 10
96.32108016255168
 20
-138.3974093621021
 30
0.0
 10
96.0813015167783
 20
-138.3974093621021
 30
0.0
 10
96.0813015167783
 20
-138.3974093621021
 30
0.0
  0
HATCH
  5
A3
330
9E
100
AcDbEntity
  8
_U+30EC_U+30A4_U+30E4_U+30FC 1
 62
     7
420
 16777215
100
AcDbHatch
 10
0.0
 20
0.0
 30
0.0
210
0.0
220
0.0
230
1.0
  2
SOLID
 70
     1
 71
     0
 91
        1
 92
        1
 93
        1
 72
     4
 94
        3
 73
     0
 74
     1
 95
       26
 96
       22
 40
0.0
 40
0.0
 40
0.0
 40
0.0
 40
1.0
 40
1.0
 40
1.0
 40
2.0
 40
2.0
 40
2.0
 40
3.0
 40
3.0
 40
3.0
 40
4.0
 40
4.0
 40
4.0
 40
5.0
 40
5.0
 40
5.0
 40
6.0
 40
6.0
 40
6.0
 40
7.0
 40
7.0
 40
7.0
 40
7.0
 10
96.0813015167783
 20
-138.3974093621021
 10
96.0813015167783
 20
-138.3974093621021
 10
96.0813015167783
 20
-137.2932562590795
 10
96.0813015167783
 20
-137.2932562590795
 10
96.0813015167783
 20
-137.2932562590795
 10
95.72886824863723
 20
-137.2932562590795
 10
95.72886824863723
 20
-137.2932562590795
 10
95.72886824863723
 20
-137.2932562590795
 10
95.72886824863723
 20
-137.1451171532137
 10
95.72886824863723
 20
-137.1451171532137
 10
96.08371308361797
 20
-137.1303032426271
 10
96.13332245860556
 20
-136.9673502261748
 10
96.16501733706986
 20
-136.8529730560645
 10
96.16501733706986
 20
-136.8529730560645
 10
96.32108016255168
 20
-136.8529730560645
 10
96.32108016255168
 20
-136.8529730560645
 10
96.32108016255168
 20
-136.8529730560645
 10
96.32108016255168
 20
-138.3974093621021
 10
96.32108016255168
 20
-138.3974093621021
 10
96.32108016255168
 20
-138.3974093621021
 10
96.0813015167783
 20
-138.3974093621021
 10
96.0813015167783
 20
-138.3974093621021
 97
        0
 97
        0
 75
     2
 76
     1
 98
        0
  0
SPLINE
  5
A4
330
9E
100
AcDbEntity
  8
_U+30EC_U+30A4_U+30E4_U+30FC 1
370
     0
100
AcDbSpline
210
0.0
220
0.0
230
1.0
 70
    11
 71
     3
 72
    26
 73
    22
 74
     0
 42
0.0000000001
 43
0.0000000001
 12
1.0
 22
0.0
 32
0.0
 13
1.0
 23
0.0
 33
0.0
 40
0.0
 40
0.0
 40
0.0
 40
0.0
 40
1.0
 40
1.0
 40
1.0
 40
2.0
 40
2.0
 40
2.0
 40
3.0
 40
3.0
 40
3.0
 40
4.0
 40
4.0
 40
4.0
 40
5.0
 40
5.0
 40
5.0
 40
6.0
 40
6.0
 40
6.0
 40
7.0
 40
7.0
 40
7.0
 40
7.0
 10
97.2963866944259
 20
-138.3974093621021
 30
0.0
 10
97.2963866944259
 20
-138.3974093621021
 30
0.0
 10
97.04317217626004
 20
-138.3974093621021
 30
0.0
 10
97.04317217626004
 20
-138.3974093621021
 30
0.0
 10
97.07038843059352
 20
-138.0883842970751
 30
0.0
 10
97.27606063106293
 20
-137.5702419360936
 30
0.0
 10
97.71014266220442
 20
-137.0645019188589
 30
0.0
 10
97.71014266220442
 20
-137.0645019188589
 30
0.0
 10
96.81476234558798
 20
-137.0645019188589
 30
0.0
 10
96.81476234558798
 20
-137.0645019188589
 30
0.0
 10
96.81476234558798
 20
-137.0645019188589
 30
0.0
 10
96.81476234558798
 20
-136.8529730560645
 30
0.0
 10
96.81476234558798
 20
-136.8529730560645
 30
0.0
 10
96.81476234558798
 20
-136.8529730560645
 30
0.0
 10
97.96335718037028
 20
-136.8529730560645
 30
0.0
 10
97.96335718037028
 20
-136.8529730560645
 30
0.0
 10
97.96335718037028
 20
-136.8529730560645
 30
0.0
 10
97.96335718037028
 20
-137.0645019188589
 30
0.0
 10
97.96335718037028
 20
-137.0645019188589
 30
0.0
 10
97.6174695936512
 20
-137.3545789587169
 30
0.0
 10
97.33256019702102
 20
-137.9467908726314
 30
0.0
 10
97.2963866944259
 20
-138.3974093621021
 30
0.0
  0
HATCH
  5
A5
330
9E
100
AcDbEntity
  8
_U+30EC_U+30A4_U+30E4_U+30FC 1
 62
     7
420
 16777215
100
AcDbHatch
 10
0.0
 20
0.0
 30
0.0
210
0.0
220
0.0
230
1.0
  2
SOLID
 70
     1
 71
     0
 91
        1
 92
        1
 93
        1
 72
     4
 94
        3
 73
     0
 74
     1
 95
       26
 96
       22
 40
0.0
 40
0.0
 40
0.0
 40
0.0
 40
1.0
 40
1.0
 40
1.0
 40
2.0
 40
2.0
 40
2.0
 40
3.0
 40
3.0
 40
3.0
 40
4.0
 40
4.0
 40
4.0
 40
5.0
 40
5.0
 40
5.0
 40
6.0
 40
6.0
 40
6.0
 40
7.0
 40
7.0
 40
7.0
 40
7.0
 10
97.2963866944259
 20
-138.3974093621021
 10
97.2963866944259
 20
-138.3974093621021
 10
97.04317217626004
 20
-138.3974093621021
 10
97.04317217626004
 20
-138.3974093621021
 10
97.07038843059352
 20
-138.0883842970751
 10
97.27606063106293
 20
-137.5702419360936
 10
97.71014266220442
 20
-137.0645019188589
 10
97.71014266220442
 20
-137.0645019188589
 10
96.81476234558798
 20
-137.0645019188589
 10
96.81476234558798
 20
-137.0645019188589
 10
96.81476234558798
 20
-137.0645019188589
 10
96.81476234558798
 20
-136.8529730560645
 10
96.81476234558798
 20
-136.8529730560645
 10
96.81476234558798
 20
-136.8529730560645
 10
97.96335718037028
 20
-136.8529730560645
 10
97.96335718037028
 20
-136.8529730560645
 10
97.96335718037028
 20
-136.8529730560645
 10
97.96335718037028
 20
-137.0645019188589
 10
97.96335718037028
 20
-137.0645019188589
 10
97.6174695936512
 20
-137.3545789587169
 10
97.33256019702102
 20
-137.9467908726314
 10
97.2963866944259
 20
-138.3974093621021
 97
        0
 97
        0
 75
     2
 76
     1
 98
        0
  0
ENDBLK
  5
A1
330
9E
100
AcDbEntity
  8
0
100
AcDbBlockEnd
  0
ENDSEC
  0
SECTION
  2
ENTITIES
  0
SPLINE
  5
41
330
1F
100
AcDbEntity
  8
_U+30EC_U+30A4_U+30E4_U+30FC 1
 62
     7
420
 16777215
370
     9
100
AcDbSpline
210
0.0
220
0.0
230
1.0
 70
    11
 71
     3
 72
    17
 73
    13
 74
     0
 42
0.0000000001
 43
0.0000000001
 12
1.0
 22
0.0
 32
0.0
 13
1.0
 23
0.0
 33
0.0
 40
0.0
 40
0.0
 40
0.0
 40
0.0
 40
1.0
 40
1.0
 40
1.0
 40
2.0
 40
2.0
 40
2.0
 40
3.0
 40
3.0
 40
3.0
 40
4.0
 40
4.0
 40
4.0
 40
4.0
 10
102.8009587662179
 20
-129.0663605232892
 30
0.0
 10
102.8009587662179
 20
-129.1214996899417
 30
0.0
 10
102.8457615428527
 20
-129.1662671899309
 30
0.0
 10
102.9008654303358
 20
-129.1662671899309
 30
0.0
 10
102.9560045955957
 20
-129.1662671899309
 30
0.0
 10
103.0007720944536
 20
-129.1214996899417
 30
0.0
 10
103.0007720944536
 20
-129.0663605232892
 30
0.0
 10
103.0007720944536
 20
-129.0112566344137
 30
0.0
 10
102.9560045955957
 20
-128.966453856647
 30
0.0
 10
102.9008654303358
 20
-128.966453856647
 30
0.0
 10
102.8457615428527
 20
-128.966453856647
 30
0.0
 10
102.8009587662179
 20
-129.0112566344137
 30
0.0
 10
102.8009587662179
 20
-129.0663605232892
 30
0.0
  0
POLYLINE
  5
42
330
1F
100
AcDbEntity
  8
_U+30EC_U+30A4_U+30E4_U+30FC 1
 62
     7
420
 16777215
370
     9
100
AcDb2dPolyline
 66
     1
 10
0.0
 20
0.0
 30
0.0
  0
VERTEX
  5
43
330
42
100
AcDbEntity
  8
_U+30EC_U+30A4_U+30E4_U+30FC 1
 62
     7
420
 16777215
370
     9
100
AcDbVertex
100
AcDb2dVertex
 10
102.9008654303358
 20
-125.9862930240591
 30
0.0
  0
VERTEX
  5
44
330
42
100
AcDbEntity
  8
_U+30EC_U+30A4_U+30E4_U+30FC 1
 62
     7
420
 16777215
370
     9
100
AcDbVertex
100
AcDb2dVertex
 10
102.9012182081046
 20
-133.5663585777199
 30
0.0
  0
SEQEND
  5
45
330
42
100
AcDbEntity
  8
_U+30EC_U+30A4_U+30E4_U+30FC 1
 62
     7
420
 16777215
370
     9
  0
POLYLINE
  5
46
330
1F
100
AcDbEntity
  8
_U+30EC_U+30A4_U+30E4_U+30FC 1
 62
     7
420
 16777215
370
     9
100
AcDb2dPolyline
 66
     1
 10
0.0
 20
0.0
 30
0.0
  0
VERTEX
  5
47
330
46
100
AcDbEntity
  8
_U+30EC_U+30A4_U+30E4_U+30FC 1
 62
     7
420
 16777215
370
     9
100
AcDbVertex
100
AcDb2dVertex
 10
104.3609067819759
 20
-129.0663605232892
 30
0.0
  0
VERTEX
  5
48
330
46
100
AcDbEntity
  8
_U+30EC_U+30A4_U+30E4_U+30FC 1
 62
     7
420
 16777215
370
     9
100
AcDbVertex
100
AcDb2dVertex
 10
101.9007404558511
 20
-129.0663605232892
 30
0.0
  0
SEQEND
  5
49
330
46
100
AcDbEntity
  8
_U+30EC_U+30A4_U+30E4_U+30FC 1
 62
     7
420
 16777215
370
     9
  0
SPLINE
  5
4A
330
1F
100
AcDbEntity
  8
_U+30EC_U+30A4_U+30E4_U+30FC 1
 62
     7
420
 16777215
370
     9
100
AcDbSpline
210
0.0
220
0.0
230
1.0
 70
    11
 71
     3
 72
    17
 73
    13
 74
     0
 42
0.0000000001
 43
0.0000000001
 12
1.0
 22
0.0
 32
0.0
 13
1.0
 23
0.0
 33
0.0
 40
0.0
 40
0.0
 40
0.0
 40
0.0
 40
1.0
 40
1.0
 40
1.0
 40
2.0
 40
2.0
 40
2.0
 40
3.0
 40
3.0
 40
3.0
 40
4.0
 40
4.0
 40
4.0
 40
4.0
 10
102.8009587662179
 20
-130.0661327452611
 30
0.0
 10
102.8009587662179
 20
-130.1212719119142
 30
0.0
 10
102.8457615428527
 20
-130.1667449674583
 30
0.0
 10
102.9008654303358
 20
-130.1667449674583
 30
0.0
 10
102.9560045955957
 20
-130.1667449674583
 30
0.0
 10
103.0007720944536
 20
-130.1219421896916
 30
0.0
 10
103.0004193166848
 20
-130.0661327452611
 30
0.0
 10
103.0007720944536
 20
-130.0116991341636
 30
0.0
 10
102.9560045955957
 20
-129.9662260786195
 30
0.0
 10
102.9008654303358
 20
-129.966931634175
 30
0.0
 10
102.8457615428527
 20
-129.966931634175
 30
0.0
 10
102.8009587662179
 20
-130.0116991341636
 30
0.0
 10
102.8009587662179
 20
-130.0661327452611
 30
0.0
  0
POLYLINE
  5
4B
330
1F
100
AcDbEntity
  8
_U+30EC_U+30A4_U+30E4_U+30FC 1
 62
     7
420
 16777215
370
     9
100
AcDb2dPolyline
 66
     1
 10
0.0
 20
0.0
 30
0.0
  0
VERTEX
  5
4C
330
4B
100
AcDbEntity
  8
_U+30EC_U+30A4_U+30E4_U+30FC 1
 62
     7
420
 16777215
370
     9
100
AcDbVertex
100
AcDb2dVertex
 10
104.3609067819759
 20
-130.0661327452611
 30
0.0
  0
VERTEX
  5
4D
330
4B
100
AcDbEntity
  8
_U+30EC_U+30A4_U+30E4_U+30FC 1
 62
     7
420
 16777215
370
     9
100
AcDbVertex
100
AcDb2dVertex
 10
101.9010932336199
 20
-130.0661327452611
 30
0.0
  0
SEQEND
  5
4E
330
4B
100
AcDbEntity
  8
_U+30EC_U+30A4_U+30E4_U+30FC 1
 62
     7
420
 16777215
370
     9
  0
SPLINE
  5
4F
330
1F
100
AcDbEntity
  8
_U+30EC_U+30A4_U+30E4_U+30FC 1
 62
     7
420
 16777215
370
     9
100
AcDbSpline
210
0.0
220
0.0
230
1.0
 70
    11
 71
     3
 72
    17
 73
    13
 74
     0
 42
0.0000000001
 43
0.0000000001
 12
1.0
 22
0.0
 32
0.0
 13
1.0
 23
0.0
 33
0.0
 40
0.0
 40
0.0
 40
0.0
 40
0.0
 40
1.0
 40
1.0
 40
1.0
 40
2.0
 40
2.0
 40
2.0
 40
3.0
 40
3.0
 40
3.0
 40
4.0
 40
4.0
 40
4.0
 40
4.0
 10
102.8009587662179
 20
-133.5667113554969
 30
0.0
 10
102.8009587662179
 20
-133.6218152443725
 30
0.0
 10
102.8457615428527
 20
-133.6659124665837
 30
0.0
 10
102.9008654303358
 20
-133.6662652443615
 30
0.0
 10
102.9560045955957
 20
-133.6662652443615
 30
0.0
 10
103.0007720944536
 20
-133.6214624665947
 30
0.0
 10
103.0004193166848
 20
-133.5667113554969
 30
0.0
 10
103.0007720944536
 20
-133.5115721888445
 30
0.0
 10
102.9560045955957
 20
-133.4668046888553
 30
0.0
 10
102.9008654303358
 20
-133.4668046888553
 30
0.0
 10
102.8457615428527
 20
-133.4668046888553
 30
0.0
 10
102.8009587662179
 20
-133.5112194110668
 30
0.0
 10
102.8009587662179
 20
-133.5667113554969
 30
0.0
  0
POLYLINE
  5
50
330
1F
100
AcDbEntity
  8
_U+30EC_U+30A4_U+30E4_U+30FC 1
 62
     7
420
 16777215
370
     9
100
AcDb2dPolyline
 66
     1
 10
0.0
 20
0.0
 30
0.0
  0
VERTEX
  5
51
330
50
100
AcDbEntity
  8
_U+30EC_U+30A4_U+30E4_U+30FC 1
 62
     7
420
 16777215
370
     9
100
AcDbVertex
100
AcDb2dVertex
 10
104.3605540042071
 20
-133.5667113554969
 30
0.0
  0
VERTEX
  5
52
330
50
100
AcDbEntity
  8
_U+30EC_U+30A4_U+30E4_U+30FC 1
 62
     7
420
 16777215
370
     9
100
AcDbVertex
100
AcDb2dVertex
 10
101.9010932336199
 20
-133.5663585777199
 30
0.0
  0
SEQEND
  5
53
330
50
100
AcDbEntity
  8
_U+30EC_U+30A4_U+30E4_U+30FC 1
 62
     7
420
 16777215
370
     9
  0
INSERT
  5
55
330
1F
100
AcDbEntity
  8
_U+30EC_U+30A4_U+30E4_U+30FC 1
100
AcDbBlockReference
  2
block 2
 10
0.0
 20
0.0
 30
0.0
  0
INSERT
  5
65
330
1F
100
AcDbEntity
  8
_U+30EC_U+30A4_U+30E4_U+30FC 1
100
AcDbBlockReference
  2
block 3
 10
0.0
 20
0.0
 30
0.0
  0
SPLINE
  5
6A
330
1F
100
AcDbEntity
  8
_U+30EC_U+30A4_U+30E4_U+30FC 1
 62
     7
420
 16777215
370
     9
100
AcDbSpline
210
0.0
220
0.0
230
1.0
 70
    11
 71
     3
 72
    17
 73
    13
 74
     0
 42
0.0000000001
 43
0.0000000001
 12
1.0
 22
0.0
 32
0.0
 13
1.0
 23
0.0
 33
0.0
 40
0.0
 40
0.0
 40
0.0
 40
0.0
 40
1.0
 40
1.0
 40
1.0
 40
2.0
 40
2.0
 40
2.0
 40
3.0
 40
3.0
 40
3.0
 40
4.0
 40
4.0
 40
4.0
 40
4.0
 10
94.48485786726823
 20
-129.0436416344056
 30
0.0
 10
94.48450508949945
 20
-128.9885024677526
 30
0.0
 10
94.4397023128647
 20
-128.943734967764
 30
0.0
 10
94.3849512031504
 20
-128.943734967764
 30
0.0
 10
94.32981203789045
 20
-128.943734967764
 30
0.0
 10
94.28500926125568
 20
-128.9885024677526
 30
0.0
 10
94.28500926125568
 20
-129.0436416344056
 30
0.0
 10
94.28500926125568
 20
-129.0994510788361
 30
0.0
 10
94.32981203789045
 20
-129.1438658010475
 30
0.0
 10
94.3852687031423
 20
-129.1442185788253
 30
0.0
 10
94.4397023128647
 20
-129.1442185788253
 30
0.0
 10
94.48485786726823
 20
-129.0994510788361
 30
0.0
 10
94.48485786726823
 20
-129.0436416344056
 30
0.0
  0
SPLINE
  5
6B
330
1F
100
AcDbEntity
  8
_U+30EC_U+30A4_U+30E4_U+30FC 1
 62
     7
420
 16777215
370
     9
100
AcDbSpline
210
0.0
220
0.0
230
1.0
 70
     8
 71
     3
 72
    11
 73
     7
 74
     0
 42
0.0000000001
 43
0.0000000001
 12
1.0
 22
0.0
 32
0.0
 13
1.0
 23
0.0
 33
0.0
 40
0.0
 40
0.0
 40
0.0
 40
0.0
 40
1.0
 40
1.0
 40
1.0
 40
2.0
 40
2.0
 40
2.0
 40
2.0
 10
94.3849512031504
 20
-129.0436416344056
 30
0.0
 10
94.3849512031504
 20
-126.8346530238468
 30
0.0
 10
92.5941806932812
 20
-125.0438824687391
 30
0.0
 10
90.3848416440704
 20
-125.0435296909613
 30
0.0
 10
89.32424827670413
 20
-125.0442352465168
 30
0.0
 10
88.3064138582268
 20
-125.4655577464115
 30
0.0
 10
87.55640832180548
 20
-126.2152105240019
 30
0.0
  0
INSERT
  5
6D
330
1F
100
AcDbEntity
  8
_U+30EC_U+30A4_U+30E4_U+30FC 1
100
AcDbBlockReference
  2
block 4
 10
0.0
 20
0.0
 30
0.0
  0
SPLINE
  5
79
330
1F
100
AcDbEntity
  8
_U+30EC_U+30A4_U+30E4_U+30FC 1
 62
     7
420
 16777215
370
     9
100
AcDbSpline
210
0.0
220
0.0
230
1.0
 70
     8
 71
     3
 72
    17
 73
    13
 74
     0
 42
0.0000000001
 43
0.0000000001
 12
1.0
 22
0.0
 32
0.0
 13
1.0
 23
0.0
 33
0.0
 40
0.0
 40
0.0
 40
0.0
 40
0.0
 40
1.0
 40
1.0
 40
1.0
 40
2.0
 40
2.0
 40
2.0
 40
3.0
 40
3.0
 40
3.0
 40
4.0
 40
4.0
 40
4.0
 40
4.0
 10
90.41447497739627
 20
-119.5479221923353
 30
0.0
 10
90.45320769234642
 20
-119.587186358992
 30
0.0
 10
90.51660185739577
 20
-119.587186358992
 30
0.0
 10
90.55604241194511
 20
-119.5479221923353
 30
0.0
 10
90.59481268873377
 20
-119.5083052479009
 30
0.0
 10
90.59498907761817
 20
-119.4459341368053
 30
0.0
 10
90.5557249119532
 20
-119.4063171923705
 30
0.0
 10
90.5164277551488
 20
-119.3677233034915
 30
0.0
 10
90.45320769234642
 20
-119.3674058034916
 30
0.0
 10
90.41412219961883
 20
-119.4066699701483
 30
0.0
 10
90.39584602714316
 20
-119.4252613590326
 30
0.0
 10
90.3848416440704
 20
-119.4507671923595
 30
0.0
 10
90.3850157496417
 20
-119.4776488590196
 30
0.0
  0
SPLINE
  5
7A
330
1F
100
AcDbEntity
  8
_U+30EC_U+30A4_U+30E4_U+30FC 1
 62
     7
420
 16777215
370
     9
100
AcDbSpline
210
0.0
220
0.0
230
1.0
 70
    11
 71
     3
 72
    17
 73
    13
 74
     0
 42
0.0000000001
 43
0.0000000001
 12
1.0
 22
0.0
 32
0.0
 13
1.0
 23
0.0
 33
0.0
 40
0.0
 40
0.0
 40
0.0
 40
0.0
 40
1.0
 40
1.0
 40
1.0
 40
2.0
 40
2.0
 40
2.0
 40
3.0
 40
3.0
 40
3.0
 40
4.0
 40
4.0
 40
4.0
 40
4.0
 10
98.38435749000593
 20
-119.4776488590196
 30
0.0
 10
98.38435749000593
 20
-119.5327527478945
 30
0.0
 10
98.42912498886382
 20
-119.5775555256612
 30
0.0
 10
98.48426664204548
 20
-119.5775555256612
 30
0.0
 10
98.53936804160683
 20
-119.5775555256612
 30
0.0
 10
98.5841708182416
 20
-119.5327527478945
 30
0.0
 10
98.5841708182416
 20
-119.4776488590196
 30
0.0
 10
98.5841708182416
 20
-119.4218394145891
 30
0.0
 10
98.53972081937562
 20
-119.3770366368224
 30
0.0
 10
98.48458165411567
 20
-119.3770366368224
 30
0.0
 10
98.42912498886382
 20
-119.3770366368224
 30
0.0
 10
98.38435749000593
 20
-119.4218394145891
 30
0.0
 10
98.38435749000593
 20
-119.4776488590196
 30
0.0
  0
POLYLINE
  5
7B
330
1F
100
AcDbEntity
  8
_U+30EC_U+30A4_U+30E4_U+30FC 1
 62
     7
420
 16777215
370
     9
100
AcDb2dPolyline
 66
     1
 10
0.0
 20
0.0
 30
0.0
  0
VERTEX
  5
7C
330
7B
100
AcDbEntity
  8
_U+30EC_U+30A4_U+30E4_U+30FC 1
 62
     7
420
 16777215
370
     9
100
AcDbVertex
100
AcDb2dVertex
 10
98.48426664204548
 20
-119.4776488590196
 30
0.0
  0
VERTEX
  5
7D
330
7B
100
AcDbEntity
  8
_U+30EC_U+30A4_U+30E4_U+30FC 1
 62
     7
420
 16777215
370
     9
100
AcDbVertex
100
AcDb2dVertex
 10
90.4852751915283
 20
-119.4776488590196
 30
0.0
  0
SEQEND
  5
7E
330
7B
100
AcDbEntity
  8
_U+30EC_U+30A4_U+30E4_U+30FC 1
 62
     7
420
 16777215
370
     9
  0
POLYLINE
  5
7F
330
1F
100
AcDbEntity
  8
_U+30EC_U+30A4_U+30E4_U+30FC 1
 62
     7
420
 16777215
370
     9
100
AcDb2dPolyline
 66
     1
 10
0.0
 20
0.0
 30
0.0
  0
VERTEX
  5
80
330
7F
100
AcDbEntity
  8
_U+30EC_U+30A4_U+30E4_U+30FC 1
 62
     7
420
 16777215
370
     9
100
AcDbVertex
100
AcDb2dVertex
 10
98.48426664204548
 20
-127.8661046902558
 30
0.0
  0
VERTEX
  5
81
330
7F
100
AcDbEntity
  8
_U+30EC_U+30A4_U+30E4_U+30FC 1
 62
     7
420
 16777215
370
     9
100
AcDbVertex
100
AcDb2dVertex
 10
98.48426664204548
 20
-118.4771710814918
 30
0.0
  0
SEQEND
  5
82
330
7F
100
AcDbEntity
  8
_U+30EC_U+30A4_U+30E4_U+30FC 1
 62
     7
420
 16777215
370
     9
  0
POLYLINE
  5
83
330
1F
100
AcDbEntity
  8
_U+30EC_U+30A4_U+30E4_U+30FC 1
 62
     7
420
 16777215
370
     9
100
AcDb2dPolyline
 66
     1
 10
0.0
 20
0.0
 30
0.0
  0
VERTEX
  5
84
330
83
100
AcDbEntity
  8
_U+30EC_U+30A4_U+30E4_U+30FC 1
 62
     7
420
 16777215
370
     9
100
AcDbVertex
100
AcDb2dVertex
 10
90.4852751915283
 20
-120.9376549697657
 30
0.0
  0
VERTEX
  5
85
330
83
100
AcDbEntity
  8
_U+30EC_U+30A4_U+30E4_U+30FC 1
 62
     7
420
 16777215
370
     9
100
AcDbVertex
100
AcDb2dVertex
 10
90.48509880264392
 20
-118.4771710814918
 30
0.0
  0
SEQEND
  5
86
330
83
100
AcDbEntity
  8
_U+30EC_U+30A4_U+30E4_U+30FC 1
 62
     7
420
 16777215
370
     9
  0
INSERT
  5
88
330
1F
100
AcDbEntity
  8
_U+30EC_U+30A4_U+30E4_U+30FC 1
100
AcDbBlockReference
  2
block 5
 10
0.0
 20
0.0
 30
0.0
  0
SPLINE
  5
8F
330
1F
100
AcDbEntity
  8
_U+30EC_U+30A4_U+30E4_U+30FC 1
 62
     7
420
 16777215
370
     9
100
AcDbSpline
210
0.0
220
0.0
230
1.0
 70
     8
 71
     3
 72
    17
 73
    13
 74
     0
 42
0.0000000001
 43
0.0000000001
 12
1.0
 22
0.0
 32
0.0
 13
1.0
 23
0.0
 33
0.0
 40
0.0
 40
0.0
 40
0.0
 40
0.0
 40
1.0
 40
1.0
 40
1.0
 40
2.0
 40
2.0
 40
2.0
 40
3.0
 40
3.0
 40
3.0
 40
4.0
 40
4.0
 40
4.0
 40
4.0
 10
88.1918669167047
 20
-138.8166796875182
 30
0.0
 10
88.23130747125404
 20
-138.8562966319523
 30
0.0
 10
88.29470163630339
 20
-138.8559438541752
 30
0.0
 10
88.33396580196835
 20
-138.8166796875182
 30
0.0
 10
88.37220691210383
 20
-138.7777330208614
 30
0.0
 10
88.37255968987262
 20
-138.7146916319881
 30
0.0
 10
88.33379164458337
 20
-138.6757802431088
 30
0.0
 10
88.29470163630339
 20
-138.6361632986741
 30
0.0
 10
88.23130747125404
 20
-138.6361632986741
 30
0.0
 10
88.19169052782031
 20
-138.6757802431088
 30
0.0
 10
88.17341663939763
 20
-138.6943716319932
 30
0.0
 10
88.16276275078054
 20
-138.7198774653201
 30
0.0
 10
88.16276275078054
 20
-138.7467591319798
 30
0.0
  0
SPLINE
  5
90
330
1F
100
AcDbEntity
  8
_U+30EC_U+30A4_U+30E4_U+30FC 1
 62
     7
420
 16777215
370
     9
100
AcDbSpline
210
0.0
220
0.0
230
1.0
 70
    11
 71
     3
 72
    17
 73
    13
 74
     0
 42
0.0000000001
 43
0.0000000001
 12
1.0
 22
0.0
 32
0.0
 13
1.0
 23
0.0
 33
0.0
 40
0.0
 40
0.0
 40
0.0
 40
0.0
 40
1.0
 40
1.0
 40
1.0
 40
2.0
 40
2.0
 40
2.0
 40
3.0
 40
3.0
 40
3.0
 40
4.0
 40
4.0
 40
4.0
 40
4.0
 10
105.0630050973972
 20
-138.7464063542021
 30
0.0
 10
105.0630050973972
 20
-138.8015102430776
 30
0.0
 10
105.1074550962632
 20
-138.8463130208437
 30
0.0
 10
105.162911761515
 20
-138.8463130208437
 30
0.0
 10
105.218050926775
 20
-138.8463130208437
 30
0.0
 10
105.2628184256329
 20
-138.8015102430776
 30
0.0
 10
105.2631712034017
 20
-138.7467591319798
 30
0.0
 10
105.2628184256329
 20
-138.6905969097716
 30
0.0
 10
105.218050926775
 20
-138.6457941320049
 30
0.0
 10
105.162911761515
 20
-138.6461469097827
 30
0.0
 10
105.107807874032
 20
-138.6461469097827
 30
0.0
 10
105.0630050973972
 20
-138.6909144097719
 30
0.0
 10
105.0630050973972
 20
-138.7464063542021
 30
0.0
  0
POLYLINE
  5
91
330
1F
100
AcDbEntity
  8
_U+30EC_U+30A4_U+30E4_U+30FC 1
 62
     7
420
 16777215
370
     9
100
AcDb2dPolyline
 66
     1
 10
0.0
 20
0.0
 30
0.0
  0
VERTEX
  5
92
330
91
100
AcDbEntity
  8
_U+30EC_U+30A4_U+30E4_U+30FC 1
 62
     7
420
 16777215
370
     9
100
AcDbVertex
100
AcDb2dVertex
 10
105.2631712034017
 20
-138.7467591319798
 30
0.0
  0
VERTEX
  5
93
330
91
100
AcDbEntity
  8
_U+30EC_U+30A4_U+30E4_U+30FC 1
 62
     7
420
 16777215
370
     9
100
AcDbVertex
100
AcDb2dVertex
 10
88.26266941489837
 20
-138.7467591319798
 30
0.0
  0
SEQEND
  5
94
330
91
100
AcDbEntity
  8
_U+30EC_U+30A4_U+30E4_U+30FC 1
 62
     7
420
 16777215
370
     9
  0
POLYLINE
  5
95
330
1F
100
AcDbEntity
  8
_U+30EC_U+30A4_U+30E4_U+30FC 1
 62
     7
420
 16777215
370
     9
100
AcDb2dPolyline
 66
     1
 10
0.0
 20
0.0
 30
0.0
  0
VERTEX
  5
96
330
95
100
AcDbEntity
  8
_U+30EC_U+30A4_U+30E4_U+30FC 1
 62
     7
420
 16777215
370
     9
100
AcDbVertex
100
AcDb2dVertex
 10
105.162911761515
 20
-139.6345596873137
 30
0.0
  0
VERTEX
  5
97
330
95
100
AcDbEntity
  8
_U+30EC_U+30A4_U+30E4_U+30FC 1
 62
     7
420
 16777215
370
     9
100
AcDbVertex
100
AcDb2dVertex
 10
105.162911761515
 20
-137.4975377434031
 30
0.0
  0
SEQEND
  5
98
330
95
100
AcDbEntity
  8
_U+30EC_U+30A4_U+30E4_U+30FC 1
 62
     7
420
 16777215
370
     9
  0
POLYLINE
  5
99
330
1F
100
AcDbEntity
  8
_U+30EC_U+30A4_U+30E4_U+30FC 1
 62
     7
420
 16777215
370
     9
100
AcDb2dPolyline
 66
     1
 10
0.0
 20
0.0
 30
0.0
  0
VERTEX
  5
9A
330
99
100
AcDbEntity
  8
_U+30EC_U+30A4_U+30E4_U+30FC 1
 62
     7
420
 16777215
370
     9
100
AcDbVertex
100
AcDb2dVertex
 10
88.26281052600588
 20
-139.6352299650911
 30
0.0
  0
VERTEX
  5
9B
330
99
100
AcDbEntity
  8
_U+30EC_U+30A4_U+30E4_U+30FC 1
 62
     7
420
 16777215
370
     9
100
AcDbVertex
100
AcDb2dVertex
 10
88.26298691489028
 20
-137.4978905211809
 30
0.0
  0
SEQEND
  5
9C
330
99
100
AcDbEntity
  8
_U+30EC_U+30A4_U+30E4_U+30FC 1
 62
     7
420
 16777215
370
     9
  0
SPLINE
  5
9D
330
1F
100
AcDbEntity
  8
_U+30EC_U+30A4_U+30E4_U+30FC 1
 62
     7
420
 16777215
370
     9
100
AcDbSpline
210
0.0
220
0.0
230
1.0
 70
    11
 71
     3
 72
    17
 73
    13
 74
     0
 42
0.0000000001
 43
0.0000000001
 12
1.0
 22
0.0
 32
0.0
 13
1.0
 23
0.0
 33
0.0
 40
0.0
 40
0.0
 40
0.0
 40
0.0
 40
1.0
 40
1.0
 40
1.0
 40
2.0
 40
2.0
 40
2.0
 40
3.0
 40
3.0
 40
3.0
 40
4.0
 40
4.0
 40
4.0
 40
4.0
 10
87.6566677636921
 20
-126.2152105240019
 30
0.0
 10
87.65684415257648
 20
-126.1600713573488
 30
0.0
 10
87.61186498705733
 20
-126.11530385736
 30
0.0
 10
87.55640832180548
 20
-126.11530385736
 30
0.0
 10
87.50162193431431
 20
-126.1156566351377
 30
0.0
 10
87.45650165768765
 20
-126.1600713573488
 30
0.0
 10
87.45650165768765
 20
-126.2148577462242
 30
0.0
 10
87.45650165768765
 20
-126.2710199684324
 30
0.0
 10
87.5013044343224
 20
-126.3157874684209
 30
0.0
 10
87.55658471068988
 20
-126.315469968421
 30
0.0
 10
87.61204137594173
 20
-126.3157874684209
 30
0.0
 10
87.65684415257648
 20
-126.2710199684324
 30
0.0
 10
87.6566677636921
 20
-126.2152105240019
 30
0.0
  0
INSERT
  5
9F
330
1F
100
AcDbEntity
  8
_U+30EC_U+30A4_U+30E4_U+30FC 1
100
AcDbBlockReference
  2
block 6
 10
0.0
 20
0.0
 30
0.0
  0
SPLINE
  5
A6
330
1F
100
AcDbEntity
  8
_U+30EC_U+30A4_U+30E4_U+30FC 1
 62
     7
420
 16777215
370
    25
100
AcDbSpline
210
0.0
220
0.0
230
1.0
 70
    11
 71
     3
 72
    59
 73
    55
 74
     0
 42
0.0000000001
 43
0.0000000001
 12
1.0
 22
0.0
 32
0.0
 13
1.0
 23
0.0
 33
0.0
 40
0.0
 40
0.0
 40
0.0
 40
0.0
 40
1.0
 40
1.0
 40
1.0
 40
2.0
 40
2.0
 40
2.0
 40
3.0
 40
3.0
 40
3.0
 40
4.0
 40
4.0
 40
4.0
 40
5.0
 40
5.0
 40
5.0
 40
6.0
 40
6.0
 40
6.0
 40
7.0
 40
7.0
 40
7.0
 40
8.0
 40
8.0
 40
8.0
 40
9.0
 40
9.0
 40
9.0
 40
10.0
 40
10.0
 40
10.0
 40
11.0
 40
11.0
 40
11.0
 40
12.0
 40
12.0
 40
12.0
 40
13.0
 40
13.0
 40
13.0
 40
14.0
 40
14.0
 40
14.0
 40
15.0
 40
15.0
 40
15.0
 40
16.0
 40
16.0
 40
16.0
 40
17.0
 40
17.0
 40
17.0
 40
18.0
 40
18.0
 40
18.0
 40
18.0
 10
104.0384326235362
 20
-133.9670082998415
 30
0.0
 10
104.0384326235362
 20
-133.9670082998415
 30
0.0
 10
97.0814080788025
 20
-133.9670082998415
 30
0.0
 10
97.0814080788025
 20
-133.9670082998415
 30
0.0
 10
97.0814080788025
 20
-133.9670082998415
 30
0.0
 10
96.6810758667936
 20
-133.5660057999421
 30
0.0
 10
96.6810758667936
 20
-133.5660057999421
 30
0.0
 10
96.6810758667936
 20
-133.5660057999421
 30
0.0
 10
89.0894746715826
 20
-133.5663585777199
 30
0.0
 10
89.0894746715826
 20
-133.5663585777199
 30
0.0
 10
89.0894746715826
 20
-133.5663585777199
 30
0.0
 10
90.55364352311742
 20
-129.9900033008358
 30
0.0
 10
90.55364352311742
 20
-129.9900033008358
 30
0.0
 10
90.55364352311742
 20
-129.9900033008358
 30
0.0
 10
98.55383193012672
 20
-129.9913791341686
 30
0.0
 10
98.55383193012672
 20
-129.9913791341686
 30
0.0
 10
98.55383193012672
 20
-129.9913791341686
 30
0.0
 10
97.5540950111877
 20
-128.9902310788638
 30
0.0
 10
97.5540950111877
 20
-128.9902310788638
 30
0.0
 10
97.5540950111877
 20
-128.9902310788638
 30
0.0
 10
90.42427991530666
 20
-128.9909366344187
 30
0.0
 10
90.42427991530666
 20
-128.9909366344187
 30
0.0
 10
90.42427991530666
 20
-128.9909366344187
 30
0.0
 10
85.33553331199936
 20
-123.9734841356733
 30
0.0
 10
85.33553331199936
 20
-123.9734841356733
 30
0.0
 10
85.33553331199936
 20
-123.9734841356733
 30
0.0
 10
83.92096285899787
 20
-123.9831149690042
 30
0.0
 10
83.92096285899787
 20
-123.9831149690042
 30
0.0
 10
83.92096285899787
 20
-123.9831149690042
 30
0.0
 10
89.62897771337428
 20
-129.6103438564864
 30
0.0
 10
89.62897771337428
 20
-129.6103438564864
 30
0.0
 10
89.62897771337428
 20
-129.6103438564864
 30
0.0
 10
88.16445831129221
 20
-133.1863463555921
 30
0.0
 10
88.16445831129221
 20
-133.1863463555921
 30
0.0
 10
88.16445831129221
 20
-133.1863463555921
 30
0.0
 10
82.7167559452753
 20
-127.8023577458273
 30
0.0
 10
82.7167559452753
 20
-127.8023577458273
 30
0.0
 10
82.7167559452753
 20
-127.8023577458273
 30
0.0
 10
82.19722220167291
 20
-127.8571441347023
 30
0.0
 10
82.19722220167291
 20
-127.8571441347023
 30
0.0
 10
82.19722220167291
 20
-127.8571441347023
 30
0.0
 10
77.24559608485622
 20
-122.9682085803689
 30
0.0
 10
77.24559608485622
 20
-122.9682085803689
 30
0.0
 10
76.81323165144231
 20
-122.5417002471423
 30
0.0
 10
76.27408331426483
 20
-122.3873599694031
 30
0.0
 10
76.04117750447239
 20
-122.6233683026774
 30
0.0
 10
76.04117750447239
 20
-122.6233683026774
 30
0.0
 10
88.13863275139614
 20
-134.566448299692
 30
0.0
 10
88.13863275139614
 20
-134.566448299692
 30
0.0
 10
88.13863275139614
 20
-134.566448299692
 30
0.0
 10
105.1388170399075
 20
-134.5668010774691
 30
0.0
 10
105.1388170399075
 20
-134.5668010774691
 30
0.0
 10
105.1384642621388
 20
-134.235719133108
 30
0.0
 10
104.645457330272
 20
-133.9670082998415
 30
0.0
 10
104.0384326235362
 20
-133.9670082998415
 30
0.0
  0
HATCH
  5
A7
330
1F
100
AcDbEntity
  8
_U+30EC_U+30A4_U+30E4_U+30FC 1
 62
   253
420
 11711154
100
AcDbHatch
 10
0.0
 20
0.0
 30
0.0
210
0.0
220
0.0
230
1.0
  2
SOLID
 70
     1
 71
     0
 91
        1
 92
        1
 93
        1
 72
     4
 94
        3
 73
     0
 74
     1
 95
       59
 96
       55
 40
0.0
 40
0.0
 40
0.0
 40
0.0
 40
1.0
 40
1.0
 40
1.0
 40
2.0
 40
2.0
 40
2.0
 40
3.0
 40
3.0
 40
3.0
 40
4.0
 40
4.0
 40
4.0
 40
5.0
 40
5.0
 40
5.0
 40
6.0
 40
6.0
 40
6.0
 40
7.0
 40
7.0
 40
7.0
 40
8.0
 40
8.0
 40
8.0
 40
9.0
 40
9.0
 40
9.0
 40
10.0
 40
10.0
 40
10.0
 40
11.0
 40
11.0
 40
11.0
 40
12.0
 40
12.0
 40
12.0
 40
13.0
 40
13.0
 40
13.0
 40
14.0
 40
14.0
 40
14.0
 40
15.0
 40
15.0
 40
15.0
 40
16.0
 40
16.0
 40
16.0
 40
17.0
 40
17.0
 40
17.0
 40
18.0
 40
18.0
 40
18.0
 40
18.0
 10
104.0384326235362
 20
-133.9670082998415
 10
104.0384326235362
 20
-133.9670082998415
 10
97.0814080788025
 20
-133.9670082998415
 10
97.0814080788025
 20
-133.9670082998415
 10
97.0814080788025
 20
-133.9670082998415
 10
96.6810758667936
 20
-133.5660057999421
 10
96.6810758667936
 20
-133.5660057999421
 10
96.6810758667936
 20
-133.5660057999421
 10
89.0894746715826
 20
-133.5663585777199
 10
89.0894746715826
 20
-133.5663585777199
 10
89.0894746715826
 20
-133.5663585777199
 10
90.55364352311742
 20
-129.9900033008358
 10
90.55364352311742
 20
-129.9900033008358
 10
90.55364352311742
 20
-129.9900033008358
 10
98.55383193012672
 20
-129.9913791341686
 10
98.55383193012672
 20
-129.9913791341686
 10
98.55383193012672
 20
-129.9913791341686
 10
97.5540950111877
 20
-128.9902310788638
 10
97.5540950111877
 20
-128.9902310788638
 10
97.5540950111877
 20
-128.9902310788638
 10
90.42427991530666
 20
-128.9909366344187
 10
90.42427991530666
 20
-128.9909366344187
 10
90.42427991530666
 20
-128.9909366344187
 10
85.33553331199936
 20
-123.9734841356733
 10
85.33553331199936
 20
-123.9734841356733
 10
85.33553331199936
 20
-123.9734841356733
 10
83.92096285899787
 20
-123.9831149690042
 10
83.92096285899787
 20
-123.9831149690042
 10
83.92096285899787
 20
-123.9831149690042
 10
89.62897771337428
 20
-129.6103438564864
 10
89.62897771337428
 20
-129.6103438564864
 10
89.62897771337428
 20
-129.6103438564864
 10
88.16445831129221
 20
-133.1863463555921
 10
88.16445831129221
 20
-133.1863463555921
 10
88.16445831129221
 20
-133.1863463555921
 10
82.7167559452753
 20
-127.8023577458273
 10
82.7167559452753
 20
-127.8023577458273
 10
82.7167559452753
 20
-127.8023577458273
 10
82.19722220167291
 20
-127.8571441347023
 10
82.19722220167291
 20
-127.8571441347023
 10
82.19722220167291
 20
-127.8571441347023
 10
77.24559608485622
 20
-122.9682085803689
 10
77.24559608485622
 20
-122.9682085803689
 10
76.81323165144231
 20
-122.5417002471423
 10
76.27408331426483
 20
-122.3873599694031
 10
76.04117750447239
 20
-122.6233683026774
 10
76.04117750447239
 20
-122.6233683026774
 10
88.13863275139614
 20
-134.566448299692
 10
88.13863275139614
 20
-134.566448299692
 10
88.13863275139614
 20
-134.566448299692
 10
105.1388170399075
 20
-134.5668010774691
 10
105.1388170399075
 20
-134.5668010774691
 10
105.1384642621388
 20
-134.235719133108
 10
104.645457330272
 20
-133.9670082998415
 10
104.0384326235362
 20
-133.9670082998415
 97
        0
 97
        0
 75
     2
 76
     1
 98
        0
  0
ENDSEC
  0
SECTION
  2
OBJECTS
  0
DICTIONARY
  5
C
330
0
100
AcDbDictionary
281
     1
  3
ACAD_GROUP
350
D
  3
ACAD_LAYOUT
350
1A
  3
ACAD_MATERIAL
350
3B
  3
ACAD_MLEADERSTYLE
350
A9
  3
ACAD_MLINESTYLE
350
17
  3
ACAD_PLOTSETTINGS
350
19
  3
ACAD_PLOTSTYLENAME
350
E
  3
ACAD_TABLESTYLE
350
A8
  3
ACAD_VISUALSTYLE
350
2A
  0
SUN
  5
3F
330
29
100
AcDbSun
 90
        1
290
     0
 63
     7
421
 16777215
 40
1.0
291
     1
 91
  2455826
 92
 54000000
292
     0
 70
     2
 71
   256
280
     1
  0
DICTIONARY
  5
D
102
{ACAD_REACTORS
330
C
102
}
330
C
100
AcDbDictionary
281
     1
  0
DICTIONARY
  5
1A
102
{ACAD_REACTORS
330
C
102
}
330
C
100
AcDbDictionary
281
     1
  3
Layout1
350
1E
  3
Layout2
350
26
  3
Model
350
22
  0
DICTIONARY
  5
3B
102
{ACAD_REACTORS
330
C
102
}
330
C
100
AcDbDictionary
281
     1
  3
ByBlock
350
3D
  3
ByLayer
350
3C
  3
Global
350
3E
  0
DICTIONARY
  5
A9
102
{ACAD_REACTORS
330
C
102
}
330
C
100
AcDbDictionary
281
     1
  0
DICTIONARY
  5
17
102
{ACAD_REACTORS
330
C
102
}
330
C
100
AcDbDictionary
281
     1
  3
Standard
350
18
  0
DICTIONARY
  5
19
102
{ACAD_REACTORS
330
C
102
}
330
C
100
AcDbDictionary
281
     1
  0
ACDBDICTIONARYWDFLT
  5
E
102
{ACAD_REACTORS
330
C
102
}
330
C
100
AcDbDictionary
281
     1
  3
Normal
350
F
100
AcDbDictionaryWithDefault
340
F
  0
DICTIONARY
  5
A8
102
{ACAD_REACTORS
330
C
102
}
330
C
100
AcDbDictionary
281
     1
  0
DICTIONARY
  5
2A
102
{ACAD_REACTORS
330
C
102
}
330
C
100
AcDbDictionary
281
     1
  3
2dWireframe
350
2F
  3
3D Hidden
350
31
  3
3dWireframe
350
30
  3
Basic
350
32
  3
Brighten
350
36
  3
ColorChange
350
3A
  3
Conceptual
350
34
  3
Dim
350
35
  3
Facepattern
350
39
  3
Flat
350
2B
  3
FlatWithEdges
350
2C
  3
Gouraud
350
2D
  3
GouraudWithEdges
350
2E
  3
Linepattern
350
38
  3
Realistic
350
33
  3
Thicken
350
37
  0
LAYOUT
  5
1E
102
{ACAD_REACTORS
330
1A
102
}
330
1A
100
AcDbPlotSettings
  1

  2
none_device
  4

  6

 40
0.0
 41
0.0
 42
0.0
 43
0.0
 44
0.0
 45
0.0
 46
0.0
 47
0.0
 48
0.0
 49
0.0
140
0.0
141
0.0
142
1.0
143
1.0
 70
   688
 72
     0
 73
     0
 74
     5
  7

 75
    16
 76
     0
 77
     2
 78
   300
147
1.0
148
0.0
149
0.0
100
AcDbLayout
  1
Layout1
 70
     1
 71
     1
 10
0.0
 20
0.0
 11
12.0
 21
9.0
 12
0.0
 22
0.0
 32
0.0
 14
1.000000000000000E+20
 24
1.000000000000000E+20
 34
1.000000000000000E+20
 15
-1.000000000000000E+20
 25
-1.000000000000000E+20
 35
-1.000000000000000E+20
146
0.0
 13
0.0
 23
0.0
 33
0.0
 16
1.0
 26
0.0
 36
0.0
 17
0.0
 27
1.0
 37
0.0
 76
     0
330
1B
  0
LAYOUT
  5
26
102
{ACAD_REACTORS
330
1A
102
}
330
1A
100
AcDbPlotSettings
  1

  2
none_device
  4

  6

 40
0.0
 41
0.0
 42
0.0
 43
0.0
 44
0.0
 45
0.0
 46
0.0
 47
0.0
 48
0.0
 49
0.0
140
0.0
141
0.0
142
1.0
143
1.0
 70
   688
 72
     0
 73
     0
 74
     5
  7

 75
    16
 76
     0
 77
     2
 78
   300
147
1.0
148
0.0
149
0.0
100
AcDbLayout
  1
Layout2
 70
     1
 71
     2
 10
0.0
 20
0.0
 11
0.0
 21
0.0
 12
0.0
 22
0.0
 32
0.0
 14
0.0
 24
0.0
 34
0.0
 15
0.0
 25
0.0
 35
0.0
146
0.0
 13
0.0
 23
0.0
 33
0.0
 16
1.0
 26
0.0
 36
0.0
 17
0.0
 27
1.0
 37
0.0
 76
     0
330
23
  0
LAYOUT
  5
22
102
{ACAD_REACTORS
330
1A
102
}
330
1A
100
AcDbPlotSettings
  1

  2
none_device
  4

  6

 40
0.0
 41
0.0
 42
0.0
 43
0.0
 44
0.0
 45
0.0
 46
0.0
 47
0.0
 48
0.0
 49
0.0
140
0.0
141
0.0
142
1.0
143
1.0
 70
  1712
 72
     0
 73
     0
 74
     0
  7

 75
     0
 76
     0
 77
     2
 78
   300
147
1.0
148
0.0
149
0.0
100
AcDbLayout
  1
Model
 70
     1
 71
     0
 10
0.0
 20
0.0
 11
12.0
 21
9.0
 12
0.0
 22
0.0
 32
0.0
 14
1.000000000000000E+20
 24
1.000000000000000E+20
 34
1.000000000000000E+20
 15
-1.000000000000000E+20
 25
-1.000000000000000E+20
 35
-1.000000000000000E+20
146
0.0
 13
0.0
 23
0.0
 33
0.0
 16
1.0
 26
0.0
 36
0.0
 17
0.0
 27
1.0
 37
0.0
 76
     0
330
1F
331
29
  0
MATERIAL
  5
3D
102
{ACAD_REACTORS
330
3B
102
}
330
3B
100
AcDbMaterial
  1
ByBlock
 72
     1
 94
      127
  0
MATERIAL
  5
3C
102
{ACAD_REACTORS
330
3B
102
}
330
3B
100
AcDbMaterial
  1
ByLayer
 72
     1
 94
      127
  0
MATERIAL
  5
3E
102
{ACAD_REACTORS
330
3B
102
}
330
3B
100
AcDbMaterial
  1
Global
 72
     1
 94
      127
  0
MLINESTYLE
  5
18
102
{ACAD_REACTORS
330
17
102
}
330
17
100
AcDbMlineStyle
  2
Standard
 70
     0
  3

 62
   256
 51
90.0
 52
90.0
 71
     2
 49
0.5
 62
   256
  6
BYLAYER
 49
-0.5
 62
   256
  6
BYLAYER
  0
ACDBPLACEHOLDER
  5
F
102
{ACAD_REACTORS
330
E
102
}
330
E
  0
VISUALSTYLE
  5
2F
102
{ACAD_REACTORS
330
2A
102
}
330
2A
100
AcDbVisualStyle
  2
2dWireframe
 70
     4
177
     2
291
     0
 71
     0
176
     1
 72
     2
176
     1
 73
     0
176
     1
 90
        0
176
     1
 40
-0.6
176
     1
 41
-30.0
176
     1
 62
     5
 63
     7
421
 16777215
176
     1
 74
     1
176
     1
 91
        4
176
     1
 64
     7
176
     1
 65
   257
176
     1
 75
     1
176
     1
175
     1
176
     1
 42
1.0
176
     1
 92
        0
176
     1
 66
   257
176
     1
 43
1.0
176
     1
 76
     1
176
     1
 77
     6
176
     1
 78
     2
176
     1
 67
     7
176
     1
 79
     5
176
     1
170
     0
176
     1
171
     0
176
     1
290
     0
176
     1
 93
        1
176
     1
 44
0.0
176
     1
173
     0
176
     1
  0
VISUALSTYLE
  5
31
102
{ACAD_REACTORS
330
2A
102
}
330
2A
100
AcDbVisualStyle
  2
3D Hidden
 70
     6
177
     2
291
     0
 71
     1
176
     1
 72
     2
176
     1
 73
     2
176
     1
 90
        0
176
     1
 40
-0.6
176
     1
 41
-30.0
176
     1
 62
     5
 63
     7
421
 16777215
176
     1
 74
     2
176
     1
 91
        2
176
     1
 64
     7
176
     1
 65
   257
176
     1
 75
     2
176
     1
175
     1
176
     1
 42
40.0
176
     1
 92
        0
176
     1
 66
   257
176
     1
 43
1.0
176
     1
 76
     1
176
     1
 77
     6
176
     1
 78
     2
176
     1
 67
     7
176
     1
 79
     3
176
     1
170
     0
176
     1
171
     0
176
     1
290
     0
176
     1
 93
        1
176
     1
 44
0.0
176
     1
173
     0
176
     1
  0
VISUALSTYLE
  5
30
102
{ACAD_REACTORS
330
2A
102
}
330
2A
100
AcDbVisualStyle
  2
3dWireframe
 70
     5
177
     2
291
     0
 71
     0
176
     1
 72
     2
176
     1
 73
     0
176
     1
 90
        0
176
     1
 40
-0.6
176
     1
 41
-30.0
176
     1
 62
     5
 63
     7
421
 16777215
176
     1
 74
     1
176
     1
 91
        4
176
     1
 64
     7
176
     1
 65
   257
176
     1
 75
     1
176
     1
175
     1
176
     1
 42
1.0
176
     1
 92
        0
176
     1
 66
   257
176
     1
 43
1.0
176
     1
 76
     1
176
     1
 77
     6
176
     1
 78
     2
176
     1
 67
     7
176
     1
 79
     5
176
     1
170
     0
176
     1
171
     0
176
     1
290
     0
176
     1
 93
        1
176
     1
 44
0.0
176
     1
173
     0
176
     1
  0
VISUALSTYLE
  5
32
102
{ACAD_REACTORS
330
2A
102
}
330
2A
100
AcDbVisualStyle
  2
Basic
 70
     7
177
     2
291
     1
 71
     1
176
     1
 72
     0
176
     1
 73
     1
176
     1
 90
        0
176
     1
 40
-0.6
176
     1
 41
-30.0
176
     1
 62
     5
 63
     7
421
 16777215
176
     1
 74
     0
176
     1
 91
        4
176
     1
 64
     7
176
     1
 65
   257
176
     1
 75
     1
176
     1
175
     1
176
     1
 42
1.0
176
     1
 92
        8
176
     1
 66
     7
176
     1
 43
1.0
176
     1
 76
     1
176
     1
 77
     6
176
     1
 78
     2
176
     1
 67
     7
176
     1
 79
     5
176
     1
170
     0
176
     1
171
     0
176
     1
290
     0
176
     1
 93
        1
176
     1
 44
0.0
176
     1
173
     0
176
     1
  0
VISUALSTYLE
  5
36
102
{ACAD_REACTORS
330
2A
102
}
330
2A
100
AcDbVisualStyle
  2
Brighten
 70
    12
177
     2
291
     1
 71
     2
176
     1
 72
     2
176
     1
 73
     0
176
     1
 90
        0
176
     1
 40
-0.6
176
     1
 41
-30.0
176
     1
 62
     5
 63
     7
421
 16777215
176
     1
 74
     1
176
     1
 91
        4
176
     1
 64
     7
176
     1
 65
   257
176
     1
 75
     1
176
     1
175
     1
176
     1
 42
1.0
176
     1
 92
        8
176
     1
 66
     7
176
     1
 43
1.0
176
     1
 76
     1
176
     1
 77
     6
176
     1
 78
     2
176
     1
 67
     7
176
     1
 79
     5
176
     1
170
     0
176
     1
171
     0
176
     1
290
     0
176
     1
 93
        1
176
     1
 44
50.0
176
     1
173
     0
176
     1
  0
VISUALSTYLE
  5
3A
102
{ACAD_REACTORS
330
2A
102
}
330
2A
100
AcDbVisualStyle
  2
ColorChange
 70
    16
177
     2
291
     1
 71
     2
176
     1
 72
     2
176
     1
 73
     3
176
     1
 90
        0
176
     1
 40
-0.6
176
     1
 41
-30.0
176
     1
 62
     5
 63
     8
421
  8421504
176
     1
 74
     1
176
     1
 91
        4
176
     1
 64
     7
176
     1
 65
   257
176
     1
 75
     1
176
     1
175
     1
176
     1
 42
1.0
176
     1
 92
        8
176
     1
 66
     8
424
  8421504
176
     1
 43
1.0
176
     1
 76
     1
176
     1
 77
     6
176
     1
 78
     2
176
     1
 67
     7
176
     1
 79
     5
176
     1
170
     0
176
     1
171
     0
176
     1
290
     0
176
     1
 93
        1
176
     1
 44
0.0
176
     1
173
     0
176
     1
  0
VISUALSTYLE
  5
34
102
{ACAD_REACTORS
330
2A
102
}
330
2A
100
AcDbVisualStyle
  2
Conceptual
 70
     9
177
     2
291
     0
 71
     3
176
     1
 72
     2
176
     1
 73
     0
176
     1
 90
        0
176
     1
 40
-0.6
176
     1
 41
-30.0
176
     1
 62
     5
 63
     7
421
 16777215
176
     1
 74
     2
176
     1
 91
        2
176
     1
 64
     7
176
     1
 65
   257
176
     1
 75
     1
176
     1
175
     1
176
     1
 42
40.0
176
     1
 92
        8
176
     1
 66
     7
176
     1
 43
1.0
176
     1
 76
     1
176
     1
 77
     6
176
     1
 78
     2
176
     1
 67
     7
176
     1
 79
     3
176
     1
170
     0
176
     1
171
     0
176
     1
290
     0
176
     1
 93
        1
176
     1
 44
0.0
176
     1
173
     0
176
     1
  0
VISUALSTYLE
  5
35
102
{ACAD_REACTORS
330
2A
102
}
330
2A
100
AcDbVisualStyle
  2
Dim
 70
    11
177
     2
291
     1
 71
     2
176
     1
 72
     2
176
     1
 73
     0
176
     1
 90
        0
176
     1
 40
-0.6
176
     1
 41
-30.0
176
     1
 62
     5
 63
     7
421
 16777215
176
     1
 74
     1
176
     1
 91
        4
176
     1
 64
     7
176
     1
 65
   257
176
     1
 75
     1
176
     1
175
     1
176
     1
 42
1.0
176
     1
 92
        8
176
     1
 66
     7
176
     1
 43
1.0
176
     1
 76
     1
176
     1
 77
     6
176
     1
 78
     2
176
     1
 67
     7
176
     1
 79
     5
176
     1
170
     0
176
     1
171
     0
176
     1
290
     0
176
     1
 93
        1
176
     1
 44
-50.0
176
     1
173
     0
176
     1
  0
VISUALSTYLE
  5
39
102
{ACAD_REACTORS
330
2A
102
}
330
2A
100
AcDbVisualStyle
  2
Facepattern
 70
    15
177
     2
291
     1
 71
     2
176
     1
 72
     2
176
     1
 73
     0
176
     1
 90
        0
176
     1
 40
-0.6
176
     1
 41
-30.0
176
     1
 62
     5
 63
     7
421
 16777215
176
     1
 74
     1
176
     1
 91
        4
176
     1
 64
     7
176
     1
 65
   257
176
     1
 75
     1
176
     1
175
     1
176
     1
 42
1.0
176
     1
 92
        8
176
     1
 66
     7
176
     1
 43
1.0
176
     1
 76
     1
176
     1
 77
     6
176
     1
 78
     2
176
     1
 67
     7
176
     1
 79
     5
176
     1
170
     0
176
     1
171
     0
176
     1
290
     0
176
     1
 93
        1
176
     1
 44
0.0
176
     1
173
     0
176
     1
  0
VISUALSTYLE
  5
2B
102
{ACAD_REACTORS
330
2A
102
}
330
2A
100
AcDbVisualStyle
  2
Flat
 70
     0
177
     2
291
     1
 71
     2
176
     1
 72
     1
176
     1
 73
     1
176
     1
 90
        2
176
     1
 40
-0.6
176
     1
 41
30.0
176
     1
 62
     5
 63
     7
421
 16777215
176
     1
 74
     0
176
     1
 91
        4
176
     1
 64
     7
176
     1
 65
   257
176
     1
 75
     1
176
     1
175
     1
176
     1
 42
1.0
176
     1
 92
        8
176
     1
 66
     7
176
     1
 43
1.0
176
     1
 76
     1
176
     1
 77
     6
176
     1
 78
     2
176
     1
 67
     7
176
     1
 79
     5
176
     1
170
     0
176
     1
171
     0
176
     1
290
     0
176
     1
 93
       13
176
     1
 44
0.0
176
     1
173
     0
176
     1
  0
VISUALSTYLE
  5
2C
102
{ACAD_REACTORS
330
2A
102
}
330
2A
100
AcDbVisualStyle
  2
FlatWithEdges
 70
     1
177
     2
291
     1
 71
     2
176
     1
 72
     1
176
     1
 73
     1
176
     1
 90
        2
176
     1
 40
-0.6
176
     1
 41
30.0
176
     1
 62
     5
 63
     7
421
 16777215
176
     1
 74
     1
176
     1
 91
        4
176
     1
 64
     7
176
     1
 65
   257
176
     1
 75
     1
176
     1
175
     1
176
     1
 42
1.0
176
     1
 92
        0
176
     1
 66
   257
176
     1
 43
1.0
176
     1
 76
     1
176
     1
 77
     6
176
     1
 78
     2
176
     1
 67
     7
176
     1
 79
     5
176
     1
170
     0
176
     1
171
     0
176
     1
290
     0
176
     1
 93
       13
176
     1
 44
0.0
176
     1
173
     0
176
     1
  0
VISUALSTYLE
  5
2D
102
{ACAD_REACTORS
330
2A
102
}
330
2A
100
AcDbVisualStyle
  2
Gouraud
 70
     2
177
     2
291
     1
 71
     2
176
     1
 72
     2
176
     1
 73
     1
176
     1
 90
        2
176
     1
 40
-0.6
176
     1
 41
30.0
176
     1
 62
     5
 63
     7
421
 16777215
176
     1
 74
     0
176
     1
 91
        4
176
     1
 64
     7
176
     1
 65
   257
176
     1
 75
     1
176
     1
175
     1
176
     1
 42
1.0
176
     1
 92
        0
176
     1
 66
     7
176
     1
 43
1.0
176
     1
 76
     1
176
     1
 77
     6
176
     1
 78
     2
176
     1
 67
     7
176
     1
 79
     5
176
     1
170
     0
176
     1
171
     0
176
     1
290
     0
176
     1
 93
       13
176
     1
 44
0.0
176
     1
173
     0
176
     1
  0
VISUALSTYLE
  5
2E
102
{ACAD_REACTORS
330
2A
102
}
330
2A
100
AcDbVisualStyle
  2
GouraudWithEdges
 70
     3
177
     2
291
     1
 71
     2
176
     1
 72
     2
176
     1
 73
     1
176
     1
 90
        2
176
     1
 40
-0.6
176
     1
 41
30.0
176
     1
 62
     5
 63
     7
421
 16777215
176
     1
 74
     1
176
     1
 91
        4
176
     1
 64
     7
176
     1
 65
   257
176
     1
 75
     1
176
     1
175
     1
176
     1
 42
1.0
176
     1
 92
        0
176
     1
 66
   257
176
     1
 43
1.0
176
     1
 76
     1
176
     1
 77
     6
176
     1
 78
     2
176
     1
 67
     7
176
     1
 79
     5
176
     1
170
     0
176
     1
171
     0
176
     1
290
     0
176
     1
 93
       13
176
     1
 44
0.0
176
     1
173
     0
176
     1
  0
VISUALSTYLE
  5
38
102
{ACAD_REACTORS
330
2A
102
}
330
2A
100
AcDbVisualStyle
  2
Linepattern
 70
    14
177
     2
291
     1
 71
     2
176
     1
 72
     2
176
     1
 73
     0
176
     1
 90
        0
176
     1
 40
-0.6
176
     1
 41
-30.0
176
     1
 62
     5
 63
     7
421
 16777215
176
     1
 74
     1
176
     1
 91
        4
176
     1
 64
     7
176
     1
 65
   257
176
     1
 75
     7
176
     1
175
     7
176
     1
 42
1.0
176
     1
 92
        8
176
     1
 66
     7
176
     1
 43
1.0
176
     1
 76
     1
176
     1
 77
     6
176
     1
 78
     2
176
     1
 67
     7
176
     1
 79
     5
176
     1
170
     0
176
     1
171
     0
176
     1
290
     0
176
     1
 93
        1
176
     1
 44
0.0
176
     1
173
     0
176
     1
  0
VISUALSTYLE
  5
33
102
{ACAD_REACTORS
330
2A
102
}
330
2A
100
AcDbVisualStyle
  2
Realistic
 70
     8
177
     2
291
     0
 71
     2
176
     1
 72
     2
176
     1
 73
     0
176
     1
 90
        0
176
     1
 40
-0.6
176
     1
 41
-30.0
176
     1
 62
     5
 63
     7
421
 16777215
176
     1
 74
     1
176
     1
 91
        0
176
     1
 64
     7
176
     1
 65
   257
176
     1
 75
     1
176
     1
175
     1
176
     1
 42
1.0
176
     1
 92
        8
176
     1
 66
     8
424
  7895160
176
     1
 43
1.0
176
     1
 76
     1
176
     1
 77
     6
176
     1
 78
     2
176
     1
 67
     7
176
     1
 79
     5
176
     1
170
     0
176
     1
171
     0
176
     1
290
     0
176
     1
 93
       13
176
     1
 44
0.0
176
     1
173
     0
176
     1
  0
VISUALSTYLE
  5
37
102
{ACAD_REACTORS
330
2A
102
}
330
2A
100
AcDbVisualStyle
  2
Thicken
 70
    13
177
     2
291
     1
 71
     2
176
     1
 72
     2
176
     1
 73
     0
176
     1
 90
        0
176
     1
 40
-0.6
176
     1
 41
-30.0
176
     1
 62
     5
 63
     7
421
 16777215
176
     1
 74
     1
176
     1
 91
        4
176
     1
 64
     7
176
     1
 65
   257
176
     1
 75
     1
176
     1
175
     1
176
     1
 42
1.0
176
     1
 92
       12
176
     1
 66
     7
176
     1
 43
1.0
176
     1
 76
     1
176
     1
 77
     6
176
     1
 78
     2
176
     1
 67
     7
176
     1
 79
     5
176
     1
170
     0
176
     1
171
     0
176
     1
290
     0
176
     1
 93
        1
176
     1
 44
0.0
176
     1
173
     0
176
     1
  0
ENDSEC
  0
EOF
