  0
SECTION
  2
HEADER
  9
$ACADVER
  1
AC1024
  9
$ACADMAINTVER
 70
     6
  9
$DWGCODEPAGE
  3
UNDEFINED
  9
$INSBASE
 10
0.0
 20
0.0
 30
0.0
  9
$EXTMIN
 10
1.000000000000000E+20
 20
1.000000000000000E+20
 30
1.000000000000000E+20
  9
$EXTMAX
 10
-1.000000000000000E+20
 20
-1.000000000000000E+20
 30
-1.000000000000000E+20
  9
$LIMMIN
 10
0.0
 20
0.0
  9
$LIMMAX
 10
12.0
 20
9.0
  9
$ORTHOMODE
 70
     0
  9
$REGENMODE
 70
     1
  9
$FILLMODE
 70
     1
  9
$QTEXTMODE
 70
     0
  9
$MIRRTEXT
 70
     1
  9
$LTSCALE
 40
1.0
  9
$ATTMODE
 70
     1
  9
$TEXTSIZE
 40
0.2
  9
$TRACEWID
 40
0.05
  9
$TEXTSTYLE
  7
Standard
  9
$CLAYER
  8
0
  9
$CELTYPE
  6
ByLayer
  9
$CECOLOR
 62
   256
  9
$CELTSCALE
 40
1.0
  9
$DISPSILH
 70
     0
  9
$DIMSCALE
 40
1.0
  9
$DIMASZ
 40
0.18
  9
$DIMEXO
 40
0.0625
  9
$DIMDLI
 40
0.38
  9
$DIMRND
 40
0.0
  9
$DIMDLE
 40
0.0
  9
$DIMEXE
 40
0.18
  9
$DIMTP
 40
0.0
  9
$DIMTM
 40
0.0
  9
$DIMTXT
 40
0.18
  9
$DIMCEN
 40
0.09
  9
$DIMTSZ
 40
0.0
  9
$DIMTOL
 70
     0
  9
$DIMLIM
 70
     0
  9
$DIMTIH
 70
     1
  9
$DIMTOH
 70
     1
  9
$DIMSE1
 70
     0
  9
$DIMSE2
 70
     0
  9
$DIMTAD
 70
     0
  9
$DIMZIN
 70
     0
  9
$DIMBLK
  1

  9
$DIMASO
 70
     1
  9
$DIMSHO
 70
     1
  9
$DIMPOST
  1

  9
$DIMAPOST
  1

  9
$DIMALT
 70
     0
  9
$DIMALTD
 70
     2
  9
$DIMALTF
 40
25.4
  9
$DIMLFAC
 40
1.0
  9
$DIMTOFL
 70
     0
  9
$DIMTVP
 40
0.0
  9
$DIMTIX
 70
     0
  9
$DIMSOXD
 70
     0
  9
$DIMSAH
 70
     0
  9
$DIMBLK1
  1

  9
$DIMBLK2
  1

  9
$DIMSTYLE
  2
Standard
  9
$DIMCLRD
 70
     0
  9
$DIMCLRE
 70
     0
  9
$DIMCLRT
 70
     0
  9
$DIMTFAC
 40
1.0
  9
$DIMGAP
 40
0.09
  9
$DIMJUST
 70
     0
  9
$DIMSD1
 70
     0
  9
$DIMSD2
 70
     0
  9
$DIMTOLJ
 70
     1
  9
$DIMTZIN
 70
     0
  9
$DIMALTZ
 70
     0
  9
$DIMALTTZ
 70
     0
  9
$DIMUPT
 70
     0
  9
$DIMDEC
 70
     4
  9
$DIMTDEC
 70
     4
  9
$DIMALTU
 70
     2
  9
$DIMALTTD
 70
     2
  9
$DIMTXSTY
  7
Standard
  9
$DIMAUNIT
 70
     0
  9
$DIMADEC
 70
     0
  9
$DIMALTRND
 40
0.0
  9
$DIMAZIN
 70
     0
  9
$DIMDSEP
 70
    46
  9
$DIMATFIT
 70
     3
  9
$DIMFRAC
 70
     0
  9
$DIMLDRBLK
  1

  9
$DIMLUNIT
 70
     2
  9
$DIMLWD
 70
    -2
  9
$DIMLWE
 70
    -2
  9
$DIMTMOVE
 70
     0
  9
$DIMFXL
 40
1.0
  9
$DIMFXLON
 70
     0
  9
$DIMJOGANG
 40
0.7853981633974483
  9
$DIMTFILL
 70
     0
  9
$DIMTFILLCLR
 70
     0
  9
$DIMARCSYM
 70
     0
  9
$DIMLTYPE
  6

  9
$DIMLTEX1
  6

  9
$DIMLTEX2
  6

  9
$DIMTXTDIRECTION
 70
     0
  9
$LUNITS
 70
     2
  9
$LUPREC
 70
     4
  9
$SKETCHINC
 40
0.1
  9
$FILLETRAD
 40
0.5
  9
$AUNITS
 70
     0
  9
$AUPREC
 70
     0
  9
$MENU
  1
.
  9
$ELEVATION
 40
0.0
  9
$PELEVATION
 40
0.0
  9
$THICKNESS
 40
0.0
  9
$LIMCHECK
 70
     0
  9
$CHAMFERA
 40
0.5
  9
$CHAMFERB
 40
0.5
  9
$CHAMFERC
 40
1.0
  9
$CHAMFERD
 40
0.0
  9
$SKPOLY
 70
     0
  9
$TDCREATE
 40
2457917.622662037
  9
$TDUCREATE
 40
2457917.247662037
  9
$TDUPDATE
 40
2457917.622662037
  9
$TDUUPDATE
 40
2457917.247662037
  9
$TDINDWG
 40
0.0000000116
  9
$TDUSRTIMER
 40
0.0000000116
  9
$USRTIMER
 70
     1
  9
$ANGBASE
 50
0.0
  9
$ANGDIR
 70
     0
  9
$PDMODE
 70
     0
  9
$PDSIZE
 40
0.0
  9
$PLINEWID
 40
0.0
  9
$SPLFRAME
 70
     0
  9
$SPLINETYPE
 70
     6
  9
$SPLINESEGS
 70
     8
  9
$HANDSEED
  5
C1
  9
$SURFTAB1
 70
     6
  9
$SURFTAB2
 70
     6
  9
$SURFTYPE
 70
     6
  9
$SURFU
 70
     6
  9
$SURFV
 70
     6
  9
$UCSBASE
  2

  9
$UCSNAME
  2

  9
$UCSORG
 10
0.0
 20
0.0
 30
0.0
  9
$UCSXDIR
 10
1.0
 20
0.0
 30
0.0
  9
$UCSYDIR
 10
0.0
 20
1.0
 30
0.0
  9
$UCSORTHOREF
  2

  9
$UCSORTHOVIEW
 70
     0
  9
$UCSORGTOP
 10
0.0
 20
0.0
 30
0.0
  9
$UCSORGBOTTOM
 10
0.0
 20
0.0
 30
0.0
  9
$UCSORGLEFT
 10
0.0
 20
0.0
 30
0.0
  9
$UCSORGRIGHT
 10
0.0
 20
0.0
 30
0.0
  9
$UCSORGFRONT
 10
0.0
 20
0.0
 30
0.0
  9
$UCSORGBACK
 10
0.0
 20
0.0
 30
0.0
  9
$PUCSBASE
  2

  9
$PUCSNAME
  2

  9
$PUCSORG
 10
0.0
 20
0.0
 30
0.0
  9
$PUCSXDIR
 10
1.0
 20
0.0
 30
0.0
  9
$PUCSYDIR
 10
0.0
 20
1.0
 30
0.0
  9
$PUCSORTHOREF
  2

  9
$PUCSORTHOVIEW
 70
     0
  9
$PUCSORGTOP
 10
0.0
 20
0.0
 30
0.0
  9
$PUCSORGBOTTOM
 10
0.0
 20
0.0
 30
0.0
  9
$PUCSORGLEFT
 10
0.0
 20
0.0
 30
0.0
  9
$PUCSORGRIGHT
 10
0.0
 20
0.0
 30
0.0
  9
$PUCSORGFRONT
 10
0.0
 20
0.0
 30
0.0
  9
$PUCSORGBACK
 10
0.0
 20
0.0
 30
0.0
  9
$USERI1
 70
     0
  9
$USERI2
 70
     0
  9
$USERI3
 70
     0
  9
$USERI4
 70
     0
  9
$USERI5
 70
     0
  9
$USERR1
 40
0.0
  9
$USERR2
 40
0.0
  9
$USERR3
 40
0.0
  9
$USERR4
 40
0.0
  9
$USERR5
 40
0.0
  9
$WORLDVIEW
 70
     1
  9
$SHADEDGE
 70
     3
  9
$SHADEDIF
 70
    70
  9
$TILEMODE
 70
     1
  9
$MAXACTVP
 70
    64
  9
$PINSBASE
 10
0.0
 20
0.0
 30
0.0
  9
$PLIMCHECK
 70
     0
  9
$PEXTMIN
 10
1.000000000000000E+20
 20
1.000000000000000E+20
 30
1.000000000000000E+20
  9
$PEXTMAX
 10
-1.000000000000000E+20
 20
-1.000000000000000E+20
 30
-1.000000000000000E+20
  9
$PLIMMIN
 10
0.0
 20
0.0
  9
$PLIMMAX
 10
12.0
 20
9.0
  9
$UNITMODE
 70
     0
  9
$VISRETAIN
 70
     1
  9
$PLINEGEN
 70
     0
  9
$PSLTSCALE
 70
     1
  9
$TREEDEPTH
 70
  3020
  9
$CMLSTYLE
  2
Standard
  9
$CMLJUST
 70
     0
  9
$CMLSCALE
 40
1.0
  9
$PROXYGRAPHICS
 70
     1
  9
$MEASUREMENT
 70
     0
  9
$CELWEIGHT
370
    -1
  9
$ENDCAPS
280
     0
  9
$JOINSTYLE
280
     0
  9
$LWDISPLAY
290
     1
  9
$INSUNITS
 70
     1
  9
$HYPERLINKBASE
  1

  9
$STYLESHEET
  1

  9
$XEDIT
290
     1
  9
$CEPSNTYPE
380
     0
  9
$PSTYLEMODE
290
     1
  9
$FINGERPRINTGUID
  2
{AF0FC14C-98CC-0AD2-8EDF-CF4B731A469E}
  9
$VERSIONGUID
  2
{FAEB1C32-E019-11D5-929B-00C0DF256EC4}
  9
$EXTNAMES
290
     1
  9
$PSVPSCALE
 40
0.0
  9
$OLESTARTUP
290
     0
  9
$SORTENTS
280
   127
  9
$INDEXCTL
280
     0
  9
$HIDETEXT
280
     1
  9
$XCLIPFRAME
280
     2
  9
$HALOGAP
280
     0
  9
$OBSCOLOR
 70
   257
  9
$OBSLTYPE
280
     0
  9
$INTERSECTIONDISPLAY
280
     0
  9
$INTERSECTIONCOLOR
 70
   257
  9
$DIMASSOC
280
     2
  9
$PROJECTNAME
  1

  9
$CAMERADISPLAY
290
     0
  9
$LENSLENGTH
 40
50.0
  9
$CAMERAHEIGHT
 40
0.0
  9
$STEPSPERSEC
 40
2.0
  9
$STEPSIZE
 40
6.0
  9
$3DDWFPREC
 40
2.0
  9
$PSOLWIDTH
 40
0.25
  9
$PSOLHEIGHT
 40
4.0
  9
$LOFTANG1
 40
1.570796326794897
  9
$LOFTANG2
 40
1.570796326794897
  9
$LOFTMAG1
 40
0.0
  9
$LOFTMAG2
 40
0.0
  9
$LOFTPARAM
 70
     7
  9
$LOFTNORMALS
280
     1
  9
$LATITUDE
 40
37.795
  9
$LONGITUDE
 40
-122.394
  9
$NORTHDIRECTION
 40
0.0
  9
$TIMEZONE
 70
 -8000
  9
$LIGHTGLYPHDISPLAY
280
     1
  9
$TILEMODELIGHTSYNCH
280
     1
  9
$CMATERIAL
347
3C
  9
$SOLIDHIST
280
     1
  9
$SHOWHIST
280
     1
  9
$DWFFRAME
280
     2
  9
$DGNFRAME
280
     2
  9
$REALWORLDSCALE
290
     1
  9
$INTERFERECOLOR
 62
   256
  9
$CSHADOW
280
     0
  9
$SHADOWPLANELOCATION
 40
0.0
  0
ENDSEC
  0
SECTION
  2
CLASSES
  0
CLASS
  1
ACDBDICTIONARYWDFLT
  2
AcDbDictionaryWithDefault
  3
ObjectDBX Classes
 90
        0
 91
        4
280
     0
281
     0
  0
CLASS
  1
VISUALSTYLE
  2
AcDbVisualStyle
  3
ObjectDBX Classes
 90
     4095
 91
        4
280
     0
281
     0
  0
CLASS
  1
MATERIAL
  2
AcDbMaterial
  3
ObjectDBX Classes
 90
     1153
 91
        4
280
     0
281
     0
  0
CLASS
  1
SUN
  2
AcDbSun
  3
SCENEOE
 90
     1024
 91
        4
280
     0
281
     0
  0
ENDSEC
  0
SECTION
  2
TABLES
  0
TABLE
  2
VPORT
  5
8
330
0
100
AcDbSymbolTable
 70
     1
  0
VPORT
  5
29
330
8
100
AcDbSymbolTableRecord
100
AcDbViewportTableRecord
  2
*Active
 70
     0
 10
0.0
 20
0.0
 11
1.0
 21
1.0
 12
0.0
 22
0.0
 13
0.0
 23
0.0
 14
0.5
 24
0.5
 15
0.5
 25
0.5
 16
0.0
 26
0.0
 36
1.0
 17
91.00082462281999
 27
-128.4993055234307
 37
0.0
 40
256.9986110468615
 41
0.7081814508812795
 42
50.0
 43
0.0
 44
0.0
 50
0.0
 51
0.0
 71
     0
 72
   100
 73
     1
 74
     3
 75
     0
 76
     0
 77
     0
 78
     0
281
     0
 65
     1
110
0.0
120
0.0
130
0.0
111
1.0
121
0.0
131
0.0
112
0.0
122
1.0
132
0.0
 79
     0
146
0.0
 60
     3
 61
     5
292
     1
282
     1
141
0.0
142
0.0
 63
   250
361
3F
  0
ENDTAB
  0
TABLE
  2
LTYPE
  5
5
330
0
100
AcDbSymbolTable
 70
     1
  0
LTYPE
  5
14
330
5
100
AcDbSymbolTableRecord
100
AcDbLinetypeTableRecord
  2
ByBlock
 70
     0
  3

 72
    65
 73
     0
 40
0.0
  0
LTYPE
  5
15
330
5
100
AcDbSymbolTableRecord
100
AcDbLinetypeTableRecord
  2
ByLayer
 70
     0
  3

 72
    65
 73
     0
 40
0.0
  0
LTYPE
  5
16
330
5
100
AcDbSymbolTableRecord
100
AcDbLinetypeTableRecord
  2
Continuous
 70
     0
  3
Solid line
 72
    65
 73
     0
 40
0.0
  0
ENDTAB
  0
TABLE
  2
LAYER
  5
2
330
0
100
AcDbSymbolTable
 70
     2
  0
LAYER
  5
10
330
2
100
AcDbSymbolTableRecord
100
AcDbLayerTableRecord
  2
0
 70
     0
 62
     7
  6
Continuous
370
    -3
390
F
347
3E
  0
LAYER
  5
40
330
2
100
AcDbSymbolTableRecord
100
AcDbLayerTableRecord
  2
_U+30EC_U+30A4_U+30E4_U+30FC 1
 70
     0
 62
     7
  6
Continuous
370
    -3
390
F
347
3E
  0
ENDTAB
  0
TABLE
  2
STYLE
  5
3
330
0
100
AcDbSymbolTable
 70
     1
  0
STYLE
  5
11
330
3
100
AcDbSymbolTableRecord
100
AcDbTextStyleTableRecord
  2
Standard
 70
     0
 40
0.0
 41
1.0
 50
0.0
 71
     0
 42
0.2
  3
txt
  4

  0
ENDTAB
  0
TABLE
  2
VIEW
  5
6
330
0
100
AcDbSymbolTable
 70
     0
  0
ENDTAB
  0
TABLE
  2
UCS
  5
7
330
0
100
AcDbSymbolTable
 70
     0
  0
ENDTAB
  0
TABLE
  2
APPID
  5
9
330
0
100
AcDbSymbolTable
 70
     1
  0
APPID
  5
12
330
9
100
AcDbSymbolTableRecord
100
AcDbRegAppTableRecord
  2
ACAD
 70
     0
  0
ENDTAB
  0
TABLE
  2
DIMSTYLE
  5
A
330
0
100
AcDbSymbolTable
 70
     1
100
AcDbDimStyleTable
  0
DIMSTYLE
105
27
330
A
100
AcDbSymbolTableRecord
100
AcDbDimStyleTableRecord
  2
Standard
 70
     0
178
     0
340
11
  0
ENDTAB
  0
TABLE
  2
BLOCK_RECORD
  5
1
330
0
100
AcDbSymbolTable
 70
     6
  0
BLOCK_RECORD
  5
1F
330
1
100
AcDbSymbolTableRecord
100
AcDbBlockTableRecord
  2
*Model_Space
340
22
 70
     0
280
     1
281
     0
  0
BLOCK_RECORD
  5
1B
330
1
100
AcDbSymbolTableRecord
100
AcDbBlockTableRecord
  2
*Paper_Space
340
1E
 70
     0
280
     1
281
     0
  0
BLOCK_RECORD
  5
23
330
1
100
AcDbSymbolTableRecord
100
AcDbBlockTableRecord
  2
*Paper_Space0
340
26
 70
     0
280
     1
281
     0
  0
BLOCK_RECORD
  5
44
330
1
100
AcDbSymbolTableRecord
100
AcDbBlockTableRecord
  2
block 2
340
0
102
{BLKREFS
331
45
102
}
 70
     0
280
     1
281
     0
  0
BLOCK_RECORD
  5
68
330
1
100
AcDbSymbolTableRecord
100
AcDbBlockTableRecord
  2
block 3
340
0
102
{BLKREFS
331
69
102
}
 70
     0
280
     1
281
     0
  0
BLOCK_RECORD
  5
78
330
1
100
AcDbSymbolTableRecord
100
AcDbBlockTableRecord
  2
block 4
340
0
102
{BLKREFS
331
79
102
}
 70
     0
280
     1
281
     0
  0
BLOCK_RECORD
  5
8C
330
1
100
AcDbSymbolTableRecord
100
AcDbBlockTableRecord
  2
block 5
340
0
102
{BLKREFS
331
8D
102
}
 70
     0
280
     1
281
     0
  0
BLOCK_RECORD
  5
A2
330
1
100
AcDbSymbolTableRecord
100
AcDbBlockTableRecord
  2
block 6
340
0
102
{BLKREFS
331
A3
102
}
 70
     0
280
     1
281
     0
  0
ENDTAB
  0
ENDSEC
  0
SECTION
  2
BLOCKS
  0
BLOCK
  5
20
330
1F
100
AcDbEntity
  8
0
100
AcDbBlockBegin
  2
*Model_Space
 70
     0
 10
0.0
 20
0.0
 30
0.0
  3
*Model_Space
  1

  0
ENDBLK
  5
21
330
1F
100
AcDbEntity
  8
0
100
AcDbBlockEnd
  0
BLOCK
  5
1C
330
1B
100
AcDbEntity
 67
     1
  8
0
100
AcDbBlockBegin
  2
*Paper_Space
 70
     0
 10
0.0
 20
0.0
 30
0.0
  3
*Paper_Space
  1

  0
ENDBLK
  5
1D
330
1B
100
AcDbEntity
 67
     1
  8
0
100
AcDbBlockEnd
  0
BLOCK
  5
24
330
23
100
AcDbEntity
  8
0
100
AcDbBlockBegin
  2
*Paper_Space0
 70
     0
 10
0.0
 20
0.0
 30
0.0
  3
*Paper_Space0
  1

  0
ENDBLK
  5
25
330
23
100
AcDbEntity
  8
0
100
AcDbBlockEnd
  0
BLOCK
  5
46
330
44
100
AcDbEntity
  8
0
100
AcDbBlockBegin
  2
block 2
 70
     0
 10
0.0
 20
0.0
 30
0.0
  3
block 2
  1

  0
SPLINE
  5
48
330
44
100
AcDbEntity
  8
_U+30EC_U+30A4_U+30E4_U+30FC 1
370
     0
100
AcDbSpline
210
0.0
220
0.0
230
1.0
 70
    11
 71
     3
 72
    26
 73
    22
 74
     0
 42
0.0000000001
 43
0.0000000001
 12
1.0
 22
0.0
 32
0.0
 13
1.0
 23
0.0
 33
0.0
 40
0.0
 40
0.0
 40
0.0
 40
0.0
 40
1.0
 40
1.0
 40
1.0
 40
2.0
 40
2.0
 40
2.0
 40
3.0
 40
3.0
 40
3.0
 40
4.0
 40
4.0
 40
4.0
 40
5.0
 40
5.0
 40
5.0
 40
6.0
 40
6.0
 40
6.0
 40
7.0
 40
7.0
 40
7.0
 40
7.0
 10
87.7665635631278
 20
-124.0447970610027
 30
0.0
 10
87.7665635631278
 20
-124.0447970610027
 30
0.0
 10
88.18927677916797
 20
-123.0243597782717
 30
0.0
 10
88.18927677916797
 20
-123.0243597782717
 30
0.0
 10
88.18927677916797
 20
-123.0243597782717
 30
0.0
 10
87.86371525581185
 20
-122.8893120352499
 30
0.0
 10
87.86371525581185
 20
-122.8893120352499
 30
0.0
 10
87.86371525581185
 20
-122.8893120352499
 30
0.0
 10
87.92021482176995
 20
-122.752886254034
 30
0.0
 10
87.92021482176995
 20
-122.752886254034
 30
0.0
 10
88.25370006474213
 20
-122.8748426342118
 30
0.0
 10
88.36187606297898
 20
-122.7432399866753
 30
0.0
 10
88.43491208726627
 20
-122.6502224085736
 30
0.0
 10
88.43491208726627
 20
-122.6502224085736
 30
0.0
 10
88.57891707854972
 20
-122.7094780509199
 30
0.0
 10
88.57891707854972
 20
-122.7094780509199
 30
0.0
 10
88.57891707854972
 20
-122.7094780509199
 30
0.0
 10
87.98808320282937
 20
-124.1364366009103
 30
0.0
 10
87.98808320282937
 20
-124.1364366009103
 30
0.0
 10
87.98808320282937
 20
-124.1364366009103
 30
0.0
 10
87.7665635631278
 20
-124.0447970610027
 30
0.0
 10
87.7665635631278
 20
-124.0447970610027
 30
0.0
  0
HATCH
  5
49
330
44
100
AcDbEntity
  8
_U+30EC_U+30A4_U+30E4_U+30FC 1
 62
     7
420
 16777215
100
AcDbHatch
 10
0.0
 20
0.0
 30
0.0
210
0.0
220
0.0
230
1.0
  2
SOLID
 70
     1
 71
     0
 91
        1
 92
        1
 93
        1
 72
     4
 94
        3
 73
     0
 74
     1
 95
       26
 96
       22
 40
0.0
 40
0.0
 40
0.0
 40
0.0
 40
1.0
 40
1.0
 40
1.0
 40
2.0
 40
2.0
 40
2.0
 40
3.0
 40
3.0
 40
3.0
 40
4.0
 40
4.0
 40
4.0
 40
5.0
 40
5.0
 40
5.0
 40
6.0
 40
6.0
 40
6.0
 40
7.0
 40
7.0
 40
7.0
 40
7.0
 10
87.7665635631278
 20
-124.0447970610027
 10
87.7665635631278
 20
-124.0447970610027
 10
88.18927677916797
 20
-123.0243597782717
 10
88.18927677916797
 20
-123.0243597782717
 10
88.18927677916797
 20
-123.0243597782717
 10
87.86371525581185
 20
-122.8893120352499
 10
87.86371525581185
 20
-122.8893120352499
 10
87.86371525581185
 20
-122.8893120352499
 10
87.92021482176995
 20
-122.752886254034
 10
87.92021482176995
 20
-122.752886254034
 10
88.25370006474213
 20
-122.8748426342118
 10
88.36187606297898
 20
-122.7432399866753
 10
88.43491208726627
 20
-122.6502224085736
 10
88.43491208726627
 20
-122.6502224085736
 10
88.57891707854972
 20
-122.7094780509199
 10
88.57891707854972
 20
-122.7094780509199
 10
88.57891707854972
 20
-122.7094780509199
 10
87.98808320282937
 20
-124.1364366009103
 10
87.98808320282937
 20
-124.1364366009103
 10
87.98808320282937
 20
-124.1364366009103
 10
87.7665635631278
 20
-124.0447970610027
 10
87.7665635631278
 20
-124.0447970610027
 97
        0
 97
        0
 75
     2
 76
     1
 98
        0
  0
SPLINE
  5
4A
330
44
100
AcDbEntity
  8
_U+30EC_U+30A4_U+30E4_U+30FC 1
370
     0
100
AcDbSpline
210
0.0
220
0.0
230
1.0
 70
    11
 71
     3
 72
    62
 73
    58
 74
     0
 42
0.0000000001
 43
0.0000000001
 12
1.0
 22
0.0
 32
0.0
 13
1.0
 23
0.0
 33
0.0
 40
0.0
 40
0.0
 40
0.0
 40
0.0
 40
1.0
 40
1.0
 40
1.0
 40
2.0
 40
2.0
 40
2.0
 40
3.0
 40
3.0
 40
3.0
 40
4.0
 40
4.0
 40
4.0
 40
5.0
 40
5.0
 40
5.0
 40
6.0
 40
6.0
 40
6.0
 40
7.0
 40
7.0
 40
7.0
 40
8.0
 40
8.0
 40
8.0
 40
9.0
 40
9.0
 40
9.0
 40
10.0
 40
10.0
 40
10.0
 40
11.0
 40
11.0
 40
11.0
 40
12.0
 40
12.0
 40
12.0
 40
13.0
 40
13.0
 40
13.0
 40
14.0
 40
14.0
 40
14.0
 40
15.0
 40
15.0
 40
15.0
 40
16.0
 40
16.0
 40
16.0
 40
17.0
 40
17.0
 40
17.0
 40
18.0
 40
18.0
 40
18.0
 40
19.0
 40
19.0
 40
19.0
 40
19.0
 10
88.94892033366555
 20
-124.5891221476722
 30
0.0
 10
88.85521373646675
 20
-124.5505370782374
 30
0.0
 10
88.64816349780324
 20
-124.4416720609035
 30
0.0
 10
88.59614255597597
 20
-124.2187743830078
 30
0.0
 10
88.56582571570577
 20
-124.0847601686316
 30
0.0
 10
88.59993216100975
 20
-123.9910535714328
 30
0.0
 10
88.62818194398879
 20
-123.911127356175
 30
0.0
 10
88.62818194398879
 20
-123.911127356175
 30
0.0
 10
88.84522295955954
 20
-124.0013888578885
 30
0.0
 10
88.84522295955954
 20
-124.0013888578885
 30
0.0
 10
88.8186957243231
 20
-124.0706352771421
 30
0.0
 10
88.73980303771089
 20
-124.2921549168436
 30
0.0
 10
89.01954479111318
 20
-124.407910125148
 30
0.0
 10
89.15528155323202
 20
-124.4640651815576
 30
0.0
 10
89.33201495162534
 20
-124.4616536147179
 30
0.0
 10
89.41952037695069
 20
-124.2508137710206
 30
0.0
 10
89.4639621087104
 20
-124.1433267918808
 30
0.0
 10
89.44501408354152
 20
-124.0826931113404
 30
0.0
 10
89.42606605837265
 20
-124.0403184368719
 30
0.0
 10
89.38127981706441
 20
-123.9414441964452
 30
0.0
 10
89.27138127108493
 20
-123.8825330636474
 30
0.0
 10
89.21694876241799
 20
-123.8601399429933
 30
0.0
 10
89.19800073724912
 20
-123.8522162233772
 30
0.0
 10
89.16217174420251
 20
-123.8394693700818
 30
0.0
 10
89.1328884325779
 20
-123.8318901600143
 30
0.0
 10
89.1328884325779
 20
-123.8318901600143
 30
0.0
 10
89.2073024950593
 20
-123.6520561756842
 30
0.0
 10
89.2073024950593
 20
-123.6520561756842
 30
0.0
 10
89.24244246900884
 20
-123.6734157676928
 30
0.0
 10
89.28378361483183
 20
-123.6927083024102
 30
0.0
 10
89.28998478670529
 20
-123.6954643787984
 30
0.0
 10
89.35475258182798
 20
-123.7223361235833
 30
0.0
 10
89.5590467441033
 20
-123.7843478423178
 30
0.0
 10
89.64965275536537
 20
-123.5652397694559
 30
0.0
 10
89.71786564597332
 20
-123.401253224358
 30
0.0
 10
89.60934513818795
 20
-123.2965223216064
 30
0.0
 10
89.50082463040258
 20
-123.2517360802982
 30
0.0
 10
89.23968639262064
 20
-123.1432155725128
 30
0.0
 10
89.14253469993659
 20
-123.3550889448557
 30
0.0
 10
89.1108398214723
 20
-123.4198567399784
 30
0.0
 10
89.1108398214723
 20
-123.4198567399784
 30
0.0
 10
88.91033526423075
 20
-123.3364854292353
 30
0.0
 10
88.91033526423075
 20
-123.3364854292353
 30
0.0
 10
88.9661458110918
 20
-123.2248643355132
 30
0.0
 10
89.1370225471602
 20
-122.8879339970558
 30
0.0
 10
89.58833005572792
 20
-123.0750026819049
 30
0.0
 10
89.81019420497802
 20
-123.1666422218125
 30
0.0
 10
89.99967445666675
 20
-123.3826497087377
 30
0.0
 10
89.88633081520203
 20
-123.6561902902665
 30
0.0
 10
89.81501733865736
 20
-123.828445064529
 30
0.0
 10
89.68927135344575
 20
-123.8656520957697
 30
0.0
 10
89.56765948281642
 20
-123.8814995350019
 30
0.0
 10
89.61761336735255
 20
-123.9317979290865
 30
0.0
 10
89.76678600186386
 20
-124.0806260540493
 30
0.0
 10
89.66067706091818
 20
-124.3369411581519
 30
0.0
 10
89.53114147067278
 20
-124.6497558282126
 30
0.0
 10
89.22246091519439
 20
-124.7028102986854
 30
0.0
 10
88.94892033366555
 20
-124.5891221476722
 30
0.0
  0
HATCH
  5
4B
330
44
100
AcDbEntity
  8
_U+30EC_U+30A4_U+30E4_U+30FC 1
 62
     7
420
 16777215
100
AcDbHatch
 10
0.0
 20
0.0
 30
0.0
210
0.0
220
0.0
230
1.0
  2
SOLID
 70
     1
 71
     0
 91
        1
 92
        1
 93
        1
 72
     4
 94
        3
 73
     0
 74
     1
 95
       62
 96
       58
 40
0.0
 40
0.0
 40
0.0
 40
0.0
 40
1.0
 40
1.0
 40
1.0
 40
2.0
 40
2.0
 40
2.0
 40
3.0
 40
3.0
 40
3.0
 40
4.0
 40
4.0
 40
4.0
 40
5.0
 40
5.0
 40
5.0
 40
6.0
 40
6.0
 40
6.0
 40
7.0
 40
7.0
 40
7.0
 40
8.0
 40
8.0
 40
8.0
 40
9.0
 40
9.0
 40
9.0
 40
10.0
 40
10.0
 40
10.0
 40
11.0
 40
11.0
 40
11.0
 40
12.0
 40
12.0
 40
12.0
 40
13.0
 40
13.0
 40
13.0
 40
14.0
 40
14.0
 40
14.0
 40
15.0
 40
15.0
 40
15.0
 40
16.0
 40
16.0
 40
16.0
 40
17.0
 40
17.0
 40
17.0
 40
18.0
 40
18.0
 40
18.0
 40
19.0
 40
19.0
 40
19.0
 40
19.0
 10
88.94892033366555
 20
-124.5891221476722
 10
88.85521373646675
 20
-124.5505370782374
 10
88.64816349780324
 20
-124.4416720609035
 10
88.59614255597597
 20
-124.2187743830078
 10
88.56582571570577
 20
-124.0847601686316
 10
88.59993216100975
 20
-123.9910535714328
 10
88.62818194398879
 20
-123.911127356175
 10
88.62818194398879
 20
-123.911127356175
 10
88.84522295955954
 20
-124.0013888578885
 10
88.84522295955954
 20
-124.0013888578885
 10
88.8186957243231
 20
-124.0706352771421
 10
88.73980303771089
 20
-124.2921549168436
 10
89.01954479111318
 20
-124.407910125148
 10
89.15528155323202
 20
-124.4640651815576
 10
89.33201495162534
 20
-124.4616536147179
 10
89.41952037695069
 20
-124.2508137710206
 10
89.4639621087104
 20
-124.1433267918808
 10
89.44501408354152
 20
-124.0826931113404
 10
89.42606605837265
 20
-124.0403184368719
 10
89.38127981706441
 20
-123.9414441964452
 10
89.27138127108493
 20
-123.8825330636474
 10
89.21694876241799
 20
-123.8601399429933
 10
89.19800073724912
 20
-123.8522162233772
 10
89.16217174420251
 20
-123.8394693700818
 10
89.1328884325779
 20
-123.8318901600143
 10
89.1328884325779
 20
-123.8318901600143
 10
89.2073024950593
 20
-123.6520561756842
 10
89.2073024950593
 20
-123.6520561756842
 10
89.24244246900884
 20
-123.6734157676928
 10
89.28378361483183
 20
-123.6927083024102
 10
89.28998478670529
 20
-123.6954643787984
 10
89.35475258182798
 20
-123.7223361235833
 10
89.5590467441033
 20
-123.7843478423178
 10
89.64965275536537
 20
-123.5652397694559
 10
89.71786564597332
 20
-123.401253224358
 10
89.60934513818795
 20
-123.2965223216064
 10
89.50082463040258
 20
-123.2517360802982
 10
89.23968639262064
 20
-123.1432155725128
 10
89.14253469993659
 20
-123.3550889448557
 10
89.1108398214723
 20
-123.4198567399784
 10
89.1108398214723
 20
-123.4198567399784
 10
88.91033526423075
 20
-123.3364854292353
 10
88.91033526423075
 20
-123.3364854292353
 10
88.9661458110918
 20
-123.2248643355132
 10
89.1370225471602
 20
-122.8879339970558
 10
89.58833005572792
 20
-123.0750026819049
 10
89.81019420497802
 20
-123.1666422218125
 10
89.99967445666675
 20
-123.3826497087377
 10
89.88633081520203
 20
-123.6561902902665
 10
89.81501733865736
 20
-123.828445064529
 10
89.68927135344575
 20
-123.8656520957697
 10
89.56765948281642
 20
-123.8814995350019
 10
89.61761336735255
 20
-123.9317979290865
 10
89.76678600186386
 20
-124.0806260540493
 10
89.66067706091818
 20
-124.3369411581519
 10
89.53114147067278
 20
-124.6497558282126
 10
89.22246091519439
 20
-124.7028102986854
 10
88.94892033366555
 20
-124.5891221476722
 97
        0
 97
        0
 75
     2
 76
     1
 98
        0
  0
SPLINE
  5
4C
330
44
100
AcDbEntity
  8
_U+30EC_U+30A4_U+30E4_U+30FC 1
370
     0
100
AcDbSpline
210
0.0
220
0.0
230
1.0
 70
    11
 71
     3
 72
    53
 73
    49
 74
     0
 42
0.0000000001
 43
0.0000000001
 12
1.0
 22
0.0
 32
0.0
 13
1.0
 23
0.0
 33
0.0
 40
0.0
 40
0.0
 40
0.0
 40
0.0
 40
1.0
 40
1.0
 40
1.0
 40
2.0
 40
2.0
 40
2.0
 40
3.0
 40
3.0
 40
3.0
 40
4.0
 40
4.0
 40
4.0
 40
5.0
 40
5.0
 40
5.0
 40
6.0
 40
6.0
 40
6.0
 40
7.0
 40
7.0
 40
7.0
 40
8.0
 40
8.0
 40
8.0
 40
9.0
 40
9.0
 40
9.0
 40
10.0
 40
10.0
 40
10.0
 40
11.0
 40
11.0
 40
11.0
 40
12.0
 40
12.0
 40
12.0
 40
13.0
 40
13.0
 40
13.0
 40
14.0
 40
14.0
 40
14.0
 40
15.0
 40
15.0
 40
15.0
 40
16.0
 40
16.0
 40
16.0
 40
16.0
 10
90.1009602639331
 20
-125.0662678723793
 30
0.0
 10
90.02310110596645
 20
-125.0342284843665
 30
0.0
 10
89.92973901831618
 20
-124.9770398993113
 30
0.0
 10
89.85360240809216
 20
-124.8771321302391
 30
0.0
 10
89.72441132739529
 20
-124.7041883368795
 30
0.0
 10
89.75403914856844
 20
-124.5746527466341
 30
0.0
 10
89.77643226922257
 20
-124.4671657674943
 30
0.0
 10
89.77643226922257
 20
-124.4671657674943
 30
0.0
 10
89.99554034208445
 20
-124.5581162883049
 30
0.0
 10
89.99554034208445
 20
-124.5581162883049
 30
0.0
 10
89.97383624052738
 20
-124.7641329983229
 30
0.0
 10
90.08786890108915
 20
-124.8433701944836
 30
0.0
 10
90.17985295054532
 20
-124.8812662448214
 30
0.0
 10
90.3176567699553
 20
-124.9384548298765
 30
0.0
 10
90.50610349299848
 20
-124.9091715182519
 30
0.0
 10
90.59533146606645
 20
-124.6938530504238
 30
0.0
 10
90.69317217784754
 20
-124.4575195001356
 30
0.0
 10
90.54262150514212
 20
-124.3197156807256
 30
0.0
 10
90.42342120135248
 20
-124.270106305738
 30
0.0
 10
90.39172632288819
 20
-124.2570149428941
 30
0.0
 10
90.25185544618704
 20
-124.1991373387419
 30
0.0
 10
90.1147406458741
 20
-124.2818196303879
 30
0.0
 10
90.1147406458741
 20
-124.2818196303879
 30
0.0
 10
89.94868704348505
 20
-124.1925916573199
 30
0.0
 10
89.94868704348505
 20
-124.1925916573199
 30
0.0
 10
89.94868704348505
 20
-124.1925916573199
 30
0.0
 10
90.39138181333966
 20
-123.4605088667043
 30
0.0
 10
90.39138181333966
 20
-123.4605088667043
 30
0.0
 10
90.39138181333966
 20
-123.4605088667043
 30
0.0
 10
91.1599826160989
 20
-123.7788356895414
 30
0.0
 10
91.1599826160989
 20
-123.7788356895414
 30
0.0
 10
91.1599826160989
 20
-123.7788356895414
 30
0.0
 10
91.0855685536175
 20
-123.9586696738715
 30
0.0
 10
91.0855685536175
 20
-123.9586696738715
 30
0.0
 10
91.0855685536175
 20
-123.9586696738715
 30
0.0
 10
90.47785371001943
 20
-123.7068331938997
 30
0.0
 10
90.47785371001943
 20
-123.7068331938997
 30
0.0
 10
90.47785371001943
 20
-123.7068331938997
 30
0.0
 10
90.25116642708998
 20
-124.0709797866906
 30
0.0
 10
90.25116642708998
 20
-124.0709797866906
 30
0.0
 10
90.32489147047434
 20
-124.0644341052686
 30
0.0
 10
90.42135414406133
 20
-124.0609890097834
 30
0.0
 10
90.53848739055982
 20
-124.1095648561254
 30
0.0
 10
90.78929034188602
 20
-124.2132622302314
 30
0.0
 10
90.95189884878981
 20
-124.4823241876294
 30
0.0
 10
90.83200952590312
 20
-124.7713676988419
 30
0.0
 10
90.7103976552738
 20
-125.0645453246366
 30
0.0
 10
90.39930553295574
 20
-125.1899468002997
 30
0.0
 10
90.1009602639331
 20
-125.0662678723793
 30
0.0
  0
HATCH
  5
4D
330
44
100
AcDbEntity
  8
_U+30EC_U+30A4_U+30E4_U+30FC 1
 62
     7
420
 16777215
100
AcDbHatch
 10
0.0
 20
0.0
 30
0.0
210
0.0
220
0.0
230
1.0
  2
SOLID
 70
     1
 71
     0
 91
        1
 92
        1
 93
        1
 72
     4
 94
        3
 73
     0
 74
     1
 95
       53
 96
       49
 40
0.0
 40
0.0
 40
0.0
 40
0.0
 40
1.0
 40
1.0
 40
1.0
 40
2.0
 40
2.0
 40
2.0
 40
3.0
 40
3.0
 40
3.0
 40
4.0
 40
4.0
 40
4.0
 40
5.0
 40
5.0
 40
5.0
 40
6.0
 40
6.0
 40
6.0
 40
7.0
 40
7.0
 40
7.0
 40
8.0
 40
8.0
 40
8.0
 40
9.0
 40
9.0
 40
9.0
 40
10.0
 40
10.0
 40
10.0
 40
11.0
 40
11.0
 40
11.0
 40
12.0
 40
12.0
 40
12.0
 40
13.0
 40
13.0
 40
13.0
 40
14.0
 40
14.0
 40
14.0
 40
15.0
 40
15.0
 40
15.0
 40
16.0
 40
16.0
 40
16.0
 40
16.0
 10
90.1009602639331
 20
-125.0662678723793
 10
90.02310110596645
 20
-125.0342284843665
 10
89.92973901831618
 20
-124.9770398993113
 10
89.85360240809216
 20
-124.8771321302391
 10
89.72441132739529
 20
-124.7041883368795
 10
89.75403914856844
 20
-124.5746527466341
 10
89.77643226922257
 20
-124.4671657674943
 10
89.77643226922257
 20
-124.4671657674943
 10
89.99554034208445
 20
-124.5581162883049
 10
89.99554034208445
 20
-124.5581162883049
 10
89.97383624052738
 20
-124.7641329983229
 10
90.08786890108915
 20
-124.8433701944836
 10
90.17985295054532
 20
-124.8812662448214
 10
90.3176567699553
 20
-124.9384548298765
 10
90.50610349299848
 20
-124.9091715182519
 10
90.59533146606645
 20
-124.6938530504238
 10
90.69317217784754
 20
-124.4575195001356
 10
90.54262150514212
 20
-124.3197156807256
 10
90.42342120135248
 20
-124.270106305738
 10
90.39172632288819
 20
-124.2570149428941
 10
90.25185544618704
 20
-124.1991373387419
 10
90.1147406458741
 20
-124.2818196303879
 10
90.1147406458741
 20
-124.2818196303879
 10
89.94868704348505
 20
-124.1925916573199
 10
89.94868704348505
 20
-124.1925916573199
 10
89.94868704348505
 20
-124.1925916573199
 10
90.39138181333966
 20
-123.4605088667043
 10
90.39138181333966
 20
-123.4605088667043
 10
90.39138181333966
 20
-123.4605088667043
 10
91.1599826160989
 20
-123.7788356895414
 10
91.1599826160989
 20
-123.7788356895414
 10
91.1599826160989
 20
-123.7788356895414
 10
91.0855685536175
 20
-123.9586696738715
 10
91.0855685536175
 20
-123.9586696738715
 10
91.0855685536175
 20
-123.9586696738715
 10
90.47785371001943
 20
-123.7068331938997
 10
90.47785371001943
 20
-123.7068331938997
 10
90.47785371001943
 20
-123.7068331938997
 10
90.25116642708998
 20
-124.0709797866906
 10
90.25116642708998
 20
-124.0709797866906
 10
90.32489147047434
 20
-124.0644341052686
 10
90.42135414406133
 20
-124.0609890097834
 10
90.53848739055982
 20
-124.1095648561254
 10
90.78929034188602
 20
-124.2132622302314
 10
90.95189884878981
 20
-124.4823241876294
 10
90.83200952590312
 20
-124.7713676988419
 10
90.7103976552738
 20
-125.0645453246366
 10
90.39930553295574
 20
-125.1899468002997
 10
90.1009602639331
 20
-125.0662678723793
 97
        0
 97
        0
 75
     2
 76
     1
 98
        0
  0
SPLINE
  5
4E
330
44
100
AcDbEntity
  8
_U+30EC_U+30A4_U+30E4_U+30FC 1
370
     0
100
AcDbSpline
210
0.0
220
0.0
230
1.0
 70
    11
 71
     3
 72
    17
 73
    13
 74
     0
 42
0.0000000001
 43
0.0000000001
 12
1.0
 22
0.0
 32
0.0
 13
1.0
 23
0.0
 33
0.0
 40
0.0
 40
0.0
 40
0.0
 40
0.0
 40
1.0
 40
1.0
 40
1.0
 40
2.0
 40
2.0
 40
2.0
 40
3.0
 40
3.0
 40
3.0
 40
4.0
 40
4.0
 40
4.0
 40
4.0
 10
91.91928166104796
 20
-124.3700140748103
 30
0.0
 10
91.85623641366789
 20
-124.5222872952583
 30
0.0
 10
91.6715792956585
 20
-124.5967013577397
 30
0.0
 10
91.5020805977842
 20
-124.5267659193891
 30
0.0
 10
91.3349934667496
 20
-124.4575195001356
 30
0.0
 10
91.25368921329769
 20
-124.2752739489659
 30
0.0
 10
91.31776798932334
 20
-124.1209336712267
 30
0.0
 10
91.38184676534898
 20
-123.966248883939
 30
0.0
 10
91.56788192155248
 20
-123.8945908978458
 30
0.0
 10
91.73531356213562
 20
-123.9638373170993
 30
0.0
 10
91.90481226000992
 20
-124.0337727554499
 30
0.0
 10
91.98232690842804
 20
-124.2173963448137
 30
0.0
 10
91.91928166104796
 20
-124.3700140748103
 30
0.0
  0
SPLINE
  5
4F
330
44
100
AcDbEntity
  8
_U+30EC_U+30A4_U+30E4_U+30FC 1
370
     0
100
AcDbSpline
210
0.0
220
0.0
230
1.0
 70
    11
 71
     3
 72
    17
 73
    13
 74
     0
 42
0.0000000001
 43
0.0000000001
 12
1.0
 22
0.0
 32
0.0
 13
1.0
 23
0.0
 33
0.0
 40
0.0
 40
0.0
 40
0.0
 40
0.0
 40
1.0
 40
1.0
 40
1.0
 40
2.0
 40
2.0
 40
2.0
 40
3.0
 40
3.0
 40
3.0
 40
4.0
 40
4.0
 40
4.0
 40
4.0
 10
91.44110240769528
 20
-124.1719210844084
 30
0.0
 10
91.40320635735753
 20
-124.2639051338646
 30
0.0
 10
91.45178220369957
 20
-124.3710476034558
 30
0.0
 10
91.54962291548065
 20
-124.4113552206333
 30
0.0
 10
91.64780813681027
 20
-124.4520073473592
 30
0.0
 10
91.7583957018868
 20
-124.4106662015362
 30
0.0
 10
91.79629175222455
 20
-124.3190266616286
 30
0.0
 10
91.83453231211081
 20
-124.2270426121724
 30
0.0
 10
91.78767901351142
 20
-124.1205891616782
 30
0.0
 10
91.68742673489065
 20
-124.0792480158552
 30
0.0
 10
91.58717445626988
 20
-124.0379068700322
 30
0.0
 10
91.47934296758156
 20
-124.0799370349522
 30
0.0
 10
91.44110240769528
 20
-124.1719210844084
 30
0.0
  0
HATCH
  5
50
330
44
100
AcDbEntity
  8
_U+30EC_U+30A4_U+30E4_U+30FC 1
 62
     7
420
 16777215
100
AcDbHatch
 10
0.0
 20
0.0
 30
0.0
210
0.0
220
0.0
230
1.0
  2
SOLID
 70
     1
 71
     0
 91
        2
 92
        1
 93
        1
 72
     4
 94
        3
 73
     0
 74
     1
 95
       17
 96
       13
 40
0.0
 40
0.0
 40
0.0
 40
0.0
 40
1.0
 40
1.0
 40
1.0
 40
2.0
 40
2.0
 40
2.0
 40
3.0
 40
3.0
 40
3.0
 40
4.0
 40
4.0
 40
4.0
 40
4.0
 10
91.91928166104796
 20
-124.3700140748103
 10
91.85623641366789
 20
-124.5222872952583
 10
91.6715792956585
 20
-124.5967013577397
 10
91.5020805977842
 20
-124.5267659193891
 10
91.3349934667496
 20
-124.4575195001356
 10
91.25368921329769
 20
-124.2752739489659
 10
91.31776798932334
 20
-124.1209336712267
 10
91.38184676534898
 20
-123.966248883939
 10
91.56788192155248
 20
-123.8945908978458
 10
91.73531356213562
 20
-123.9638373170993
 10
91.90481226000992
 20
-124.0337727554499
 10
91.98232690842804
 20
-124.2173963448137
 10
91.91928166104796
 20
-124.3700140748103
 97
        0
 97
        0
 92
        1
 93
        1
 72
     4
 94
        3
 73
     0
 74
     1
 95
       17
 96
       13
 40
0.0
 40
0.0
 40
0.0
 40
0.0
 40
1.0
 40
1.0
 40
1.0
 40
2.0
 40
2.0
 40
2.0
 40
3.0
 40
3.0
 40
3.0
 40
4.0
 40
4.0
 40
4.0
 40
4.0
 10
91.44110240769528
 20
-124.1719210844084
 10
91.40320635735753
 20
-124.2639051338646
 10
91.45178220369957
 20
-124.3710476034558
 10
91.54962291548065
 20
-124.4113552206333
 10
91.64780813681027
 20
-124.4520073473592
 10
91.7583957018868
 20
-124.4106662015362
 10
91.79629175222455
 20
-124.3190266616286
 10
91.83453231211081
 20
-124.2270426121724
 10
91.78767901351142
 20
-124.1205891616782
 10
91.68742673489065
 20
-124.0792480158552
 10
91.58717445626988
 20
-124.0379068700322
 10
91.47934296758156
 20
-124.0799370349522
 10
91.44110240769528
 20
-124.1719210844084
 97
        0
 97
        0
 75
     2
 76
     1
 98
        0
  0
ENDBLK
  5
47
330
44
100
AcDbEntity
  8
0
100
AcDbBlockEnd
  0
BLOCK
  5
6A
330
68
100
AcDbEntity
  8
0
100
AcDbBlockBegin
  2
block 3
 70
     0
 10
0.0
 20
0.0
 30
0.0
  3
block 3
  1

  0
SPLINE
  5
6C
330
68
100
AcDbEntity
  8
_U+30EC_U+30A4_U+30E4_U+30FC 1
370
     0
100
AcDbSpline
210
0.0
220
0.0
230
1.0
 70
    11
 71
     3
 72
    62
 73
    58
 74
     0
 42
0.0000000001
 43
0.0000000001
 12
1.0
 22
0.0
 32
0.0
 13
1.0
 23
0.0
 33
0.0
 40
0.0
 40
0.0
 40
0.0
 40
0.0
 40
1.0
 40
1.0
 40
1.0
 40
2.0
 40
2.0
 40
2.0
 40
3.0
 40
3.0
 40
3.0
 40
4.0
 40
4.0
 40
4.0
 40
5.0
 40
5.0
 40
5.0
 40
6.0
 40
6.0
 40
6.0
 40
7.0
 40
7.0
 40
7.0
 40
8.0
 40
8.0
 40
8.0
 40
9.0
 40
9.0
 40
9.0
 40
10.0
 40
10.0
 40
10.0
 40
11.0
 40
11.0
 40
11.0
 40
12.0
 40
12.0
 40
12.0
 40
13.0
 40
13.0
 40
13.0
 40
14.0
 40
14.0
 40
14.0
 40
15.0
 40
15.0
 40
15.0
 40
16.0
 40
16.0
 40
16.0
 40
17.0
 40
17.0
 40
17.0
 40
18.0
 40
18.0
 40
18.0
 40
19.0
 40
19.0
 40
19.0
 40
19.0
 10
104.0001979991736
 20
-132.5810546543547
 30
0.0
 10
104.0001979991736
 20
-132.6826849711696
 30
0.0
 10
103.9791829167135
 20
-132.9155734259725
 30
0.0
 10
103.7931477605101
 20
-133.0488986212517
 30
0.0
 10
103.6808376476909
 20
-133.1281358174124
 30
0.0
 10
103.5816188977157
 20
-133.1326144415432
 30
0.0
 10
103.4968695487786
 20
-133.1370930656741
 30
0.0
 10
103.4968695487786
 20
-133.1370930656741
 30
0.0
 10
103.4968695487786
 20
-132.90213755358
 30
0.0
 10
103.4968695487786
 20
-132.90213755358
 30
0.0
 10
103.5709391017114
 20
-132.8997259867403
 30
0.0
 10
103.805550104257
 20
-132.888357171639
 30
0.0
 10
103.805550104257
 20
-132.5855332784856
 30
0.0
 10
103.805550104257
 20
-132.4384277012654
 30
0.0
 10
103.7359591754549
 20
-132.2758191943616
 30
0.0
 10
103.5075493447828
 20
-132.2758191943616
 30
0.0
 10
103.3911051173814
 20
-132.2758191943616
 30
0.0
 10
103.3425292710394
 20
-132.3164713210876
 30
0.0
 10
103.3108343925751
 20
-132.350233256843
 30
0.0
 10
103.2367648396422
 20
-132.4294704530037
 30
0.0
 10
103.2240179863468
 20
-132.5538384000213
 30
0.0
 10
103.2240179863468
 20
-132.612749532819
 30
0.0
 10
103.2240179863468
 20
-132.633075596182
 30
0.0
 10
103.2260850436379
 20
-132.6713161560683
 30
0.0
 10
103.2302191582202
 20
-132.7009439772414
 30
0.0
 10
103.2302191582202
 20
-132.7009439772414
 30
0.0
 10
103.0355712633036
 20
-132.7009439772414
 30
0.0
 10
103.0355712633036
 20
-132.7009439772414
 30
0.0
 10
103.0421169447256
 20
-132.6602918505155
 30
0.0
 10
103.0441840020167
 20
-132.6148165901102
 30
0.0
 10
103.0441840020167
 20
-132.6082709086882
 30
0.0
 10
103.0441840020167
 20
-132.5379909607891
 30
0.0
 10
103.0228244100082
 20
-132.3254285693492
 30
0.0
 10
102.7861463501715
 20
-132.3254285693492
 30
0.0
 10
102.6083794231326
 20
-132.3254285693492
 30
0.0
 10
102.5532578953686
 20
-132.4656439555989
 30
0.0
 10
102.5532578953686
 20
-132.5831217116459
 30
0.0
 10
102.5532578953686
 20
-132.8659640509849
 30
0.0
 10
102.7861463501715
 20
-132.8749212992466
 30
0.0
 10
102.8578043362647
 20
-132.8793999233774
 30
0.0
 10
102.8578043362647
 20
-132.8793999233774
 30
0.0
 10
102.8578043362647
 20
-133.0964409389481
 30
0.0
 10
102.8578043362647
 20
-133.0964409389481
 30
0.0
 10
102.7330918796987
 20
-133.0874836906865
 30
0.0
 10
102.3565429431609
 20
-133.0582003790618
 30
0.0
 10
102.3565429431609
 20
-132.5696858392534
 30
0.0
 10
102.3565429431609
 20
-132.32990719348
 30
0.0
 10
102.4836669665666
 20
-132.0722140511834
 30
0.0
 10
102.7796006687496
 20
-132.0722140511834
 30
0.0
 10
102.9659803345016
 20
-132.0722140511834
 30
0.0
 10
103.048318116599
 20
-132.1741888775467
 30
0.0
 10
103.1096408162365
 20
-132.2802978184924
 30
0.0
 10
103.1372015801185
 20
-132.2148410042727
 30
0.0
 10
103.2174723049248
 20
-132.0201931093561
 30
0.0
 10
103.4948024914874
 20
-132.0201931093561
 30
0.0
 10
103.8331108681389
 20
-132.0201931093561
 30
0.0
 10
104.0001979991736
 20
-132.2847764426233
 30
0.0
 10
104.0001979991736
 20
-132.5810546543547
 30
0.0
  0
HATCH
  5
6D
330
68
100
AcDbEntity
  8
_U+30EC_U+30A4_U+30E4_U+30FC 1
 62
     7
420
 16777215
100
AcDbHatch
 10
0.0
 20
0.0
 30
0.0
210
0.0
220
0.0
230
1.0
  2
SOLID
 70
     1
 71
     0
 91
        1
 92
        1
 93
        1
 72
     4
 94
        3
 73
     0
 74
     1
 95
       62
 96
       58
 40
0.0
 40
0.0
 40
0.0
 40
0.0
 40
1.0
 40
1.0
 40
1.0
 40
2.0
 40
2.0
 40
2.0
 40
3.0
 40
3.0
 40
3.0
 40
4.0
 40
4.0
 40
4.0
 40
5.0
 40
5.0
 40
5.0
 40
6.0
 40
6.0
 40
6.0
 40
7.0
 40
7.0
 40
7.0
 40
8.0
 40
8.0
 40
8.0
 40
9.0
 40
9.0
 40
9.0
 40
10.0
 40
10.0
 40
10.0
 40
11.0
 40
11.0
 40
11.0
 40
12.0
 40
12.0
 40
12.0
 40
13.0
 40
13.0
 40
13.0
 40
14.0
 40
14.0
 40
14.0
 40
15.0
 40
15.0
 40
15.0
 40
16.0
 40
16.0
 40
16.0
 40
17.0
 40
17.0
 40
17.0
 40
18.0
 40
18.0
 40
18.0
 40
19.0
 40
19.0
 40
19.0
 40
19.0
 10
104.0001979991736
 20
-132.5810546543547
 10
104.0001979991736
 20
-132.6826849711696
 10
103.9791829167135
 20
-132.9155734259725
 10
103.7931477605101
 20
-133.0488986212517
 10
103.6808376476909
 20
-133.1281358174124
 10
103.5816188977157
 20
-133.1326144415432
 10
103.4968695487786
 20
-133.1370930656741
 10
103.4968695487786
 20
-133.1370930656741
 10
103.4968695487786
 20
-132.90213755358
 10
103.4968695487786
 20
-132.90213755358
 10
103.5709391017114
 20
-132.8997259867403
 10
103.805550104257
 20
-132.888357171639
 10
103.805550104257
 20
-132.5855332784856
 10
103.805550104257
 20
-132.4384277012654
 10
103.7359591754549
 20
-132.2758191943616
 10
103.5075493447828
 20
-132.2758191943616
 10
103.3911051173814
 20
-132.2758191943616
 10
103.3425292710394
 20
-132.3164713210876
 10
103.3108343925751
 20
-132.350233256843
 10
103.2367648396422
 20
-132.4294704530037
 10
103.2240179863468
 20
-132.5538384000213
 10
103.2240179863468
 20
-132.612749532819
 10
103.2240179863468
 20
-132.633075596182
 10
103.2260850436379
 20
-132.6713161560683
 10
103.2302191582202
 20
-132.7009439772414
 10
103.2302191582202
 20
-132.7009439772414
 10
103.0355712633036
 20
-132.7009439772414
 10
103.0355712633036
 20
-132.7009439772414
 10
103.0421169447256
 20
-132.6602918505155
 10
103.0441840020167
 20
-132.6148165901102
 10
103.0441840020167
 20
-132.6082709086882
 10
103.0441840020167
 20
-132.5379909607891
 10
103.0228244100082
 20
-132.3254285693492
 10
102.7861463501715
 20
-132.3254285693492
 10
102.6083794231326
 20
-132.3254285693492
 10
102.5532578953686
 20
-132.4656439555989
 10
102.5532578953686
 20
-132.5831217116459
 10
102.5532578953686
 20
-132.8659640509849
 10
102.7861463501715
 20
-132.8749212992466
 10
102.8578043362647
 20
-132.8793999233774
 10
102.8578043362647
 20
-132.8793999233774
 10
102.8578043362647
 20
-133.0964409389481
 10
102.8578043362647
 20
-133.0964409389481
 10
102.7330918796987
 20
-133.0874836906865
 10
102.3565429431609
 20
-133.0582003790618
 10
102.3565429431609
 20
-132.5696858392534
 10
102.3565429431609
 20
-132.32990719348
 10
102.4836669665666
 20
-132.0722140511834
 10
102.7796006687496
 20
-132.0722140511834
 10
102.9659803345016
 20
-132.0722140511834
 10
103.048318116599
 20
-132.1741888775467
 10
103.1096408162365
 20
-132.2802978184924
 10
103.1372015801185
 20
-132.2148410042727
 10
103.2174723049248
 20
-132.0201931093561
 10
103.4948024914874
 20
-132.0201931093561
 10
103.8331108681389
 20
-132.0201931093561
 10
104.0001979991736
 20
-132.2847764426233
 10
104.0001979991736
 20
-132.5810546543547
 97
        0
 97
        0
 75
     2
 76
     1
 98
        0
  0
POLYLINE
  5
6E
330
68
100
AcDbEntity
  8
_U+30EC_U+30A4_U+30E4_U+30FC 1
370
     0
100
AcDb2dPolyline
 66
     1
 10
0.0
 20
0.0
 30
0.0
  0
VERTEX
  5
6F
330
6E
100
AcDbEntity
  8
_U+30EC_U+30A4_U+30E4_U+30FC 1
370
     0
100
AcDbVertex
100
AcDb2dVertex
 10
103.9495550955404
 20
-131.784548578165
 30
0.0
  0
VERTEX
  5
70
330
6E
100
AcDbEntity
  8
_U+30EC_U+30A4_U+30E4_U+30FC 1
370
     0
100
AcDbVertex
100
AcDb2dVertex
 10
103.6977186155686
 20
-131.784548578165
 30
0.0
  0
VERTEX
  5
71
330
6E
100
AcDbEntity
  8
_U+30EC_U+30A4_U+30E4_U+30FC 1
370
     0
100
AcDbVertex
100
AcDb2dVertex
 10
103.6977186155686
 20
-131.515486620767
 30
0.0
  0
VERTEX
  5
72
330
6E
100
AcDbEntity
  8
_U+30EC_U+30A4_U+30E4_U+30FC 1
370
     0
100
AcDbVertex
100
AcDb2dVertex
 10
103.9495550955404
 20
-131.515486620767
 30
0.0
  0
VERTEX
  5
73
330
6E
100
AcDbEntity
  8
_U+30EC_U+30A4_U+30E4_U+30FC 1
370
     0
100
AcDbVertex
100
AcDb2dVertex
 10
103.9495550955404
 20
-131.784548578165
 30
0.0
  0
SEQEND
  5
74
330
6E
100
AcDbEntity
  8
_U+30EC_U+30A4_U+30E4_U+30FC 1
370
     0
  0
HATCH
  5
75
330
68
100
AcDbEntity
  8
_U+30EC_U+30A4_U+30E4_U+30FC 1
 62
     7
420
 16777215
100
AcDbHatch
 10
0.0
 20
0.0
 30
0.0
210
0.0
220
0.0
230
1.0
  2
SOLID
 70
     1
 71
     0
 91
        1
 92
        1
 93
        4
 72
     1
 10
103.9495550955404
 20
-131.784548578165
 11
103.6977186155686
 21
-131.784548578165
 72
     1
 10
103.6977186155686
 20
-131.784548578165
 11
103.6977186155686
 21
-131.515486620767
 72
     1
 10
103.6977186155686
 20
-131.515486620767
 11
103.9495550955404
 21
-131.515486620767
 72
     1
 10
103.9495550955404
 20
-131.515486620767
 11
103.9495550955404
 21
-131.784548578165
 97
        0
 75
     2
 76
     1
 98
        0
  0
SPLINE
  5
76
330
68
100
AcDbEntity
  8
_U+30EC_U+30A4_U+30E4_U+30FC 1
370
     0
100
AcDbSpline
210
0.0
220
0.0
230
1.0
 70
    11
 71
     3
 72
    53
 73
    49
 74
     0
 42
0.0000000001
 43
0.0000000001
 12
1.0
 22
0.0
 32
0.0
 13
1.0
 23
0.0
 33
0.0
 40
0.0
 40
0.0
 40
0.0
 40
0.0
 40
1.0
 40
1.0
 40
1.0
 40
2.0
 40
2.0
 40
2.0
 40
3.0
 40
3.0
 40
3.0
 40
4.0
 40
4.0
 40
4.0
 40
5.0
 40
5.0
 40
5.0
 40
6.0
 40
6.0
 40
6.0
 40
7.0
 40
7.0
 40
7.0
 40
8.0
 40
8.0
 40
8.0
 40
9.0
 40
9.0
 40
9.0
 40
10.0
 40
10.0
 40
10.0
 40
11.0
 40
11.0
 40
11.0
 40
12.0
 40
12.0
 40
12.0
 40
13.0
 40
13.0
 40
13.0
 40
14.0
 40
14.0
 40
14.0
 40
15.0
 40
15.0
 40
15.0
 40
16.0
 40
16.0
 40
16.0
 40
16.0
 10
104.0001979991736
 20
-130.7486083657504
 30
0.0
 10
104.0001979991736
 20
-130.8323241860419
 30
0.0
 10
103.9833170312958
 20
-130.9405001842788
 30
0.0
 10
103.9199272743672
 20
-131.0493652016127
 30
0.0
 10
103.8100287283878
 20
-131.2347113387191
 30
0.0
 10
103.6787705903998
 20
-131.2571044593732
 30
0.0
 10
103.5709391017114
 20
-131.2774305227362
 30
0.0
 10
103.5709391017114
 20
-131.2774305227362
 30
0.0
 10
103.5709391017114
 20
-131.0400634438025
 30
0.0
 10
103.5709391017114
 20
-131.0400634438025
 30
0.0
 10
103.7697211112104
 20
-130.9814968205532
 30
0.0
 10
103.7993489323835
 20
-130.8457600584344
 30
0.0
 10
103.7993489323835
 20
-130.7461967989107
 30
0.0
 10
103.7993489323835
 20
-130.5970241643994
 30
0.0
 10
103.6997856728598
 20
-130.434071147947
 30
0.0
 10
103.4672417276054
 20
-130.434071147947
 30
0.0
 10
103.2112711330514
 20
-130.434071147947
 30
0.0
 10
103.1413356947008
 20
-130.626307476024
 30
0.0
 10
103.1413356947008
 20
-130.7551540471723
 30
0.0
 10
103.1413356947008
 20
-130.7892604924763
 30
0.0
 10
103.1413356947008
 20
-130.9405001842788
 30
0.0
 10
103.2705267753977
 20
-131.0355848196717
 30
0.0
 10
103.2705267753977
 20
-131.0355848196717
 30
0.0
 10
103.2515787502288
 20
-131.2233425236178
 30
0.0
 10
103.2515787502288
 20
-131.2233425236178
 30
0.0
 10
103.2515787502288
 20
-131.2233425236178
 30
0.0
 10
102.4051187895029
 20
-131.0944959524694
 30
0.0
 10
102.4051187895029
 20
-131.0944959524694
 30
0.0
 10
102.4051187895029
 20
-131.0944959524694
 30
0.0
 10
102.4051187895029
 20
-130.2625053927816
 30
0.0
 10
102.4051187895029
 20
-130.2625053927816
 30
0.0
 10
102.4051187895029
 20
-130.2625053927816
 30
0.0
 10
102.5997666844195
 20
-130.2625053927816
 30
0.0
 10
102.5997666844195
 20
-130.2625053927816
 30
0.0
 10
102.5997666844195
 20
-130.2625053927816
 30
0.0
 10
102.5997666844195
 20
-130.9201741209158
 30
0.0
 10
102.5997666844195
 20
-130.9201741209158
 30
0.0
 10
102.5997666844195
 20
-130.9201741209158
 30
0.0
 10
103.0228244100082
 20
-130.9904540688149
 30
0.0
 10
103.0228244100082
 20
-130.9904540688149
 30
0.0
 10
102.9890624742527
 20
-130.9249972545952
 30
0.0
 10
102.9487548570753
 20
-130.8368028101727
 30
0.0
 10
102.9487548570753
 20
-130.7100232963156
 30
0.0
 10
102.9487548570753
 20
-130.4388942816264
 30
0.0
 10
103.1351345228273
 20
-130.1856797634605
 30
0.0
 10
103.4482937024365
 20
-130.1856797634605
 30
0.0
 10
103.7655869966281
 20
-130.1856797634605
 30
0.0
 10
104.0001979991736
 20
-130.4251138996854
 30
0.0
 10
104.0001979991736
 20
-130.7486083657504
 30
0.0
  0
HATCH
  5
77
330
68
100
AcDbEntity
  8
_U+30EC_U+30A4_U+30E4_U+30FC 1
 62
     7
420
 16777215
100
AcDbHatch
 10
0.0
 20
0.0
 30
0.0
210
0.0
220
0.0
230
1.0
  2
SOLID
 70
     1
 71
     0
 91
        1
 92
        1
 93
        1
 72
     4
 94
        3
 73
     0
 74
     1
 95
       53
 96
       49
 40
0.0
 40
0.0
 40
0.0
 40
0.0
 40
1.0
 40
1.0
 40
1.0
 40
2.0
 40
2.0
 40
2.0
 40
3.0
 40
3.0
 40
3.0
 40
4.0
 40
4.0
 40
4.0
 40
5.0
 40
5.0
 40
5.0
 40
6.0
 40
6.0
 40
6.0
 40
7.0
 40
7.0
 40
7.0
 40
8.0
 40
8.0
 40
8.0
 40
9.0
 40
9.0
 40
9.0
 40
10.0
 40
10.0
 40
10.0
 40
11.0
 40
11.0
 40
11.0
 40
12.0
 40
12.0
 40
12.0
 40
13.0
 40
13.0
 40
13.0
 40
14.0
 40
14.0
 40
14.0
 40
15.0
 40
15.0
 40
15.0
 40
16.0
 40
16.0
 40
16.0
 40
16.0
 10
104.0001979991736
 20
-130.7486083657504
 10
104.0001979991736
 20
-130.8323241860419
 10
103.9833170312958
 20
-130.9405001842788
 10
103.9199272743672
 20
-131.0493652016127
 10
103.8100287283878
 20
-131.2347113387191
 10
103.6787705903998
 20
-131.2571044593732
 10
103.5709391017114
 20
-131.2774305227362
 10
103.5709391017114
 20
-131.2774305227362
 10
103.5709391017114
 20
-131.0400634438025
 10
103.5709391017114
 20
-131.0400634438025
 10
103.7697211112104
 20
-130.9814968205532
 10
103.7993489323835
 20
-130.8457600584344
 10
103.7993489323835
 20
-130.7461967989107
 10
103.7993489323835
 20
-130.5970241643994
 10
103.6997856728598
 20
-130.434071147947
 10
103.4672417276054
 20
-130.434071147947
 10
103.2112711330514
 20
-130.434071147947
 10
103.1413356947008
 20
-130.626307476024
 10
103.1413356947008
 20
-130.7551540471723
 10
103.1413356947008
 20
-130.7892604924763
 10
103.1413356947008
 20
-130.9405001842788
 10
103.2705267753977
 20
-131.0355848196717
 10
103.2705267753977
 20
-131.0355848196717
 10
103.2515787502288
 20
-131.2233425236178
 10
103.2515787502288
 20
-131.2233425236178
 10
103.2515787502288
 20
-131.2233425236178
 10
102.4051187895029
 20
-131.0944959524694
 10
102.4051187895029
 20
-131.0944959524694
 10
102.4051187895029
 20
-131.0944959524694
 10
102.4051187895029
 20
-130.2625053927816
 10
102.4051187895029
 20
-130.2625053927816
 10
102.4051187895029
 20
-130.2625053927816
 10
102.5997666844195
 20
-130.2625053927816
 10
102.5997666844195
 20
-130.2625053927816
 10
102.5997666844195
 20
-130.2625053927816
 10
102.5997666844195
 20
-130.9201741209158
 10
102.5997666844195
 20
-130.9201741209158
 10
102.5997666844195
 20
-130.9201741209158
 10
103.0228244100082
 20
-130.9904540688149
 10
103.0228244100082
 20
-130.9904540688149
 10
102.9890624742527
 20
-130.9249972545952
 10
102.9487548570753
 20
-130.8368028101727
 10
102.9487548570753
 20
-130.7100232963156
 10
102.9487548570753
 20
-130.4388942816264
 10
103.1351345228273
 20
-130.1856797634605
 10
103.4482937024365
 20
-130.1856797634605
 10
103.7655869966281
 20
-130.1856797634605
 10
104.0001979991736
 20
-130.4251138996854
 10
104.0001979991736
 20
-130.7486083657504
 97
        0
 97
        0
 75
     2
 76
     1
 98
        0
  0
ENDBLK
  5
6B
330
68
100
AcDbEntity
  8
0
100
AcDbBlockEnd
  0
BLOCK
  5
7A
330
78
100
AcDbEntity
  8
0
100
AcDbBlockBegin
  2
block 4
 70
     0
 10
0.0
 20
0.0
 30
0.0
  3
block 4
  1

  0
SPLINE
  5
7C
330
78
100
AcDbEntity
  8
_U+30EC_U+30A4_U+30E4_U+30FC 1
370
     0
100
AcDbSpline
210
0.0
220
0.0
230
1.0
 70
    11
 71
     3
 72
    26
 73
    22
 74
     0
 42
0.0000000001
 43
0.0000000001
 12
1.0
 22
0.0
 32
0.0
 13
1.0
 23
0.0
 33
0.0
 40
0.0
 40
0.0
 40
0.0
 40
0.0
 40
1.0
 40
1.0
 40
1.0
 40
2.0
 40
2.0
 40
2.0
 40
3.0
 40
3.0
 40
3.0
 40
4.0
 40
4.0
 40
4.0
 40
5.0
 40
5.0
 40
5.0
 40
6.0
 40
6.0
 40
6.0
 40
7.0
 40
7.0
 40
7.0
 40
7.0
 10
103.7435383855225
 20
-136.3661810639987
 30
0.0
 10
103.7435383855225
 20
-136.3661810639987
 30
0.0
 10
102.6390407729514
 20
-136.3661810639987
 30
0.0
 10
102.6390407729514
 20
-136.3661810639987
 30
0.0
 10
102.6390407729514
 20
-136.3661810639987
 30
0.0
 10
102.6390407729514
 20
-136.7186143321398
 30
0.0
 10
102.6390407729514
 20
-136.7186143321398
 30
0.0
 10
102.6390407729514
 20
-136.7186143321398
 30
0.0
 10
102.4909016670856
 20
-136.7186143321398
 30
0.0
 10
102.4909016670856
 20
-136.7186143321398
 30
0.0
 10
102.4764322660476
 20
-136.3637694971591
 30
0.0
 10
102.3131347400467
 20
-136.3141601221715
 30
0.0
 10
102.1987575699364
 20
-136.2824652437072
 30
0.0
 10
102.1987575699364
 20
-136.2824652437072
 30
0.0
 10
102.1987575699364
 20
-136.1264024182254
 30
0.0
 10
102.1987575699364
 20
-136.1264024182254
 30
0.0
 10
102.1987575699364
 20
-136.1264024182254
 30
0.0
 10
103.7435383855225
 20
-136.1264024182254
 30
0.0
 10
103.7435383855225
 20
-136.1264024182254
 30
0.0
 10
103.7435383855225
 20
-136.1264024182254
 30
0.0
 10
103.7435383855225
 20
-136.3661810639987
 30
0.0
 10
103.7435383855225
 20
-136.3661810639987
 30
0.0
  0
HATCH
  5
7D
330
78
100
AcDbEntity
  8
_U+30EC_U+30A4_U+30E4_U+30FC 1
 62
     7
420
 16777215
100
AcDbHatch
 10
0.0
 20
0.0
 30
0.0
210
0.0
220
0.0
230
1.0
  2
SOLID
 70
     1
 71
     0
 91
        1
 92
        1
 93
        1
 72
     4
 94
        3
 73
     0
 74
     1
 95
       26
 96
       22
 40
0.0
 40
0.0
 40
0.0
 40
0.0
 40
1.0
 40
1.0
 40
1.0
 40
2.0
 40
2.0
 40
2.0
 40
3.0
 40
3.0
 40
3.0
 40
4.0
 40
4.0
 40
4.0
 40
5.0
 40
5.0
 40
5.0
 40
6.0
 40
6.0
 40
6.0
 40
7.0
 40
7.0
 40
7.0
 40
7.0
 10
103.7435383855225
 20
-136.3661810639987
 10
103.7435383855225
 20
-136.3661810639987
 10
102.6390407729514
 20
-136.3661810639987
 10
102.6390407729514
 20
-136.3661810639987
 10
102.6390407729514
 20
-136.3661810639987
 10
102.6390407729514
 20
-136.7186143321398
 10
102.6390407729514
 20
-136.7186143321398
 10
102.6390407729514
 20
-136.7186143321398
 10
102.4909016670856
 20
-136.7186143321398
 10
102.4909016670856
 20
-136.7186143321398
 10
102.4764322660476
 20
-136.3637694971591
 10
102.3131347400467
 20
-136.3141601221715
 10
102.1987575699364
 20
-136.2824652437072
 10
102.1987575699364
 20
-136.2824652437072
 10
102.1987575699364
 20
-136.1264024182254
 10
102.1987575699364
 20
-136.1264024182254
 10
102.1987575699364
 20
-136.1264024182254
 10
103.7435383855225
 20
-136.1264024182254
 10
103.7435383855225
 20
-136.1264024182254
 10
103.7435383855225
 20
-136.1264024182254
 10
103.7435383855225
 20
-136.3661810639987
 10
103.7435383855225
 20
-136.3661810639987
 97
        0
 97
        0
 75
     2
 76
     1
 98
        0
  0
ENDBLK
  5
7B
330
78
100
AcDbEntity
  8
0
100
AcDbBlockEnd
  0
BLOCK
  5
8E
330
8C
100
AcDbEntity
  8
0
100
AcDbBlockBegin
  2
block 5
 70
     0
 10
0.0
 20
0.0
 30
0.0
  3
block 5
  1

  0
SPLINE
  5
90
330
8C
100
AcDbEntity
  8
_U+30EC_U+30A4_U+30E4_U+30FC 1
370
     0
100
AcDbSpline
210
0.0
220
0.0
230
1.0
 70
    11
 71
     3
 72
    26
 73
    22
 74
     0
 42
0.0000000001
 43
0.0000000001
 12
1.0
 22
0.0
 32
0.0
 13
1.0
 23
0.0
 33
0.0
 40
0.0
 40
0.0
 40
0.0
 40
0.0
 40
1.0
 40
1.0
 40
1.0
 40
2.0
 40
2.0
 40
2.0
 40
3.0
 40
3.0
 40
3.0
 40
4.0
 40
4.0
 40
4.0
 40
5.0
 40
5.0
 40
5.0
 40
6.0
 40
6.0
 40
6.0
 40
7.0
 40
7.0
 40
7.0
 40
7.0
 10
90.41360267921952
 20
-138.113878003666
 30
0.0
 10
90.41360267921952
 20
-138.113878003666
 30
0.0
 10
90.41360267921952
 20
-137.0097249006434
 30
0.0
 10
90.41360267921952
 20
-137.0097249006434
 30
0.0
 10
90.41360267921952
 20
-137.0097249006434
 30
0.0
 10
90.06116941107847
 20
-137.0097249006434
 30
0.0
 10
90.06116941107847
 20
-137.0097249006434
 30
0.0
 10
90.06116941107847
 20
-137.0097249006434
 30
0.0
 10
90.06116941107847
 20
-136.8615857947777
 30
0.0
 10
90.06116941107847
 20
-136.8615857947777
 30
0.0
 10
90.41601424605919
 20
-136.8467718841911
 30
0.0
 10
90.46562362104679
 20
-136.6838188677388
 30
0.0
 10
90.4973184995111
 20
-136.5694416976285
 30
0.0
 10
90.4973184995111
 20
-136.5694416976285
 30
0.0
 10
90.6533813249929
 20
-136.5694416976285
 30
0.0
 10
90.6533813249929
 20
-136.5694416976285
 30
0.0
 10
90.6533813249929
 20
-136.5694416976285
 30
0.0
 10
90.6533813249929
 20
-138.113878003666
 30
0.0
 10
90.6533813249929
 20
-138.113878003666
 30
0.0
 10
90.6533813249929
 20
-138.113878003666
 30
0.0
 10
90.41360267921952
 20
-138.113878003666
 30
0.0
 10
90.41360267921952
 20
-138.113878003666
 30
0.0
  0
HATCH
  5
91
330
8C
100
AcDbEntity
  8
_U+30EC_U+30A4_U+30E4_U+30FC 1
 62
     7
420
 16777215
100
AcDbHatch
 10
0.0
 20
0.0
 30
0.0
210
0.0
220
0.0
230
1.0
  2
SOLID
 70
     1
 71
     0
 91
        1
 92
        1
 93
        1
 72
     4
 94
        3
 73
     0
 74
     1
 95
       26
 96
       22
 40
0.0
 40
0.0
 40
0.0
 40
0.0
 40
1.0
 40
1.0
 40
1.0
 40
2.0
 40
2.0
 40
2.0
 40
3.0
 40
3.0
 40
3.0
 40
4.0
 40
4.0
 40
4.0
 40
5.0
 40
5.0
 40
5.0
 40
6.0
 40
6.0
 40
6.0
 40
7.0
 40
7.0
 40
7.0
 40
7.0
 10
90.41360267921952
 20
-138.113878003666
 10
90.41360267921952
 20
-138.113878003666
 10
90.41360267921952
 20
-137.0097249006434
 10
90.41360267921952
 20
-137.0097249006434
 10
90.41360267921952
 20
-137.0097249006434
 10
90.06116941107847
 20
-137.0097249006434
 10
90.06116941107847
 20
-137.0097249006434
 10
90.06116941107847
 20
-137.0097249006434
 10
90.06116941107847
 20
-136.8615857947777
 10
90.06116941107847
 20
-136.8615857947777
 10
90.41601424605919
 20
-136.8467718841911
 10
90.46562362104679
 20
-136.6838188677388
 10
90.4973184995111
 20
-136.5694416976285
 10
90.4973184995111
 20
-136.5694416976285
 10
90.6533813249929
 20
-136.5694416976285
 10
90.6533813249929
 20
-136.5694416976285
 10
90.6533813249929
 20
-136.5694416976285
 10
90.6533813249929
 20
-138.113878003666
 10
90.6533813249929
 20
-138.113878003666
 10
90.6533813249929
 20
-138.113878003666
 10
90.41360267921952
 20
-138.113878003666
 10
90.41360267921952
 20
-138.113878003666
 97
        0
 97
        0
 75
     2
 76
     1
 98
        0
  0
SPLINE
  5
92
330
8C
100
AcDbEntity
  8
_U+30EC_U+30A4_U+30E4_U+30FC 1
370
     0
100
AcDbSpline
210
0.0
220
0.0
230
1.0
 70
    11
 71
     3
 72
    44
 73
    40
 74
     0
 42
0.0000000001
 43
0.0000000001
 12
1.0
 22
0.0
 32
0.0
 13
1.0
 23
0.0
 33
0.0
 40
0.0
 40
0.0
 40
0.0
 40
0.0
 40
1.0
 40
1.0
 40
1.0
 40
2.0
 40
2.0
 40
2.0
 40
3.0
 40
3.0
 40
3.0
 40
4.0
 40
4.0
 40
4.0
 40
5.0
 40
5.0
 40
5.0
 40
6.0
 40
6.0
 40
6.0
 40
7.0
 40
7.0
 40
7.0
 40
8.0
 40
8.0
 40
8.0
 40
9.0
 40
9.0
 40
9.0
 40
10.0
 40
10.0
 40
10.0
 40
11.0
 40
11.0
 40
11.0
 40
12.0
 40
12.0
 40
12.0
 40
13.0
 40
13.0
 40
13.0
 40
13.0
 10
91.82281898746096
 20
-137.5320013762073
 30
0.0
 10
91.58993053265807
 20
-137.6908202780773
 30
0.0
 10
91.49036727313435
 20
-137.7648898310102
 30
0.0
 10
91.43834633130709
 20
-137.9085503127451
 30
0.0
 10
91.43834633130709
 20
-137.9085503127451
 30
0.0
 10
92.27068140054344
 20
-137.9085503127451
 30
0.0
 10
92.27068140054344
 20
-137.9085503127451
 30
0.0
 10
92.27068140054344
 20
-137.9085503127451
 30
0.0
 10
92.27068140054344
 20
-138.113878003666
 30
0.0
 10
92.27068140054344
 20
-138.113878003666
 30
0.0
 10
92.27068140054344
 20
-138.113878003666
 30
0.0
 10
91.171868195523
 20
-138.113878003666
 30
0.0
 10
91.171868195523
 20
-138.113878003666
 30
0.0
 10
91.20597464082698
 20
-137.756277092297
 30
0.0
 10
91.27591007917755
 20
-137.6780734247819
 30
0.0
 10
91.68708222534212
 20
-137.3797281557592
 30
0.0
 10
91.96062280687096
 20
-137.1809461462603
 30
0.0
 10
92.03090275477005
 20
-137.1130777652009
 30
0.0
 10
92.03090275477005
 20
-136.9756184553394
 30
0.0
 10
92.03090275477005
 20
-136.8571071706468
 30
0.0
 10
91.95407712544899
 20
-136.7261935422073
 30
0.0
 10
91.74358179130022
 20
-136.7261935422073
 30
0.0
 10
91.46556258564055
 20
-136.7261935422073
 30
0.0
 10
91.4566053373789
 20
-136.9566704301706
 30
0.0
 10
91.45212671324808
 20
-137.073114657572
 30
0.0
 10
91.45212671324808
 20
-137.073114657572
 30
0.0
 10
91.21252032224896
 20
-137.073114657572
 30
0.0
 10
91.21252032224896
 20
-137.073114657572
 30
0.0
 10
91.2214775705106
 20
-136.9459906341663
 30
0.0
 10
91.23284638561194
 20
-136.8340250308957
 30
0.0
 10
91.31897377274318
 20
-136.7155137462031
 30
0.0
 10
91.43627927401593
 20
-136.5546277870419
 30
0.0
 10
91.63506128351484
 20
-136.5208658512865
 30
0.0
 10
91.75942923053238
 20
-136.5208658512865
 30
0.0
 10
92.05570744226385
 20
-136.5208658512865
 30
0.0
 10
92.27722708196542
 20
-136.7048339501988
 30
0.0
 10
92.27722708196542
 20
-136.9776855126306
 30
0.0
 10
92.27722708196542
 20
-137.2064398528512
 30
0.0
 10
92.1528591349479
 20
-137.3056586028264
 30
0.0
 10
91.82281898746096
 20
-137.5320013762073
 30
0.0
  0
HATCH
  5
93
330
8C
100
AcDbEntity
  8
_U+30EC_U+30A4_U+30E4_U+30FC 1
 62
     7
420
 16777215
100
AcDbHatch
 10
0.0
 20
0.0
 30
0.0
210
0.0
220
0.0
230
1.0
  2
SOLID
 70
     1
 71
     0
 91
        1
 92
        1
 93
        1
 72
     4
 94
        3
 73
     0
 74
     1
 95
       44
 96
       40
 40
0.0
 40
0.0
 40
0.0
 40
0.0
 40
1.0
 40
1.0
 40
1.0
 40
2.0
 40
2.0
 40
2.0
 40
3.0
 40
3.0
 40
3.0
 40
4.0
 40
4.0
 40
4.0
 40
5.0
 40
5.0
 40
5.0
 40
6.0
 40
6.0
 40
6.0
 40
7.0
 40
7.0
 40
7.0
 40
8.0
 40
8.0
 40
8.0
 40
9.0
 40
9.0
 40
9.0
 40
10.0
 40
10.0
 40
10.0
 40
11.0
 40
11.0
 40
11.0
 40
12.0
 40
12.0
 40
12.0
 40
13.0
 40
13.0
 40
13.0
 40
13.0
 10
91.82281898746096
 20
-137.5320013762073
 10
91.58993053265807
 20
-137.6908202780773
 10
91.49036727313435
 20
-137.7648898310102
 10
91.43834633130709
 20
-137.9085503127451
 10
91.43834633130709
 20
-137.9085503127451
 10
92.27068140054344
 20
-137.9085503127451
 10
92.27068140054344
 20
-137.9085503127451
 10
92.27068140054344
 20
-137.9085503127451
 10
92.27068140054344
 20
-138.113878003666
 10
92.27068140054344
 20
-138.113878003666
 10
92.27068140054344
 20
-138.113878003666
 10
91.171868195523
 20
-138.113878003666
 10
91.171868195523
 20
-138.113878003666
 10
91.20597464082698
 20
-137.756277092297
 10
91.27591007917755
 20
-137.6780734247819
 10
91.68708222534212
 20
-137.3797281557592
 10
91.96062280687096
 20
-137.1809461462603
 10
92.03090275477005
 20
-137.1130777652009
 10
92.03090275477005
 20
-136.9756184553394
 10
92.03090275477005
 20
-136.8571071706468
 10
91.95407712544899
 20
-136.7261935422073
 10
91.74358179130022
 20
-136.7261935422073
 10
91.46556258564055
 20
-136.7261935422073
 10
91.4566053373789
 20
-136.9566704301706
 10
91.45212671324808
 20
-137.073114657572
 10
91.45212671324808
 20
-137.073114657572
 10
91.21252032224896
 20
-137.073114657572
 10
91.21252032224896
 20
-137.073114657572
 10
91.2214775705106
 20
-136.9459906341663
 10
91.23284638561194
 20
-136.8340250308957
 10
91.31897377274318
 20
-136.7155137462031
 10
91.43627927401593
 20
-136.5546277870419
 10
91.63506128351484
 20
-136.5208658512865
 10
91.75942923053238
 20
-136.5208658512865
 10
92.05570744226385
 20
-136.5208658512865
 10
92.27722708196542
 20
-136.7048339501988
 10
92.27722708196542
 20
-136.9776855126306
 10
92.27722708196542
 20
-137.2064398528512
 10
92.1528591349479
 20
-137.3056586028264
 10
91.82281898746096
 20
-137.5320013762073
 97
        0
 97
        0
 75
     2
 76
     1
 98
        0
  0
ENDBLK
  5
8F
330
8C
100
AcDbEntity
  8
0
100
AcDbBlockEnd
  0
BLOCK
  5
A4
330
A2
100
AcDbEntity
  8
0
100
AcDbBlockBegin
  2
block 6
 70
     0
 10
0.0
 20
0.0
 30
0.0
  3
block 6
  1

  0
SPLINE
  5
A6
330
A2
100
AcDbEntity
  8
_U+30EC_U+30A4_U+30E4_U+30FC 1
370
     0
100
AcDbSpline
210
0.0
220
0.0
230
1.0
 70
    11
 71
     3
 72
    26
 73
    22
 74
     0
 42
0.0000000001
 43
0.0000000001
 12
1.0
 22
0.0
 32
0.0
 13
1.0
 23
0.0
 33
0.0
 40
0.0
 40
0.0
 40
0.0
 40
0.0
 40
1.0
 40
1.0
 40
1.0
 40
2.0
 40
2.0
 40
2.0
 40
3.0
 40
3.0
 40
3.0
 40
4.0
 40
4.0
 40
4.0
 40
5.0
 40
5.0
 40
5.0
 40
6.0
 40
6.0
 40
6.0
 40
7.0
 40
7.0
 40
7.0
 40
7.0
 10
93.61943628301876
 20
-119.1899685031886
 30
0.0
 10
93.61943628301876
 20
-119.1899685031886
 30
0.0
 10
93.61943628301876
 20
-118.0858154001661
 30
0.0
 10
93.61943628301876
 20
-118.0858154001661
 30
0.0
 10
93.61943628301876
 20
-118.0858154001661
 30
0.0
 10
93.2670030148777
 20
-118.0858154001661
 30
0.0
 10
93.2670030148777
 20
-118.0858154001661
 30
0.0
 10
93.2670030148777
 20
-118.0858154001661
 30
0.0
 10
93.2670030148777
 20
-117.9376762943003
 30
0.0
 10
93.2670030148777
 20
-117.9376762943003
 30
0.0
 10
93.62184784985843
 20
-117.9228623837137
 30
0.0
 10
93.67145722484602
 20
-117.7599093672614
 30
0.0
 10
93.70315210331033
 20
-117.6455321971511
 30
0.0
 10
93.70315210331033
 20
-117.6455321971511
 30
0.0
 10
93.85921492879214
 20
-117.6455321971511
 30
0.0
 10
93.85921492879214
 20
-117.6455321971511
 30
0.0
 10
93.85921492879214
 20
-117.6455321971511
 30
0.0
 10
93.85921492879214
 20
-119.1899685031886
 30
0.0
 10
93.85921492879214
 20
-119.1899685031886
 30
0.0
 10
93.85921492879214
 20
-119.1899685031886
 30
0.0
 10
93.61943628301876
 20
-119.1899685031886
 30
0.0
 10
93.61943628301876
 20
-119.1899685031886
 30
0.0
  0
HATCH
  5
A7
330
A2
100
AcDbEntity
  8
_U+30EC_U+30A4_U+30E4_U+30FC 1
 62
     7
420
 16777215
100
AcDbHatch
 10
0.0
 20
0.0
 30
0.0
210
0.0
220
0.0
230
1.0
  2
SOLID
 70
     1
 71
     0
 91
        1
 92
        1
 93
        1
 72
     4
 94
        3
 73
     0
 74
     1
 95
       26
 96
       22
 40
0.0
 40
0.0
 40
0.0
 40
0.0
 40
1.0
 40
1.0
 40
1.0
 40
2.0
 40
2.0
 40
2.0
 40
3.0
 40
3.0
 40
3.0
 40
4.0
 40
4.0
 40
4.0
 40
5.0
 40
5.0
 40
5.0
 40
6.0
 40
6.0
 40
6.0
 40
7.0
 40
7.0
 40
7.0
 40
7.0
 10
93.61943628301876
 20
-119.1899685031886
 10
93.61943628301876
 20
-119.1899685031886
 10
93.61943628301876
 20
-118.0858154001661
 10
93.61943628301876
 20
-118.0858154001661
 10
93.61943628301876
 20
-118.0858154001661
 10
93.2670030148777
 20
-118.0858154001661
 10
93.2670030148777
 20
-118.0858154001661
 10
93.2670030148777
 20
-118.0858154001661
 10
93.2670030148777
 20
-117.9376762943003
 10
93.2670030148777
 20
-117.9376762943003
 10
93.62184784985843
 20
-117.9228623837137
 10
93.67145722484602
 20
-117.7599093672614
 10
93.70315210331033
 20
-117.6455321971511
 10
93.70315210331033
 20
-117.6455321971511
 10
93.85921492879214
 20
-117.6455321971511
 10
93.85921492879214
 20
-117.6455321971511
 10
93.85921492879214
 20
-117.6455321971511
 10
93.85921492879214
 20
-119.1899685031886
 10
93.85921492879214
 20
-119.1899685031886
 10
93.85921492879214
 20
-119.1899685031886
 10
93.61943628301876
 20
-119.1899685031886
 10
93.61943628301876
 20
-119.1899685031886
 97
        0
 97
        0
 75
     2
 76
     1
 98
        0
  0
POLYLINE
  5
A8
330
A2
100
AcDbEntity
  8
_U+30EC_U+30A4_U+30E4_U+30FC 1
370
     0
100
AcDb2dPolyline
 66
     1
 10
0.0
 20
0.0
 30
0.0
  0
VERTEX
  5
A9
330
A8
100
AcDbEntity
  8
_U+30EC_U+30A4_U+30E4_U+30FC 1
370
     0
100
AcDbVertex
100
AcDb2dVertex
 10
95.28445093104
 20
-118.843047387824
 30
0.0
  0
VERTEX
  5
AA
330
A8
100
AcDbEntity
  8
_U+30EC_U+30A4_U+30E4_U+30FC 1
370
     0
100
AcDbVertex
100
AcDb2dVertex
 10
95.28445093104
 20
-119.1899685031886
 30
0.0
  0
VERTEX
  5
AB
330
A8
100
AcDbEntity
  8
_U+30EC_U+30A4_U+30E4_U+30FC 1
370
     0
100
AcDbVertex
100
AcDb2dVertex
 10
95.05156247623711
 20
-119.1899685031886
 30
0.0
  0
VERTEX
  5
AC
330
A8
100
AcDbEntity
  8
_U+30EC_U+30A4_U+30E4_U+30FC 1
370
     0
100
AcDbVertex
100
AcDb2dVertex
 10
95.05156247623711
 20
-118.843047387824
 30
0.0
  0
VERTEX
  5
AD
330
A8
100
AcDbEntity
  8
_U+30EC_U+30A4_U+30E4_U+30FC 1
370
     0
100
AcDbVertex
100
AcDb2dVertex
 10
94.35048554498877
 20
-118.843047387824
 30
0.0
  0
VERTEX
  5
AE
330
A8
100
AcDbEntity
  8
_U+30EC_U+30A4_U+30E4_U+30FC 1
370
     0
100
AcDbVertex
100
AcDb2dVertex
 10
94.35048554498877
 20
-118.6187716717342
 30
0.0
  0
VERTEX
  5
AF
330
A8
100
AcDbEntity
  8
_U+30EC_U+30A4_U+30E4_U+30FC 1
370
     0
100
AcDbVertex
100
AcDb2dVertex
 10
95.07636716373091
 20
-117.6455321971511
 30
0.0
  0
VERTEX
  5
B0
330
A8
100
AcDbEntity
  8
_U+30EC_U+30A4_U+30E4_U+30FC 1
370
     0
100
AcDbVertex
100
AcDb2dVertex
 10
95.28445093104
 20
-117.6455321971511
 30
0.0
  0
VERTEX
  5
B1
330
A8
100
AcDbEntity
  8
_U+30EC_U+30A4_U+30E4_U+30FC 1
370
     0
100
AcDbVertex
100
AcDb2dVertex
 10
95.28445093104
 20
-118.644265378325
 30
0.0
  0
VERTEX
  5
B2
330
A8
100
AcDbEntity
  8
_U+30EC_U+30A4_U+30E4_U+30FC 1
370
     0
100
AcDbVertex
100
AcDb2dVertex
 10
95.50597057074157
 20
-118.644265378325
 30
0.0
  0
VERTEX
  5
B3
330
A8
100
AcDbEntity
  8
_U+30EC_U+30A4_U+30E4_U+30FC 1
370
     0
100
AcDbVertex
100
AcDb2dVertex
 10
95.50597057074157
 20
-118.843047387824
 30
0.0
  0
VERTEX
  5
B4
330
A8
100
AcDbEntity
  8
_U+30EC_U+30A4_U+30E4_U+30FC 1
370
     0
100
AcDbVertex
100
AcDb2dVertex
 10
95.28445093104
 20
-118.843047387824
 30
0.0
  0
SEQEND
  5
B5
330
A8
100
AcDbEntity
  8
_U+30EC_U+30A4_U+30E4_U+30FC 1
370
     0
  0
POLYLINE
  5
B6
330
A2
100
AcDbEntity
  8
_U+30EC_U+30A4_U+30E4_U+30FC 1
370
     0
100
AcDb2dPolyline
 66
     1
 10
0.0
 20
0.0
 30
0.0
  0
VERTEX
  5
B7
330
B6
100
AcDbEntity
  8
_U+30EC_U+30A4_U+30E4_U+30FC 1
370
     0
100
AcDbVertex
100
AcDb2dVertex
 10
95.05156247623711
 20
-117.9883191979335
 30
0.0
  0
VERTEX
  5
B8
330
B6
100
AcDbEntity
  8
_U+30EC_U+30A4_U+30E4_U+30FC 1
370
     0
100
AcDbVertex
100
AcDb2dVertex
 10
94.56304793642869
 20
-118.644265378325
 30
0.0
  0
VERTEX
  5
B9
330
B6
100
AcDbEntity
  8
_U+30EC_U+30A4_U+30E4_U+30FC 1
370
     0
100
AcDbVertex
100
AcDb2dVertex
 10
95.05156247623711
 20
-118.644265378325
 30
0.0
  0
VERTEX
  5
BA
330
B6
100
AcDbEntity
  8
_U+30EC_U+30A4_U+30E4_U+30FC 1
370
     0
100
AcDbVertex
100
AcDb2dVertex
 10
95.05156247623711
 20
-117.9883191979335
 30
0.0
  0
SEQEND
  5
BB
330
B6
100
AcDbEntity
  8
_U+30EC_U+30A4_U+30E4_U+30FC 1
370
     0
  0
HATCH
  5
BC
330
A2
100
AcDbEntity
  8
_U+30EC_U+30A4_U+30E4_U+30FC 1
 62
     7
420
 16777215
100
AcDbHatch
 10
0.0
 20
0.0
 30
0.0
210
0.0
220
0.0
230
1.0
  2
SOLID
 70
     1
 71
     0
 91
        2
 92
        1
 93
       11
 72
     1
 10
95.28445093104
 20
-118.843047387824
 11
95.28445093104
 21
-119.1899685031886
 72
     1
 10
95.28445093104
 20
-119.1899685031886
 11
95.05156247623711
 21
-119.1899685031886
 72
     1
 10
95.05156247623711
 20
-119.1899685031886
 11
95.05156247623711
 21
-118.843047387824
 72
     1
 10
95.05156247623711
 20
-118.843047387824
 11
94.35048554498877
 21
-118.843047387824
 72
     1
 10
94.35048554498877
 20
-118.843047387824
 11
94.35048554498877
 21
-118.6187716717342
 72
     1
 10
94.35048554498877
 20
-118.6187716717342
 11
95.07636716373091
 21
-117.6455321971511
 72
     1
 10
95.07636716373091
 20
-117.6455321971511
 11
95.28445093104
 21
-117.6455321971511
 72
     1
 10
95.28445093104
 20
-117.6455321971511
 11
95.28445093104
 21
-118.644265378325
 72
     1
 10
95.28445093104
 20
-118.644265378325
 11
95.50597057074157
 21
-118.644265378325
 72
     1
 10
95.50597057074157
 20
-118.644265378325
 11
95.50597057074157
 21
-118.843047387824
 72
     1
 10
95.50597057074157
 20
-118.843047387824
 11
95.28445093104
 21
-118.843047387824
 97
        0
 92
        1
 93
        3
 72
     1
 10
95.05156247623711
 20
-117.9883191979335
 11
94.56304793642869
 21
-118.644265378325
 72
     1
 10
94.56304793642869
 20
-118.644265378325
 11
95.05156247623711
 21
-118.644265378325
 72
     1
 10
95.05156247623711
 20
-118.644265378325
 11
95.05156247623711
 21
-117.9883191979335
 97
        0
 75
     2
 76
     1
 98
        0
  0
ENDBLK
  5
A5
330
A2
100
AcDbEntity
  8
0
100
AcDbBlockEnd
  0
ENDSEC
  0
SECTION
  2
ENTITIES
  0
SPLINE
  5
41
330
1F
100
AcDbEntity
  8
_U+30EC_U+30A4_U+30E4_U+30FC 1
 62
     7
420
 16777215
370
     9
100
AcDbSpline
210
0.0
220
0.0
230
1.0
 70
    11
 71
     3
 72
    17
 73
    13
 74
     0
 42
0.0000000001
 43
0.0000000001
 12
1.0
 22
0.0
 32
0.0
 13
1.0
 23
0.0
 33
0.0
 40
0.0
 40
0.0
 40
0.0
 40
0.0
 40
1.0
 40
1.0
 40
1.0
 40
2.0
 40
2.0
 40
2.0
 40
3.0
 40
3.0
 40
3.0
 40
4.0
 40
4.0
 40
4.0
 40
4.0
 10
84.58760700865703
 20
-126.0138449684966
 30
0.0
 10
84.5879597864258
 20
-125.9583883018439
 30
0.0
 10
84.54315700979105
 20
-125.9135855240771
 30
0.0
 10
84.48699478900164
 20
-125.9135855240771
 30
0.0
 10
84.43189090151857
 20
-125.9135855240771
 30
0.0
 10
84.38744090265257
 20
-125.9583883018439
 30
0.0
 10
84.3870881248838
 20
-126.0134921907188
 30
0.0
 10
84.3870881248838
 20
-126.069654412927
 30
0.0
 10
84.43206942333644
 20
-126.1141044129159
 30
0.0
 10
84.48734756677041
 20
-126.1141044129159
 30
0.0
 10
84.54280423202226
 20
-126.1141044129159
 30
0.0
 10
84.58778339754141
 20
-126.0693016351492
 30
0.0
 10
84.58760700865703
 20
-126.0138449684966
 30
0.0
  0
SPLINE
  5
42
330
1F
100
AcDbEntity
  8
_U+30EC_U+30A4_U+30E4_U+30FC 1
 62
     7
420
 16777215
370
     9
100
AcDbSpline
210
0.0
220
0.0
230
1.0
 70
    11
 71
     3
 72
    17
 73
    13
 74
     0
 42
0.0000000001
 43
0.0000000001
 12
1.0
 22
0.0
 32
0.0
 13
1.0
 23
0.0
 33
0.0
 40
0.0
 40
0.0
 40
0.0
 40
0.0
 40
1.0
 40
1.0
 40
1.0
 40
2.0
 40
2.0
 40
2.0
 40
3.0
 40
3.0
 40
3.0
 40
4.0
 40
4.0
 40
4.0
 40
4.0
 10
91.41562072334877
 20
-128.841746912234
 30
0.0
 10
91.41629100110946
 20
-128.786643023359
 30
0.0
 10
91.37152350225156
 20
-128.7420166344812
 30
0.0
 10
91.31603155922284
 20
-128.7420166344812
 30
0.0
 10
91.26110406062415
 20
-128.742369412259
 30
0.0
 10
91.216124895105
 20
-128.786643023359
 30
0.0
 10
91.21594850622061
 20
-128.841746912234
 30
0.0
 10
91.2163012839894
 20
-128.8975563566644
 30
0.0
 10
91.26110406062415
 20
-128.9423591344311
 30
0.0
 10
91.31620794810722
 20
-128.9423591344311
 30
0.0
 10
91.37152350225156
 20
-128.9423591344311
 30
0.0
 10
91.41593822334067
 20
-128.8975563566644
 30
0.0
 10
91.41562072334877
 20
-128.841746912234
 30
0.0
  0
SPLINE
  5
43
330
1F
100
AcDbEntity
  8
_U+30EC_U+30A4_U+30E4_U+30FC 1
 62
     7
420
 16777215
370
     9
100
AcDbSpline
210
0.0
220
0.0
230
1.0
 70
     8
 71
     3
 72
    11
 73
     7
 74
     0
 42
0.0000000001
 43
0.0000000001
 12
1.0
 22
0.0
 32
0.0
 13
1.0
 23
0.0
 33
0.0
 40
0.0
 40
0.0
 40
0.0
 40
0.0
 40
1.0
 40
1.0
 40
1.0
 40
2.0
 40
2.0
 40
2.0
 40
2.0
 10
91.31585517033845
 20
-128.841746912234
 30
0.0
 10
91.31585517033845
 20
-126.632934690564
 30
0.0
 10
89.52543743823803
 20
-124.8421641354563
 30
0.0
 10
87.31560221683785
 20
-124.8421641354563
 30
0.0
 10
86.25536391055344
 20
-124.8425169132337
 30
0.0
 10
85.23735310319174
 20
-125.2638394131284
 30
0.0
 10
84.48734756677041
 20
-126.0134921907188
 30
0.0
  0
INSERT
  5
45
330
1F
100
AcDbEntity
  8
_U+30EC_U+30A4_U+30E4_U+30FC 1
100
AcDbBlockReference
  2
block 2
 10
0.0
 20
0.0
 30
0.0
  0
POLYLINE
  5
51
330
1F
100
AcDbEntity
  8
_U+30EC_U+30A4_U+30E4_U+30FC 1
 62
     7
420
 16777215
370
     9
100
AcDb2dPolyline
 66
     1
 10
0.0
 20
0.0
 30
0.0
  0
VERTEX
  5
52
330
51
100
AcDbEntity
  8
_U+30EC_U+30A4_U+30E4_U+30FC 1
 62
     7
420
 16777215
370
     9
100
AcDbVertex
100
AcDb2dVertex
 10
104.3684915040046
 20
-133.272847466682
 30
0.0
  0
VERTEX
  5
53
330
51
100
AcDbEntity
  8
_U+30EC_U+30A4_U+30E4_U+30FC 1
 62
     7
420
 16777215
370
     9
100
AcDbVertex
100
AcDb2dVertex
 10
104.3684915040046
 20
-129.9435071897366
 30
0.0
  0
SEQEND
  5
54
330
51
100
AcDbEntity
  8
_U+30EC_U+30A4_U+30E4_U+30FC 1
 62
     7
420
 16777215
370
     9
  0
POLYLINE
  5
55
330
1F
100
AcDbEntity
  8
_U+30EC_U+30A4_U+30E4_U+30FC 1
 62
     7
420
 16777215
370
     9
100
AcDb2dPolyline
 66
     1
 10
0.0
 20
0.0
 30
0.0
  0
VERTEX
  5
56
330
55
100
AcDbEntity
  8
_U+30EC_U+30A4_U+30E4_U+30FC 1
 62
     7
420
 16777215
370
     9
100
AcDbVertex
100
AcDb2dVertex
 10
104.3684915040046
 20
-137.5661177433861
 30
0.0
  0
VERTEX
  5
57
330
55
100
AcDbEntity
  8
_U+30EC_U+30A4_U+30E4_U+30FC 1
 62
     7
420
 16777215
370
     9
100
AcDbVertex
100
AcDb2dVertex
 10
104.3684915040046
 20
-133.272847466682
 30
0.0
  0
SEQEND
  5
58
330
55
100
AcDbEntity
  8
_U+30EC_U+30A4_U+30E4_U+30FC 1
 62
     7
420
 16777215
370
     9
  0
SPLINE
  5
59
330
1F
100
AcDbEntity
  8
_U+30EC_U+30A4_U+30E4_U+30FC 1
 62
     7
420
 16777215
370
     9
100
AcDbSpline
210
0.0
220
0.0
230
1.0
 70
    11
 71
     3
 72
    17
 73
    13
 74
     0
 42
0.0000000001
 43
0.0000000001
 12
1.0
 22
0.0
 32
0.0
 13
1.0
 23
0.0
 33
0.0
 40
0.0
 40
0.0
 40
0.0
 40
0.0
 40
1.0
 40
1.0
 40
1.0
 40
2.0
 40
2.0
 40
2.0
 40
3.0
 40
3.0
 40
3.0
 40
4.0
 40
4.0
 40
4.0
 40
4.0
 10
104.4683981681225
 20
-129.9424488564033
 30
0.0
 10
104.4683981681225
 20
-129.8873449675283
 30
0.0
 10
104.4243009470252
 20
-129.8425421897616
 30
0.0
 10
104.3684915040046
 20
-129.8425421897616
 30
0.0
 10
104.3137051165134
 20
-129.8428949675394
 30
0.0
 10
104.2685848398868
 20
-129.8873449675283
 30
0.0
 10
104.2685848398868
 20
-129.9424488564033
 30
0.0
 10
104.2685848398868
 20
-129.9986110786115
 30
0.0
 10
104.3140578942822
 20
-130.0434138563782
 30
0.0
 10
104.3684915040046
 20
-130.0434138563782
 30
0.0
 10
104.4243009470252
 20
-130.0434138563782
 30
0.0
 10
104.4683981681225
 20
-129.9986110786115
 30
0.0
 10
104.4683981681225
 20
-129.9424488564033
 30
0.0
  0
POLYLINE
  5
5A
330
1F
100
AcDbEntity
  8
_U+30EC_U+30A4_U+30E4_U+30FC 1
 62
     7
420
 16777215
370
     9
100
AcDb2dPolyline
 66
     1
 10
0.0
 20
0.0
 30
0.0
  0
VERTEX
  5
5B
330
5A
100
AcDbEntity
  8
_U+30EC_U+30A4_U+30E4_U+30FC 1
 62
     7
420
 16777215
370
     9
100
AcDbVertex
100
AcDb2dVertex
 10
102.9084527520509
 20
-129.942801634181
 30
0.0
  0
VERTEX
  5
5C
330
5A
100
AcDbEntity
  8
_U+30EC_U+30A4_U+30E4_U+30FC 1
 62
     7
420
 16777215
370
     9
100
AcDbVertex
100
AcDb2dVertex
 10
105.3689339784812
 20
-129.942801634181
 30
0.0
  0
SEQEND
  5
5D
330
5A
100
AcDbEntity
  8
_U+30EC_U+30A4_U+30E4_U+30FC 1
 62
     7
420
 16777215
370
     9
  0
SPLINE
  5
5E
330
1F
100
AcDbEntity
  8
_U+30EC_U+30A4_U+30E4_U+30FC 1
 62
     7
420
 16777215
370
     9
100
AcDbSpline
210
0.0
220
0.0
230
1.0
 70
    11
 71
     3
 72
    17
 73
    13
 74
     0
 42
0.0000000001
 43
0.0000000001
 12
1.0
 22
0.0
 32
0.0
 13
1.0
 23
0.0
 33
0.0
 40
0.0
 40
0.0
 40
0.0
 40
0.0
 40
1.0
 40
1.0
 40
1.0
 40
2.0
 40
2.0
 40
2.0
 40
3.0
 40
3.0
 40
3.0
 40
4.0
 40
4.0
 40
4.0
 40
4.0
 10
104.4683981681225
 20
-133.4430274666391
 30
0.0
 10
104.4683981681225
 20
-133.3872180222086
 30
0.0
 10
104.4243009470252
 20
-133.3431207999975
 30
0.0
 10
104.3684915040046
 20
-133.3424152444419
 30
0.0
 10
104.3133523387447
 20
-133.3431207999975
 30
0.0
 10
104.2685848398868
 20
-133.3872180222086
 30
0.0
 10
104.2685848398868
 20
-133.4430274666391
 30
0.0
 10
104.2685848398868
 20
-133.4988369110695
 30
0.0
 10
104.3133523387447
 20
-133.5436044110587
 30
0.0
 10
104.3684915040046
 20
-133.5436044110587
 30
0.0
 10
104.4243009470252
 20
-133.5436044110587
 30
0.0
 10
104.4683981681225
 20
-133.4988369110695
 30
0.0
 10
104.4683981681225
 20
-133.4430274666391
 30
0.0
  0
POLYLINE
  5
5F
330
1F
100
AcDbEntity
  8
_U+30EC_U+30A4_U+30E4_U+30FC 1
 62
     7
420
 16777215
370
     9
100
AcDb2dPolyline
 66
     1
 10
0.0
 20
0.0
 30
0.0
  0
VERTEX
  5
60
330
5F
100
AcDbEntity
  8
_U+30EC_U+30A4_U+30E4_U+30FC 1
 62
     7
420
 16777215
370
     9
100
AcDbVertex
100
AcDb2dVertex
 10
102.9084527520509
 20
-133.4430274666391
 30
0.0
  0
VERTEX
  5
61
330
5F
100
AcDbEntity
  8
_U+30EC_U+30A4_U+30E4_U+30FC 1
 62
     7
420
 16777215
370
     9
100
AcDbVertex
100
AcDb2dVertex
 10
105.3689339784812
 20
-133.4430274666391
 30
0.0
  0
SEQEND
  5
62
330
5F
100
AcDbEntity
  8
_U+30EC_U+30A4_U+30E4_U+30FC 1
 62
     7
420
 16777215
370
     9
  0
SPLINE
  5
63
330
1F
100
AcDbEntity
  8
_U+30EC_U+30A4_U+30E4_U+30FC 1
 62
     7
420
 16777215
370
     9
100
AcDbSpline
210
0.0
220
0.0
230
1.0
 70
    11
 71
     3
 72
    17
 73
    13
 74
     0
 42
0.0000000001
 43
0.0000000001
 12
1.0
 22
0.0
 32
0.0
 13
1.0
 23
0.0
 33
0.0
 40
0.0
 40
0.0
 40
0.0
 40
0.0
 40
1.0
 40
1.0
 40
1.0
 40
2.0
 40
2.0
 40
2.0
 40
3.0
 40
3.0
 40
3.0
 40
4.0
 40
4.0
 40
4.0
 40
4.0
 10
104.4683981681225
 20
-134.4420941330561
 30
0.0
 10
104.4683981681225
 20
-134.3869902441812
 30
0.0
 10
104.4249712247859
 20
-134.34289302197
 30
0.0
 10
104.3688090039965
 20
-134.34289302197
 30
0.0
 10
104.3133523387447
 20
-134.34289302197
 30
0.0
 10
104.2685848398868
 20
-134.3869902441812
 30
0.0
 10
104.2685848398868
 20
-134.4427996886116
 30
0.0
 10
104.2685848398868
 20
-134.4986091330421
 30
0.0
 10
104.3133523387447
 20
-134.5440821885861
 30
0.0
 10
104.3684915040046
 20
-134.5440821885861
 30
0.0
 10
104.4243009470252
 20
-134.5440821885861
 30
0.0
 10
104.4683981681225
 20
-134.4986091330421
 30
0.0
 10
104.4683981681225
 20
-134.4420941330561
 30
0.0
  0
POLYLINE
  5
64
330
1F
100
AcDbEntity
  8
_U+30EC_U+30A4_U+30E4_U+30FC 1
 62
     7
420
 16777215
370
     9
100
AcDb2dPolyline
 66
     1
 10
0.0
 20
0.0
 30
0.0
  0
VERTEX
  5
65
330
64
100
AcDbEntity
  8
_U+30EC_U+30A4_U+30E4_U+30FC 1
 62
     7
420
 16777215
370
     9
100
AcDbVertex
100
AcDb2dVertex
 10
102.9084527520509
 20
-134.4427996886116
 30
0.0
  0
VERTEX
  5
66
330
64
100
AcDbEntity
  8
_U+30EC_U+30A4_U+30E4_U+30FC 1
 62
     7
420
 16777215
370
     9
100
AcDbVertex
100
AcDb2dVertex
 10
105.3689339784812
 20
-134.4427996886116
 30
0.0
  0
SEQEND
  5
67
330
64
100
AcDbEntity
  8
_U+30EC_U+30A4_U+30E4_U+30FC 1
 62
     7
420
 16777215
370
     9
  0
INSERT
  5
69
330
1F
100
AcDbEntity
  8
_U+30EC_U+30A4_U+30E4_U+30FC 1
100
AcDbBlockReference
  2
block 3
 10
0.0
 20
0.0
 30
0.0
  0
INSERT
  5
79
330
1F
100
AcDbEntity
  8
_U+30EC_U+30A4_U+30E4_U+30FC 1
100
AcDbBlockReference
  2
block 4
 10
0.0
 20
0.0
 30
0.0
  0
SPLINE
  5
7E
330
1F
100
AcDbEntity
  8
_U+30EC_U+30A4_U+30E4_U+30FC 1
 62
     7
420
 16777215
370
     9
100
AcDbSpline
210
0.0
220
0.0
230
1.0
 70
     8
 71
     3
 72
    17
 73
    13
 74
     0
 42
0.0000000001
 43
0.0000000001
 12
1.0
 22
0.0
 32
0.0
 13
1.0
 23
0.0
 33
0.0
 40
0.0
 40
0.0
 40
0.0
 40
0.0
 40
1.0
 40
1.0
 40
1.0
 40
2.0
 40
2.0
 40
2.0
 40
3.0
 40
3.0
 40
3.0
 40
4.0
 40
4.0
 40
4.0
 40
4.0
 10
97.16547502110221
 20
-138.6416666320063
 30
0.0
 10
97.12621085543726
 20
-138.6024024653492
 30
0.0
 10
97.06281669038792
 20
-138.6024024653492
 30
0.0
 10
97.02387002471485
 20
-138.6416666320063
 30
0.0
 10
96.98496108686476
 20
-138.6809307986633
 30
0.0
 10
96.98496108686476
 20
-138.7436546875363
 30
0.0
 10
97.02351724694608
 20
-138.7822132986378
 30
0.0
 10
97.06313419037981
 20
-138.8221830208497
 30
0.0
 10
97.12652835542916
 20
-138.8221830208497
 30
0.0
 10
97.16547502110221
 20
-138.7829188541933
 30
0.0
 10
97.1840664095168
 20
-138.764327465309
 30
0.0
 10
97.19440279814198
 20
-138.7388216319821
 30
0.0
 10
97.19440279814198
 20
-138.7119399653217
 30
0.0
  0
SPLINE
  5
7F
330
1F
100
AcDbEntity
  8
_U+30EC_U+30A4_U+30E4_U+30FC 1
 62
     7
420
 16777215
370
     9
100
AcDbSpline
210
0.0
220
0.0
230
1.0
 70
    11
 71
     3
 72
    17
 73
    13
 74
     0
 42
0.0000000001
 43
0.0000000001
 12
1.0
 22
0.0
 32
0.0
 13
1.0
 23
0.0
 33
0.0
 40
0.0
 40
0.0
 40
0.0
 40
0.0
 40
1.0
 40
1.0
 40
1.0
 40
2.0
 40
2.0
 40
2.0
 40
3.0
 40
3.0
 40
3.0
 40
4.0
 40
4.0
 40
4.0
 40
4.0
 10
85.19445532650838
 20
-138.7119399653217
 30
0.0
 10
85.19463171539276
 20
-138.6568360764468
 30
0.0
 10
85.14982893875799
 20
-138.6113630209027
 30
0.0
 10
85.09454866239054
 20
-138.6120332986801
 30
0.0
 10
85.03940949713058
 20
-138.6120332986801
 30
0.0
 10
84.9946419982727
 20
-138.6568360764468
 30
0.0
 10
84.99499477604148
 20
-138.7119399653217
 30
0.0
 10
84.99481838715708
 20
-138.7677494097528
 30
0.0
 10
85.03940949713058
 20
-138.8125521875189
 30
0.0
 10
85.09454866239054
 20
-138.8125521875189
 30
0.0
 10
85.14982893875799
 20
-138.8125521875189
 30
0.0
 10
85.19445532650838
 20
-138.7677494097528
 30
0.0
 10
85.19445532650838
 20
-138.7119399653217
 30
0.0
  0
POLYLINE
  5
80
330
1F
100
AcDbEntity
  8
_U+30EC_U+30A4_U+30E4_U+30FC 1
 62
     7
420
 16777215
370
     9
100
AcDb2dPolyline
 66
     1
 10
0.0
 20
0.0
 30
0.0
  0
VERTEX
  5
81
330
80
100
AcDbEntity
  8
_U+30EC_U+30A4_U+30E4_U+30FC 1
 62
     7
420
 16777215
370
     9
100
AcDbVertex
100
AcDb2dVertex
 10
85.0949014401593
 20
-138.7119399653217
 30
0.0
  0
VERTEX
  5
82
330
80
100
AcDbEntity
  8
_U+30EC_U+30A4_U+30E4_U+30FC 1
 62
     7
420
 16777215
370
     9
100
AcDbVertex
100
AcDb2dVertex
 10
97.09449613402414
 20
-138.7119399653217
 30
0.0
  0
SEQEND
  5
83
330
80
100
AcDbEntity
  8
_U+30EC_U+30A4_U+30E4_U+30FC 1
 62
     7
420
 16777215
370
     9
  0
POLYLINE
  5
84
330
1F
100
AcDbEntity
  8
_U+30EC_U+30A4_U+30E4_U+30FC 1
 62
     7
420
 16777215
370
     9
100
AcDb2dPolyline
 66
     1
 10
0.0
 20
0.0
 30
0.0
  0
VERTEX
  5
85
330
84
100
AcDbEntity
  8
_U+30EC_U+30A4_U+30E4_U+30FC 1
 62
     7
420
 16777215
370
     9
100
AcDbVertex
100
AcDb2dVertex
 10
85.09472505127492
 20
-137.251898576798
 30
0.0
  0
VERTEX
  5
86
330
84
100
AcDbEntity
  8
_U+30EC_U+30A4_U+30E4_U+30FC 1
 62
     7
420
 16777215
370
     9
100
AcDbVertex
100
AcDb2dVertex
 10
85.09472505127492
 20
-139.7124177428498
 30
0.0
  0
SEQEND
  5
87
330
84
100
AcDbEntity
  8
_U+30EC_U+30A4_U+30E4_U+30FC 1
 62
     7
420
 16777215
370
     9
  0
POLYLINE
  5
88
330
1F
100
AcDbEntity
  8
_U+30EC_U+30A4_U+30E4_U+30FC 1
 62
     7
420
 16777215
370
     9
100
AcDb2dPolyline
 66
     1
 10
0.0
 20
0.0
 30
0.0
  0
VERTEX
  5
89
330
88
100
AcDbEntity
  8
_U+30EC_U+30A4_U+30E4_U+30FC 1
 62
     7
420
 16777215
370
     9
100
AcDbVertex
100
AcDb2dVertex
 10
97.09449613402414
 20
-137.2512282990206
 30
0.0
  0
VERTEX
  5
8A
330
88
100
AcDbEntity
  8
_U+30EC_U+30A4_U+30E4_U+30FC 1
 62
     7
420
 16777215
370
     9
100
AcDbVertex
100
AcDb2dVertex
 10
97.0952016895617
 20
-139.7124177428498
 30
0.0
  0
SEQEND
  5
8B
330
88
100
AcDbEntity
  8
_U+30EC_U+30A4_U+30E4_U+30FC 1
 62
     7
420
 16777215
370
     9
  0
INSERT
  5
8D
330
1F
100
AcDbEntity
  8
_U+30EC_U+30A4_U+30E4_U+30FC 1
100
AcDbBlockReference
  2
block 5
 10
0.0
 20
0.0
 30
0.0
  0
SPLINE
  5
94
330
1F
100
AcDbEntity
  8
_U+30EC_U+30A4_U+30E4_U+30FC 1
 62
     7
420
 16777215
370
     9
100
AcDbSpline
210
0.0
220
0.0
230
1.0
 70
     8
 71
     3
 72
    17
 73
    13
 74
     0
 42
0.0000000001
 43
0.0000000001
 12
1.0
 22
0.0
 32
0.0
 13
1.0
 23
0.0
 33
0.0
 40
0.0
 40
0.0
 40
0.0
 40
0.0
 40
1.0
 40
1.0
 40
1.0
 40
2.0
 40
2.0
 40
2.0
 40
3.0
 40
3.0
 40
3.0
 40
4.0
 40
4.0
 40
4.0
 40
4.0
 10
101.311989637538
 20
-119.7172555256262
 30
0.0
 10
101.2727254718731
 20
-119.6783088589694
 30
0.0
 10
101.2100015845844
 20
-119.6779560811916
 30
0.0
 10
101.1707374189195
 20
-119.7175730256261
 30
0.0
 10
101.1314732532545
 20
-119.7568724700609
 30
0.0
 10
101.1314732532545
 20
-119.8192083033787
 30
0.0
 10
101.1707374189195
 20
-119.8588252478132
 30
0.0
 10
101.2100015845844
 20
-119.8977719144699
 30
0.0
 10
101.2727254718731
 20
-119.8977719144699
 30
0.0
 10
101.311989637538
 20
-119.8588252478132
 30
0.0
 10
101.3312865814902
 20
-119.8402338589288
 30
0.0
 10
101.342293247876
 20
-119.814728025602
 30
0.0
 10
101.3416229701154
 20
-119.7878816367197
 30
0.0
  0
SPLINE
  5
95
330
1F
100
AcDbEntity
  8
_U+30EC_U+30A4_U+30E4_U+30FC 1
 62
     7
420
 16777215
370
     9
100
AcDbSpline
210
0.0
220
0.0
230
1.0
 70
    11
 71
     3
 72
    17
 73
    13
 74
     0
 42
0.0000000001
 43
0.0000000001
 12
1.0
 22
0.0
 32
0.0
 13
1.0
 23
0.0
 33
0.0
 40
0.0
 40
0.0
 40
0.0
 40
0.0
 40
1.0
 40
1.0
 40
1.0
 40
2.0
 40
2.0
 40
2.0
 40
3.0
 40
3.0
 40
3.0
 40
4.0
 40
4.0
 40
4.0
 40
4.0
 10
87.4003416448165
 20
-119.7878816367197
 30
0.0
 10
87.4003416448165
 20
-119.7327424700669
 30
0.0
 10
87.35557193804036
 20
-119.6879396923002
 30
0.0
 10
87.30043277278041
 20
-119.6879396923002
 30
0.0
 10
87.24515249641294
 20
-119.6879396923002
 30
0.0
 10
87.20052610866257
 20
-119.7327424700669
 30
0.0
 10
87.20052610866257
 20
-119.7878816367197
 30
0.0
 10
87.20052610866257
 20
-119.8436910811501
 30
0.0
 10
87.24532888529734
 20
-119.888458581139
 30
0.0
 10
87.3006091616648
 20
-119.888458581139
 30
0.0
 10
87.35574832692474
 20
-119.888458581139
 30
0.0
 10
87.40051582578263
 20
-119.8436910811501
 30
0.0
 10
87.4003416448165
 20
-119.7878816367197
 30
0.0
  0
POLYLINE
  5
96
330
1F
100
AcDbEntity
  8
_U+30EC_U+30A4_U+30E4_U+30FC 1
 62
     7
420
 16777215
370
     9
100
AcDb2dPolyline
 66
     1
 10
0.0
 20
0.0
 30
0.0
  0
VERTEX
  5
97
330
96
100
AcDbEntity
  8
_U+30EC_U+30A4_U+30E4_U+30FC 1
 62
     7
420
 16777215
370
     9
100
AcDbVertex
100
AcDb2dVertex
 10
87.30043277278041
 20
-119.7878816367197
 30
0.0
  0
VERTEX
  5
98
330
96
100
AcDbEntity
  8
_U+30EC_U+30A4_U+30E4_U+30FC 1
 62
     7
420
 16777215
370
     9
100
AcDbVertex
100
AcDb2dVertex
 10
101.3002774156146
 20
-119.7878816367197
 30
0.0
  0
SEQEND
  5
99
330
96
100
AcDbEntity
  8
_U+30EC_U+30A4_U+30E4_U+30FC 1
 62
     7
420
 16777215
370
     9
  0
POLYLINE
  5
9A
330
1F
100
AcDbEntity
  8
_U+30EC_U+30A4_U+30E4_U+30FC 1
 62
     7
420
 16777215
370
     9
100
AcDb2dPolyline
 66
     1
 10
0.0
 20
0.0
 30
0.0
  0
VERTEX
  5
9B
330
9A
100
AcDbEntity
  8
_U+30EC_U+30A4_U+30E4_U+30FC 1
 62
     7
420
 16777215
370
     9
100
AcDbVertex
100
AcDb2dVertex
 10
87.30043277278041
 20
-118.3278402481957
 30
0.0
  0
VERTEX
  5
9C
330
9A
100
AcDbEntity
  8
_U+30EC_U+30A4_U+30E4_U+30FC 1
 62
     7
420
 16777215
370
     9
100
AcDbVertex
100
AcDb2dVertex
 10
87.3006091616648
 20
-120.7886769142474
 30
0.0
  0
SEQEND
  5
9D
330
9A
100
AcDbEntity
  8
_U+30EC_U+30A4_U+30E4_U+30FC 1
 62
     7
420
 16777215
370
     9
  0
POLYLINE
  5
9E
330
1F
100
AcDbEntity
  8
_U+30EC_U+30A4_U+30E4_U+30FC 1
 62
     7
420
 16777215
370
     9
100
AcDb2dPolyline
 66
     1
 10
0.0
 20
0.0
 30
0.0
  0
VERTEX
  5
9F
330
9E
100
AcDbEntity
  8
_U+30EC_U+30A4_U+30E4_U+30FC 1
 62
     7
420
 16777215
370
     9
100
AcDbVertex
100
AcDb2dVertex
 10
101.2417163059975
 20
-118.6516549703371
 30
0.0
  0
VERTEX
  5
A0
330
9E
100
AcDbEntity
  8
_U+30EC_U+30A4_U+30E4_U+30FC 1
 62
     7
420
 16777215
370
     9
100
AcDbVertex
100
AcDb2dVertex
 10
101.2417163059975
 20
-121.1118213586111
 30
0.0
  0
SEQEND
  5
A1
330
9E
100
AcDbEntity
  8
_U+30EC_U+30A4_U+30E4_U+30FC 1
 62
     7
420
 16777215
370
     9
  0
INSERT
  5
A3
330
1F
100
AcDbEntity
  8
_U+30EC_U+30A4_U+30E4_U+30FC 1
100
AcDbBlockReference
  2
block 6
 10
0.0
 20
0.0
 30
0.0
  0
SPLINE
  5
BD
330
1F
100
AcDbEntity
  8
_U+30EC_U+30A4_U+30E4_U+30FC 1
 62
     7
420
 16777215
370
    25
100
AcDbSpline
210
0.0
220
0.0
230
1.0
 70
    11
 71
     3
 72
    47
 73
    43
 74
     0
 42
0.0000000001
 43
0.0000000001
 12
1.0
 22
0.0
 32
0.0
 13
1.0
 23
0.0
 33
0.0
 40
0.0
 40
0.0
 40
0.0
 40
0.0
 40
1.0
 40
1.0
 40
1.0
 40
2.0
 40
2.0
 40
2.0
 40
3.0
 40
3.0
 40
3.0
 40
4.0
 40
4.0
 40
4.0
 40
5.0
 40
5.0
 40
5.0
 40
6.0
 40
6.0
 40
6.0
 40
7.0
 40
7.0
 40
7.0
 40
8.0
 40
8.0
 40
8.0
 40
9.0
 40
9.0
 40
9.0
 40
10.0
 40
10.0
 40
10.0
 40
11.0
 40
11.0
 40
11.0
 40
12.0
 40
12.0
 40
12.0
 40
13.0
 40
13.0
 40
13.0
 40
14.0
 40
14.0
 40
14.0
 40
14.0
 10
77.32377163841736
 20
-118.8776796925028
 30
0.0
 10
77.32377163841736
 20
-118.8776796925028
 30
0.0
 10
87.19311777551825
 20
-128.8066102455762
 30
0.0
 10
87.19311777551825
 20
-128.8066102455762
 30
0.0
 10
87.19311777551825
 20
-128.8066102455762
 30
0.0
 10
101.1927860294681
 20
-128.8059046900207
 30
0.0
 10
101.1927860294681
 20
-128.8059046900207
 30
0.0
 10
101.1927860294681
 20
-129.3584958009936
 30
0.0
 10
100.7449346520048
 20
-129.8070527453261
 30
0.0
 10
100.1930138327522
 20
-129.8063824675481
 30
0.0
 10
100.1930138327522
 20
-129.8063824675481
 30
0.0
 10
87.32336332775095
 20
-129.8070527453261
 30
0.0
 10
87.32336332775095
 20
-129.8070527453261
 30
0.0
 10
87.32336332775095
 20
-129.8070527453261
 30
0.0
 10
85.83301836577283
 20
-133.3844663555429
 30
0.0
 10
85.83301836577283
 20
-133.3844663555429
 30
0.0
 10
85.83301836577283
 20
-133.3844663555429
 30
0.0
 10
97.37491918242551
 20
-133.3844663555429
 30
0.0
 10
97.37491918242551
 20
-133.3844663555429
 30
0.0
 10
97.37491918242551
 20
-133.3844663555429
 30
0.0
 10
96.87538586183634
 20
-134.3849088552928
 30
0.0
 10
96.87538586183634
 20
-134.3849088552928
 30
0.0
 10
96.87538586183634
 20
-134.3849088552928
 30
0.0
 10
84.8757911679715
 20
-134.3849088552928
 30
0.0
 10
84.8757911679715
 20
-134.3849088552928
 30
0.0
 10
84.8757911679715
 20
-134.3849088552928
 30
0.0
 10
76.41618027268305
 20
-125.8739685796427
 30
0.0
 10
76.41618027268305
 20
-125.8739685796427
 30
0.0
 10
76.41618027268305
 20
-125.8739685796427
 30
0.0
 10
76.77308554135541
 20
-124.8142594132411
 30
0.0
 10
76.77308554135541
 20
-124.8142594132411
 30
0.0
 10
76.77308554135541
 20
-124.8142594132411
 30
0.0
 10
84.90937775655047
 20
-133.0006794111942
 30
0.0
 10
84.90937775655047
 20
-133.0006794111942
 30
0.0
 10
84.90937775655047
 20
-133.0006794111942
 30
0.0
 10
86.39816835135464
 20
-129.4260527454214
 30
0.0
 10
86.39816835135464
 20
-129.4260527454214
 30
0.0
 10
86.39816835135464
 20
-129.4260527454214
 30
0.0
 10
77.31932663853075
 20
-120.2915424699272
 30
0.0
 10
77.31932663853075
 20
-120.2915424699272
 30
0.0
 10
76.93000109290772
 20
-119.9001708033583
 30
0.0
 10
76.9320824817435
 20
-119.2666171924055
 30
0.0
 10
77.32377163841736
 20
-118.8776796925028
 30
0.0
  0
HATCH
  5
BE
330
1F
100
AcDbEntity
  8
_U+30EC_U+30A4_U+30E4_U+30FC 1
 62
   253
420
 11711154
100
AcDbHatch
 10
0.0
 20
0.0
 30
0.0
210
0.0
220
0.0
230
1.0
  2
SOLID
 70
     1
 71
     0
 91
        1
 92
        1
 93
        1
 72
     4
 94
        3
 73
     0
 74
     1
 95
       47
 96
       43
 40
0.0
 40
0.0
 40
0.0
 40
0.0
 40
1.0
 40
1.0
 40
1.0
 40
2.0
 40
2.0
 40
2.0
 40
3.0
 40
3.0
 40
3.0
 40
4.0
 40
4.0
 40
4.0
 40
5.0
 40
5.0
 40
5.0
 40
6.0
 40
6.0
 40
6.0
 40
7.0
 40
7.0
 40
7.0
 40
8.0
 40
8.0
 40
8.0
 40
9.0
 40
9.0
 40
9.0
 40
10.0
 40
10.0
 40
10.0
 40
11.0
 40
11.0
 40
11.0
 40
12.0
 40
12.0
 40
12.0
 40
13.0
 40
13.0
 40
13.0
 40
14.0
 40
14.0
 40
14.0
 40
14.0
 10
77.32377163841736
 20
-118.8776796925028
 10
77.32377163841736
 20
-118.8776796925028
 10
87.19311777551825
 20
-128.8066102455762
 10
87.19311777551825
 20
-128.8066102455762
 10
87.19311777551825
 20
-128.8066102455762
 10
101.1927860294681
 20
-128.8059046900207
 10
101.1927860294681
 20
-128.8059046900207
 10
101.1927860294681
 20
-129.3584958009936
 10
100.7449346520048
 20
-129.8070527453261
 10
100.1930138327522
 20
-129.8063824675481
 10
100.1930138327522
 20
-129.8063824675481
 10
87.32336332775095
 20
-129.8070527453261
 10
87.32336332775095
 20
-129.8070527453261
 10
87.32336332775095
 20
-129.8070527453261
 10
85.83301836577283
 20
-133.3844663555429
 10
85.83301836577283
 20
-133.3844663555429
 10
85.83301836577283
 20
-133.3844663555429
 10
97.37491918242551
 20
-133.3844663555429
 10
97.37491918242551
 20
-133.3844663555429
 10
97.37491918242551
 20
-133.3844663555429
 10
96.87538586183634
 20
-134.3849088552928
 10
96.87538586183634
 20
-134.3849088552928
 10
96.87538586183634
 20
-134.3849088552928
 10
84.8757911679715
 20
-134.3849088552928
 10
84.8757911679715
 20
-134.3849088552928
 10
84.8757911679715
 20
-134.3849088552928
 10
76.41618027268305
 20
-125.8739685796427
 10
76.41618027268305
 20
-125.8739685796427
 10
76.41618027268305
 20
-125.8739685796427
 10
76.77308554135541
 20
-124.8142594132411
 10
76.77308554135541
 20
-124.8142594132411
 10
76.77308554135541
 20
-124.8142594132411
 10
84.90937775655047
 20
-133.0006794111942
 10
84.90937775655047
 20
-133.0006794111942
 10
84.90937775655047
 20
-133.0006794111942
 10
86.39816835135464
 20
-129.4260527454214
 10
86.39816835135464
 20
-129.4260527454214
 10
86.39816835135464
 20
-129.4260527454214
 10
77.31932663853075
 20
-120.2915424699272
 10
77.31932663853075
 20
-120.2915424699272
 10
76.93000109290772
 20
-119.9001708033583
 10
76.9320824817435
 20
-119.2666171924055
 10
77.32377163841736
 20
-118.8776796925028
 97
        0
 97
        0
 75
     2
 76
     1
 98
        0
  0
ENDSEC
  0
SECTION
  2
OBJECTS
  0
DICTIONARY
  5
C
330
0
100
AcDbDictionary
281
     1
  3
ACAD_GROUP
350
D
  3
ACAD_LAYOUT
350
1A
  3
ACAD_MATERIAL
350
3B
  3
ACAD_MLEADERSTYLE
350
C0
  3
ACAD_MLINESTYLE
350
17
  3
ACAD_PLOTSETTINGS
350
19
  3
ACAD_PLOTSTYLENAME
350
E
  3
ACAD_TABLESTYLE
350
BF
  3
ACAD_VISUALSTYLE
350
2A
  0
SUN
  5
3F
330
29
100
AcDbSun
 90
        1
290
     0
 63
     7
421
 16777215
 40
1.0
291
     1
 91
  2455826
 92
 54000000
292
     0
 70
     2
 71
   256
280
     1
  0
DICTIONARY
  5
D
102
{ACAD_REACTORS
330
C
102
}
330
C
100
AcDbDictionary
281
     1
  0
DICTIONARY
  5
1A
102
{ACAD_REACTORS
330
C
102
}
330
C
100
AcDbDictionary
281
     1
  3
Layout1
350
1E
  3
Layout2
350
26
  3
Model
350
22
  0
DICTIONARY
  5
3B
102
{ACAD_REACTORS
330
C
102
}
330
C
100
AcDbDictionary
281
     1
  3
ByBlock
350
3D
  3
ByLayer
350
3C
  3
Global
350
3E
  0
DICTIONARY
  5
C0
102
{ACAD_REACTORS
330
C
102
}
330
C
100
AcDbDictionary
281
     1
  0
DICTIONARY
  5
17
102
{ACAD_REACTORS
330
C
102
}
330
C
100
AcDbDictionary
281
     1
  3
Standard
350
18
  0
DICTIONARY
  5
19
102
{ACAD_REACTORS
330
C
102
}
330
C
100
AcDbDictionary
281
     1
  0
ACDBDICTIONARYWDFLT
  5
E
102
{ACAD_REACTORS
330
C
102
}
330
C
100
AcDbDictionary
281
     1
  3
Normal
350
F
100
AcDbDictionaryWithDefault
340
F
  0
DICTIONARY
  5
BF
102
{ACAD_REACTORS
330
C
102
}
330
C
100
AcDbDictionary
281
     1
  0
DICTIONARY
  5
2A
102
{ACAD_REACTORS
330
C
102
}
330
C
100
AcDbDictionary
281
     1
  3
2dWireframe
350
2F
  3
3D Hidden
350
31
  3
3dWireframe
350
30
  3
Basic
350
32
  3
Brighten
350
36
  3
ColorChange
350
3A
  3
Conceptual
350
34
  3
Dim
350
35
  3
Facepattern
350
39
  3
Flat
350
2B
  3
FlatWithEdges
350
2C
  3
Gouraud
350
2D
  3
GouraudWithEdges
350
2E
  3
Linepattern
350
38
  3
Realistic
350
33
  3
Thicken
350
37
  0
LAYOUT
  5
1E
102
{ACAD_REACTORS
330
1A
102
}
330
1A
100
AcDbPlotSettings
  1

  2
none_device
  4

  6

 40
0.0
 41
0.0
 42
0.0
 43
0.0
 44
0.0
 45
0.0
 46
0.0
 47
0.0
 48
0.0
 49
0.0
140
0.0
141
0.0
142
1.0
143
1.0
 70
   688
 72
     0
 73
     0
 74
     5
  7

 75
    16
 76
     0
 77
     2
 78
   300
147
1.0
148
0.0
149
0.0
100
AcDbLayout
  1
Layout1
 70
     1
 71
     1
 10
0.0
 20
0.0
 11
12.0
 21
9.0
 12
0.0
 22
0.0
 32
0.0
 14
1.000000000000000E+20
 24
1.000000000000000E+20
 34
1.000000000000000E+20
 15
-1.000000000000000E+20
 25
-1.000000000000000E+20
 35
-1.000000000000000E+20
146
0.0
 13
0.0
 23
0.0
 33
0.0
 16
1.0
 26
0.0
 36
0.0
 17
0.0
 27
1.0
 37
0.0
 76
     0
330
1B
  0
LAYOUT
  5
26
102
{ACAD_REACTORS
330
1A
102
}
330
1A
100
AcDbPlotSettings
  1

  2
none_device
  4

  6

 40
0.0
 41
0.0
 42
0.0
 43
0.0
 44
0.0
 45
0.0
 46
0.0
 47
0.0
 48
0.0
 49
0.0
140
0.0
141
0.0
142
1.0
143
1.0
 70
   688
 72
     0
 73
     0
 74
     5
  7

 75
    16
 76
     0
 77
     2
 78
   300
147
1.0
148
0.0
149
0.0
100
AcDbLayout
  1
Layout2
 70
     1
 71
     2
 10
0.0
 20
0.0
 11
0.0
 21
0.0
 12
0.0
 22
0.0
 32
0.0
 14
0.0
 24
0.0
 34
0.0
 15
0.0
 25
0.0
 35
0.0
146
0.0
 13
0.0
 23
0.0
 33
0.0
 16
1.0
 26
0.0
 36
0.0
 17
0.0
 27
1.0
 37
0.0
 76
     0
330
23
  0
LAYOUT
  5
22
102
{ACAD_REACTORS
330
1A
102
}
330
1A
100
AcDbPlotSettings
  1

  2
none_device
  4

  6

 40
0.0
 41
0.0
 42
0.0
 43
0.0
 44
0.0
 45
0.0
 46
0.0
 47
0.0
 48
0.0
 49
0.0
140
0.0
141
0.0
142
1.0
143
1.0
 70
  1712
 72
     0
 73
     0
 74
     0
  7

 75
     0
 76
     0
 77
     2
 78
   300
147
1.0
148
0.0
149
0.0
100
AcDbLayout
  1
Model
 70
     1
 71
     0
 10
0.0
 20
0.0
 11
12.0
 21
9.0
 12
0.0
 22
0.0
 32
0.0
 14
1.000000000000000E+20
 24
1.000000000000000E+20
 34
1.000000000000000E+20
 15
-1.000000000000000E+20
 25
-1.000000000000000E+20
 35
-1.000000000000000E+20
146
0.0
 13
0.0
 23
0.0
 33
0.0
 16
1.0
 26
0.0
 36
0.0
 17
0.0
 27
1.0
 37
0.0
 76
     0
330
1F
331
29
  0
MATERIAL
  5
3D
102
{ACAD_REACTORS
330
3B
102
}
330
3B
100
AcDbMaterial
  1
ByBlock
 72
     1
 94
      127
  0
MATERIAL
  5
3C
102
{ACAD_REACTORS
330
3B
102
}
330
3B
100
AcDbMaterial
  1
ByLayer
 72
     1
 94
      127
  0
MATERIAL
  5
3E
102
{ACAD_REACTORS
330
3B
102
}
330
3B
100
AcDbMaterial
  1
Global
 72
     1
 94
      127
  0
MLINESTYLE
  5
18
102
{ACAD_REACTORS
330
17
102
}
330
17
100
AcDbMlineStyle
  2
Standard
 70
     0
  3

 62
   256
 51
90.0
 52
90.0
 71
     2
 49
0.5
 62
   256
  6
BYLAYER
 49
-0.5
 62
   256
  6
BYLAYER
  0
ACDBPLACEHOLDER
  5
F
102
{ACAD_REACTORS
330
E
102
}
330
E
  0
VISUALSTYLE
  5
2F
102
{ACAD_REACTORS
330
2A
102
}
330
2A
100
AcDbVisualStyle
  2
2dWireframe
 70
     4
177
     2
291
     0
 71
     0
176
     1
 72
     2
176
     1
 73
     0
176
     1
 90
        0
176
     1
 40
-0.6
176
     1
 41
-30.0
176
     1
 62
     5
 63
     7
421
 16777215
176
     1
 74
     1
176
     1
 91
        4
176
     1
 64
     7
176
     1
 65
   257
176
     1
 75
     1
176
     1
175
     1
176
     1
 42
1.0
176
     1
 92
        0
176
     1
 66
   257
176
     1
 43
1.0
176
     1
 76
     1
176
     1
 77
     6
176
     1
 78
     2
176
     1
 67
     7
176
     1
 79
     5
176
     1
170
     0
176
     1
171
     0
176
     1
290
     0
176
     1
 93
        1
176
     1
 44
0.0
176
     1
173
     0
176
     1
  0
VISUALSTYLE
  5
31
102
{ACAD_REACTORS
330
2A
102
}
330
2A
100
AcDbVisualStyle
  2
3D Hidden
 70
     6
177
     2
291
     0
 71
     1
176
     1
 72
     2
176
     1
 73
     2
176
     1
 90
        0
176
     1
 40
-0.6
176
     1
 41
-30.0
176
     1
 62
     5
 63
     7
421
 16777215
176
     1
 74
     2
176
     1
 91
        2
176
     1
 64
     7
176
     1
 65
   257
176
     1
 75
     2
176
     1
175
     1
176
     1
 42
40.0
176
     1
 92
        0
176
     1
 66
   257
176
     1
 43
1.0
176
     1
 76
     1
176
     1
 77
     6
176
     1
 78
     2
176
     1
 67
     7
176
     1
 79
     3
176
     1
170
     0
176
     1
171
     0
176
     1
290
     0
176
     1
 93
        1
176
     1
 44
0.0
176
     1
173
     0
176
     1
  0
VISUALSTYLE
  5
30
102
{ACAD_REACTORS
330
2A
102
}
330
2A
100
AcDbVisualStyle
  2
3dWireframe
 70
     5
177
     2
291
     0
 71
     0
176
     1
 72
     2
176
     1
 73
     0
176
     1
 90
        0
176
     1
 40
-0.6
176
     1
 41
-30.0
176
     1
 62
     5
 63
     7
421
 16777215
176
     1
 74
     1
176
     1
 91
        4
176
     1
 64
     7
176
     1
 65
   257
176
     1
 75
     1
176
     1
175
     1
176
     1
 42
1.0
176
     1
 92
        0
176
     1
 66
   257
176
     1
 43
1.0
176
     1
 76
     1
176
     1
 77
     6
176
     1
 78
     2
176
     1
 67
     7
176
     1
 79
     5
176
     1
170
     0
176
     1
171
     0
176
     1
290
     0
176
     1
 93
        1
176
     1
 44
0.0
176
     1
173
     0
176
     1
  0
VISUALSTYLE
  5
32
102
{ACAD_REACTORS
330
2A
102
}
330
2A
100
AcDbVisualStyle
  2
Basic
 70
     7
177
     2
291
     1
 71
     1
176
     1
 72
     0
176
     1
 73
     1
176
     1
 90
        0
176
     1
 40
-0.6
176
     1
 41
-30.0
176
     1
 62
     5
 63
     7
421
 16777215
176
     1
 74
     0
176
     1
 91
        4
176
     1
 64
     7
176
     1
 65
   257
176
     1
 75
     1
176
     1
175
     1
176
     1
 42
1.0
176
     1
 92
        8
176
     1
 66
     7
176
     1
 43
1.0
176
     1
 76
     1
176
     1
 77
     6
176
     1
 78
     2
176
     1
 67
     7
176
     1
 79
     5
176
     1
170
     0
176
     1
171
     0
176
     1
290
     0
176
     1
 93
        1
176
     1
 44
0.0
176
     1
173
     0
176
     1
  0
VISUALSTYLE
  5
36
102
{ACAD_REACTORS
330
2A
102
}
330
2A
100
AcDbVisualStyle
  2
Brighten
 70
    12
177
     2
291
     1
 71
     2
176
     1
 72
     2
176
     1
 73
     0
176
     1
 90
        0
176
     1
 40
-0.6
176
     1
 41
-30.0
176
     1
 62
     5
 63
     7
421
 16777215
176
     1
 74
     1
176
     1
 91
        4
176
     1
 64
     7
176
     1
 65
   257
176
     1
 75
     1
176
     1
175
     1
176
     1
 42
1.0
176
     1
 92
        8
176
     1
 66
     7
176
     1
 43
1.0
176
     1
 76
     1
176
     1
 77
     6
176
     1
 78
     2
176
     1
 67
     7
176
     1
 79
     5
176
     1
170
     0
176
     1
171
     0
176
     1
290
     0
176
     1
 93
        1
176
     1
 44
50.0
176
     1
173
     0
176
     1
  0
VISUALSTYLE
  5
3A
102
{ACAD_REACTORS
330
2A
102
}
330
2A
100
AcDbVisualStyle
  2
ColorChange
 70
    16
177
     2
291
     1
 71
     2
176
     1
 72
     2
176
     1
 73
     3
176
     1
 90
        0
176
     1
 40
-0.6
176
     1
 41
-30.0
176
     1
 62
     5
 63
     8
421
  8421504
176
     1
 74
     1
176
     1
 91
        4
176
     1
 64
     7
176
     1
 65
   257
176
     1
 75
     1
176
     1
175
     1
176
     1
 42
1.0
176
     1
 92
        8
176
     1
 66
     8
424
  8421504
176
     1
 43
1.0
176
     1
 76
     1
176
     1
 77
     6
176
     1
 78
     2
176
     1
 67
     7
176
     1
 79
     5
176
     1
170
     0
176
     1
171
     0
176
     1
290
     0
176
     1
 93
        1
176
     1
 44
0.0
176
     1
173
     0
176
     1
  0
VISUALSTYLE
  5
34
102
{ACAD_REACTORS
330
2A
102
}
330
2A
100
AcDbVisualStyle
  2
Conceptual
 70
     9
177
     2
291
     0
 71
     3
176
     1
 72
     2
176
     1
 73
     0
176
     1
 90
        0
176
     1
 40
-0.6
176
     1
 41
-30.0
176
     1
 62
     5
 63
     7
421
 16777215
176
     1
 74
     2
176
     1
 91
        2
176
     1
 64
     7
176
     1
 65
   257
176
     1
 75
     1
176
     1
175
     1
176
     1
 42
40.0
176
     1
 92
        8
176
     1
 66
     7
176
     1
 43
1.0
176
     1
 76
     1
176
     1
 77
     6
176
     1
 78
     2
176
     1
 67
     7
176
     1
 79
     3
176
     1
170
     0
176
     1
171
     0
176
     1
290
     0
176
     1
 93
        1
176
     1
 44
0.0
176
     1
173
     0
176
     1
  0
VISUALSTYLE
  5
35
102
{ACAD_REACTORS
330
2A
102
}
330
2A
100
AcDbVisualStyle
  2
Dim
 70
    11
177
     2
291
     1
 71
     2
176
     1
 72
     2
176
     1
 73
     0
176
     1
 90
        0
176
     1
 40
-0.6
176
     1
 41
-30.0
176
     1
 62
     5
 63
     7
421
 16777215
176
     1
 74
     1
176
     1
 91
        4
176
     1
 64
     7
176
     1
 65
   257
176
     1
 75
     1
176
     1
175
     1
176
     1
 42
1.0
176
     1
 92
        8
176
     1
 66
     7
176
     1
 43
1.0
176
     1
 76
     1
176
     1
 77
     6
176
     1
 78
     2
176
     1
 67
     7
176
     1
 79
     5
176
     1
170
     0
176
     1
171
     0
176
     1
290
     0
176
     1
 93
        1
176
     1
 44
-50.0
176
     1
173
     0
176
     1
  0
VISUALSTYLE
  5
39
102
{ACAD_REACTORS
330
2A
102
}
330
2A
100
AcDbVisualStyle
  2
Facepattern
 70
    15
177
     2
291
     1
 71
     2
176
     1
 72
     2
176
     1
 73
     0
176
     1
 90
        0
176
     1
 40
-0.6
176
     1
 41
-30.0
176
     1
 62
     5
 63
     7
421
 16777215
176
     1
 74
     1
176
     1
 91
        4
176
     1
 64
     7
176
     1
 65
   257
176
     1
 75
     1
176
     1
175
     1
176
     1
 42
1.0
176
     1
 92
        8
176
     1
 66
     7
176
     1
 43
1.0
176
     1
 76
     1
176
     1
 77
     6
176
     1
 78
     2
176
     1
 67
     7
176
     1
 79
     5
176
     1
170
     0
176
     1
171
     0
176
     1
290
     0
176
     1
 93
        1
176
     1
 44
0.0
176
     1
173
     0
176
     1
  0
VISUALSTYLE
  5
2B
102
{ACAD_REACTORS
330
2A
102
}
330
2A
100
AcDbVisualStyle
  2
Flat
 70
     0
177
     2
291
     1
 71
     2
176
     1
 72
     1
176
     1
 73
     1
176
     1
 90
        2
176
     1
 40
-0.6
176
     1
 41
30.0
176
     1
 62
     5
 63
     7
421
 16777215
176
     1
 74
     0
176
     1
 91
        4
176
     1
 64
     7
176
     1
 65
   257
176
     1
 75
     1
176
     1
175
     1
176
     1
 42
1.0
176
     1
 92
        8
176
     1
 66
     7
176
     1
 43
1.0
176
     1
 76
     1
176
     1
 77
     6
176
     1
 78
     2
176
     1
 67
     7
176
     1
 79
     5
176
     1
170
     0
176
     1
171
     0
176
     1
290
     0
176
     1
 93
       13
176
     1
 44
0.0
176
     1
173
     0
176
     1
  0
VISUALSTYLE
  5
2C
102
{ACAD_REACTORS
330
2A
102
}
330
2A
100
AcDbVisualStyle
  2
FlatWithEdges
 70
     1
177
     2
291
     1
 71
     2
176
     1
 72
     1
176
     1
 73
     1
176
     1
 90
        2
176
     1
 40
-0.6
176
     1
 41
30.0
176
     1
 62
     5
 63
     7
421
 16777215
176
     1
 74
     1
176
     1
 91
        4
176
     1
 64
     7
176
     1
 65
   257
176
     1
 75
     1
176
     1
175
     1
176
     1
 42
1.0
176
     1
 92
        0
176
     1
 66
   257
176
     1
 43
1.0
176
     1
 76
     1
176
     1
 77
     6
176
     1
 78
     2
176
     1
 67
     7
176
     1
 79
     5
176
     1
170
     0
176
     1
171
     0
176
     1
290
     0
176
     1
 93
       13
176
     1
 44
0.0
176
     1
173
     0
176
     1
  0
VISUALSTYLE
  5
2D
102
{ACAD_REACTORS
330
2A
102
}
330
2A
100
AcDbVisualStyle
  2
Gouraud
 70
     2
177
     2
291
     1
 71
     2
176
     1
 72
     2
176
     1
 73
     1
176
     1
 90
        2
176
     1
 40
-0.6
176
     1
 41
30.0
176
     1
 62
     5
 63
     7
421
 16777215
176
     1
 74
     0
176
     1
 91
        4
176
     1
 64
     7
176
     1
 65
   257
176
     1
 75
     1
176
     1
175
     1
176
     1
 42
1.0
176
     1
 92
        0
176
     1
 66
     7
176
     1
 43
1.0
176
     1
 76
     1
176
     1
 77
     6
176
     1
 78
     2
176
     1
 67
     7
176
     1
 79
     5
176
     1
170
     0
176
     1
171
     0
176
     1
290
     0
176
     1
 93
       13
176
     1
 44
0.0
176
     1
173
     0
176
     1
  0
VISUALSTYLE
  5
2E
102
{ACAD_REACTORS
330
2A
102
}
330
2A
100
AcDbVisualStyle
  2
GouraudWithEdges
 70
     3
177
     2
291
     1
 71
     2
176
     1
 72
     2
176
     1
 73
     1
176
     1
 90
        2
176
     1
 40
-0.6
176
     1
 41
30.0
176
     1
 62
     5
 63
     7
421
 16777215
176
     1
 74
     1
176
     1
 91
        4
176
     1
 64
     7
176
     1
 65
   257
176
     1
 75
     1
176
     1
175
     1
176
     1
 42
1.0
176
     1
 92
        0
176
     1
 66
   257
176
     1
 43
1.0
176
     1
 76
     1
176
     1
 77
     6
176
     1
 78
     2
176
     1
 67
     7
176
     1
 79
     5
176
     1
170
     0
176
     1
171
     0
176
     1
290
     0
176
     1
 93
       13
176
     1
 44
0.0
176
     1
173
     0
176
     1
  0
VISUALSTYLE
  5
38
102
{ACAD_REACTORS
330
2A
102
}
330
2A
100
AcDbVisualStyle
  2
Linepattern
 70
    14
177
     2
291
     1
 71
     2
176
     1
 72
     2
176
     1
 73
     0
176
     1
 90
        0
176
     1
 40
-0.6
176
     1
 41
-30.0
176
     1
 62
     5
 63
     7
421
 16777215
176
     1
 74
     1
176
     1
 91
        4
176
     1
 64
     7
176
     1
 65
   257
176
     1
 75
     7
176
     1
175
     7
176
     1
 42
1.0
176
     1
 92
        8
176
     1
 66
     7
176
     1
 43
1.0
176
     1
 76
     1
176
     1
 77
     6
176
     1
 78
     2
176
     1
 67
     7
176
     1
 79
     5
176
     1
170
     0
176
     1
171
     0
176
     1
290
     0
176
     1
 93
        1
176
     1
 44
0.0
176
     1
173
     0
176
     1
  0
VISUALSTYLE
  5
33
102
{ACAD_REACTORS
330
2A
102
}
330
2A
100
AcDbVisualStyle
  2
Realistic
 70
     8
177
     2
291
     0
 71
     2
176
     1
 72
     2
176
     1
 73
     0
176
     1
 90
        0
176
     1
 40
-0.6
176
     1
 41
-30.0
176
     1
 62
     5
 63
     7
421
 16777215
176
     1
 74
     1
176
     1
 91
        0
176
     1
 64
     7
176
     1
 65
   257
176
     1
 75
     1
176
     1
175
     1
176
     1
 42
1.0
176
     1
 92
        8
176
     1
 66
     8
424
  7895160
176
     1
 43
1.0
176
     1
 76
     1
176
     1
 77
     6
176
     1
 78
     2
176
     1
 67
     7
176
     1
 79
     5
176
     1
170
     0
176
     1
171
     0
176
     1
290
     0
176
     1
 93
       13
176
     1
 44
0.0
176
     1
173
     0
176
     1
  0
VISUALSTYLE
  5
37
102
{ACAD_REACTORS
330
2A
102
}
330
2A
100
AcDbVisualStyle
  2
Thicken
 70
    13
177
     2
291
     1
 71
     2
176
     1
 72
     2
176
     1
 73
     0
176
     1
 90
        0
176
     1
 40
-0.6
176
     1
 41
-30.0
176
     1
 62
     5
 63
     7
421
 16777215
176
     1
 74
     1
176
     1
 91
        4
176
     1
 64
     7
176
     1
 65
   257
176
     1
 75
     1
176
     1
175
     1
176
     1
 42
1.0
176
     1
 92
       12
176
     1
 66
     7
176
     1
 43
1.0
176
     1
 76
     1
176
     1
 77
     6
176
     1
 78
     2
176
     1
 67
     7
176
     1
 79
     5
176
     1
170
     0
176
     1
171
     0
176
     1
290
     0
176
     1
 93
        1
176
     1
 44
0.0
176
     1
173
     0
176
     1
  0
ENDSEC
  0
EOF
