  0
SECTION
  2
HEADER
  9
$ACADVER
  1
AC1024
  9
$ACADMAINTVER
 70
     6
  9
$DWGCODEPAGE
  3
UNDEFINED
  9
$INSBASE
 10
0.0
 20
0.0
 30
0.0
  9
$EXTMIN
 10
1.000000000000000E+20
 20
1.000000000000000E+20
 30
1.000000000000000E+20
  9
$EXTMAX
 10
-1.000000000000000E+20
 20
-1.000000000000000E+20
 30
-1.000000000000000E+20
  9
$LIMMIN
 10
0.0
 20
0.0
  9
$LIMMAX
 10
12.0
 20
9.0
  9
$ORTHOMODE
 70
     0
  9
$REGENMODE
 70
     1
  9
$FILLMODE
 70
     1
  9
$QTEXTMODE
 70
     0
  9
$MIRRTEXT
 70
     1
  9
$LTSCALE
 40
1.0
  9
$ATTMODE
 70
     1
  9
$TEXTSIZE
 40
0.2
  9
$TRACEWID
 40
0.05
  9
$TEXTSTYLE
  7
Standard
  9
$CLAYER
  8
0
  9
$CELTYPE
  6
ByLayer
  9
$CECOLOR
 62
   256
  9
$CELTSCALE
 40
1.0
  9
$DISPSILH
 70
     0
  9
$DIMSCALE
 40
1.0
  9
$DIMASZ
 40
0.18
  9
$DIMEXO
 40
0.0625
  9
$DIMDLI
 40
0.38
  9
$DIMRND
 40
0.0
  9
$DIMDLE
 40
0.0
  9
$DIMEXE
 40
0.18
  9
$DIMTP
 40
0.0
  9
$DIMTM
 40
0.0
  9
$DIMTXT
 40
0.18
  9
$DIMCEN
 40
0.09
  9
$DIMTSZ
 40
0.0
  9
$DIMTOL
 70
     0
  9
$DIMLIM
 70
     0
  9
$DIMTIH
 70
     1
  9
$DIMTOH
 70
     1
  9
$DIMSE1
 70
     0
  9
$DIMSE2
 70
     0
  9
$DIMTAD
 70
     0
  9
$DIMZIN
 70
     0
  9
$DIMBLK
  1

  9
$DIMASO
 70
     1
  9
$DIMSHO
 70
     1
  9
$DIMPOST
  1

  9
$DIMAPOST
  1

  9
$DIMALT
 70
     0
  9
$DIMALTD
 70
     2
  9
$DIMALTF
 40
25.4
  9
$DIMLFAC
 40
1.0
  9
$DIMTOFL
 70
     0
  9
$DIMTVP
 40
0.0
  9
$DIMTIX
 70
     0
  9
$DIMSOXD
 70
     0
  9
$DIMSAH
 70
     0
  9
$DIMBLK1
  1

  9
$DIMBLK2
  1

  9
$DIMSTYLE
  2
Standard
  9
$DIMCLRD
 70
     0
  9
$DIMCLRE
 70
     0
  9
$DIMCLRT
 70
     0
  9
$DIMTFAC
 40
1.0
  9
$DIMGAP
 40
0.09
  9
$DIMJUST
 70
     0
  9
$DIMSD1
 70
     0
  9
$DIMSD2
 70
     0
  9
$DIMTOLJ
 70
     1
  9
$DIMTZIN
 70
     0
  9
$DIMALTZ
 70
     0
  9
$DIMALTTZ
 70
     0
  9
$DIMUPT
 70
     0
  9
$DIMDEC
 70
     4
  9
$DIMTDEC
 70
     4
  9
$DIMALTU
 70
     2
  9
$DIMALTTD
 70
     2
  9
$DIMTXSTY
  7
Standard
  9
$DIMAUNIT
 70
     0
  9
$DIMADEC
 70
     0
  9
$DIMALTRND
 40
0.0
  9
$DIMAZIN
 70
     0
  9
$DIMDSEP
 70
    46
  9
$DIMATFIT
 70
     3
  9
$DIMFRAC
 70
     0
  9
$DIMLDRBLK
  1

  9
$DIMLUNIT
 70
     2
  9
$DIMLWD
 70
    -2
  9
$DIMLWE
 70
    -2
  9
$DIMTMOVE
 70
     0
  9
$DIMFXL
 40
1.0
  9
$DIMFXLON
 70
     0
  9
$DIMJOGANG
 40
0.7853981633974483
  9
$DIMTFILL
 70
     0
  9
$DIMTFILLCLR
 70
     0
  9
$DIMARCSYM
 70
     0
  9
$DIMLTYPE
  6

  9
$DIMLTEX1
  6

  9
$DIMLTEX2
  6

  9
$DIMTXTDIRECTION
 70
     0
  9
$LUNITS
 70
     2
  9
$LUPREC
 70
     4
  9
$SKETCHINC
 40
0.1
  9
$FILLETRAD
 40
0.5
  9
$AUNITS
 70
     0
  9
$AUPREC
 70
     0
  9
$MENU
  1
.
  9
$ELEVATION
 40
0.0
  9
$PELEVATION
 40
0.0
  9
$THICKNESS
 40
0.0
  9
$LIMCHECK
 70
     0
  9
$CHAMFERA
 40
0.5
  9
$CHAMFERB
 40
0.5
  9
$CHAMFERC
 40
1.0
  9
$CHAMFERD
 40
0.0
  9
$SKPOLY
 70
     0
  9
$TDCREATE
 40
2457917.622638877
  9
$TDUCREATE
 40
2457917.247638889
  9
$TDUPDATE
 40
2457917.622638877
  9
$TDUUPDATE
 40
2457917.247638889
  9
$TDINDWG
 40
0.0000000116
  9
$TDUSRTIMER
 40
0.0000000116
  9
$USRTIMER
 70
     1
  9
$ANGBASE
 50
0.0
  9
$ANGDIR
 70
     0
  9
$PDMODE
 70
     0
  9
$PDSIZE
 40
0.0
  9
$PLINEWID
 40
0.0
  9
$SPLFRAME
 70
     0
  9
$SPLINETYPE
 70
     6
  9
$SPLINESEGS
 70
     8
  9
$HANDSEED
  5
D4
  9
$SURFTAB1
 70
     6
  9
$SURFTAB2
 70
     6
  9
$SURFTYPE
 70
     6
  9
$SURFU
 70
     6
  9
$SURFV
 70
     6
  9
$UCSBASE
  2

  9
$UCSNAME
  2

  9
$UCSORG
 10
0.0
 20
0.0
 30
0.0
  9
$UCSXDIR
 10
1.0
 20
0.0
 30
0.0
  9
$UCSYDIR
 10
0.0
 20
1.0
 30
0.0
  9
$UCSORTHOREF
  2

  9
$UCSORTHOVIEW
 70
     0
  9
$UCSORGTOP
 10
0.0
 20
0.0
 30
0.0
  9
$UCSORGBOTTOM
 10
0.0
 20
0.0
 30
0.0
  9
$UCSORGLEFT
 10
0.0
 20
0.0
 30
0.0
  9
$UCSORGRIGHT
 10
0.0
 20
0.0
 30
0.0
  9
$UCSORGFRONT
 10
0.0
 20
0.0
 30
0.0
  9
$UCSORGBACK
 10
0.0
 20
0.0
 30
0.0
  9
$PUCSBASE
  2

  9
$PUCSNAME
  2

  9
$PUCSORG
 10
0.0
 20
0.0
 30
0.0
  9
$PUCSXDIR
 10
1.0
 20
0.0
 30
0.0
  9
$PUCSYDIR
 10
0.0
 20
1.0
 30
0.0
  9
$PUCSORTHOREF
  2

  9
$PUCSORTHOVIEW
 70
     0
  9
$PUCSORGTOP
 10
0.0
 20
0.0
 30
0.0
  9
$PUCSORGBOTTOM
 10
0.0
 20
0.0
 30
0.0
  9
$PUCSORGLEFT
 10
0.0
 20
0.0
 30
0.0
  9
$PUCSORGRIGHT
 10
0.0
 20
0.0
 30
0.0
  9
$PUCSORGFRONT
 10
0.0
 20
0.0
 30
0.0
  9
$PUCSORGBACK
 10
0.0
 20
0.0
 30
0.0
  9
$USERI1
 70
     0
  9
$USERI2
 70
     0
  9
$USERI3
 70
     0
  9
$USERI4
 70
     0
  9
$USERI5
 70
     0
  9
$USERR1
 40
0.0
  9
$USERR2
 40
0.0
  9
$USERR3
 40
0.0
  9
$USERR4
 40
0.0
  9
$USERR5
 40
0.0
  9
$WORLDVIEW
 70
     1
  9
$SHADEDGE
 70
     3
  9
$SHADEDIF
 70
    70
  9
$TILEMODE
 70
     1
  9
$MAXACTVP
 70
    64
  9
$PINSBASE
 10
0.0
 20
0.0
 30
0.0
  9
$PLIMCHECK
 70
     0
  9
$PEXTMIN
 10
1.000000000000000E+20
 20
1.000000000000000E+20
 30
1.000000000000000E+20
  9
$PEXTMAX
 10
-1.000000000000000E+20
 20
-1.000000000000000E+20
 30
-1.000000000000000E+20
  9
$PLIMMIN
 10
0.0
 20
0.0
  9
$PLIMMAX
 10
12.0
 20
9.0
  9
$UNITMODE
 70
     0
  9
$VISRETAIN
 70
     1
  9
$PLINEGEN
 70
     0
  9
$PSLTSCALE
 70
     1
  9
$TREEDEPTH
 70
  3020
  9
$CMLSTYLE
  2
Standard
  9
$CMLJUST
 70
     0
  9
$CMLSCALE
 40
1.0
  9
$PROXYGRAPHICS
 70
     1
  9
$MEASUREMENT
 70
     0
  9
$CELWEIGHT
370
    -1
  9
$ENDCAPS
280
     0
  9
$JOINSTYLE
280
     0
  9
$LWDISPLAY
290
     1
  9
$INSUNITS
 70
     1
  9
$HYPERLINKBASE
  1

  9
$STYLESHEET
  1

  9
$XEDIT
290
     1
  9
$CEPSNTYPE
380
     0
  9
$PSTYLEMODE
290
     1
  9
$FINGERPRINTGUID
  2
{A5E46E03-24FD-285D-8504-C82667E4D3EF}
  9
$VERSIONGUID
  2
{FAEB1C32-E019-11D5-929B-00C0DF256EC4}
  9
$EXTNAMES
290
     1
  9
$PSVPSCALE
 40
0.0
  9
$OLESTARTUP
290
     0
  9
$SORTENTS
280
   127
  9
$INDEXCTL
280
     0
  9
$HIDETEXT
280
     1
  9
$XCLIPFRAME
280
     2
  9
$HALOGAP
280
     0
  9
$OBSCOLOR
 70
   257
  9
$OBSLTYPE
280
     0
  9
$INTERSECTIONDISPLAY
280
     0
  9
$INTERSECTIONCOLOR
 70
   257
  9
$DIMASSOC
280
     2
  9
$PROJECTNAME
  1

  9
$CAMERADISPLAY
290
     0
  9
$LENSLENGTH
 40
50.0
  9
$CAMERAHEIGHT
 40
0.0
  9
$STEPSPERSEC
 40
2.0
  9
$STEPSIZE
 40
6.0
  9
$3DDWFPREC
 40
2.0
  9
$PSOLWIDTH
 40
0.25
  9
$PSOLHEIGHT
 40
4.0
  9
$LOFTANG1
 40
1.570796326794897
  9
$LOFTANG2
 40
1.570796326794897
  9
$LOFTMAG1
 40
0.0
  9
$LOFTMAG2
 40
0.0
  9
$LOFTPARAM
 70
     7
  9
$LOFTNORMALS
280
     1
  9
$LATITUDE
 40
37.795
  9
$LONGITUDE
 40
-122.394
  9
$NORTHDIRECTION
 40
0.0
  9
$TIMEZONE
 70
 -8000
  9
$LIGHTGLYPHDISPLAY
280
     1
  9
$TILEMODELIGHTSYNCH
280
     1
  9
$CMATERIAL
347
3C
  9
$SOLIDHIST
280
     1
  9
$SHOWHIST
280
     1
  9
$DWFFRAME
280
     2
  9
$DGNFRAME
280
     2
  9
$REALWORLDSCALE
290
     1
  9
$INTERFERECOLOR
 62
   256
  9
$CSHADOW
280
     0
  9
$SHADOWPLANELOCATION
 40
0.0
  0
ENDSEC
  0
SECTION
  2
CLASSES
  0
CLASS
  1
ACDBDICTIONARYWDFLT
  2
AcDbDictionaryWithDefault
  3
ObjectDBX Classes
 90
        0
 91
        4
280
     0
281
     0
  0
CLASS
  1
VISUALSTYLE
  2
AcDbVisualStyle
  3
ObjectDBX Classes
 90
     4095
 91
        4
280
     0
281
     0
  0
CLASS
  1
MATERIAL
  2
AcDbMaterial
  3
ObjectDBX Classes
 90
     1153
 91
        4
280
     0
281
     0
  0
CLASS
  1
SUN
  2
AcDbSun
  3
SCENEOE
 90
     1024
 91
        4
280
     0
281
     0
  0
ENDSEC
  0
SECTION
  2
TABLES
  0
TABLE
  2
VPORT
  5
8
330
0
100
AcDbSymbolTable
 70
     1
  0
VPORT
  5
29
330
8
100
AcDbSymbolTableRecord
100
AcDbViewportTableRecord
  2
*Active
 70
     0
 10
0.0
 20
0.0
 11
1.0
 21
1.0
 12
0.0
 22
0.0
 13
0.0
 23
0.0
 14
0.5
 24
0.5
 15
0.5
 25
0.5
 16
0.0
 26
0.0
 36
1.0
 17
91.00082462281999
 27
-128.4993055234307
 37
0.0
 40
256.9986110468615
 41
0.7081814508812795
 42
50.0
 43
0.0
 44
0.0
 50
0.0
 51
0.0
 71
     0
 72
   100
 73
     1
 74
     3
 75
     0
 76
     0
 77
     0
 78
     0
281
     0
 65
     1
110
0.0
120
0.0
130
0.0
111
1.0
121
0.0
131
0.0
112
0.0
122
1.0
132
0.0
 79
     0
146
0.0
 60
     3
 61
     5
292
     1
282
     1
141
0.0
142
0.0
 63
   250
361
3F
  0
ENDTAB
  0
TABLE
  2
LTYPE
  5
5
330
0
100
AcDbSymbolTable
 70
     1
  0
LTYPE
  5
14
330
5
100
AcDbSymbolTableRecord
100
AcDbLinetypeTableRecord
  2
ByBlock
 70
     0
  3

 72
    65
 73
     0
 40
0.0
  0
LTYPE
  5
15
330
5
100
AcDbSymbolTableRecord
100
AcDbLinetypeTableRecord
  2
ByLayer
 70
     0
  3

 72
    65
 73
     0
 40
0.0
  0
LTYPE
  5
16
330
5
100
AcDbSymbolTableRecord
100
AcDbLinetypeTableRecord
  2
Continuous
 70
     0
  3
Solid line
 72
    65
 73
     0
 40
0.0
  0
ENDTAB
  0
TABLE
  2
LAYER
  5
2
330
0
100
AcDbSymbolTable
 70
     2
  0
LAYER
  5
10
330
2
100
AcDbSymbolTableRecord
100
AcDbLayerTableRecord
  2
0
 70
     0
 62
     7
  6
Continuous
370
    -3
390
F
347
3E
  0
LAYER
  5
40
330
2
100
AcDbSymbolTableRecord
100
AcDbLayerTableRecord
  2
_U+30EC_U+30A4_U+30E4_U+30FC 1
 70
     0
 62
     7
  6
Continuous
370
    -3
390
F
347
3E
  0
ENDTAB
  0
TABLE
  2
STYLE
  5
3
330
0
100
AcDbSymbolTable
 70
     1
  0
STYLE
  5
11
330
3
100
AcDbSymbolTableRecord
100
AcDbTextStyleTableRecord
  2
Standard
 70
     0
 40
0.0
 41
1.0
 50
0.0
 71
     0
 42
0.2
  3
txt
  4

  0
ENDTAB
  0
TABLE
  2
VIEW
  5
6
330
0
100
AcDbSymbolTable
 70
     0
  0
ENDTAB
  0
TABLE
  2
UCS
  5
7
330
0
100
AcDbSymbolTable
 70
     0
  0
ENDTAB
  0
TABLE
  2
APPID
  5
9
330
0
100
AcDbSymbolTable
 70
     1
  0
APPID
  5
12
330
9
100
AcDbSymbolTableRecord
100
AcDbRegAppTableRecord
  2
ACAD
 70
     0
  0
ENDTAB
  0
TABLE
  2
DIMSTYLE
  5
A
330
0
100
AcDbSymbolTable
 70
     1
100
AcDbDimStyleTable
  0
DIMSTYLE
105
27
330
A
100
AcDbSymbolTableRecord
100
AcDbDimStyleTableRecord
  2
Standard
 70
     0
178
     0
340
11
  0
ENDTAB
  0
TABLE
  2
BLOCK_RECORD
  5
1
330
0
100
AcDbSymbolTable
 70
     6
  0
BLOCK_RECORD
  5
1F
330
1
100
AcDbSymbolTableRecord
100
AcDbBlockTableRecord
  2
*Model_Space
340
22
 70
     0
280
     1
281
     0
  0
BLOCK_RECORD
  5
1B
330
1
100
AcDbSymbolTableRecord
100
AcDbBlockTableRecord
  2
*Paper_Space
340
1E
 70
     0
280
     1
281
     0
  0
BLOCK_RECORD
  5
23
330
1
100
AcDbSymbolTableRecord
100
AcDbBlockTableRecord
  2
*Paper_Space0
340
26
 70
     0
280
     1
281
     0
  0
BLOCK_RECORD
  5
44
330
1
100
AcDbSymbolTableRecord
100
AcDbBlockTableRecord
  2
block 2
340
0
102
{BLKREFS
331
45
102
}
 70
     0
280
     1
281
     0
  0
BLOCK_RECORD
  5
68
330
1
100
AcDbSymbolTableRecord
100
AcDbBlockTableRecord
  2
block 3
340
0
102
{BLKREFS
331
69
102
}
 70
     0
280
     1
281
     0
  0
BLOCK_RECORD
  5
8B
330
1
100
AcDbSymbolTableRecord
100
AcDbBlockTableRecord
  2
block 4
340
0
102
{BLKREFS
331
8C
102
}
 70
     0
280
     1
281
     0
  0
BLOCK_RECORD
  5
9F
330
1
100
AcDbSymbolTableRecord
100
AcDbBlockTableRecord
  2
block 5
340
0
102
{BLKREFS
331
A0
102
}
 70
     0
280
     1
281
     0
  0
BLOCK_RECORD
  5
B5
330
1
100
AcDbSymbolTableRecord
100
AcDbBlockTableRecord
  2
block 6
340
0
102
{BLKREFS
331
B6
102
}
 70
     0
280
     1
281
     0
  0
ENDTAB
  0
ENDSEC
  0
SECTION
  2
BLOCKS
  0
BLOCK
  5
20
330
1F
100
AcDbEntity
  8
0
100
AcDbBlockBegin
  2
*Model_Space
 70
     0
 10
0.0
 20
0.0
 30
0.0
  3
*Model_Space
  1

  0
ENDBLK
  5
21
330
1F
100
AcDbEntity
  8
0
100
AcDbBlockEnd
  0
BLOCK
  5
1C
330
1B
100
AcDbEntity
 67
     1
  8
0
100
AcDbBlockBegin
  2
*Paper_Space
 70
     0
 10
0.0
 20
0.0
 30
0.0
  3
*Paper_Space
  1

  0
ENDBLK
  5
1D
330
1B
100
AcDbEntity
 67
     1
  8
0
100
AcDbBlockEnd
  0
BLOCK
  5
24
330
23
100
AcDbEntity
  8
0
100
AcDbBlockBegin
  2
*Paper_Space0
 70
     0
 10
0.0
 20
0.0
 30
0.0
  3
*Paper_Space0
  1

  0
ENDBLK
  5
25
330
23
100
AcDbEntity
  8
0
100
AcDbBlockEnd
  0
BLOCK
  5
46
330
44
100
AcDbEntity
  8
0
100
AcDbBlockBegin
  2
block 2
 70
     0
 10
0.0
 20
0.0
 30
0.0
  3
block 2
  1

  0
SPLINE
  5
48
330
44
100
AcDbEntity
  8
_U+30EC_U+30A4_U+30E4_U+30FC 1
370
     0
100
AcDbSpline
210
0.0
220
0.0
230
1.0
 70
    11
 71
     3
 72
    26
 73
    22
 74
     0
 42
0.0000000001
 43
0.0000000001
 12
1.0
 22
0.0
 32
0.0
 13
1.0
 23
0.0
 33
0.0
 40
0.0
 40
0.0
 40
0.0
 40
0.0
 40
1.0
 40
1.0
 40
1.0
 40
2.0
 40
2.0
 40
2.0
 40
3.0
 40
3.0
 40
3.0
 40
4.0
 40
4.0
 40
4.0
 40
5.0
 40
5.0
 40
5.0
 40
6.0
 40
6.0
 40
6.0
 40
7.0
 40
7.0
 40
7.0
 40
7.0
 10
88.21166989982208
 20
-123.745762772883
 30
0.0
 10
88.21166989982208
 20
-123.745762772883
 30
0.0
 10
88.63438311586224
 20
-122.725325490152
 30
0.0
 10
88.63438311586224
 20
-122.725325490152
 30
0.0
 10
88.63438311586224
 20
-122.725325490152
 30
0.0
 10
88.30882159250613
 20
-122.5902777471302
 30
0.0
 10
88.30882159250613
 20
-122.5902777471302
 30
0.0
 10
88.30882159250613
 20
-122.5902777471302
 30
0.0
 10
88.36532115846423
 20
-122.4538519659143
 30
0.0
 10
88.36532115846423
 20
-122.4538519659143
 30
0.0
 10
88.69880640143641
 20
-122.5758083460922
 30
0.0
 10
88.80698239967326
 20
-122.4442056985556
 30
0.0
 10
88.88001842396055
 20
-122.3511881204539
 30
0.0
 10
88.88001842396055
 20
-122.3511881204539
 30
0.0
 10
89.024023415244
 20
-122.4104437628002
 30
0.0
 10
89.024023415244
 20
-122.4104437628002
 30
0.0
 10
89.024023415244
 20
-122.4104437628002
 30
0.0
 10
88.43318953952365
 20
-123.8374023127907
 30
0.0
 10
88.43318953952365
 20
-123.8374023127907
 30
0.0
 10
88.43318953952365
 20
-123.8374023127907
 30
0.0
 10
88.21166989982208
 20
-123.745762772883
 30
0.0
 10
88.21166989982208
 20
-123.745762772883
 30
0.0
  0
HATCH
  5
49
330
44
100
AcDbEntity
  8
_U+30EC_U+30A4_U+30E4_U+30FC 1
 62
     7
420
 16777215
100
AcDbHatch
 10
0.0
 20
0.0
 30
0.0
210
0.0
220
0.0
230
1.0
  2
SOLID
 70
     1
 71
     0
 91
        1
 92
        1
 93
        1
 72
     4
 94
        3
 73
     0
 74
     1
 95
       26
 96
       22
 40
0.0
 40
0.0
 40
0.0
 40
0.0
 40
1.0
 40
1.0
 40
1.0
 40
2.0
 40
2.0
 40
2.0
 40
3.0
 40
3.0
 40
3.0
 40
4.0
 40
4.0
 40
4.0
 40
5.0
 40
5.0
 40
5.0
 40
6.0
 40
6.0
 40
6.0
 40
7.0
 40
7.0
 40
7.0
 40
7.0
 10
88.21166989982208
 20
-123.745762772883
 10
88.21166989982208
 20
-123.745762772883
 10
88.63438311586224
 20
-122.725325490152
 10
88.63438311586224
 20
-122.725325490152
 10
88.63438311586224
 20
-122.725325490152
 10
88.30882159250613
 20
-122.5902777471302
 10
88.30882159250613
 20
-122.5902777471302
 10
88.30882159250613
 20
-122.5902777471302
 10
88.36532115846423
 20
-122.4538519659143
 10
88.36532115846423
 20
-122.4538519659143
 10
88.69880640143641
 20
-122.5758083460922
 10
88.80698239967326
 20
-122.4442056985556
 10
88.88001842396055
 20
-122.3511881204539
 10
88.88001842396055
 20
-122.3511881204539
 10
89.024023415244
 20
-122.4104437628002
 10
89.024023415244
 20
-122.4104437628002
 10
89.024023415244
 20
-122.4104437628002
 10
88.43318953952365
 20
-123.8374023127907
 10
88.43318953952365
 20
-123.8374023127907
 10
88.43318953952365
 20
-123.8374023127907
 10
88.21166989982208
 20
-123.745762772883
 10
88.21166989982208
 20
-123.745762772883
 97
        0
 97
        0
 75
     2
 76
     1
 98
        0
  0
SPLINE
  5
4A
330
44
100
AcDbEntity
  8
_U+30EC_U+30A4_U+30E4_U+30FC 1
370
     0
100
AcDbSpline
210
0.0
220
0.0
230
1.0
 70
    11
 71
     3
 72
    62
 73
    58
 74
     0
 42
0.0000000001
 43
0.0000000001
 12
1.0
 22
0.0
 32
0.0
 13
1.0
 23
0.0
 33
0.0
 40
0.0
 40
0.0
 40
0.0
 40
0.0
 40
1.0
 40
1.0
 40
1.0
 40
2.0
 40
2.0
 40
2.0
 40
3.0
 40
3.0
 40
3.0
 40
4.0
 40
4.0
 40
4.0
 40
5.0
 40
5.0
 40
5.0
 40
6.0
 40
6.0
 40
6.0
 40
7.0
 40
7.0
 40
7.0
 40
8.0
 40
8.0
 40
8.0
 40
9.0
 40
9.0
 40
9.0
 40
10.0
 40
10.0
 40
10.0
 40
11.0
 40
11.0
 40
11.0
 40
12.0
 40
12.0
 40
12.0
 40
13.0
 40
13.0
 40
13.0
 40
14.0
 40
14.0
 40
14.0
 40
15.0
 40
15.0
 40
15.0
 40
16.0
 40
16.0
 40
16.0
 40
17.0
 40
17.0
 40
17.0
 40
18.0
 40
18.0
 40
18.0
 40
19.0
 40
19.0
 40
19.0
 40
19.0
 10
89.39402667035984
 20
-124.2900878595525
 30
0.0
 10
89.30032007316103
 20
-124.2515027901177
 30
0.0
 10
89.09326983449752
 20
-124.1426377727838
 30
0.0
 10
89.04124889267025
 20
-123.9197400948881
 30
0.0
 10
89.01093205240005
 20
-123.7857258805119
 30
0.0
 10
89.04503849770403
 20
-123.6920192833131
 30
0.0
 10
89.07328828068307
 20
-123.6120930680553
 30
0.0
 10
89.07328828068307
 20
-123.6120930680553
 30
0.0
 10
89.29032929625382
 20
-123.7023545697689
 30
0.0
 10
89.29032929625382
 20
-123.7023545697689
 30
0.0
 10
89.26380206101739
 20
-123.7716009890224
 30
0.0
 10
89.18490937440517
 20
-123.9931206287239
 30
0.0
 10
89.46465112780746
 20
-124.1088758370283
 30
0.0
 10
89.6003878899263
 20
-124.1650308934379
 30
0.0
 10
89.7771212883196
 20
-124.1626193265982
 30
0.0
 10
89.86462671364495
 20
-123.9517794829009
 30
0.0
 10
89.90906844540469
 20
-123.8442925037612
 30
0.0
 10
89.8901204202358
 20
-123.7836588232208
 30
0.0
 10
89.87117239506694
 20
-123.7412841487522
 30
0.0
 10
89.82638615375869
 20
-123.6424099083255
 30
0.0
 10
89.71648760777921
 20
-123.5834987755277
 30
0.0
 10
89.66205509911227
 20
-123.5611056548736
 30
0.0
 10
89.6431070739434
 20
-123.5531819352575
 30
0.0
 10
89.60727808089679
 20
-123.5404350819621
 30
0.0
 10
89.57799476927217
 20
-123.5328558718946
 30
0.0
 10
89.57799476927217
 20
-123.5328558718946
 30
0.0
 10
89.65240883175356
 20
-123.3530218875645
 30
0.0
 10
89.65240883175356
 20
-123.3530218875645
 30
0.0
 10
89.68754880570312
 20
-123.3743814795731
 30
0.0
 10
89.72888995152611
 20
-123.3936740142905
 30
0.0
 10
89.73509112339957
 20
-123.3964300906787
 30
0.0
 10
89.79985891852226
 20
-123.4233018354636
 30
0.0
 10
90.00415308079758
 20
-123.4853135541981
 30
0.0
 10
90.09475909205965
 20
-123.2662054813362
 30
0.0
 10
90.1629719826676
 20
-123.1022189362383
 30
0.0
 10
90.05445147488223
 20
-122.9974880334867
 30
0.0
 10
89.94593096709686
 20
-122.9527017921785
 30
0.0
 10
89.68479272931492
 20
-122.8441812843931
 30
0.0
 10
89.58764103663087
 20
-123.056054656736
 30
0.0
 10
89.55594615816658
 20
-123.1208224518587
 30
0.0
 10
89.55594615816658
 20
-123.1208224518587
 30
0.0
 10
89.35544160092503
 20
-123.0374511411156
 30
0.0
 10
89.35544160092503
 20
-123.0374511411156
 30
0.0
 10
89.41125214778609
 20
-122.9258300473935
 30
0.0
 10
89.58212888385447
 20
-122.5888997089361
 30
0.0
 10
90.0334363924222
 20
-122.7759683937852
 30
0.0
 10
90.25530054167228
 20
-122.8676079336928
 30
0.0
 10
90.44478079336103
 20
-123.083615420618
 30
0.0
 10
90.33143715189631
 20
-123.3571560021468
 30
0.0
 10
90.26012367535164
 20
-123.5294107764093
 30
0.0
 10
90.13437769014003
 20
-123.56661780765
 30
0.0
 10
90.0127658195107
 20
-123.5824652468822
 30
0.0
 10
90.06271970404683
 20
-123.6327636409668
 30
0.0
 10
90.21189233855814
 20
-123.7815917659296
 30
0.0
 10
90.10578339761244
 20
-124.0379068700322
 30
0.0
 10
89.97624780736706
 20
-124.3507215400929
 30
0.0
 10
89.66756725188867
 20
-124.4037760105657
 30
0.0
 10
89.39402667035984
 20
-124.2900878595525
 30
0.0
  0
HATCH
  5
4B
330
44
100
AcDbEntity
  8
_U+30EC_U+30A4_U+30E4_U+30FC 1
 62
     7
420
 16777215
100
AcDbHatch
 10
0.0
 20
0.0
 30
0.0
210
0.0
220
0.0
230
1.0
  2
SOLID
 70
     1
 71
     0
 91
        1
 92
        1
 93
        1
 72
     4
 94
        3
 73
     0
 74
     1
 95
       62
 96
       58
 40
0.0
 40
0.0
 40
0.0
 40
0.0
 40
1.0
 40
1.0
 40
1.0
 40
2.0
 40
2.0
 40
2.0
 40
3.0
 40
3.0
 40
3.0
 40
4.0
 40
4.0
 40
4.0
 40
5.0
 40
5.0
 40
5.0
 40
6.0
 40
6.0
 40
6.0
 40
7.0
 40
7.0
 40
7.0
 40
8.0
 40
8.0
 40
8.0
 40
9.0
 40
9.0
 40
9.0
 40
10.0
 40
10.0
 40
10.0
 40
11.0
 40
11.0
 40
11.0
 40
12.0
 40
12.0
 40
12.0
 40
13.0
 40
13.0
 40
13.0
 40
14.0
 40
14.0
 40
14.0
 40
15.0
 40
15.0
 40
15.0
 40
16.0
 40
16.0
 40
16.0
 40
17.0
 40
17.0
 40
17.0
 40
18.0
 40
18.0
 40
18.0
 40
19.0
 40
19.0
 40
19.0
 40
19.0
 10
89.39402667035984
 20
-124.2900878595525
 10
89.30032007316103
 20
-124.2515027901177
 10
89.09326983449752
 20
-124.1426377727838
 10
89.04124889267025
 20
-123.9197400948881
 10
89.01093205240005
 20
-123.7857258805119
 10
89.04503849770403
 20
-123.6920192833131
 10
89.07328828068307
 20
-123.6120930680553
 10
89.07328828068307
 20
-123.6120930680553
 10
89.29032929625382
 20
-123.7023545697689
 10
89.29032929625382
 20
-123.7023545697689
 10
89.26380206101739
 20
-123.7716009890224
 10
89.18490937440517
 20
-123.9931206287239
 10
89.46465112780746
 20
-124.1088758370283
 10
89.6003878899263
 20
-124.1650308934379
 10
89.7771212883196
 20
-124.1626193265982
 10
89.86462671364495
 20
-123.9517794829009
 10
89.90906844540469
 20
-123.8442925037612
 10
89.8901204202358
 20
-123.7836588232208
 10
89.87117239506694
 20
-123.7412841487522
 10
89.82638615375869
 20
-123.6424099083255
 10
89.71648760777921
 20
-123.5834987755277
 10
89.66205509911227
 20
-123.5611056548736
 10
89.6431070739434
 20
-123.5531819352575
 10
89.60727808089679
 20
-123.5404350819621
 10
89.57799476927217
 20
-123.5328558718946
 10
89.57799476927217
 20
-123.5328558718946
 10
89.65240883175356
 20
-123.3530218875645
 10
89.65240883175356
 20
-123.3530218875645
 10
89.68754880570312
 20
-123.3743814795731
 10
89.72888995152611
 20
-123.3936740142905
 10
89.73509112339957
 20
-123.3964300906787
 10
89.79985891852226
 20
-123.4233018354636
 10
90.00415308079758
 20
-123.4853135541981
 10
90.09475909205965
 20
-123.2662054813362
 10
90.1629719826676
 20
-123.1022189362383
 10
90.05445147488223
 20
-122.9974880334867
 10
89.94593096709686
 20
-122.9527017921785
 10
89.68479272931492
 20
-122.8441812843931
 10
89.58764103663087
 20
-123.056054656736
 10
89.55594615816658
 20
-123.1208224518587
 10
89.55594615816658
 20
-123.1208224518587
 10
89.35544160092503
 20
-123.0374511411156
 10
89.35544160092503
 20
-123.0374511411156
 10
89.41125214778609
 20
-122.9258300473935
 10
89.58212888385447
 20
-122.5888997089361
 10
90.0334363924222
 20
-122.7759683937852
 10
90.25530054167228
 20
-122.8676079336928
 10
90.44478079336103
 20
-123.083615420618
 10
90.33143715189631
 20
-123.3571560021468
 10
90.26012367535164
 20
-123.5294107764093
 10
90.13437769014003
 20
-123.56661780765
 10
90.0127658195107
 20
-123.5824652468822
 10
90.06271970404683
 20
-123.6327636409668
 10
90.21189233855814
 20
-123.7815917659296
 10
90.10578339761244
 20
-124.0379068700322
 10
89.97624780736706
 20
-124.3507215400929
 10
89.66756725188867
 20
-124.4037760105657
 10
89.39402667035984
 20
-124.2900878595525
 97
        0
 97
        0
 75
     2
 76
     1
 98
        0
  0
SPLINE
  5
4C
330
44
100
AcDbEntity
  8
_U+30EC_U+30A4_U+30E4_U+30FC 1
370
     0
100
AcDbSpline
210
0.0
220
0.0
230
1.0
 70
    11
 71
     3
 72
    53
 73
    49
 74
     0
 42
0.0000000001
 43
0.0000000001
 12
1.0
 22
0.0
 32
0.0
 13
1.0
 23
0.0
 33
0.0
 40
0.0
 40
0.0
 40
0.0
 40
0.0
 40
1.0
 40
1.0
 40
1.0
 40
2.0
 40
2.0
 40
2.0
 40
3.0
 40
3.0
 40
3.0
 40
4.0
 40
4.0
 40
4.0
 40
5.0
 40
5.0
 40
5.0
 40
6.0
 40
6.0
 40
6.0
 40
7.0
 40
7.0
 40
7.0
 40
8.0
 40
8.0
 40
8.0
 40
9.0
 40
9.0
 40
9.0
 40
10.0
 40
10.0
 40
10.0
 40
11.0
 40
11.0
 40
11.0
 40
12.0
 40
12.0
 40
12.0
 40
13.0
 40
13.0
 40
13.0
 40
14.0
 40
14.0
 40
14.0
 40
15.0
 40
15.0
 40
15.0
 40
16.0
 40
16.0
 40
16.0
 40
16.0
 10
90.54606660062737
 20
-124.7672335842596
 30
0.0
 10
90.46820744266073
 20
-124.7351941962468
 30
0.0
 10
90.37484535501046
 20
-124.6780056111916
 30
0.0
 10
90.29870874478644
 20
-124.5780978421194
 30
0.0
 10
90.16951766408957
 20
-124.4051540487598
 30
0.0
 10
90.19914548526272
 20
-124.2756184585144
 30
0.0
 10
90.22153860591685
 20
-124.1681314793746
 30
0.0
 10
90.22153860591685
 20
-124.1681314793746
 30
0.0
 10
90.44064667877873
 20
-124.2590820001852
 30
0.0
 10
90.44064667877873
 20
-124.2590820001852
 30
0.0
 10
90.41894257722166
 20
-124.4650987102032
 30
0.0
 10
90.53297523778343
 20
-124.5443359063639
 30
0.0
 10
90.62495928723959
 20
-124.5822319567017
 30
0.0
 10
90.76276310664959
 20
-124.6394205417568
 30
0.0
 10
90.95120982969276
 20
-124.6101372301322
 30
0.0
 10
91.04043780276074
 20
-124.3948187623041
 30
0.0
 10
91.13827851454182
 20
-124.1584852120159
 30
0.0
 10
90.9877278418364
 20
-124.020681392606
 30
0.0
 10
90.86852753804676
 20
-123.9710720176184
 30
0.0
 10
90.83683265958246
 20
-123.9579806547744
 30
0.0
 10
90.69696178288132
 20
-123.9001030506222
 30
0.0
 10
90.55984698256837
 20
-123.9827853422682
 30
0.0
 10
90.55984698256837
 20
-123.9827853422682
 30
0.0
 10
90.39379338017933
 20
-123.8935573692002
 30
0.0
 10
90.39379338017933
 20
-123.8935573692002
 30
0.0
 10
90.39379338017933
 20
-123.8935573692002
 30
0.0
 10
90.83648815003394
 20
-123.1614745785846
 30
0.0
 10
90.83648815003394
 20
-123.1614745785846
 30
0.0
 10
90.83648815003394
 20
-123.1614745785846
 30
0.0
 10
91.60508895279318
 20
-123.4798014014217
 30
0.0
 10
91.60508895279318
 20
-123.4798014014217
 30
0.0
 10
91.60508895279318
 20
-123.4798014014217
 30
0.0
 10
91.53067489031179
 20
-123.6596353857518
 30
0.0
 10
91.53067489031179
 20
-123.6596353857518
 30
0.0
 10
91.53067489031179
 20
-123.6596353857518
 30
0.0
 10
90.92296004671371
 20
-123.40779890578
 30
0.0
 10
90.92296004671371
 20
-123.40779890578
 30
0.0
 10
90.92296004671371
 20
-123.40779890578
 30
0.0
 10
90.69627276378426
 20
-123.7719454985709
 30
0.0
 10
90.69627276378426
 20
-123.7719454985709
 30
0.0
 10
90.76999780716862
 20
-123.7653998171489
 30
0.0
 10
90.8664604807556
 20
-123.7619547216637
 30
0.0
 10
90.9835937272541
 20
-123.8105305680057
 30
0.0
 10
91.2343966785803
 20
-123.9142279421117
 30
0.0
 10
91.39700518548409
 20
-124.1832898995097
 30
0.0
 10
91.2771158625974
 20
-124.4723334107222
 30
0.0
 10
91.15550399196808
 20
-124.765511036517
 30
0.0
 10
90.84441186965002
 20
-124.8909125121801
 30
0.0
 10
90.54606660062737
 20
-124.7672335842596
 30
0.0
  0
HATCH
  5
4D
330
44
100
AcDbEntity
  8
_U+30EC_U+30A4_U+30E4_U+30FC 1
 62
     7
420
 16777215
100
AcDbHatch
 10
0.0
 20
0.0
 30
0.0
210
0.0
220
0.0
230
1.0
  2
SOLID
 70
     1
 71
     0
 91
        1
 92
        1
 93
        1
 72
     4
 94
        3
 73
     0
 74
     1
 95
       53
 96
       49
 40
0.0
 40
0.0
 40
0.0
 40
0.0
 40
1.0
 40
1.0
 40
1.0
 40
2.0
 40
2.0
 40
2.0
 40
3.0
 40
3.0
 40
3.0
 40
4.0
 40
4.0
 40
4.0
 40
5.0
 40
5.0
 40
5.0
 40
6.0
 40
6.0
 40
6.0
 40
7.0
 40
7.0
 40
7.0
 40
8.0
 40
8.0
 40
8.0
 40
9.0
 40
9.0
 40
9.0
 40
10.0
 40
10.0
 40
10.0
 40
11.0
 40
11.0
 40
11.0
 40
12.0
 40
12.0
 40
12.0
 40
13.0
 40
13.0
 40
13.0
 40
14.0
 40
14.0
 40
14.0
 40
15.0
 40
15.0
 40
15.0
 40
16.0
 40
16.0
 40
16.0
 40
16.0
 10
90.54606660062737
 20
-124.7672335842596
 10
90.46820744266073
 20
-124.7351941962468
 10
90.37484535501046
 20
-124.6780056111916
 10
90.29870874478644
 20
-124.5780978421194
 10
90.16951766408957
 20
-124.4051540487598
 10
90.19914548526272
 20
-124.2756184585144
 10
90.22153860591685
 20
-124.1681314793746
 10
90.22153860591685
 20
-124.1681314793746
 10
90.44064667877873
 20
-124.2590820001852
 10
90.44064667877873
 20
-124.2590820001852
 10
90.41894257722166
 20
-124.4650987102032
 10
90.53297523778343
 20
-124.5443359063639
 10
90.62495928723959
 20
-124.5822319567017
 10
90.76276310664959
 20
-124.6394205417568
 10
90.95120982969276
 20
-124.6101372301322
 10
91.04043780276074
 20
-124.3948187623041
 10
91.13827851454182
 20
-124.1584852120159
 10
90.9877278418364
 20
-124.020681392606
 10
90.86852753804676
 20
-123.9710720176184
 10
90.83683265958246
 20
-123.9579806547744
 10
90.69696178288132
 20
-123.9001030506222
 10
90.55984698256837
 20
-123.9827853422682
 10
90.55984698256837
 20
-123.9827853422682
 10
90.39379338017933
 20
-123.8935573692002
 10
90.39379338017933
 20
-123.8935573692002
 10
90.39379338017933
 20
-123.8935573692002
 10
90.83648815003394
 20
-123.1614745785846
 10
90.83648815003394
 20
-123.1614745785846
 10
90.83648815003394
 20
-123.1614745785846
 10
91.60508895279318
 20
-123.4798014014217
 10
91.60508895279318
 20
-123.4798014014217
 10
91.60508895279318
 20
-123.4798014014217
 10
91.53067489031179
 20
-123.6596353857518
 10
91.53067489031179
 20
-123.6596353857518
 10
91.53067489031179
 20
-123.6596353857518
 10
90.92296004671371
 20
-123.40779890578
 10
90.92296004671371
 20
-123.40779890578
 10
90.92296004671371
 20
-123.40779890578
 10
90.69627276378426
 20
-123.7719454985709
 10
90.69627276378426
 20
-123.7719454985709
 10
90.76999780716862
 20
-123.7653998171489
 10
90.8664604807556
 20
-123.7619547216637
 10
90.9835937272541
 20
-123.8105305680057
 10
91.2343966785803
 20
-123.9142279421117
 10
91.39700518548409
 20
-124.1832898995097
 10
91.2771158625974
 20
-124.4723334107222
 10
91.15550399196808
 20
-124.765511036517
 10
90.84441186965002
 20
-124.8909125121801
 10
90.54606660062737
 20
-124.7672335842596
 97
        0
 97
        0
 75
     2
 76
     1
 98
        0
  0
SPLINE
  5
4E
330
44
100
AcDbEntity
  8
_U+30EC_U+30A4_U+30E4_U+30FC 1
370
     0
100
AcDbSpline
210
0.0
220
0.0
230
1.0
 70
    11
 71
     3
 72
    17
 73
    13
 74
     0
 42
0.0000000001
 43
0.0000000001
 12
1.0
 22
0.0
 32
0.0
 13
1.0
 23
0.0
 33
0.0
 40
0.0
 40
0.0
 40
0.0
 40
0.0
 40
1.0
 40
1.0
 40
1.0
 40
2.0
 40
2.0
 40
2.0
 40
3.0
 40
3.0
 40
3.0
 40
4.0
 40
4.0
 40
4.0
 40
4.0
 10
92.36438799774224
 20
-124.0709797866906
 30
0.0
 10
92.30134275036217
 20
-124.2232530071386
 30
0.0
 10
92.11668563235278
 20
-124.29766706962
 30
0.0
 10
91.94718693447848
 20
-124.2277316312695
 30
0.0
 10
91.78009980344387
 20
-124.1584852120159
 30
0.0
 10
91.69879554999197
 20
-123.9762396608462
 30
0.0
 10
91.76287432601762
 20
-123.821899383107
 30
0.0
 10
91.82695310204326
 20
-123.6672145958193
 30
0.0
 10
92.01298825824675
 20
-123.5955566097261
 30
0.0
 10
92.1804198988299
 20
-123.6648030289796
 30
0.0
 10
92.34991859670419
 20
-123.7347384673302
 30
0.0
 10
92.42743324512232
 20
-123.918362056694
 30
0.0
 10
92.36438799774224
 20
-124.0709797866906
 30
0.0
  0
SPLINE
  5
4F
330
44
100
AcDbEntity
  8
_U+30EC_U+30A4_U+30E4_U+30FC 1
370
     0
100
AcDbSpline
210
0.0
220
0.0
230
1.0
 70
    11
 71
     3
 72
    17
 73
    13
 74
     0
 42
0.0000000001
 43
0.0000000001
 12
1.0
 22
0.0
 32
0.0
 13
1.0
 23
0.0
 33
0.0
 40
0.0
 40
0.0
 40
0.0
 40
0.0
 40
1.0
 40
1.0
 40
1.0
 40
2.0
 40
2.0
 40
2.0
 40
3.0
 40
3.0
 40
3.0
 40
4.0
 40
4.0
 40
4.0
 40
4.0
 10
91.88620874438956
 20
-123.8728867962887
 30
0.0
 10
91.84831269405181
 20
-123.9648708457449
 30
0.0
 10
91.89688854039383
 20
-124.0720133153362
 30
0.0
 10
91.99472925217493
 20
-124.1123209325136
 30
0.0
 10
92.09291447350455
 20
-124.1529730592395
 30
0.0
 10
92.20350203858108
 20
-124.1116319134165
 30
0.0
 10
92.24139808891883
 20
-124.0199923735089
 30
0.0
 10
92.27963864880509
 20
-123.9280083240527
 30
0.0
 10
92.2327853502057
 20
-123.8215548735585
 30
0.0
 10
92.13253307158493
 20
-123.7802137277355
 30
0.0
 10
92.03228079296416
 20
-123.7388725819125
 30
0.0
 10
91.92444930427584
 20
-123.7809027468326
 30
0.0
 10
91.88620874438956
 20
-123.8728867962887
 30
0.0
  0
HATCH
  5
50
330
44
100
AcDbEntity
  8
_U+30EC_U+30A4_U+30E4_U+30FC 1
 62
     7
420
 16777215
100
AcDbHatch
 10
0.0
 20
0.0
 30
0.0
210
0.0
220
0.0
230
1.0
  2
SOLID
 70
     1
 71
     0
 91
        2
 92
        1
 93
        1
 72
     4
 94
        3
 73
     0
 74
     1
 95
       17
 96
       13
 40
0.0
 40
0.0
 40
0.0
 40
0.0
 40
1.0
 40
1.0
 40
1.0
 40
2.0
 40
2.0
 40
2.0
 40
3.0
 40
3.0
 40
3.0
 40
4.0
 40
4.0
 40
4.0
 40
4.0
 10
92.36438799774224
 20
-124.0709797866906
 10
92.30134275036217
 20
-124.2232530071386
 10
92.11668563235278
 20
-124.29766706962
 10
91.94718693447848
 20
-124.2277316312695
 10
91.78009980344387
 20
-124.1584852120159
 10
91.69879554999197
 20
-123.9762396608462
 10
91.76287432601762
 20
-123.821899383107
 10
91.82695310204326
 20
-123.6672145958193
 10
92.01298825824675
 20
-123.5955566097261
 10
92.1804198988299
 20
-123.6648030289796
 10
92.34991859670419
 20
-123.7347384673302
 10
92.42743324512232
 20
-123.918362056694
 10
92.36438799774224
 20
-124.0709797866906
 97
        0
 97
        0
 92
        1
 93
        1
 72
     4
 94
        3
 73
     0
 74
     1
 95
       17
 96
       13
 40
0.0
 40
0.0
 40
0.0
 40
0.0
 40
1.0
 40
1.0
 40
1.0
 40
2.0
 40
2.0
 40
2.0
 40
3.0
 40
3.0
 40
3.0
 40
4.0
 40
4.0
 40
4.0
 40
4.0
 10
91.88620874438956
 20
-123.8728867962887
 10
91.84831269405181
 20
-123.9648708457449
 10
91.89688854039383
 20
-124.0720133153362
 10
91.99472925217493
 20
-124.1123209325136
 10
92.09291447350455
 20
-124.1529730592395
 10
92.20350203858108
 20
-124.1116319134165
 10
92.24139808891883
 20
-124.0199923735089
 10
92.27963864880509
 20
-123.9280083240527
 10
92.2327853502057
 20
-123.8215548735585
 10
92.13253307158493
 20
-123.7802137277355
 10
92.03228079296416
 20
-123.7388725819125
 10
91.92444930427584
 20
-123.7809027468326
 10
91.88620874438956
 20
-123.8728867962887
 97
        0
 97
        0
 75
     2
 76
     1
 98
        0
  0
ENDBLK
  5
47
330
44
100
AcDbEntity
  8
0
100
AcDbBlockEnd
  0
BLOCK
  5
6A
330
68
100
AcDbEntity
  8
0
100
AcDbBlockBegin
  2
block 3
 70
     0
 10
0.0
 20
0.0
 30
0.0
  3
block 3
  1

  0
POLYLINE
  5
6C
330
68
100
AcDbEntity
  8
_U+30EC_U+30A4_U+30E4_U+30FC 1
370
     0
100
AcDb2dPolyline
 66
     1
 10
0.0
 20
0.0
 30
0.0
  0
VERTEX
  5
6D
330
6C
100
AcDbEntity
  8
_U+30EC_U+30A4_U+30E4_U+30FC 1
370
     0
100
AcDbVertex
100
AcDb2dVertex
 10
103.6942735200834
 20
-132.4704670892782
 30
0.0
  0
VERTEX
  5
6E
330
6C
100
AcDbEntity
  8
_U+30EC_U+30A4_U+30E4_U+30FC 1
370
     0
100
AcDbVertex
100
AcDb2dVertex
 10
104.041194635448
 20
-132.4704670892782
 30
0.0
  0
VERTEX
  5
6F
330
6C
100
AcDbEntity
  8
_U+30EC_U+30A4_U+30E4_U+30FC 1
370
     0
100
AcDbVertex
100
AcDb2dVertex
 10
104.041194635448
 20
-132.7033555440811
 30
0.0
  0
VERTEX
  5
70
330
6C
100
AcDbEntity
  8
_U+30EC_U+30A4_U+30E4_U+30FC 1
370
     0
100
AcDbVertex
100
AcDb2dVertex
 10
103.6942735200834
 20
-132.7033555440811
 30
0.0
  0
VERTEX
  5
71
330
6C
100
AcDbEntity
  8
_U+30EC_U+30A4_U+30E4_U+30FC 1
370
     0
100
AcDbVertex
100
AcDb2dVertex
 10
103.6942735200834
 20
-133.4044324753295
 30
0.0
  0
VERTEX
  5
72
330
6C
100
AcDbEntity
  8
_U+30EC_U+30A4_U+30E4_U+30FC 1
370
     0
100
AcDbVertex
100
AcDb2dVertex
 10
103.4699978039936
 20
-133.4044324753295
 30
0.0
  0
VERTEX
  5
73
330
6C
100
AcDbEntity
  8
_U+30EC_U+30A4_U+30E4_U+30FC 1
370
     0
100
AcDbVertex
100
AcDb2dVertex
 10
102.4967583294105
 20
-132.6785508565873
 30
0.0
  0
VERTEX
  5
74
330
6C
100
AcDbEntity
  8
_U+30EC_U+30A4_U+30E4_U+30FC 1
370
     0
100
AcDbVertex
100
AcDb2dVertex
 10
102.4967583294105
 20
-132.4704670892782
 30
0.0
  0
VERTEX
  5
75
330
6C
100
AcDbEntity
  8
_U+30EC_U+30A4_U+30E4_U+30FC 1
370
     0
100
AcDbVertex
100
AcDb2dVertex
 10
103.4954915105845
 20
-132.4704670892782
 30
0.0
  0
VERTEX
  5
76
330
6C
100
AcDbEntity
  8
_U+30EC_U+30A4_U+30E4_U+30FC 1
370
     0
100
AcDbVertex
100
AcDb2dVertex
 10
103.4954915105845
 20
-132.2489474495767
 30
0.0
  0
VERTEX
  5
77
330
6C
100
AcDbEntity
  8
_U+30EC_U+30A4_U+30E4_U+30FC 1
370
     0
100
AcDbVertex
100
AcDb2dVertex
 10
103.6942735200834
 20
-132.2489474495767
 30
0.0
  0
VERTEX
  5
78
330
6C
100
AcDbEntity
  8
_U+30EC_U+30A4_U+30E4_U+30FC 1
370
     0
100
AcDbVertex
100
AcDb2dVertex
 10
103.6942735200834
 20
-132.4704670892782
 30
0.0
  0
SEQEND
  5
79
330
6C
100
AcDbEntity
  8
_U+30EC_U+30A4_U+30E4_U+30FC 1
370
     0
  0
POLYLINE
  5
7A
330
68
100
AcDbEntity
  8
_U+30EC_U+30A4_U+30E4_U+30FC 1
370
     0
100
AcDb2dPolyline
 66
     1
 10
0.0
 20
0.0
 30
0.0
  0
VERTEX
  5
7B
330
7A
100
AcDbEntity
  8
_U+30EC_U+30A4_U+30E4_U+30FC 1
370
     0
100
AcDbVertex
100
AcDb2dVertex
 10
102.8395453301929
 20
-132.7033555440811
 30
0.0
  0
VERTEX
  5
7C
330
7A
100
AcDbEntity
  8
_U+30EC_U+30A4_U+30E4_U+30FC 1
370
     0
100
AcDbVertex
100
AcDb2dVertex
 10
103.4954915105845
 20
-133.1918700838895
 30
0.0
  0
VERTEX
  5
7D
330
7A
100
AcDbEntity
  8
_U+30EC_U+30A4_U+30E4_U+30FC 1
370
     0
100
AcDbVertex
100
AcDb2dVertex
 10
103.4954915105845
 20
-132.7033555440811
 30
0.0
  0
VERTEX
  5
7E
330
7A
100
AcDbEntity
  8
_U+30EC_U+30A4_U+30E4_U+30FC 1
370
     0
100
AcDbVertex
100
AcDb2dVertex
 10
102.8395453301929
 20
-132.7033555440811
 30
0.0
  0
SEQEND
  5
7F
330
7A
100
AcDbEntity
  8
_U+30EC_U+30A4_U+30E4_U+30FC 1
370
     0
  0
HATCH
  5
80
330
68
100
AcDbEntity
  8
_U+30EC_U+30A4_U+30E4_U+30FC 1
 62
     7
420
 16777215
100
AcDbHatch
 10
0.0
 20
0.0
 30
0.0
210
0.0
220
0.0
230
1.0
  2
SOLID
 70
     1
 71
     0
 91
        2
 92
        1
 93
       11
 72
     1
 10
103.6942735200834
 20
-132.4704670892782
 11
104.041194635448
 21
-132.4704670892782
 72
     1
 10
104.041194635448
 20
-132.4704670892782
 11
104.041194635448
 21
-132.7033555440811
 72
     1
 10
104.041194635448
 20
-132.7033555440811
 11
103.6942735200834
 21
-132.7033555440811
 72
     1
 10
103.6942735200834
 20
-132.7033555440811
 11
103.6942735200834
 21
-133.4044324753295
 72
     1
 10
103.6942735200834
 20
-133.4044324753295
 11
103.4699978039936
 21
-133.4044324753295
 72
     1
 10
103.4699978039936
 20
-133.4044324753295
 11
102.4967583294105
 21
-132.6785508565873
 72
     1
 10
102.4967583294105
 20
-132.6785508565873
 11
102.4967583294105
 21
-132.4704670892782
 72
     1
 10
102.4967583294105
 20
-132.4704670892782
 11
103.4954915105845
 21
-132.4704670892782
 72
     1
 10
103.4954915105845
 20
-132.4704670892782
 11
103.4954915105845
 21
-132.2489474495767
 72
     1
 10
103.4954915105845
 20
-132.2489474495767
 11
103.6942735200834
 21
-132.2489474495767
 72
     1
 10
103.6942735200834
 20
-132.2489474495767
 11
103.6942735200834
 21
-132.4704670892782
 97
        0
 92
        1
 93
        3
 72
     1
 10
102.8395453301929
 20
-132.7033555440811
 11
103.4954915105845
 21
-133.1918700838895
 72
     1
 10
103.4954915105845
 20
-133.1918700838895
 11
103.4954915105845
 21
-132.7033555440811
 72
     1
 10
103.4954915105845
 20
-132.7033555440811
 11
102.8395453301929
 21
-132.7033555440811
 97
        0
 75
     2
 76
     1
 98
        0
  0
POLYLINE
  5
81
330
68
100
AcDbEntity
  8
_U+30EC_U+30A4_U+30E4_U+30FC 1
370
     0
100
AcDb2dPolyline
 66
     1
 10
0.0
 20
0.0
 30
0.0
  0
VERTEX
  5
82
330
81
100
AcDbEntity
  8
_U+30EC_U+30A4_U+30E4_U+30FC 1
370
     0
100
AcDbVertex
100
AcDb2dVertex
 10
104.041194635448
 20
-132.0381076058794
 30
0.0
  0
VERTEX
  5
83
330
81
100
AcDbEntity
  8
_U+30EC_U+30A4_U+30E4_U+30FC 1
370
     0
100
AcDbVertex
100
AcDb2dVertex
 10
103.7893581554763
 20
-132.0381076058794
 30
0.0
  0
VERTEX
  5
84
330
81
100
AcDbEntity
  8
_U+30EC_U+30A4_U+30E4_U+30FC 1
370
     0
100
AcDbVertex
100
AcDb2dVertex
 10
103.7893581554763
 20
-131.7690456484814
 30
0.0
  0
VERTEX
  5
85
330
81
100
AcDbEntity
  8
_U+30EC_U+30A4_U+30E4_U+30FC 1
370
     0
100
AcDbVertex
100
AcDb2dVertex
 10
104.041194635448
 20
-131.7690456484814
 30
0.0
  0
VERTEX
  5
86
330
81
100
AcDbEntity
  8
_U+30EC_U+30A4_U+30E4_U+30FC 1
370
     0
100
AcDbVertex
100
AcDb2dVertex
 10
104.041194635448
 20
-132.0381076058794
 30
0.0
  0
SEQEND
  5
87
330
81
100
AcDbEntity
  8
_U+30EC_U+30A4_U+30E4_U+30FC 1
370
     0
  0
HATCH
  5
88
330
68
100
AcDbEntity
  8
_U+30EC_U+30A4_U+30E4_U+30FC 1
 62
     7
420
 16777215
100
AcDbHatch
 10
0.0
 20
0.0
 30
0.0
210
0.0
220
0.0
230
1.0
  2
SOLID
 70
     1
 71
     0
 91
        1
 92
        1
 93
        4
 72
     1
 10
104.041194635448
 20
-132.0381076058794
 11
103.7893581554763
 21
-132.0381076058794
 72
     1
 10
103.7893581554763
 20
-132.0381076058794
 11
103.7893581554763
 21
-131.7690456484814
 72
     1
 10
103.7893581554763
 20
-131.7690456484814
 11
104.041194635448
 21
-131.7690456484814
 72
     1
 10
104.041194635448
 20
-131.7690456484814
 11
104.041194635448
 21
-132.0381076058794
 97
        0
 75
     2
 76
     1
 98
        0
  0
SPLINE
  5
89
330
68
100
AcDbEntity
  8
_U+30EC_U+30A4_U+30E4_U+30FC 1
370
     0
100
AcDbSpline
210
0.0
220
0.0
230
1.0
 70
    11
 71
     3
 72
    53
 73
    49
 74
     0
 42
0.0000000001
 43
0.0000000001
 12
1.0
 22
0.0
 32
0.0
 13
1.0
 23
0.0
 33
0.0
 40
0.0
 40
0.0
 40
0.0
 40
0.0
 40
1.0
 40
1.0
 40
1.0
 40
2.0
 40
2.0
 40
2.0
 40
3.0
 40
3.0
 40
3.0
 40
4.0
 40
4.0
 40
4.0
 40
5.0
 40
5.0
 40
5.0
 40
6.0
 40
6.0
 40
6.0
 40
7.0
 40
7.0
 40
7.0
 40
8.0
 40
8.0
 40
8.0
 40
9.0
 40
9.0
 40
9.0
 40
10.0
 40
10.0
 40
10.0
 40
11.0
 40
11.0
 40
11.0
 40
12.0
 40
12.0
 40
12.0
 40
13.0
 40
13.0
 40
13.0
 40
14.0
 40
14.0
 40
14.0
 40
15.0
 40
15.0
 40
15.0
 40
16.0
 40
16.0
 40
16.0
 40
16.0
 10
104.0918375390812
 20
-131.0021673934647
 30
0.0
 10
104.0918375390812
 20
-131.0858832137563
 30
0.0
 10
104.0749565712035
 20
-131.1940592119932
 30
0.0
 10
104.0115668142749
 20
-131.3029242293271
 30
0.0
 10
103.9016682682954
 20
-131.4882703664335
 30
0.0
 10
103.7704101303074
 20
-131.5106634870876
 30
0.0
 10
103.6625786416191
 20
-131.5309895504506
 30
0.0
 10
103.6625786416191
 20
-131.5309895504506
 30
0.0
 10
103.6625786416191
 20
-131.2936224715169
 30
0.0
 10
103.6625786416191
 20
-131.2936224715169
 30
0.0
 10
103.861360651118
 20
-131.2350558482676
 30
0.0
 10
103.8909884722911
 20
-131.0993190861488
 30
0.0
 10
103.8909884722911
 20
-130.9997558266251
 30
0.0
 10
103.8909884722911
 20
-130.8505831921138
 30
0.0
 10
103.7914252127674
 20
-130.6876301756614
 30
0.0
 10
103.5588812675131
 20
-130.6876301756614
 30
0.0
 10
103.302910672959
 20
-130.6876301756614
 30
0.0
 10
103.2329752346084
 20
-130.8798665037384
 30
0.0
 10
103.2329752346084
 20
-131.0087130748867
 30
0.0
 10
103.2329752346084
 20
-131.0428195201907
 30
0.0
 10
103.2329752346084
 20
-131.1940592119932
 30
0.0
 10
103.3621663153053
 20
-131.289143847386
 30
0.0
 10
103.3621663153053
 20
-131.289143847386
 30
0.0
 10
103.3432182901364
 20
-131.4769015513322
 30
0.0
 10
103.3432182901364
 20
-131.4769015513322
 30
0.0
 10
103.3432182901364
 20
-131.4769015513322
 30
0.0
 10
102.4967583294105
 20
-131.3480549801838
 30
0.0
 10
102.4967583294105
 20
-131.3480549801838
 30
0.0
 10
102.4967583294105
 20
-131.3480549801838
 30
0.0
 10
102.4967583294105
 20
-130.516064420496
 30
0.0
 10
102.4967583294105
 20
-130.516064420496
 30
0.0
 10
102.4967583294105
 20
-130.516064420496
 30
0.0
 10
102.6914062243272
 20
-130.516064420496
 30
0.0
 10
102.6914062243272
 20
-130.516064420496
 30
0.0
 10
102.6914062243272
 20
-130.516064420496
 30
0.0
 10
102.6914062243272
 20
-131.1737331486302
 30
0.0
 10
102.6914062243272
 20
-131.1737331486302
 30
0.0
 10
102.6914062243272
 20
-131.1737331486302
 30
0.0
 10
103.1144639499158
 20
-131.2440130965293
 30
0.0
 10
103.1144639499158
 20
-131.2440130965293
 30
0.0
 10
103.0807020141604
 20
-131.1785562823095
 30
0.0
 10
103.040394396983
 20
-131.0903618378871
 30
0.0
 10
103.040394396983
 20
-130.9635823240299
 30
0.0
 10
103.040394396983
 20
-130.6924533093408
 30
0.0
 10
103.226774062735
 20
-130.4392387911749
 30
0.0
 10
103.5399332423442
 20
-130.4392387911749
 30
0.0
 10
103.8572265365357
 20
-130.4392387911749
 30
0.0
 10
104.0918375390812
 20
-130.6786729273998
 30
0.0
 10
104.0918375390812
 20
-131.0021673934647
 30
0.0
  0
HATCH
  5
8A
330
68
100
AcDbEntity
  8
_U+30EC_U+30A4_U+30E4_U+30FC 1
 62
     7
420
 16777215
100
AcDbHatch
 10
0.0
 20
0.0
 30
0.0
210
0.0
220
0.0
230
1.0
  2
SOLID
 70
     1
 71
     0
 91
        1
 92
        1
 93
        1
 72
     4
 94
        3
 73
     0
 74
     1
 95
       53
 96
       49
 40
0.0
 40
0.0
 40
0.0
 40
0.0
 40
1.0
 40
1.0
 40
1.0
 40
2.0
 40
2.0
 40
2.0
 40
3.0
 40
3.0
 40
3.0
 40
4.0
 40
4.0
 40
4.0
 40
5.0
 40
5.0
 40
5.0
 40
6.0
 40
6.0
 40
6.0
 40
7.0
 40
7.0
 40
7.0
 40
8.0
 40
8.0
 40
8.0
 40
9.0
 40
9.0
 40
9.0
 40
10.0
 40
10.0
 40
10.0
 40
11.0
 40
11.0
 40
11.0
 40
12.0
 40
12.0
 40
12.0
 40
13.0
 40
13.0
 40
13.0
 40
14.0
 40
14.0
 40
14.0
 40
15.0
 40
15.0
 40
15.0
 40
16.0
 40
16.0
 40
16.0
 40
16.0
 10
104.0918375390812
 20
-131.0021673934647
 10
104.0918375390812
 20
-131.0858832137563
 10
104.0749565712035
 20
-131.1940592119932
 10
104.0115668142749
 20
-131.3029242293271
 10
103.9016682682954
 20
-131.4882703664335
 10
103.7704101303074
 20
-131.5106634870876
 10
103.6625786416191
 20
-131.5309895504506
 10
103.6625786416191
 20
-131.5309895504506
 10
103.6625786416191
 20
-131.2936224715169
 10
103.6625786416191
 20
-131.2936224715169
 10
103.861360651118
 20
-131.2350558482676
 10
103.8909884722911
 20
-131.0993190861488
 10
103.8909884722911
 20
-130.9997558266251
 10
103.8909884722911
 20
-130.8505831921138
 10
103.7914252127674
 20
-130.6876301756614
 10
103.5588812675131
 20
-130.6876301756614
 10
103.302910672959
 20
-130.6876301756614
 10
103.2329752346084
 20
-130.8798665037384
 10
103.2329752346084
 20
-131.0087130748867
 10
103.2329752346084
 20
-131.0428195201907
 10
103.2329752346084
 20
-131.1940592119932
 10
103.3621663153053
 20
-131.289143847386
 10
103.3621663153053
 20
-131.289143847386
 10
103.3432182901364
 20
-131.4769015513322
 10
103.3432182901364
 20
-131.4769015513322
 10
103.3432182901364
 20
-131.4769015513322
 10
102.4967583294105
 20
-131.3480549801838
 10
102.4967583294105
 20
-131.3480549801838
 10
102.4967583294105
 20
-131.3480549801838
 10
102.4967583294105
 20
-130.516064420496
 10
102.4967583294105
 20
-130.516064420496
 10
102.4967583294105
 20
-130.516064420496
 10
102.6914062243272
 20
-130.516064420496
 10
102.6914062243272
 20
-130.516064420496
 10
102.6914062243272
 20
-130.516064420496
 10
102.6914062243272
 20
-131.1737331486302
 10
102.6914062243272
 20
-131.1737331486302
 10
102.6914062243272
 20
-131.1737331486302
 10
103.1144639499158
 20
-131.2440130965293
 10
103.1144639499158
 20
-131.2440130965293
 10
103.0807020141604
 20
-131.1785562823095
 10
103.040394396983
 20
-131.0903618378871
 10
103.040394396983
 20
-130.9635823240299
 10
103.040394396983
 20
-130.6924533093408
 10
103.226774062735
 20
-130.4392387911749
 10
103.5399332423442
 20
-130.4392387911749
 10
103.8572265365357
 20
-130.4392387911749
 10
104.0918375390812
 20
-130.6786729273998
 10
104.0918375390812
 20
-131.0021673934647
 97
        0
 97
        0
 75
     2
 76
     1
 98
        0
  0
ENDBLK
  5
6B
330
68
100
AcDbEntity
  8
0
100
AcDbBlockEnd
  0
BLOCK
  5
8D
330
8B
100
AcDbEntity
  8
0
100
AcDbBlockBegin
  2
block 4
 70
     0
 10
0.0
 20
0.0
 30
0.0
  3
block 4
  1

  0
SPLINE
  5
8F
330
8B
100
AcDbEntity
  8
_U+30EC_U+30A4_U+30E4_U+30FC 1
370
     0
100
AcDbSpline
210
0.0
220
0.0
230
1.0
 70
    11
 71
     3
 72
    26
 73
    22
 74
     0
 42
0.0000000001
 43
0.0000000001
 12
1.0
 22
0.0
 32
0.0
 13
1.0
 23
0.0
 33
0.0
 40
0.0
 40
0.0
 40
0.0
 40
0.0
 40
1.0
 40
1.0
 40
1.0
 40
2.0
 40
2.0
 40
2.0
 40
3.0
 40
3.0
 40
3.0
 40
4.0
 40
4.0
 40
4.0
 40
5.0
 40
5.0
 40
5.0
 40
6.0
 40
6.0
 40
6.0
 40
7.0
 40
7.0
 40
7.0
 40
7.0
 10
103.8351779254301
 20
-137.0200601870991
 30
0.0
 10
103.8351779254301
 20
-137.0200601870991
 30
0.0
 10
102.730680312859
 20
-137.0200601870991
 30
0.0
 10
102.730680312859
 20
-137.0200601870991
 30
0.0
 10
102.730680312859
 20
-137.0200601870991
 30
0.0
 10
102.730680312859
 20
-137.3724934552402
 30
0.0
 10
102.730680312859
 20
-137.3724934552402
 30
0.0
 10
102.730680312859
 20
-137.3724934552402
 30
0.0
 10
102.5825412069933
 20
-137.3724934552402
 30
0.0
 10
102.5825412069933
 20
-137.3724934552402
 30
0.0
 10
102.5680718059552
 20
-137.0176486202595
 30
0.0
 10
102.4047742799544
 20
-136.9680392452719
 30
0.0
 10
102.2903971098441
 20
-136.9363443668076
 30
0.0
 10
102.2903971098441
 20
-136.9363443668076
 30
0.0
 10
102.2903971098441
 20
-136.7802815413258
 30
0.0
 10
102.2903971098441
 20
-136.7802815413258
 30
0.0
 10
102.2903971098441
 20
-136.7802815413258
 30
0.0
 10
103.8351779254301
 20
-136.7802815413258
 30
0.0
 10
103.8351779254301
 20
-136.7802815413258
 30
0.0
 10
103.8351779254301
 20
-136.7802815413258
 30
0.0
 10
103.8351779254301
 20
-137.0200601870991
 30
0.0
 10
103.8351779254301
 20
-137.0200601870991
 30
0.0
  0
HATCH
  5
90
330
8B
100
AcDbEntity
  8
_U+30EC_U+30A4_U+30E4_U+30FC 1
 62
     7
420
 16777215
100
AcDbHatch
 10
0.0
 20
0.0
 30
0.0
210
0.0
220
0.0
230
1.0
  2
SOLID
 70
     1
 71
     0
 91
        1
 92
        1
 93
        1
 72
     4
 94
        3
 73
     0
 74
     1
 95
       26
 96
       22
 40
0.0
 40
0.0
 40
0.0
 40
0.0
 40
1.0
 40
1.0
 40
1.0
 40
2.0
 40
2.0
 40
2.0
 40
3.0
 40
3.0
 40
3.0
 40
4.0
 40
4.0
 40
4.0
 40
5.0
 40
5.0
 40
5.0
 40
6.0
 40
6.0
 40
6.0
 40
7.0
 40
7.0
 40
7.0
 40
7.0
 10
103.8351779254301
 20
-137.0200601870991
 10
103.8351779254301
 20
-137.0200601870991
 10
102.730680312859
 20
-137.0200601870991
 10
102.730680312859
 20
-137.0200601870991
 10
102.730680312859
 20
-137.0200601870991
 10
102.730680312859
 20
-137.3724934552402
 10
102.730680312859
 20
-137.3724934552402
 10
102.730680312859
 20
-137.3724934552402
 10
102.5825412069933
 20
-137.3724934552402
 10
102.5825412069933
 20
-137.3724934552402
 10
102.5680718059552
 20
-137.0176486202595
 10
102.4047742799544
 20
-136.9680392452719
 10
102.2903971098441
 20
-136.9363443668076
 10
102.2903971098441
 20
-136.9363443668076
 10
102.2903971098441
 20
-136.7802815413258
 10
102.2903971098441
 20
-136.7802815413258
 10
102.2903971098441
 20
-136.7802815413258
 10
103.8351779254301
 20
-136.7802815413258
 10
103.8351779254301
 20
-136.7802815413258
 10
103.8351779254301
 20
-136.7802815413258
 10
103.8351779254301
 20
-137.0200601870991
 10
103.8351779254301
 20
-137.0200601870991
 97
        0
 97
        0
 75
     2
 76
     1
 98
        0
  0
ENDBLK
  5
8E
330
8B
100
AcDbEntity
  8
0
100
AcDbBlockEnd
  0
BLOCK
  5
A1
330
9F
100
AcDbEntity
  8
0
100
AcDbBlockBegin
  2
block 5
 70
     0
 10
0.0
 20
0.0
 30
0.0
  3
block 5
  1

  0
SPLINE
  5
A3
330
9F
100
AcDbEntity
  8
_U+30EC_U+30A4_U+30E4_U+30FC 1
370
     0
100
AcDbSpline
210
0.0
220
0.0
230
1.0
 70
    11
 71
     3
 72
    26
 73
    22
 74
     0
 42
0.0000000001
 43
0.0000000001
 12
1.0
 22
0.0
 32
0.0
 13
1.0
 23
0.0
 33
0.0
 40
0.0
 40
0.0
 40
0.0
 40
0.0
 40
1.0
 40
1.0
 40
1.0
 40
2.0
 40
2.0
 40
2.0
 40
3.0
 40
3.0
 40
3.0
 40
4.0
 40
4.0
 40
4.0
 40
5.0
 40
5.0
 40
5.0
 40
6.0
 40
6.0
 40
6.0
 40
7.0
 40
7.0
 40
7.0
 40
7.0
 10
90.47595890750254
 20
-138.7388183246903
 30
0.0
 10
90.47595890750254
 20
-138.7388183246903
 30
0.0
 10
90.47595890750254
 20
-137.6346652216677
 30
0.0
 10
90.47595890750254
 20
-137.6346652216677
 30
0.0
 10
90.47595890750254
 20
-137.6346652216677
 30
0.0
 10
90.12352563936149
 20
-137.6346652216677
 30
0.0
 10
90.12352563936149
 20
-137.6346652216677
 30
0.0
 10
90.12352563936149
 20
-137.6346652216677
 30
0.0
 10
90.12352563936149
 20
-137.486526115802
 30
0.0
 10
90.12352563936149
 20
-137.486526115802
 30
0.0
 10
90.47837047434221
 20
-137.4717122052154
 30
0.0
 10
90.52797984932981
 20
-137.3087591887631
 30
0.0
 10
90.55967472779412
 20
-137.1943820186528
 30
0.0
 10
90.55967472779412
 20
-137.1943820186528
 30
0.0
 10
90.71573755327593
 20
-137.1943820186528
 30
0.0
 10
90.71573755327593
 20
-137.1943820186528
 30
0.0
 10
90.71573755327593
 20
-137.1943820186528
 30
0.0
 10
90.71573755327593
 20
-138.7388183246903
 30
0.0
 10
90.71573755327593
 20
-138.7388183246903
 30
0.0
 10
90.71573755327593
 20
-138.7388183246903
 30
0.0
 10
90.47595890750254
 20
-138.7388183246903
 30
0.0
 10
90.47595890750254
 20
-138.7388183246903
 30
0.0
  0
HATCH
  5
A4
330
9F
100
AcDbEntity
  8
_U+30EC_U+30A4_U+30E4_U+30FC 1
 62
     7
420
 16777215
100
AcDbHatch
 10
0.0
 20
0.0
 30
0.0
210
0.0
220
0.0
230
1.0
  2
SOLID
 70
     1
 71
     0
 91
        1
 92
        1
 93
        1
 72
     4
 94
        3
 73
     0
 74
     1
 95
       26
 96
       22
 40
0.0
 40
0.0
 40
0.0
 40
0.0
 40
1.0
 40
1.0
 40
1.0
 40
2.0
 40
2.0
 40
2.0
 40
3.0
 40
3.0
 40
3.0
 40
4.0
 40
4.0
 40
4.0
 40
5.0
 40
5.0
 40
5.0
 40
6.0
 40
6.0
 40
6.0
 40
7.0
 40
7.0
 40
7.0
 40
7.0
 10
90.47595890750254
 20
-138.7388183246903
 10
90.47595890750254
 20
-138.7388183246903
 10
90.47595890750254
 20
-137.6346652216677
 10
90.47595890750254
 20
-137.6346652216677
 10
90.47595890750254
 20
-137.6346652216677
 10
90.12352563936149
 20
-137.6346652216677
 10
90.12352563936149
 20
-137.6346652216677
 10
90.12352563936149
 20
-137.6346652216677
 10
90.12352563936149
 20
-137.486526115802
 10
90.12352563936149
 20
-137.486526115802
 10
90.47837047434221
 20
-137.4717122052154
 10
90.52797984932981
 20
-137.3087591887631
 10
90.55967472779412
 20
-137.1943820186528
 10
90.55967472779412
 20
-137.1943820186528
 10
90.71573755327593
 20
-137.1943820186528
 10
90.71573755327593
 20
-137.1943820186528
 10
90.71573755327593
 20
-137.1943820186528
 10
90.71573755327593
 20
-138.7388183246903
 10
90.71573755327593
 20
-138.7388183246903
 10
90.71573755327593
 20
-138.7388183246903
 10
90.47595890750254
 20
-138.7388183246903
 10
90.47595890750254
 20
-138.7388183246903
 97
        0
 97
        0
 75
     2
 76
     1
 98
        0
  0
SPLINE
  5
A5
330
9F
100
AcDbEntity
  8
_U+30EC_U+30A4_U+30E4_U+30FC 1
370
     0
100
AcDbSpline
210
0.0
220
0.0
230
1.0
 70
    11
 71
     3
 72
    44
 73
    40
 74
     0
 42
0.0000000001
 43
0.0000000001
 12
1.0
 22
0.0
 32
0.0
 13
1.0
 23
0.0
 33
0.0
 40
0.0
 40
0.0
 40
0.0
 40
0.0
 40
1.0
 40
1.0
 40
1.0
 40
2.0
 40
2.0
 40
2.0
 40
3.0
 40
3.0
 40
3.0
 40
4.0
 40
4.0
 40
4.0
 40
5.0
 40
5.0
 40
5.0
 40
6.0
 40
6.0
 40
6.0
 40
7.0
 40
7.0
 40
7.0
 40
8.0
 40
8.0
 40
8.0
 40
9.0
 40
9.0
 40
9.0
 40
10.0
 40
10.0
 40
10.0
 40
11.0
 40
11.0
 40
11.0
 40
12.0
 40
12.0
 40
12.0
 40
13.0
 40
13.0
 40
13.0
 40
13.0
 10
91.88551972529251
 20
-138.1569416972316
 30
0.0
 10
91.65263127048962
 20
-138.3157605991016
 30
0.0
 10
91.55272350141738
 20
-138.3898301520345
 30
0.0
 10
91.50104706913864
 20
-138.5334906337694
 30
0.0
 10
91.50104706913864
 20
-138.5334906337694
 30
0.0
 10
92.33338213837499
 20
-138.5334906337694
 30
0.0
 10
92.33338213837499
 20
-138.5334906337694
 30
0.0
 10
92.33338213837499
 20
-138.5334906337694
 30
0.0
 10
92.33338213837499
 20
-138.7388183246903
 30
0.0
 10
92.33338213837499
 20
-138.7388183246903
 30
0.0
 10
92.33338213837499
 20
-138.7388183246903
 30
0.0
 10
91.23422442380603
 20
-138.7388183246903
 30
0.0
 10
91.23422442380603
 20
-138.7388183246903
 30
0.0
 10
91.26833086911
 20
-138.3812174133214
 30
0.0
 10
91.33826630746057
 20
-138.3030137458062
 30
0.0
 10
91.74978296317367
 20
-138.0046684767836
 30
0.0
 10
92.0233235447025
 20
-137.8058864672846
 30
0.0
 10
92.0936034926016
 20
-137.7380180862252
 30
0.0
 10
92.0936034926016
 20
-137.6005587763638
 30
0.0
 10
92.0936034926016
 20
-137.4820474916712
 30
0.0
 10
92.01643335373201
 20
-137.3511338632317
 30
0.0
 10
91.80628252913176
 20
-137.3511338632317
 30
0.0
 10
91.52791881392358
 20
-137.3511338632317
 30
0.0
 10
91.51896156566193
 20
-137.5816107511949
 30
0.0
 10
91.51482745107963
 20
-137.6980549785963
 30
0.0
 10
91.51482745107963
 20
-137.6980549785963
 30
0.0
 10
91.27487655053199
 20
-137.6980549785963
 30
0.0
 10
91.27487655053199
 20
-137.6980549785963
 30
0.0
 10
91.28383379879362
 20
-137.5709309551906
 30
0.0
 10
91.29520261389496
 20
-137.45896535192
 30
0.0
 10
91.38115774625194
 20
-137.3404540672274
 30
0.0
 10
91.49898001184748
 20
-137.1795681080662
 30
0.0
 10
91.69741751179787
 20
-137.1458061723108
 30
0.0
 10
91.82212996836391
 20
-137.1458061723108
 30
0.0
 10
92.1184081800954
 20
-137.1458061723108
 30
0.0
 10
92.33958331024844
 20
-137.3297742712231
 30
0.0
 10
92.33958331024844
 20
-137.6026258336549
 30
0.0
 10
92.33958331024844
 20
-137.8313801738755
 30
0.0
 10
92.21555987277945
 20
-137.9305989238507
 30
0.0
 10
91.88551972529251
 20
-138.1569416972316
 30
0.0
  0
HATCH
  5
A6
330
9F
100
AcDbEntity
  8
_U+30EC_U+30A4_U+30E4_U+30FC 1
 62
     7
420
 16777215
100
AcDbHatch
 10
0.0
 20
0.0
 30
0.0
210
0.0
220
0.0
230
1.0
  2
SOLID
 70
     1
 71
     0
 91
        1
 92
        1
 93
        1
 72
     4
 94
        3
 73
     0
 74
     1
 95
       44
 96
       40
 40
0.0
 40
0.0
 40
0.0
 40
0.0
 40
1.0
 40
1.0
 40
1.0
 40
2.0
 40
2.0
 40
2.0
 40
3.0
 40
3.0
 40
3.0
 40
4.0
 40
4.0
 40
4.0
 40
5.0
 40
5.0
 40
5.0
 40
6.0
 40
6.0
 40
6.0
 40
7.0
 40
7.0
 40
7.0
 40
8.0
 40
8.0
 40
8.0
 40
9.0
 40
9.0
 40
9.0
 40
10.0
 40
10.0
 40
10.0
 40
11.0
 40
11.0
 40
11.0
 40
12.0
 40
12.0
 40
12.0
 40
13.0
 40
13.0
 40
13.0
 40
13.0
 10
91.88551972529251
 20
-138.1569416972316
 10
91.65263127048962
 20
-138.3157605991016
 10
91.55272350141738
 20
-138.3898301520345
 10
91.50104706913864
 20
-138.5334906337694
 10
91.50104706913864
 20
-138.5334906337694
 10
92.33338213837499
 20
-138.5334906337694
 10
92.33338213837499
 20
-138.5334906337694
 10
92.33338213837499
 20
-138.5334906337694
 10
92.33338213837499
 20
-138.7388183246903
 10
92.33338213837499
 20
-138.7388183246903
 10
92.33338213837499
 20
-138.7388183246903
 10
91.23422442380603
 20
-138.7388183246903
 10
91.23422442380603
 20
-138.7388183246903
 10
91.26833086911
 20
-138.3812174133214
 10
91.33826630746057
 20
-138.3030137458062
 10
91.74978296317367
 20
-138.0046684767836
 10
92.0233235447025
 20
-137.8058864672846
 10
92.0936034926016
 20
-137.7380180862252
 10
92.0936034926016
 20
-137.6005587763638
 10
92.0936034926016
 20
-137.4820474916712
 10
92.01643335373201
 20
-137.3511338632317
 10
91.80628252913176
 20
-137.3511338632317
 10
91.52791881392358
 20
-137.3511338632317
 10
91.51896156566193
 20
-137.5816107511949
 10
91.51482745107963
 20
-137.6980549785963
 10
91.51482745107963
 20
-137.6980549785963
 10
91.27487655053199
 20
-137.6980549785963
 10
91.27487655053199
 20
-137.6980549785963
 10
91.28383379879362
 20
-137.5709309551906
 10
91.29520261389496
 20
-137.45896535192
 10
91.38115774625194
 20
-137.3404540672274
 10
91.49898001184748
 20
-137.1795681080662
 10
91.69741751179787
 20
-137.1458061723108
 10
91.82212996836391
 20
-137.1458061723108
 10
92.1184081800954
 20
-137.1458061723108
 10
92.33958331024844
 20
-137.3297742712231
 10
92.33958331024844
 20
-137.6026258336549
 10
92.33958331024844
 20
-137.8313801738755
 10
92.21555987277945
 20
-137.9305989238507
 10
91.88551972529251
 20
-138.1569416972316
 97
        0
 97
        0
 75
     2
 76
     1
 98
        0
  0
ENDBLK
  5
A2
330
9F
100
AcDbEntity
  8
0
100
AcDbBlockEnd
  0
BLOCK
  5
B7
330
B5
100
AcDbEntity
  8
0
100
AcDbBlockBegin
  2
block 6
 70
     0
 10
0.0
 20
0.0
 30
0.0
  3
block 6
  1

  0
SPLINE
  5
B9
330
B5
100
AcDbEntity
  8
_U+30EC_U+30A4_U+30E4_U+30FC 1
370
     0
100
AcDbSpline
210
0.0
220
0.0
230
1.0
 70
    11
 71
     3
 72
    26
 73
    22
 74
     0
 42
0.0000000001
 43
0.0000000001
 12
1.0
 22
0.0
 32
0.0
 13
1.0
 23
0.0
 33
0.0
 40
0.0
 40
0.0
 40
0.0
 40
0.0
 40
1.0
 40
1.0
 40
1.0
 40
2.0
 40
2.0
 40
2.0
 40
3.0
 40
3.0
 40
3.0
 40
4.0
 40
4.0
 40
4.0
 40
5.0
 40
5.0
 40
5.0
 40
6.0
 40
6.0
 40
6.0
 40
7.0
 40
7.0
 40
7.0
 40
7.0
 10
94.06454261971304
 20
-118.8909342150689
 30
0.0
 10
94.06454261971304
 20
-118.8909342150689
 30
0.0
 10
94.06454261971304
 20
-117.7867811120464
 30
0.0
 10
94.06454261971304
 20
-117.7867811120464
 30
0.0
 10
94.06454261971304
 20
-117.7867811120464
 30
0.0
 10
93.71210935157198
 20
-117.7867811120464
 30
0.0
 10
93.71210935157198
 20
-117.7867811120464
 30
0.0
 10
93.71210935157198
 20
-117.7867811120464
 30
0.0
 10
93.71210935157198
 20
-117.6386420061806
 30
0.0
 10
93.71210935157198
 20
-117.6386420061806
 30
0.0
 10
94.0669541865527
 20
-117.623828095594
 30
0.0
 10
94.1165635615403
 20
-117.4608750791417
 30
0.0
 10
94.14825844000461
 20
-117.3464979090314
 30
0.0
 10
94.14825844000461
 20
-117.3464979090314
 30
0.0
 10
94.30432126548642
 20
-117.3464979090314
 30
0.0
 10
94.30432126548642
 20
-117.3464979090314
 30
0.0
 10
94.30432126548642
 20
-117.3464979090314
 30
0.0
 10
94.30432126548642
 20
-118.8909342150689
 30
0.0
 10
94.30432126548642
 20
-118.8909342150689
 30
0.0
 10
94.30432126548642
 20
-118.8909342150689
 30
0.0
 10
94.06454261971304
 20
-118.8909342150689
 30
0.0
 10
94.06454261971304
 20
-118.8909342150689
 30
0.0
  0
HATCH
  5
BA
330
B5
100
AcDbEntity
  8
_U+30EC_U+30A4_U+30E4_U+30FC 1
 62
     7
420
 16777215
100
AcDbHatch
 10
0.0
 20
0.0
 30
0.0
210
0.0
220
0.0
230
1.0
  2
SOLID
 70
     1
 71
     0
 91
        1
 92
        1
 93
        1
 72
     4
 94
        3
 73
     0
 74
     1
 95
       26
 96
       22
 40
0.0
 40
0.0
 40
0.0
 40
0.0
 40
1.0
 40
1.0
 40
1.0
 40
2.0
 40
2.0
 40
2.0
 40
3.0
 40
3.0
 40
3.0
 40
4.0
 40
4.0
 40
4.0
 40
5.0
 40
5.0
 40
5.0
 40
6.0
 40
6.0
 40
6.0
 40
7.0
 40
7.0
 40
7.0
 40
7.0
 10
94.06454261971304
 20
-118.8909342150689
 10
94.06454261971304
 20
-118.8909342150689
 10
94.06454261971304
 20
-117.7867811120464
 10
94.06454261971304
 20
-117.7867811120464
 10
94.06454261971304
 20
-117.7867811120464
 10
93.71210935157198
 20
-117.7867811120464
 10
93.71210935157198
 20
-117.7867811120464
 10
93.71210935157198
 20
-117.7867811120464
 10
93.71210935157198
 20
-117.6386420061806
 10
93.71210935157198
 20
-117.6386420061806
 10
94.0669541865527
 20
-117.623828095594
 10
94.1165635615403
 20
-117.4608750791417
 10
94.14825844000461
 20
-117.3464979090314
 10
94.14825844000461
 20
-117.3464979090314
 10
94.30432126548642
 20
-117.3464979090314
 10
94.30432126548642
 20
-117.3464979090314
 10
94.30432126548642
 20
-117.3464979090314
 10
94.30432126548642
 20
-118.8909342150689
 10
94.30432126548642
 20
-118.8909342150689
 10
94.30432126548642
 20
-118.8909342150689
 10
94.06454261971304
 20
-118.8909342150689
 10
94.06454261971304
 20
-118.8909342150689
 97
        0
 97
        0
 75
     2
 76
     1
 98
        0
  0
POLYLINE
  5
BB
330
B5
100
AcDbEntity
  8
_U+30EC_U+30A4_U+30E4_U+30FC 1
370
     0
100
AcDb2dPolyline
 66
     1
 10
0.0
 20
0.0
 30
0.0
  0
VERTEX
  5
BC
330
BB
100
AcDbEntity
  8
_U+30EC_U+30A4_U+30E4_U+30FC 1
370
     0
100
AcDbVertex
100
AcDb2dVertex
 10
95.72955726773428
 20
-118.5440130997043
 30
0.0
  0
VERTEX
  5
BD
330
BB
100
AcDbEntity
  8
_U+30EC_U+30A4_U+30E4_U+30FC 1
370
     0
100
AcDbVertex
100
AcDb2dVertex
 10
95.72955726773428
 20
-118.8909342150689
 30
0.0
  0
VERTEX
  5
BE
330
BB
100
AcDbEntity
  8
_U+30EC_U+30A4_U+30E4_U+30FC 1
370
     0
100
AcDbVertex
100
AcDb2dVertex
 10
95.49666881293139
 20
-118.8909342150689
 30
0.0
  0
VERTEX
  5
BF
330
BB
100
AcDbEntity
  8
_U+30EC_U+30A4_U+30E4_U+30FC 1
370
     0
100
AcDbVertex
100
AcDb2dVertex
 10
95.49666881293139
 20
-118.5440130997043
 30
0.0
  0
VERTEX
  5
C0
330
BB
100
AcDbEntity
  8
_U+30EC_U+30A4_U+30E4_U+30FC 1
370
     0
100
AcDbVertex
100
AcDb2dVertex
 10
94.79559188168305
 20
-118.5440130997043
 30
0.0
  0
VERTEX
  5
C1
330
BB
100
AcDbEntity
  8
_U+30EC_U+30A4_U+30E4_U+30FC 1
370
     0
100
AcDbVertex
100
AcDb2dVertex
 10
94.79559188168305
 20
-118.3197373836145
 30
0.0
  0
VERTEX
  5
C2
330
BB
100
AcDbEntity
  8
_U+30EC_U+30A4_U+30E4_U+30FC 1
370
     0
100
AcDbVertex
100
AcDb2dVertex
 10
95.52147350042519
 20
-117.3464979090314
 30
0.0
  0
VERTEX
  5
C3
330
BB
100
AcDbEntity
  8
_U+30EC_U+30A4_U+30E4_U+30FC 1
370
     0
100
AcDbVertex
100
AcDb2dVertex
 10
95.72955726773428
 20
-117.3464979090314
 30
0.0
  0
VERTEX
  5
C4
330
BB
100
AcDbEntity
  8
_U+30EC_U+30A4_U+30E4_U+30FC 1
370
     0
100
AcDbVertex
100
AcDb2dVertex
 10
95.72955726773428
 20
-118.3452310902054
 30
0.0
  0
VERTEX
  5
C5
330
BB
100
AcDbEntity
  8
_U+30EC_U+30A4_U+30E4_U+30FC 1
370
     0
100
AcDbVertex
100
AcDb2dVertex
 10
95.95107690743585
 20
-118.3452310902054
 30
0.0
  0
VERTEX
  5
C6
330
BB
100
AcDbEntity
  8
_U+30EC_U+30A4_U+30E4_U+30FC 1
370
     0
100
AcDbVertex
100
AcDb2dVertex
 10
95.95107690743585
 20
-118.5440130997043
 30
0.0
  0
VERTEX
  5
C7
330
BB
100
AcDbEntity
  8
_U+30EC_U+30A4_U+30E4_U+30FC 1
370
     0
100
AcDbVertex
100
AcDb2dVertex
 10
95.72955726773428
 20
-118.5440130997043
 30
0.0
  0
SEQEND
  5
C8
330
BB
100
AcDbEntity
  8
_U+30EC_U+30A4_U+30E4_U+30FC 1
370
     0
  0
POLYLINE
  5
C9
330
B5
100
AcDbEntity
  8
_U+30EC_U+30A4_U+30E4_U+30FC 1
370
     0
100
AcDb2dPolyline
 66
     1
 10
0.0
 20
0.0
 30
0.0
  0
VERTEX
  5
CA
330
C9
100
AcDbEntity
  8
_U+30EC_U+30A4_U+30E4_U+30FC 1
370
     0
100
AcDbVertex
100
AcDb2dVertex
 10
95.49666881293139
 20
-117.6892849098138
 30
0.0
  0
VERTEX
  5
CB
330
C9
100
AcDbEntity
  8
_U+30EC_U+30A4_U+30E4_U+30FC 1
370
     0
100
AcDbVertex
100
AcDb2dVertex
 10
95.00815427312297
 20
-118.3452310902054
 30
0.0
  0
VERTEX
  5
CC
330
C9
100
AcDbEntity
  8
_U+30EC_U+30A4_U+30E4_U+30FC 1
370
     0
100
AcDbVertex
100
AcDb2dVertex
 10
95.49666881293139
 20
-118.3452310902054
 30
0.0
  0
VERTEX
  5
CD
330
C9
100
AcDbEntity
  8
_U+30EC_U+30A4_U+30E4_U+30FC 1
370
     0
100
AcDbVertex
100
AcDb2dVertex
 10
95.49666881293139
 20
-117.6892849098138
 30
0.0
  0
SEQEND
  5
CE
330
C9
100
AcDbEntity
  8
_U+30EC_U+30A4_U+30E4_U+30FC 1
370
     0
  0
HATCH
  5
CF
330
B5
100
AcDbEntity
  8
_U+30EC_U+30A4_U+30E4_U+30FC 1
 62
     7
420
 16777215
100
AcDbHatch
 10
0.0
 20
0.0
 30
0.0
210
0.0
220
0.0
230
1.0
  2
SOLID
 70
     1
 71
     0
 91
        2
 92
        1
 93
       11
 72
     1
 10
95.72955726773428
 20
-118.5440130997043
 11
95.72955726773428
 21
-118.8909342150689
 72
     1
 10
95.72955726773428
 20
-118.8909342150689
 11
95.49666881293139
 21
-118.8909342150689
 72
     1
 10
95.49666881293139
 20
-118.8909342150689
 11
95.49666881293139
 21
-118.5440130997043
 72
     1
 10
95.49666881293139
 20
-118.5440130997043
 11
94.79559188168305
 21
-118.5440130997043
 72
     1
 10
94.79559188168305
 20
-118.5440130997043
 11
94.79559188168305
 21
-118.3197373836145
 72
     1
 10
94.79559188168305
 20
-118.3197373836145
 11
95.52147350042519
 21
-117.3464979090314
 72
     1
 10
95.52147350042519
 20
-117.3464979090314
 11
95.72955726773428
 21
-117.3464979090314
 72
     1
 10
95.72955726773428
 20
-117.3464979090314
 11
95.72955726773428
 21
-118.3452310902054
 72
     1
 10
95.72955726773428
 20
-118.3452310902054
 11
95.95107690743585
 21
-118.3452310902054
 72
     1
 10
95.95107690743585
 20
-118.3452310902054
 11
95.95107690743585
 21
-118.5440130997043
 72
     1
 10
95.95107690743585
 20
-118.5440130997043
 11
95.72955726773428
 21
-118.5440130997043
 97
        0
 92
        1
 93
        3
 72
     1
 10
95.49666881293139
 20
-117.6892849098138
 11
95.00815427312297
 21
-118.3452310902054
 72
     1
 10
95.00815427312297
 20
-118.3452310902054
 11
95.49666881293139
 21
-118.3452310902054
 72
     1
 10
95.49666881293139
 20
-118.3452310902054
 11
95.49666881293139
 21
-117.6892849098138
 97
        0
 75
     2
 76
     1
 98
        0
  0
ENDBLK
  5
B8
330
B5
100
AcDbEntity
  8
0
100
AcDbBlockEnd
  0
ENDSEC
  0
SECTION
  2
ENTITIES
  0
SPLINE
  5
41
330
1F
100
AcDbEntity
  8
_U+30EC_U+30A4_U+30E4_U+30FC 1
 62
     7
420
 16777215
370
     9
100
AcDbSpline
210
0.0
220
0.0
230
1.0
 70
    11
 71
     3
 72
    17
 73
    13
 74
     0
 42
0.0000000001
 43
0.0000000001
 12
1.0
 22
0.0
 32
0.0
 13
1.0
 23
0.0
 33
0.0
 40
0.0
 40
0.0
 40
0.0
 40
0.0
 40
1.0
 40
1.0
 40
1.0
 40
2.0
 40
2.0
 40
2.0
 40
3.0
 40
3.0
 40
3.0
 40
4.0
 40
4.0
 40
4.0
 40
4.0
 10
85.03305949729258
 20
-125.714795246349
 30
0.0
 10
85.03305949729258
 20
-125.6596913574741
 30
0.0
 10
84.98825672065782
 20
-125.6148885797074
 30
0.0
 10
84.9324472776372
 20
-125.6148885797074
 30
0.0
 10
84.87734339015412
 20
-125.6148885797074
 30
0.0
 10
84.83254061351936
 20
-125.6596913574741
 30
0.0
 10
84.83254061351936
 20
-125.714795246349
 30
0.0
 10
84.83254061351936
 20
-125.7706046907794
 30
0.0
 10
84.87734339015412
 20
-125.8154074685462
 30
0.0
 10
84.9324472776372
 20
-125.8154074685462
 30
0.0
 10
84.98825672065782
 20
-125.8154074685462
 30
0.0
 10
85.03305949729258
 20
-125.7706046907794
 30
0.0
 10
85.03305949729258
 20
-125.714795246349
 30
0.0
  0
SPLINE
  5
42
330
1F
100
AcDbEntity
  8
_U+30EC_U+30A4_U+30E4_U+30FC 1
 62
     7
420
 16777215
370
     9
100
AcDbSpline
210
0.0
220
0.0
230
1.0
 70
    11
 71
     3
 72
    17
 73
    13
 74
     0
 42
0.0000000001
 43
0.0000000001
 12
1.0
 22
0.0
 32
0.0
 13
1.0
 23
0.0
 33
0.0
 40
0.0
 40
0.0
 40
0.0
 40
0.0
 40
1.0
 40
1.0
 40
1.0
 40
2.0
 40
2.0
 40
2.0
 40
3.0
 40
3.0
 40
3.0
 40
4.0
 40
4.0
 40
4.0
 40
4.0
 10
91.86139071197623
 20
-128.5432263567531
 30
0.0
 10
91.86139071197623
 20
-128.4881224678781
 30
0.0
 10
91.81662321311835
 20
-128.4433196901114
 30
0.0
 10
91.7614840478584
 20
-128.4433196901114
 30
0.0
 10
91.70638016037533
 20
-128.4433196901114
 30
0.0
 10
91.66157738374056
 20
-128.4881224678781
 30
0.0
 10
91.66157738374056
 20
-128.5432263567531
 30
0.0
 10
91.66157738374056
 20
-128.5990358011835
 30
0.0
 10
91.70638016037533
 20
-128.6438385789502
 30
0.0
 10
91.7614840478584
 20
-128.6438385789502
 30
0.0
 10
91.81662321311835
 20
-128.6438385789502
 30
0.0
 10
91.86139071197623
 20
-128.5990358011835
 30
0.0
 10
91.86139071197623
 20
-128.5432263567531
 30
0.0
  0
SPLINE
  5
43
330
1F
100
AcDbEntity
  8
_U+30EC_U+30A4_U+30E4_U+30FC 1
 62
     7
420
 16777215
370
     9
100
AcDbSpline
210
0.0
220
0.0
230
1.0
 70
     8
 71
     3
 72
    11
 73
     7
 74
     0
 42
0.0000000001
 43
0.0000000001
 12
1.0
 22
0.0
 32
0.0
 13
1.0
 23
0.0
 33
0.0
 40
0.0
 40
0.0
 40
0.0
 40
0.0
 40
1.0
 40
1.0
 40
1.0
 40
2.0
 40
2.0
 40
2.0
 40
2.0
 10
91.7614840478584
 20
-128.5432263567531
 30
0.0
 10
91.7614840478584
 20
-126.3342377461942
 30
0.0
 10
89.97057242688169
 20
-124.5434671910865
 30
0.0
 10
87.76088053361525
 20
-124.5434671910865
 30
0.0
 10
86.70046362142023
 20
-124.5434671910865
 30
0.0
 10
85.68280559182729
 20
-124.9651424687586
 30
0.0
 10
84.9324472776372
 20
-125.714795246349
 30
0.0
  0
INSERT
  5
45
330
1F
100
AcDbEntity
  8
_U+30EC_U+30A4_U+30E4_U+30FC 1
100
AcDbBlockReference
  2
block 2
 10
0.0
 20
0.0
 30
0.0
  0
POLYLINE
  5
51
330
1F
100
AcDbEntity
  8
_U+30EC_U+30A4_U+30E4_U+30FC 1
 62
     7
420
 16777215
370
     9
100
AcDb2dPolyline
 66
     1
 10
0.0
 20
0.0
 30
0.0
  0
VERTEX
  5
52
330
51
100
AcDbEntity
  8
_U+30EC_U+30A4_U+30E4_U+30FC 1
 62
     7
420
 16777215
370
     9
100
AcDbVertex
100
AcDb2dVertex
 10
104.4311801135164
 20
-133.8977580220812
 30
0.0
  0
VERTEX
  5
53
330
51
100
AcDbEntity
  8
_U+30EC_U+30A4_U+30E4_U+30FC 1
 62
     7
420
 16777215
370
     9
100
AcDbVertex
100
AcDb2dVertex
 10
104.4311801135164
 20
-129.5686808009414
 30
0.0
  0
SEQEND
  5
54
330
51
100
AcDbEntity
  8
_U+30EC_U+30A4_U+30E4_U+30FC 1
 62
     7
420
 16777215
370
     9
  0
POLYLINE
  5
55
330
1F
100
AcDbEntity
  8
_U+30EC_U+30A4_U+30E4_U+30FC 1
 62
     7
420
 16777215
370
     9
100
AcDb2dPolyline
 66
     1
 10
0.0
 20
0.0
 30
0.0
  0
VERTEX
  5
56
330
55
100
AcDbEntity
  8
_U+30EC_U+30A4_U+30E4_U+30FC 1
 62
     7
420
 16777215
370
     9
100
AcDbVertex
100
AcDb2dVertex
 10
104.4311801135164
 20
-138.1910635765634
 30
0.0
  0
VERTEX
  5
57
330
55
100
AcDbEntity
  8
_U+30EC_U+30A4_U+30E4_U+30FC 1
 62
     7
420
 16777215
370
     9
100
AcDbVertex
100
AcDb2dVertex
 10
104.4311801135164
 20
-133.8977580220812
 30
0.0
  0
SEQEND
  5
58
330
55
100
AcDbEntity
  8
_U+30EC_U+30A4_U+30E4_U+30FC 1
 62
     7
420
 16777215
370
     9
  0
SPLINE
  5
59
330
1F
100
AcDbEntity
  8
_U+30EC_U+30A4_U+30E4_U+30FC 1
 62
     7
420
 16777215
370
     9
100
AcDbSpline
210
0.0
220
0.0
230
1.0
 70
    11
 71
     3
 72
    17
 73
    13
 74
     0
 42
0.0000000001
 43
0.0000000001
 12
1.0
 22
0.0
 32
0.0
 13
1.0
 23
0.0
 33
0.0
 40
0.0
 40
0.0
 40
0.0
 40
0.0
 40
1.0
 40
1.0
 40
1.0
 40
2.0
 40
2.0
 40
2.0
 40
3.0
 40
3.0
 40
3.0
 40
4.0
 40
4.0
 40
4.0
 40
4.0
 10
104.5310867776342
 20
-129.5679752453858
 30
0.0
 10
104.5310867776342
 20
-129.5128360787328
 30
0.0
 10
104.486989556537
 20
-129.4680685787442
 30
0.0
 10
104.4311801135164
 20
-129.4680685787442
 30
0.0
 10
104.3760409482565
 20
-129.4680685787442
 30
0.0
 10
104.3312734493986
 20
-129.5128360787328
 30
0.0
 10
104.3312734493986
 20
-129.5679752453858
 30
0.0
 10
104.3312734493986
 20
-129.6237846898163
 30
0.0
 10
104.3760409482565
 20
-129.668587467583
 30
0.0
 10
104.4311801135164
 20
-129.668587467583
 30
0.0
 10
104.486989556537
 20
-129.668587467583
 30
0.0
 10
104.5310867776342
 20
-129.6237846898163
 30
0.0
 10
104.5310867776342
 20
-129.5679752453858
 30
0.0
  0
POLYLINE
  5
5A
330
1F
100
AcDbEntity
  8
_U+30EC_U+30A4_U+30E4_U+30FC 1
 62
     7
420
 16777215
370
     9
100
AcDb2dPolyline
 66
     1
 10
0.0
 20
0.0
 30
0.0
  0
VERTEX
  5
5B
330
5A
100
AcDbEntity
  8
_U+30EC_U+30A4_U+30E4_U+30FC 1
 62
     7
420
 16777215
370
     9
100
AcDbVertex
100
AcDb2dVertex
 10
102.9711387618763
 20
-129.5679752453858
 30
0.0
  0
VERTEX
  5
5C
330
5A
100
AcDbEntity
  8
_U+30EC_U+30A4_U+30E4_U+30FC 1
 62
     7
420
 16777215
370
     9
100
AcDbVertex
100
AcDb2dVertex
 10
105.431622587993
 20
-129.5679752453858
 30
0.0
  0
SEQEND
  5
5D
330
5A
100
AcDbEntity
  8
_U+30EC_U+30A4_U+30E4_U+30FC 1
 62
     7
420
 16777215
370
     9
  0
SPLINE
  5
5E
330
1F
100
AcDbEntity
  8
_U+30EC_U+30A4_U+30E4_U+30FC 1
 62
     7
420
 16777215
370
     9
100
AcDbSpline
210
0.0
220
0.0
230
1.0
 70
    11
 71
     3
 72
    17
 73
    13
 74
     0
 42
0.0000000001
 43
0.0000000001
 12
1.0
 22
0.0
 32
0.0
 13
1.0
 23
0.0
 33
0.0
 40
0.0
 40
0.0
 40
0.0
 40
0.0
 40
1.0
 40
1.0
 40
1.0
 40
2.0
 40
2.0
 40
2.0
 40
3.0
 40
3.0
 40
3.0
 40
4.0
 40
4.0
 40
4.0
 40
4.0
 10
104.5310867776342
 20
-134.0679732998164
 30
0.0
 10
104.5310867776342
 20
-134.0128341331634
 30
0.0
 10
104.486989556537
 20
-133.9680666331748
 30
0.0
 10
104.4311801135164
 20
-133.9680666331748
 30
0.0
 10
104.3760409482565
 20
-133.9680666331748
 30
0.0
 10
104.3312734493986
 20
-134.0128341331634
 30
0.0
 10
104.3312734493986
 20
-134.0679732998164
 30
0.0
 10
104.3312734493986
 20
-134.1237827442469
 30
0.0
 10
104.3760409482565
 20
-134.1685502442354
 30
0.0
 10
104.4311801135164
 20
-134.1685502442354
 30
0.0
 10
104.486989556537
 20
-134.1685502442354
 30
0.0
 10
104.5310867776342
 20
-134.1237827442469
 30
0.0
 10
104.5310867776342
 20
-134.0679732998164
 30
0.0
  0
POLYLINE
  5
5F
330
1F
100
AcDbEntity
  8
_U+30EC_U+30A4_U+30E4_U+30FC 1
 62
     7
420
 16777215
370
     9
100
AcDb2dPolyline
 66
     1
 10
0.0
 20
0.0
 30
0.0
  0
VERTEX
  5
60
330
5F
100
AcDbEntity
  8
_U+30EC_U+30A4_U+30E4_U+30FC 1
 62
     7
420
 16777215
370
     9
100
AcDbVertex
100
AcDb2dVertex
 10
102.9711387618763
 20
-134.0679732998164
 30
0.0
  0
VERTEX
  5
61
330
5F
100
AcDbEntity
  8
_U+30EC_U+30A4_U+30E4_U+30FC 1
 62
     7
420
 16777215
370
     9
100
AcDbVertex
100
AcDb2dVertex
 10
105.431622587993
 20
-134.0679732998164
 30
0.0
  0
SEQEND
  5
62
330
5F
100
AcDbEntity
  8
_U+30EC_U+30A4_U+30E4_U+30FC 1
 62
     7
420
 16777215
370
     9
  0
SPLINE
  5
63
330
1F
100
AcDbEntity
  8
_U+30EC_U+30A4_U+30E4_U+30FC 1
 62
     7
420
 16777215
370
     9
100
AcDbSpline
210
0.0
220
0.0
230
1.0
 70
    11
 71
     3
 72
    17
 73
    13
 74
     0
 42
0.0000000001
 43
0.0000000001
 12
1.0
 22
0.0
 32
0.0
 13
1.0
 23
0.0
 33
0.0
 40
0.0
 40
0.0
 40
0.0
 40
0.0
 40
1.0
 40
1.0
 40
1.0
 40
2.0
 40
2.0
 40
2.0
 40
3.0
 40
3.0
 40
3.0
 40
4.0
 40
4.0
 40
4.0
 40
4.0
 10
104.5310867776342
 20
-135.0677102440108
 30
0.0
 10
104.5310867776342
 20
-135.0126063551359
 30
0.0
 10
104.486989556537
 20
-134.9678035773692
 30
0.0
 10
104.4311801135164
 20
-134.9678035773692
 30
0.0
 10
104.3760409482565
 20
-134.9678035773692
 30
0.0
 10
104.3312734493986
 20
-135.0126063551359
 30
0.0
 10
104.3312734493986
 20
-135.0677102440108
 30
0.0
 10
104.3312734493986
 20
-135.1235196884413
 30
0.0
 10
104.3760409482565
 20
-135.1690280217635
 30
0.0
 10
104.4311801135164
 20
-135.1690280217635
 30
0.0
 10
104.486989556537
 20
-135.1690280217635
 30
0.0
 10
104.5310867776342
 20
-135.1235196884413
 30
0.0
 10
104.5310867776342
 20
-135.0677102440108
 30
0.0
  0
POLYLINE
  5
64
330
1F
100
AcDbEntity
  8
_U+30EC_U+30A4_U+30E4_U+30FC 1
 62
     7
420
 16777215
370
     9
100
AcDb2dPolyline
 66
     1
 10
0.0
 20
0.0
 30
0.0
  0
VERTEX
  5
65
330
64
100
AcDbEntity
  8
_U+30EC_U+30A4_U+30E4_U+30FC 1
 62
     7
420
 16777215
370
     9
100
AcDbVertex
100
AcDb2dVertex
 10
102.9711387618763
 20
-135.0677102440108
 30
0.0
  0
VERTEX
  5
66
330
64
100
AcDbEntity
  8
_U+30EC_U+30A4_U+30E4_U+30FC 1
 62
     7
420
 16777215
370
     9
100
AcDbVertex
100
AcDb2dVertex
 10
105.431622587993
 20
-135.0677102440108
 30
0.0
  0
SEQEND
  5
67
330
64
100
AcDbEntity
  8
_U+30EC_U+30A4_U+30E4_U+30FC 1
 62
     7
420
 16777215
370
     9
  0
INSERT
  5
69
330
1F
100
AcDbEntity
  8
_U+30EC_U+30A4_U+30E4_U+30FC 1
100
AcDbBlockReference
  2
block 3
 10
0.0
 20
0.0
 30
0.0
  0
INSERT
  5
8C
330
1F
100
AcDbEntity
  8
_U+30EC_U+30A4_U+30E4_U+30FC 1
100
AcDbBlockReference
  2
block 4
 10
0.0
 20
0.0
 30
0.0
  0
SPLINE
  5
91
330
1F
100
AcDbEntity
  8
_U+30EC_U+30A4_U+30E4_U+30FC 1
 62
     7
420
 16777215
370
     9
100
AcDbSpline
210
0.0
220
0.0
230
1.0
 70
     8
 71
     3
 72
    17
 73
    13
 74
     0
 42
0.0000000001
 43
0.0000000001
 12
1.0
 22
0.0
 32
0.0
 13
1.0
 23
0.0
 33
0.0
 40
0.0
 40
0.0
 40
0.0
 40
0.0
 40
1.0
 40
1.0
 40
1.0
 40
2.0
 40
2.0
 40
2.0
 40
3.0
 40
3.0
 40
3.0
 40
4.0
 40
4.0
 40
4.0
 40
4.0
 10
97.228163630614
 20
-139.2666124651836
 30
0.0
 10
97.18889946494905
 20
-139.2273482985266
 30
0.0
 10
97.1255052998997
 20
-139.2273482985266
 30
0.0
 10
97.08624113423475
 20
-139.2666124651836
 30
0.0
 10
97.04764724633047
 20
-139.30587663184
 30
0.0
 10
97.04764724633047
 20
-139.3685652429355
 30
0.0
 10
97.08624113423475
 20
-139.4078646873701
 30
0.0
 10
97.1255052998997
 20
-139.4471288540271
 30
0.0
 10
97.18889946494905
 20
-139.4471288540271
 30
0.0
 10
97.228163630614
 20
-139.4078646873701
 30
0.0
 10
97.24679029680547
 20
-139.3892380207082
 30
0.0
 10
97.25712668543065
 20
-139.3637674651588
 30
0.0
 10
97.25712668543065
 20
-139.3368857984991
 30
0.0
  0
SPLINE
  5
92
330
1F
100
AcDbEntity
  8
_U+30EC_U+30A4_U+30E4_U+30FC 1
 62
     7
420
 16777215
370
     9
100
AcDbSpline
210
0.0
220
0.0
230
1.0
 70
    11
 71
     3
 72
    17
 73
    13
 74
     0
 42
0.0000000001
 43
0.0000000001
 12
1.0
 22
0.0
 32
0.0
 13
1.0
 23
0.0
 33
0.0
 40
0.0
 40
0.0
 40
0.0
 40
0.0
 40
1.0
 40
1.0
 40
1.0
 40
2.0
 40
2.0
 40
2.0
 40
3.0
 40
3.0
 40
3.0
 40
4.0
 40
4.0
 40
4.0
 40
4.0
 10
85.25714393602016
 20
-139.3368857984991
 30
0.0
 10
85.25714393602016
 20
-139.2817819096242
 30
0.0
 10
85.21237643716228
 20
-139.2369791318574
 30
0.0
 10
85.15723727190233
 20
-139.2369791318574
 30
0.0
 10
85.10213338441925
 20
-139.2369791318574
 30
0.0
 10
85.0573306077845
 20
-139.2817819096242
 30
0.0
 10
85.0573306077845
 20
-139.3368857984991
 30
0.0
 10
85.0573306077845
 20
-139.3926952429295
 30
0.0
 10
85.10213338441925
 20
-139.4374980206962
 30
0.0
 10
85.15723727190233
 20
-139.4374980206962
 30
0.0
 10
85.21237643716228
 20
-139.4374980206962
 30
0.0
 10
85.25714393602016
 20
-139.3926952429295
 30
0.0
 10
85.25714393602016
 20
-139.3368857984991
 30
0.0
  0
POLYLINE
  5
93
330
1F
100
AcDbEntity
  8
_U+30EC_U+30A4_U+30E4_U+30FC 1
 62
     7
420
 16777215
370
     9
100
AcDb2dPolyline
 66
     1
 10
0.0
 20
0.0
 30
0.0
  0
VERTEX
  5
94
330
93
100
AcDbEntity
  8
_U+30EC_U+30A4_U+30E4_U+30FC 1
 62
     7
420
 16777215
370
     9
100
AcDbVertex
100
AcDb2dVertex
 10
85.15723727190233
 20
-139.3368857984991
 30
0.0
  0
VERTEX
  5
95
330
93
100
AcDbEntity
  8
_U+30EC_U+30A4_U+30E4_U+30FC 1
 62
     7
420
 16777215
370
     9
100
AcDbVertex
100
AcDb2dVertex
 10
97.15722002131281
 20
-139.3368857984991
 30
0.0
  0
SEQEND
  5
96
330
93
100
AcDbEntity
  8
_U+30EC_U+30A4_U+30E4_U+30FC 1
 62
     7
420
 16777215
370
     9
  0
POLYLINE
  5
97
330
1F
100
AcDbEntity
  8
_U+30EC_U+30A4_U+30E4_U+30FC 1
 62
     7
420
 16777215
370
     9
100
AcDb2dPolyline
 66
     1
 10
0.0
 20
0.0
 30
0.0
  0
VERTEX
  5
98
330
97
100
AcDbEntity
  8
_U+30EC_U+30A4_U+30E4_U+30FC 1
 62
     7
420
 16777215
370
     9
100
AcDbVertex
100
AcDb2dVertex
 10
85.15723727190233
 20
-137.8768444099753
 30
0.0
  0
VERTEX
  5
99
330
97
100
AcDbEntity
  8
_U+30EC_U+30A4_U+30E4_U+30FC 1
 62
     7
420
 16777215
370
     9
100
AcDbVertex
100
AcDb2dVertex
 10
85.15723727190233
 20
-140.337328298249
 30
0.0
  0
SEQEND
  5
9A
330
97
100
AcDbEntity
  8
_U+30EC_U+30A4_U+30E4_U+30FC 1
 62
     7
420
 16777215
370
     9
  0
POLYLINE
  5
9B
330
1F
100
AcDbEntity
  8
_U+30EC_U+30A4_U+30E4_U+30FC 1
 62
     7
420
 16777215
370
     9
100
AcDb2dPolyline
 66
     1
 10
0.0
 20
0.0
 30
0.0
  0
VERTEX
  5
9C
330
9B
100
AcDbEntity
  8
_U+30EC_U+30A4_U+30E4_U+30FC 1
 62
     7
420
 16777215
370
     9
100
AcDbVertex
100
AcDb2dVertex
 10
97.15722002131281
 20
-137.8768444099753
 30
0.0
  0
VERTEX
  5
9D
330
9B
100
AcDbEntity
  8
_U+30EC_U+30A4_U+30E4_U+30FC 1
 62
     7
420
 16777215
370
     9
100
AcDbVertex
100
AcDb2dVertex
 10
97.15722002131281
 20
-140.337328298249
 30
0.0
  0
SEQEND
  5
9E
330
9B
100
AcDbEntity
  8
_U+30EC_U+30A4_U+30E4_U+30FC 1
 62
     7
420
 16777215
370
     9
  0
INSERT
  5
A0
330
1F
100
AcDbEntity
  8
_U+30EC_U+30A4_U+30E4_U+30FC 1
100
AcDbBlockReference
  2
block 5
 10
0.0
 20
0.0
 30
0.0
  0
SPLINE
  5
A7
330
1F
100
AcDbEntity
  8
_U+30EC_U+30A4_U+30E4_U+30FC 1
 62
     7
420
 16777215
370
     9
100
AcDbSpline
210
0.0
220
0.0
230
1.0
 70
     8
 71
     3
 72
    17
 73
    13
 74
     0
 42
0.0000000001
 43
0.0000000001
 12
1.0
 22
0.0
 32
0.0
 13
1.0
 23
0.0
 33
0.0
 40
0.0
 40
0.0
 40
0.0
 40
0.0
 40
1.0
 40
1.0
 40
1.0
 40
2.0
 40
2.0
 40
2.0
 40
3.0
 40
3.0
 40
3.0
 40
4.0
 40
4.0
 40
4.0
 40
4.0
 10
101.7574421261736
 20
-119.4185585812564
 30
0.0
 10
101.7181805301257
 20
-119.3792591368218
 30
0.0
 10
101.65545407322
 20
-119.3792591368218
 30
0.0
 10
101.616189907555
 20
-119.4185585812564
 30
0.0
 10
101.5769257418901
 20
-119.4578227479134
 30
0.0
 10
101.5769257418901
 20
-119.5205113590089
 30
0.0
 10
101.616189907555
 20
-119.5598108034434
 30
0.0
 10
101.65545407322
 20
-119.5990749701001
 30
0.0
 10
101.7181805301257
 20
-119.5990749701001
 30
0.0
 10
101.7574421261736
 20
-119.5598108034434
 30
0.0
 10
101.776036085667
 20
-119.5411841367813
 30
0.0
 10
101.7870754587509
 20
-119.5157135812322
 30
0.0
 10
101.7870754587509
 20
-119.4888319145721
 30
0.0
  0
SPLINE
  5
A8
330
1F
100
AcDbEntity
  8
_U+30EC_U+30A4_U+30E4_U+30FC 1
 62
     7
420
 16777215
370
     9
100
AcDbSpline
210
0.0
220
0.0
230
1.0
 70
    11
 71
     3
 72
    17
 73
    13
 74
     0
 42
0.0000000001
 43
0.0000000001
 12
1.0
 22
0.0
 32
0.0
 13
1.0
 23
0.0
 33
0.0
 40
0.0
 40
0.0
 40
0.0
 40
0.0
 40
1.0
 40
1.0
 40
1.0
 40
2.0
 40
2.0
 40
2.0
 40
3.0
 40
3.0
 40
3.0
 40
4.0
 40
4.0
 40
4.0
 40
4.0
 10
87.84561553664942
 20
-119.4891846923499
 30
0.0
 10
87.84561553664942
 20
-119.4340455256972
 30
0.0
 10
87.80084803779152
 20
-119.3892780257083
 30
0.0
 10
87.7457110891747
 20
-119.3892780257083
 30
0.0
 10
87.69060498504851
 20
-119.3892780257083
 30
0.0
 10
87.64580220841374
 20
-119.4340455256972
 30
0.0
 10
87.64580220841374
 20
-119.4891846923499
 30
0.0
 10
87.64580220841374
 20
-119.5449941367803
 30
0.0
 10
87.69060498504851
 20
-119.5897616367692
 30
0.0
 10
87.7457110891747
 20
-119.5897616367692
 30
0.0
 10
87.80084803779152
 20
-119.5897616367692
 30
0.0
 10
87.84561553664942
 20
-119.5449941367803
 30
0.0
 10
87.84561553664942
 20
-119.4891846923499
 30
0.0
  0
POLYLINE
  5
A9
330
1F
100
AcDbEntity
  8
_U+30EC_U+30A4_U+30E4_U+30FC 1
 62
     7
420
 16777215
370
     9
100
AcDb2dPolyline
 66
     1
 10
0.0
 20
0.0
 30
0.0
  0
VERTEX
  5
AA
330
A9
100
AcDbEntity
  8
_U+30EC_U+30A4_U+30E4_U+30FC 1
 62
     7
420
 16777215
370
     9
100
AcDbVertex
100
AcDb2dVertex
 10
87.7457110891747
 20
-119.4891846923499
 30
0.0
  0
VERTEX
  5
AB
330
A9
100
AcDbEntity
  8
_U+30EC_U+30A4_U+30E4_U+30FC 1
 62
     7
420
 16777215
370
     9
100
AcDbVertex
100
AcDb2dVertex
 10
101.7457299042502
 20
-119.4891846923499
 30
0.0
  0
SEQEND
  5
AC
330
A9
100
AcDbEntity
  8
_U+30EC_U+30A4_U+30E4_U+30FC 1
 62
     7
420
 16777215
370
     9
  0
POLYLINE
  5
AD
330
1F
100
AcDbEntity
  8
_U+30EC_U+30A4_U+30E4_U+30FC 1
 62
     7
420
 16777215
370
     9
100
AcDb2dPolyline
 66
     1
 10
0.0
 20
0.0
 30
0.0
  0
VERTEX
  5
AE
330
AD
100
AcDbEntity
  8
_U+30EC_U+30A4_U+30E4_U+30FC 1
 62
     7
420
 16777215
370
     9
100
AcDbVertex
100
AcDb2dVertex
 10
87.7457110891747
 20
-118.0291433038262
 30
0.0
  0
VERTEX
  5
AF
330
AD
100
AcDbEntity
  8
_U+30EC_U+30A4_U+30E4_U+30FC 1
 62
     7
420
 16777215
370
     9
100
AcDbVertex
100
AcDb2dVertex
 10
87.7457110891747
 20
-120.4896271920998
 30
0.0
  0
SEQEND
  5
B0
330
AD
100
AcDbEntity
  8
_U+30EC_U+30A4_U+30E4_U+30FC 1
 62
     7
420
 16777215
370
     9
  0
POLYLINE
  5
B1
330
1F
100
AcDbEntity
  8
_U+30EC_U+30A4_U+30E4_U+30FC 1
 62
     7
420
 16777215
370
     9
100
AcDb2dPolyline
 66
     1
 10
0.0
 20
0.0
 30
0.0
  0
VERTEX
  5
B2
330
B1
100
AcDbEntity
  8
_U+30EC_U+30A4_U+30E4_U+30FC 1
 62
     7
420
 16777215
370
     9
100
AcDbVertex
100
AcDb2dVertex
 10
101.6871687946331
 20
-118.3526405259674
 30
0.0
  0
VERTEX
  5
B3
330
B1
100
AcDbEntity
  8
_U+30EC_U+30A4_U+30E4_U+30FC 1
 62
     7
420
 16777215
370
     9
100
AcDbVertex
100
AcDb2dVertex
 10
101.6871687946331
 20
-120.8131244142413
 30
0.0
  0
SEQEND
  5
B4
330
B1
100
AcDbEntity
  8
_U+30EC_U+30A4_U+30E4_U+30FC 1
 62
     7
420
 16777215
370
     9
  0
INSERT
  5
B6
330
1F
100
AcDbEntity
  8
_U+30EC_U+30A4_U+30E4_U+30FC 1
100
AcDbBlockReference
  2
block 6
 10
0.0
 20
0.0
 30
0.0
  0
SPLINE
  5
D0
330
1F
100
AcDbEntity
  8
_U+30EC_U+30A4_U+30E4_U+30FC 1
 62
     7
420
 16777215
370
    25
100
AcDbSpline
210
0.0
220
0.0
230
1.0
 70
    11
 71
     3
 72
    47
 73
    43
 74
     0
 42
0.0000000001
 43
0.0000000001
 12
1.0
 22
0.0
 32
0.0
 13
1.0
 23
0.0
 33
0.0
 40
0.0
 40
0.0
 40
0.0
 40
0.0
 40
1.0
 40
1.0
 40
1.0
 40
2.0
 40
2.0
 40
2.0
 40
3.0
 40
3.0
 40
3.0
 40
4.0
 40
4.0
 40
4.0
 40
5.0
 40
5.0
 40
5.0
 40
6.0
 40
6.0
 40
6.0
 40
7.0
 40
7.0
 40
7.0
 40
8.0
 40
8.0
 40
8.0
 40
9.0
 40
9.0
 40
9.0
 40
10.0
 40
10.0
 40
10.0
 40
11.0
 40
11.0
 40
11.0
 40
12.0
 40
12.0
 40
12.0
 40
13.0
 40
13.0
 40
13.0
 40
14.0
 40
14.0
 40
14.0
 40
14.0
 10
77.7690830159454
 20
-118.5786299703552
 30
0.0
 10
77.7690830159454
 20
-118.5786299703552
 30
0.0
 10
87.63821748638503
 20
-128.5080896900953
 30
0.0
 10
87.63821748638503
 20
-128.5080896900953
 30
0.0
 10
87.63821748638503
 20
-128.5080896900953
 30
0.0
 10
101.6382385181036
 20
-128.5073841345398
 30
0.0
 10
101.6382385181036
 20
-128.5073841345398
 30
0.0
 10
101.6382385181036
 20
-129.0601516344015
 30
0.0
 10
101.1903871406404
 20
-129.5080383009561
 30
0.0
 10
100.6381135436189
 20
-129.5080383009561
 30
0.0
 10
100.6381135436189
 20
-129.5080383009561
 30
0.0
 10
87.76846303861774
 20
-129.5087085787341
 30
0.0
 10
87.76846303861774
 20
-129.5087085787341
 30
0.0
 10
87.76846303861774
 20
-129.5087085787341
 30
0.0
 10
85.89570697528461
 20
-134.0100824664976
 30
0.0
 10
85.89570697528461
 20
-134.0100824664976
 30
0.0
 10
85.89570697528461
 20
-134.0100824664976
 30
0.0
 10
97.43764306971418
 20
-134.0093769109421
 30
0.0
 10
97.43764306971418
 20
-134.0093769109421
 30
0.0
 10
97.43764306971418
 20
-134.0093769109421
 30
0.0
 10
96.938109749125
 20
-135.0098546884695
 30
0.0
 10
96.938109749125
 20
-135.0098546884695
 30
0.0
 10
96.938109749125
 20
-135.0098546884695
 30
0.0
 10
84.93830553432113
 20
-135.0098546884695
 30
0.0
 10
84.93830553432113
 20
-135.0098546884695
 30
0.0
 10
84.93830553432113
 20
-135.0098546884695
 30
0.0
 10
76.47886888219483
 20
-126.4989144128197
 30
0.0
 10
76.47886888219483
 20
-126.4989144128197
 30
0.0
 10
76.47886888219483
 20
-126.4989144128197
 30
0.0
 10
76.83577415086721
 20
-125.4392052464181
 30
0.0
 10
76.83577415086721
 20
-125.4392052464181
 30
0.0
 10
76.83577415086721
 20
-125.4392052464181
 30
0.0
 10
84.97206422107092
 20
-133.6256252443716
 30
0.0
 10
84.97206422107092
 20
-133.6256252443716
 30
0.0
 10
84.97206422107092
 20
-133.6256252443716
 30
0.0
 10
86.84344445110582
 20
-129.1277085788294
 30
0.0
 10
86.84344445110582
 20
-129.1277085788294
 30
0.0
 10
86.84344445110582
 20
-129.1277085788294
 30
0.0
 10
77.76460273828192
 20
-119.9931983033351
 30
0.0
 10
77.76460273828192
 20
-119.9931983033351
 30
0.0
 10
77.37527719265888
 20
-119.6014738589885
 30
0.0
 10
77.37735858149468
 20
-118.9679202480357
 30
0.0
 10
77.7690830159454
 20
-118.5786299703552
 30
0.0
  0
HATCH
  5
D1
330
1F
100
AcDbEntity
  8
_U+30EC_U+30A4_U+30E4_U+30FC 1
 62
   253
420
 11711154
100
AcDbHatch
 10
0.0
 20
0.0
 30
0.0
210
0.0
220
0.0
230
1.0
  2
SOLID
 70
     1
 71
     0
 91
        1
 92
        1
 93
        1
 72
     4
 94
        3
 73
     0
 74
     1
 95
       47
 96
       43
 40
0.0
 40
0.0
 40
0.0
 40
0.0
 40
1.0
 40
1.0
 40
1.0
 40
2.0
 40
2.0
 40
2.0
 40
3.0
 40
3.0
 40
3.0
 40
4.0
 40
4.0
 40
4.0
 40
5.0
 40
5.0
 40
5.0
 40
6.0
 40
6.0
 40
6.0
 40
7.0
 40
7.0
 40
7.0
 40
8.0
 40
8.0
 40
8.0
 40
9.0
 40
9.0
 40
9.0
 40
10.0
 40
10.0
 40
10.0
 40
11.0
 40
11.0
 40
11.0
 40
12.0
 40
12.0
 40
12.0
 40
13.0
 40
13.0
 40
13.0
 40
14.0
 40
14.0
 40
14.0
 40
14.0
 10
77.7690830159454
 20
-118.5786299703552
 10
77.7690830159454
 20
-118.5786299703552
 10
87.63821748638503
 20
-128.5080896900953
 10
87.63821748638503
 20
-128.5080896900953
 10
87.63821748638503
 20
-128.5080896900953
 10
101.6382385181036
 20
-128.5073841345398
 10
101.6382385181036
 20
-128.5073841345398
 10
101.6382385181036
 20
-129.0601516344015
 10
101.1903871406404
 20
-129.5080383009561
 10
100.6381135436189
 20
-129.5080383009561
 10
100.6381135436189
 20
-129.5080383009561
 10
87.76846303861774
 20
-129.5087085787341
 10
87.76846303861774
 20
-129.5087085787341
 10
87.76846303861774
 20
-129.5087085787341
 10
85.89570697528461
 20
-134.0100824664976
 10
85.89570697528461
 20
-134.0100824664976
 10
85.89570697528461
 20
-134.0100824664976
 10
97.43764306971418
 20
-134.0093769109421
 10
97.43764306971418
 20
-134.0093769109421
 10
97.43764306971418
 20
-134.0093769109421
 10
96.938109749125
 20
-135.0098546884695
 10
96.938109749125
 20
-135.0098546884695
 10
96.938109749125
 20
-135.0098546884695
 10
84.93830553432113
 20
-135.0098546884695
 10
84.93830553432113
 20
-135.0098546884695
 10
84.93830553432113
 20
-135.0098546884695
 10
76.47886888219483
 20
-126.4989144128197
 10
76.47886888219483
 20
-126.4989144128197
 10
76.47886888219483
 20
-126.4989144128197
 10
76.83577415086721
 20
-125.4392052464181
 10
76.83577415086721
 20
-125.4392052464181
 10
76.83577415086721
 20
-125.4392052464181
 10
84.97206422107092
 20
-133.6256252443716
 10
84.97206422107092
 20
-133.6256252443716
 10
84.97206422107092
 20
-133.6256252443716
 10
86.84344445110582
 20
-129.1277085788294
 10
86.84344445110582
 20
-129.1277085788294
 10
86.84344445110582
 20
-129.1277085788294
 10
77.76460273828192
 20
-119.9931983033351
 10
77.76460273828192
 20
-119.9931983033351
 10
77.37527719265888
 20
-119.6014738589885
 10
77.37735858149468
 20
-118.9679202480357
 10
77.7690830159454
 20
-118.5786299703552
 97
        0
 97
        0
 75
     2
 76
     1
 98
        0
  0
ENDSEC
  0
SECTION
  2
OBJECTS
  0
DICTIONARY
  5
C
330
0
100
AcDbDictionary
281
     1
  3
ACAD_GROUP
350
D
  3
ACAD_LAYOUT
350
1A
  3
ACAD_MATERIAL
350
3B
  3
ACAD_MLEADERSTYLE
350
D3
  3
ACAD_MLINESTYLE
350
17
  3
ACAD_PLOTSETTINGS
350
19
  3
ACAD_PLOTSTYLENAME
350
E
  3
ACAD_TABLESTYLE
350
D2
  3
ACAD_VISUALSTYLE
350
2A
  0
SUN
  5
3F
330
29
100
AcDbSun
 90
        1
290
     0
 63
     7
421
 16777215
 40
1.0
291
     1
 91
  2455826
 92
 54000000
292
     0
 70
     2
 71
   256
280
     1
  0
DICTIONARY
  5
D
102
{ACAD_REACTORS
330
C
102
}
330
C
100
AcDbDictionary
281
     1
  0
DICTIONARY
  5
1A
102
{ACAD_REACTORS
330
C
102
}
330
C
100
AcDbDictionary
281
     1
  3
Layout1
350
1E
  3
Layout2
350
26
  3
Model
350
22
  0
DICTIONARY
  5
3B
102
{ACAD_REACTORS
330
C
102
}
330
C
100
AcDbDictionary
281
     1
  3
ByBlock
350
3D
  3
ByLayer
350
3C
  3
Global
350
3E
  0
DICTIONARY
  5
D3
102
{ACAD_REACTORS
330
C
102
}
330
C
100
AcDbDictionary
281
     1
  0
DICTIONARY
  5
17
102
{ACAD_REACTORS
330
C
102
}
330
C
100
AcDbDictionary
281
     1
  3
Standard
350
18
  0
DICTIONARY
  5
19
102
{ACAD_REACTORS
330
C
102
}
330
C
100
AcDbDictionary
281
     1
  0
ACDBDICTIONARYWDFLT
  5
E
102
{ACAD_REACTORS
330
C
102
}
330
C
100
AcDbDictionary
281
     1
  3
Normal
350
F
100
AcDbDictionaryWithDefault
340
F
  0
DICTIONARY
  5
D2
102
{ACAD_REACTORS
330
C
102
}
330
C
100
AcDbDictionary
281
     1
  0
DICTIONARY
  5
2A
102
{ACAD_REACTORS
330
C
102
}
330
C
100
AcDbDictionary
281
     1
  3
2dWireframe
350
2F
  3
3D Hidden
350
31
  3
3dWireframe
350
30
  3
Basic
350
32
  3
Brighten
350
36
  3
ColorChange
350
3A
  3
Conceptual
350
34
  3
Dim
350
35
  3
Facepattern
350
39
  3
Flat
350
2B
  3
FlatWithEdges
350
2C
  3
Gouraud
350
2D
  3
GouraudWithEdges
350
2E
  3
Linepattern
350
38
  3
Realistic
350
33
  3
Thicken
350
37
  0
LAYOUT
  5
1E
102
{ACAD_REACTORS
330
1A
102
}
330
1A
100
AcDbPlotSettings
  1

  2
none_device
  4

  6

 40
0.0
 41
0.0
 42
0.0
 43
0.0
 44
0.0
 45
0.0
 46
0.0
 47
0.0
 48
0.0
 49
0.0
140
0.0
141
0.0
142
1.0
143
1.0
 70
   688
 72
     0
 73
     0
 74
     5
  7

 75
    16
 76
     0
 77
     2
 78
   300
147
1.0
148
0.0
149
0.0
100
AcDbLayout
  1
Layout1
 70
     1
 71
     1
 10
0.0
 20
0.0
 11
12.0
 21
9.0
 12
0.0
 22
0.0
 32
0.0
 14
1.000000000000000E+20
 24
1.000000000000000E+20
 34
1.000000000000000E+20
 15
-1.000000000000000E+20
 25
-1.000000000000000E+20
 35
-1.000000000000000E+20
146
0.0
 13
0.0
 23
0.0
 33
0.0
 16
1.0
 26
0.0
 36
0.0
 17
0.0
 27
1.0
 37
0.0
 76
     0
330
1B
  0
LAYOUT
  5
26
102
{ACAD_REACTORS
330
1A
102
}
330
1A
100
AcDbPlotSettings
  1

  2
none_device
  4

  6

 40
0.0
 41
0.0
 42
0.0
 43
0.0
 44
0.0
 45
0.0
 46
0.0
 47
0.0
 48
0.0
 49
0.0
140
0.0
141
0.0
142
1.0
143
1.0
 70
   688
 72
     0
 73
     0
 74
     5
  7

 75
    16
 76
     0
 77
     2
 78
   300
147
1.0
148
0.0
149
0.0
100
AcDbLayout
  1
Layout2
 70
     1
 71
     2
 10
0.0
 20
0.0
 11
0.0
 21
0.0
 12
0.0
 22
0.0
 32
0.0
 14
0.0
 24
0.0
 34
0.0
 15
0.0
 25
0.0
 35
0.0
146
0.0
 13
0.0
 23
0.0
 33
0.0
 16
1.0
 26
0.0
 36
0.0
 17
0.0
 27
1.0
 37
0.0
 76
     0
330
23
  0
LAYOUT
  5
22
102
{ACAD_REACTORS
330
1A
102
}
330
1A
100
AcDbPlotSettings
  1

  2
none_device
  4

  6

 40
0.0
 41
0.0
 42
0.0
 43
0.0
 44
0.0
 45
0.0
 46
0.0
 47
0.0
 48
0.0
 49
0.0
140
0.0
141
0.0
142
1.0
143
1.0
 70
  1712
 72
     0
 73
     0
 74
     0
  7

 75
     0
 76
     0
 77
     2
 78
   300
147
1.0
148
0.0
149
0.0
100
AcDbLayout
  1
Model
 70
     1
 71
     0
 10
0.0
 20
0.0
 11
12.0
 21
9.0
 12
0.0
 22
0.0
 32
0.0
 14
1.000000000000000E+20
 24
1.000000000000000E+20
 34
1.000000000000000E+20
 15
-1.000000000000000E+20
 25
-1.000000000000000E+20
 35
-1.000000000000000E+20
146
0.0
 13
0.0
 23
0.0
 33
0.0
 16
1.0
 26
0.0
 36
0.0
 17
0.0
 27
1.0
 37
0.0
 76
     0
330
1F
331
29
  0
MATERIAL
  5
3D
102
{ACAD_REACTORS
330
3B
102
}
330
3B
100
AcDbMaterial
  1
ByBlock
 72
     1
 94
      127
  0
MATERIAL
  5
3C
102
{ACAD_REACTORS
330
3B
102
}
330
3B
100
AcDbMaterial
  1
ByLayer
 72
     1
 94
      127
  0
MATERIAL
  5
3E
102
{ACAD_REACTORS
330
3B
102
}
330
3B
100
AcDbMaterial
  1
Global
 72
     1
 94
      127
  0
MLINESTYLE
  5
18
102
{ACAD_REACTORS
330
17
102
}
330
17
100
AcDbMlineStyle
  2
Standard
 70
     0
  3

 62
   256
 51
90.0
 52
90.0
 71
     2
 49
0.5
 62
   256
  6
BYLAYER
 49
-0.5
 62
   256
  6
BYLAYER
  0
ACDBPLACEHOLDER
  5
F
102
{ACAD_REACTORS
330
E
102
}
330
E
  0
VISUALSTYLE
  5
2F
102
{ACAD_REACTORS
330
2A
102
}
330
2A
100
AcDbVisualStyle
  2
2dWireframe
 70
     4
177
     2
291
     0
 71
     0
176
     1
 72
     2
176
     1
 73
     0
176
     1
 90
        0
176
     1
 40
-0.6
176
     1
 41
-30.0
176
     1
 62
     5
 63
     7
421
 16777215
176
     1
 74
     1
176
     1
 91
        4
176
     1
 64
     7
176
     1
 65
   257
176
     1
 75
     1
176
     1
175
     1
176
     1
 42
1.0
176
     1
 92
        0
176
     1
 66
   257
176
     1
 43
1.0
176
     1
 76
     1
176
     1
 77
     6
176
     1
 78
     2
176
     1
 67
     7
176
     1
 79
     5
176
     1
170
     0
176
     1
171
     0
176
     1
290
     0
176
     1
 93
        1
176
     1
 44
0.0
176
     1
173
     0
176
     1
  0
VISUALSTYLE
  5
31
102
{ACAD_REACTORS
330
2A
102
}
330
2A
100
AcDbVisualStyle
  2
3D Hidden
 70
     6
177
     2
291
     0
 71
     1
176
     1
 72
     2
176
     1
 73
     2
176
     1
 90
        0
176
     1
 40
-0.6
176
     1
 41
-30.0
176
     1
 62
     5
 63
     7
421
 16777215
176
     1
 74
     2
176
     1
 91
        2
176
     1
 64
     7
176
     1
 65
   257
176
     1
 75
     2
176
     1
175
     1
176
     1
 42
40.0
176
     1
 92
        0
176
     1
 66
   257
176
     1
 43
1.0
176
     1
 76
     1
176
     1
 77
     6
176
     1
 78
     2
176
     1
 67
     7
176
     1
 79
     3
176
     1
170
     0
176
     1
171
     0
176
     1
290
     0
176
     1
 93
        1
176
     1
 44
0.0
176
     1
173
     0
176
     1
  0
VISUALSTYLE
  5
30
102
{ACAD_REACTORS
330
2A
102
}
330
2A
100
AcDbVisualStyle
  2
3dWireframe
 70
     5
177
     2
291
     0
 71
     0
176
     1
 72
     2
176
     1
 73
     0
176
     1
 90
        0
176
     1
 40
-0.6
176
     1
 41
-30.0
176
     1
 62
     5
 63
     7
421
 16777215
176
     1
 74
     1
176
     1
 91
        4
176
     1
 64
     7
176
     1
 65
   257
176
     1
 75
     1
176
     1
175
     1
176
     1
 42
1.0
176
     1
 92
        0
176
     1
 66
   257
176
     1
 43
1.0
176
     1
 76
     1
176
     1
 77
     6
176
     1
 78
     2
176
     1
 67
     7
176
     1
 79
     5
176
     1
170
     0
176
     1
171
     0
176
     1
290
     0
176
     1
 93
        1
176
     1
 44
0.0
176
     1
173
     0
176
     1
  0
VISUALSTYLE
  5
32
102
{ACAD_REACTORS
330
2A
102
}
330
2A
100
AcDbVisualStyle
  2
Basic
 70
     7
177
     2
291
     1
 71
     1
176
     1
 72
     0
176
     1
 73
     1
176
     1
 90
        0
176
     1
 40
-0.6
176
     1
 41
-30.0
176
     1
 62
     5
 63
     7
421
 16777215
176
     1
 74
     0
176
     1
 91
        4
176
     1
 64
     7
176
     1
 65
   257
176
     1
 75
     1
176
     1
175
     1
176
     1
 42
1.0
176
     1
 92
        8
176
     1
 66
     7
176
     1
 43
1.0
176
     1
 76
     1
176
     1
 77
     6
176
     1
 78
     2
176
     1
 67
     7
176
     1
 79
     5
176
     1
170
     0
176
     1
171
     0
176
     1
290
     0
176
     1
 93
        1
176
     1
 44
0.0
176
     1
173
     0
176
     1
  0
VISUALSTYLE
  5
36
102
{ACAD_REACTORS
330
2A
102
}
330
2A
100
AcDbVisualStyle
  2
Brighten
 70
    12
177
     2
291
     1
 71
     2
176
     1
 72
     2
176
     1
 73
     0
176
     1
 90
        0
176
     1
 40
-0.6
176
     1
 41
-30.0
176
     1
 62
     5
 63
     7
421
 16777215
176
     1
 74
     1
176
     1
 91
        4
176
     1
 64
     7
176
     1
 65
   257
176
     1
 75
     1
176
     1
175
     1
176
     1
 42
1.0
176
     1
 92
        8
176
     1
 66
     7
176
     1
 43
1.0
176
     1
 76
     1
176
     1
 77
     6
176
     1
 78
     2
176
     1
 67
     7
176
     1
 79
     5
176
     1
170
     0
176
     1
171
     0
176
     1
290
     0
176
     1
 93
        1
176
     1
 44
50.0
176
     1
173
     0
176
     1
  0
VISUALSTYLE
  5
3A
102
{ACAD_REACTORS
330
2A
102
}
330
2A
100
AcDbVisualStyle
  2
ColorChange
 70
    16
177
     2
291
     1
 71
     2
176
     1
 72
     2
176
     1
 73
     3
176
     1
 90
        0
176
     1
 40
-0.6
176
     1
 41
-30.0
176
     1
 62
     5
 63
     8
421
  8421504
176
     1
 74
     1
176
     1
 91
        4
176
     1
 64
     7
176
     1
 65
   257
176
     1
 75
     1
176
     1
175
     1
176
     1
 42
1.0
176
     1
 92
        8
176
     1
 66
     8
424
  8421504
176
     1
 43
1.0
176
     1
 76
     1
176
     1
 77
     6
176
     1
 78
     2
176
     1
 67
     7
176
     1
 79
     5
176
     1
170
     0
176
     1
171
     0
176
     1
290
     0
176
     1
 93
        1
176
     1
 44
0.0
176
     1
173
     0
176
     1
  0
VISUALSTYLE
  5
34
102
{ACAD_REACTORS
330
2A
102
}
330
2A
100
AcDbVisualStyle
  2
Conceptual
 70
     9
177
     2
291
     0
 71
     3
176
     1
 72
     2
176
     1
 73
     0
176
     1
 90
        0
176
     1
 40
-0.6
176
     1
 41
-30.0
176
     1
 62
     5
 63
     7
421
 16777215
176
     1
 74
     2
176
     1
 91
        2
176
     1
 64
     7
176
     1
 65
   257
176
     1
 75
     1
176
     1
175
     1
176
     1
 42
40.0
176
     1
 92
        8
176
     1
 66
     7
176
     1
 43
1.0
176
     1
 76
     1
176
     1
 77
     6
176
     1
 78
     2
176
     1
 67
     7
176
     1
 79
     3
176
     1
170
     0
176
     1
171
     0
176
     1
290
     0
176
     1
 93
        1
176
     1
 44
0.0
176
     1
173
     0
176
     1
  0
VISUALSTYLE
  5
35
102
{ACAD_REACTORS
330
2A
102
}
330
2A
100
AcDbVisualStyle
  2
Dim
 70
    11
177
     2
291
     1
 71
     2
176
     1
 72
     2
176
     1
 73
     0
176
     1
 90
        0
176
     1
 40
-0.6
176
     1
 41
-30.0
176
     1
 62
     5
 63
     7
421
 16777215
176
     1
 74
     1
176
     1
 91
        4
176
     1
 64
     7
176
     1
 65
   257
176
     1
 75
     1
176
     1
175
     1
176
     1
 42
1.0
176
     1
 92
        8
176
     1
 66
     7
176
     1
 43
1.0
176
     1
 76
     1
176
     1
 77
     6
176
     1
 78
     2
176
     1
 67
     7
176
     1
 79
     5
176
     1
170
     0
176
     1
171
     0
176
     1
290
     0
176
     1
 93
        1
176
     1
 44
-50.0
176
     1
173
     0
176
     1
  0
VISUALSTYLE
  5
39
102
{ACAD_REACTORS
330
2A
102
}
330
2A
100
AcDbVisualStyle
  2
Facepattern
 70
    15
177
     2
291
     1
 71
     2
176
     1
 72
     2
176
     1
 73
     0
176
     1
 90
        0
176
     1
 40
-0.6
176
     1
 41
-30.0
176
     1
 62
     5
 63
     7
421
 16777215
176
     1
 74
     1
176
     1
 91
        4
176
     1
 64
     7
176
     1
 65
   257
176
     1
 75
     1
176
     1
175
     1
176
     1
 42
1.0
176
     1
 92
        8
176
     1
 66
     7
176
     1
 43
1.0
176
     1
 76
     1
176
     1
 77
     6
176
     1
 78
     2
176
     1
 67
     7
176
     1
 79
     5
176
     1
170
     0
176
     1
171
     0
176
     1
290
     0
176
     1
 93
        1
176
     1
 44
0.0
176
     1
173
     0
176
     1
  0
VISUALSTYLE
  5
2B
102
{ACAD_REACTORS
330
2A
102
}
330
2A
100
AcDbVisualStyle
  2
Flat
 70
     0
177
     2
291
     1
 71
     2
176
     1
 72
     1
176
     1
 73
     1
176
     1
 90
        2
176
     1
 40
-0.6
176
     1
 41
30.0
176
     1
 62
     5
 63
     7
421
 16777215
176
     1
 74
     0
176
     1
 91
        4
176
     1
 64
     7
176
     1
 65
   257
176
     1
 75
     1
176
     1
175
     1
176
     1
 42
1.0
176
     1
 92
        8
176
     1
 66
     7
176
     1
 43
1.0
176
     1
 76
     1
176
     1
 77
     6
176
     1
 78
     2
176
     1
 67
     7
176
     1
 79
     5
176
     1
170
     0
176
     1
171
     0
176
     1
290
     0
176
     1
 93
       13
176
     1
 44
0.0
176
     1
173
     0
176
     1
  0
VISUALSTYLE
  5
2C
102
{ACAD_REACTORS
330
2A
102
}
330
2A
100
AcDbVisualStyle
  2
FlatWithEdges
 70
     1
177
     2
291
     1
 71
     2
176
     1
 72
     1
176
     1
 73
     1
176
     1
 90
        2
176
     1
 40
-0.6
176
     1
 41
30.0
176
     1
 62
     5
 63
     7
421
 16777215
176
     1
 74
     1
176
     1
 91
        4
176
     1
 64
     7
176
     1
 65
   257
176
     1
 75
     1
176
     1
175
     1
176
     1
 42
1.0
176
     1
 92
        0
176
     1
 66
   257
176
     1
 43
1.0
176
     1
 76
     1
176
     1
 77
     6
176
     1
 78
     2
176
     1
 67
     7
176
     1
 79
     5
176
     1
170
     0
176
     1
171
     0
176
     1
290
     0
176
     1
 93
       13
176
     1
 44
0.0
176
     1
173
     0
176
     1
  0
VISUALSTYLE
  5
2D
102
{ACAD_REACTORS
330
2A
102
}
330
2A
100
AcDbVisualStyle
  2
Gouraud
 70
     2
177
     2
291
     1
 71
     2
176
     1
 72
     2
176
     1
 73
     1
176
     1
 90
        2
176
     1
 40
-0.6
176
     1
 41
30.0
176
     1
 62
     5
 63
     7
421
 16777215
176
     1
 74
     0
176
     1
 91
        4
176
     1
 64
     7
176
     1
 65
   257
176
     1
 75
     1
176
     1
175
     1
176
     1
 42
1.0
176
     1
 92
        0
176
     1
 66
     7
176
     1
 43
1.0
176
     1
 76
     1
176
     1
 77
     6
176
     1
 78
     2
176
     1
 67
     7
176
     1
 79
     5
176
     1
170
     0
176
     1
171
     0
176
     1
290
     0
176
     1
 93
       13
176
     1
 44
0.0
176
     1
173
     0
176
     1
  0
VISUALSTYLE
  5
2E
102
{ACAD_REACTORS
330
2A
102
}
330
2A
100
AcDbVisualStyle
  2
GouraudWithEdges
 70
     3
177
     2
291
     1
 71
     2
176
     1
 72
     2
176
     1
 73
     1
176
     1
 90
        2
176
     1
 40
-0.6
176
     1
 41
30.0
176
     1
 62
     5
 63
     7
421
 16777215
176
     1
 74
     1
176
     1
 91
        4
176
     1
 64
     7
176
     1
 65
   257
176
     1
 75
     1
176
     1
175
     1
176
     1
 42
1.0
176
     1
 92
        0
176
     1
 66
   257
176
     1
 43
1.0
176
     1
 76
     1
176
     1
 77
     6
176
     1
 78
     2
176
     1
 67
     7
176
     1
 79
     5
176
     1
170
     0
176
     1
171
     0
176
     1
290
     0
176
     1
 93
       13
176
     1
 44
0.0
176
     1
173
     0
176
     1
  0
VISUALSTYLE
  5
38
102
{ACAD_REACTORS
330
2A
102
}
330
2A
100
AcDbVisualStyle
  2
Linepattern
 70
    14
177
     2
291
     1
 71
     2
176
     1
 72
     2
176
     1
 73
     0
176
     1
 90
        0
176
     1
 40
-0.6
176
     1
 41
-30.0
176
     1
 62
     5
 63
     7
421
 16777215
176
     1
 74
     1
176
     1
 91
        4
176
     1
 64
     7
176
     1
 65
   257
176
     1
 75
     7
176
     1
175
     7
176
     1
 42
1.0
176
     1
 92
        8
176
     1
 66
     7
176
     1
 43
1.0
176
     1
 76
     1
176
     1
 77
     6
176
     1
 78
     2
176
     1
 67
     7
176
     1
 79
     5
176
     1
170
     0
176
     1
171
     0
176
     1
290
     0
176
     1
 93
        1
176
     1
 44
0.0
176
     1
173
     0
176
     1
  0
VISUALSTYLE
  5
33
102
{ACAD_REACTORS
330
2A
102
}
330
2A
100
AcDbVisualStyle
  2
Realistic
 70
     8
177
     2
291
     0
 71
     2
176
     1
 72
     2
176
     1
 73
     0
176
     1
 90
        0
176
     1
 40
-0.6
176
     1
 41
-30.0
176
     1
 62
     5
 63
     7
421
 16777215
176
     1
 74
     1
176
     1
 91
        0
176
     1
 64
     7
176
     1
 65
   257
176
     1
 75
     1
176
     1
175
     1
176
     1
 42
1.0
176
     1
 92
        8
176
     1
 66
     8
424
  7895160
176
     1
 43
1.0
176
     1
 76
     1
176
     1
 77
     6
176
     1
 78
     2
176
     1
 67
     7
176
     1
 79
     5
176
     1
170
     0
176
     1
171
     0
176
     1
290
     0
176
     1
 93
       13
176
     1
 44
0.0
176
     1
173
     0
176
     1
  0
VISUALSTYLE
  5
37
102
{ACAD_REACTORS
330
2A
102
}
330
2A
100
AcDbVisualStyle
  2
Thicken
 70
    13
177
     2
291
     1
 71
     2
176
     1
 72
     2
176
     1
 73
     0
176
     1
 90
        0
176
     1
 40
-0.6
176
     1
 41
-30.0
176
     1
 62
     5
 63
     7
421
 16777215
176
     1
 74
     1
176
     1
 91
        4
176
     1
 64
     7
176
     1
 65
   257
176
     1
 75
     1
176
     1
175
     1
176
     1
 42
1.0
176
     1
 92
       12
176
     1
 66
     7
176
     1
 43
1.0
176
     1
 76
     1
176
     1
 77
     6
176
     1
 78
     2
176
     1
 67
     7
176
     1
 79
     5
176
     1
170
     0
176
     1
171
     0
176
     1
290
     0
176
     1
 93
        1
176
     1
 44
0.0
176
     1
173
     0
176
     1
  0
ENDSEC
  0
EOF
