  0
SECTION
  2
HEADER
  9
$ACADVER
  1
AC1024
  9
$ACADMAINTVER
 70
     6
  9
$DWGCODEPAGE
  3
UNDEFINED
  9
$INSBASE
 10
0.0
 20
0.0
 30
0.0
  9
$EXTMIN
 10
1.000000000000000E+20
 20
1.000000000000000E+20
 30
1.000000000000000E+20
  9
$EXTMAX
 10
-1.000000000000000E+20
 20
-1.000000000000000E+20
 30
-1.000000000000000E+20
  9
$LIMMIN
 10
0.0
 20
0.0
  9
$LIMMAX
 10
12.0
 20
9.0
  9
$ORTHOMODE
 70
     0
  9
$REGENMODE
 70
     1
  9
$FILLMODE
 70
     1
  9
$QTEXTMODE
 70
     0
  9
$MIRRTEXT
 70
     1
  9
$LTSCALE
 40
1.0
  9
$ATTMODE
 70
     1
  9
$TEXTSIZE
 40
0.2
  9
$TRACEWID
 40
0.05
  9
$TEXTSTYLE
  7
Standard
  9
$CLAYER
  8
0
  9
$CELTYPE
  6
ByLayer
  9
$CECOLOR
 62
   256
  9
$CELTSCALE
 40
1.0
  9
$DISPSILH
 70
     0
  9
$DIMSCALE
 40
1.0
  9
$DIMASZ
 40
0.18
  9
$DIMEXO
 40
0.0625
  9
$DIMDLI
 40
0.38
  9
$DIMRND
 40
0.0
  9
$DIMDLE
 40
0.0
  9
$DIMEXE
 40
0.18
  9
$DIMTP
 40
0.0
  9
$DIMTM
 40
0.0
  9
$DIMTXT
 40
0.18
  9
$DIMCEN
 40
0.09
  9
$DIMTSZ
 40
0.0
  9
$DIMTOL
 70
     0
  9
$DIMLIM
 70
     0
  9
$DIMTIH
 70
     1
  9
$DIMTOH
 70
     1
  9
$DIMSE1
 70
     0
  9
$DIMSE2
 70
     0
  9
$DIMTAD
 70
     0
  9
$DIMZIN
 70
     0
  9
$DIMBLK
  1

  9
$DIMASO
 70
     1
  9
$DIMSHO
 70
     1
  9
$DIMPOST
  1

  9
$DIMAPOST
  1

  9
$DIMALT
 70
     0
  9
$DIMALTD
 70
     2
  9
$DIMALTF
 40
25.4
  9
$DIMLFAC
 40
1.0
  9
$DIMTOFL
 70
     0
  9
$DIMTVP
 40
0.0
  9
$DIMTIX
 70
     0
  9
$DIMSOXD
 70
     0
  9
$DIMSAH
 70
     0
  9
$DIMBLK1
  1

  9
$DIMBLK2
  1

  9
$DIMSTYLE
  2
Standard
  9
$DIMCLRD
 70
     0
  9
$DIMCLRE
 70
     0
  9
$DIMCLRT
 70
     0
  9
$DIMTFAC
 40
1.0
  9
$DIMGAP
 40
0.09
  9
$DIMJUST
 70
     0
  9
$DIMSD1
 70
     0
  9
$DIMSD2
 70
     0
  9
$DIMTOLJ
 70
     1
  9
$DIMTZIN
 70
     0
  9
$DIMALTZ
 70
     0
  9
$DIMALTTZ
 70
     0
  9
$DIMUPT
 70
     0
  9
$DIMDEC
 70
     4
  9
$DIMTDEC
 70
     4
  9
$DIMALTU
 70
     2
  9
$DIMALTTD
 70
     2
  9
$DIMTXSTY
  7
Standard
  9
$DIMAUNIT
 70
     0
  9
$DIMADEC
 70
     0
  9
$DIMALTRND
 40
0.0
  9
$DIMAZIN
 70
     0
  9
$DIMDSEP
 70
    46
  9
$DIMATFIT
 70
     3
  9
$DIMFRAC
 70
     0
  9
$DIMLDRBLK
  1

  9
$DIMLUNIT
 70
     2
  9
$DIMLWD
 70
    -2
  9
$DIMLWE
 70
    -2
  9
$DIMTMOVE
 70
     0
  9
$DIMFXL
 40
1.0
  9
$DIMFXLON
 70
     0
  9
$DIMJOGANG
 40
0.7853981633974483
  9
$DIMTFILL
 70
     0
  9
$DIMTFILLCLR
 70
     0
  9
$DIMARCSYM
 70
     0
  9
$DIMLTYPE
  6

  9
$DIMLTEX1
  6

  9
$DIMLTEX2
  6

  9
$DIMTXTDIRECTION
 70
     0
  9
$LUNITS
 70
     2
  9
$LUPREC
 70
     4
  9
$SKETCHINC
 40
0.1
  9
$FILLETRAD
 40
0.5
  9
$AUNITS
 70
     0
  9
$AUPREC
 70
     0
  9
$MENU
  1
.
  9
$ELEVATION
 40
0.0
  9
$PELEVATION
 40
0.0
  9
$THICKNESS
 40
0.0
  9
$LIMCHECK
 70
     0
  9
$CHAMFERA
 40
0.5
  9
$CHAMFERB
 40
0.5
  9
$CHAMFERC
 40
1.0
  9
$CHAMFERD
 40
0.0
  9
$SKPOLY
 70
     0
  9
$TDCREATE
 40
2457917.622615729
  9
$TDUCREATE
 40
2457917.247615741
  9
$TDUPDATE
 40
2457917.622615729
  9
$TDUUPDATE
 40
2457917.247615741
  9
$TDINDWG
 40
0.0000000116
  9
$TDUSRTIMER
 40
0.0000000116
  9
$USRTIMER
 70
     1
  9
$ANGBASE
 50
0.0
  9
$ANGDIR
 70
     0
  9
$PDMODE
 70
     0
  9
$PDSIZE
 40
0.0
  9
$PLINEWID
 40
0.0
  9
$SPLFRAME
 70
     0
  9
$SPLINETYPE
 70
     6
  9
$SPLINESEGS
 70
     8
  9
$HANDSEED
  5
D3
  9
$SURFTAB1
 70
     6
  9
$SURFTAB2
 70
     6
  9
$SURFTYPE
 70
     6
  9
$SURFU
 70
     6
  9
$SURFV
 70
     6
  9
$UCSBASE
  2

  9
$UCSNAME
  2

  9
$UCSORG
 10
0.0
 20
0.0
 30
0.0
  9
$UCSXDIR
 10
1.0
 20
0.0
 30
0.0
  9
$UCSYDIR
 10
0.0
 20
1.0
 30
0.0
  9
$UCSORTHOREF
  2

  9
$UCSORTHOVIEW
 70
     0
  9
$UCSORGTOP
 10
0.0
 20
0.0
 30
0.0
  9
$UCSORGBOTTOM
 10
0.0
 20
0.0
 30
0.0
  9
$UCSORGLEFT
 10
0.0
 20
0.0
 30
0.0
  9
$UCSORGRIGHT
 10
0.0
 20
0.0
 30
0.0
  9
$UCSORGFRONT
 10
0.0
 20
0.0
 30
0.0
  9
$UCSORGBACK
 10
0.0
 20
0.0
 30
0.0
  9
$PUCSBASE
  2

  9
$PUCSNAME
  2

  9
$PUCSORG
 10
0.0
 20
0.0
 30
0.0
  9
$PUCSXDIR
 10
1.0
 20
0.0
 30
0.0
  9
$PUCSYDIR
 10
0.0
 20
1.0
 30
0.0
  9
$PUCSORTHOREF
  2

  9
$PUCSORTHOVIEW
 70
     0
  9
$PUCSORGTOP
 10
0.0
 20
0.0
 30
0.0
  9
$PUCSORGBOTTOM
 10
0.0
 20
0.0
 30
0.0
  9
$PUCSORGLEFT
 10
0.0
 20
0.0
 30
0.0
  9
$PUCSORGRIGHT
 10
0.0
 20
0.0
 30
0.0
  9
$PUCSORGFRONT
 10
0.0
 20
0.0
 30
0.0
  9
$PUCSORGBACK
 10
0.0
 20
0.0
 30
0.0
  9
$USERI1
 70
     0
  9
$USERI2
 70
     0
  9
$USERI3
 70
     0
  9
$USERI4
 70
     0
  9
$USERI5
 70
     0
  9
$USERR1
 40
0.0
  9
$USERR2
 40
0.0
  9
$USERR3
 40
0.0
  9
$USERR4
 40
0.0
  9
$USERR5
 40
0.0
  9
$WORLDVIEW
 70
     1
  9
$SHADEDGE
 70
     3
  9
$SHADEDIF
 70
    70
  9
$TILEMODE
 70
     1
  9
$MAXACTVP
 70
    64
  9
$PINSBASE
 10
0.0
 20
0.0
 30
0.0
  9
$PLIMCHECK
 70
     0
  9
$PEXTMIN
 10
1.000000000000000E+20
 20
1.000000000000000E+20
 30
1.000000000000000E+20
  9
$PEXTMAX
 10
-1.000000000000000E+20
 20
-1.000000000000000E+20
 30
-1.000000000000000E+20
  9
$PLIMMIN
 10
0.0
 20
0.0
  9
$PLIMMAX
 10
12.0
 20
9.0
  9
$UNITMODE
 70
     0
  9
$VISRETAIN
 70
     1
  9
$PLINEGEN
 70
     0
  9
$PSLTSCALE
 70
     1
  9
$TREEDEPTH
 70
  3020
  9
$CMLSTYLE
  2
Standard
  9
$CMLJUST
 70
     0
  9
$CMLSCALE
 40
1.0
  9
$PROXYGRAPHICS
 70
     1
  9
$MEASUREMENT
 70
     0
  9
$CELWEIGHT
370
    -1
  9
$ENDCAPS
280
     0
  9
$JOINSTYLE
280
     0
  9
$LWDISPLAY
290
     1
  9
$INSUNITS
 70
     1
  9
$HYPERLINKBASE
  1

  9
$STYLESHEET
  1

  9
$XEDIT
290
     1
  9
$CEPSNTYPE
380
     0
  9
$PSTYLEMODE
290
     1
  9
$FINGERPRINTGUID
  2
{560EACAF-4303-A1C3-4058-45375EAE2C8E}
  9
$VERSIONGUID
  2
{FAEB1C32-E019-11D5-929B-00C0DF256EC4}
  9
$EXTNAMES
290
     1
  9
$PSVPSCALE
 40
0.0
  9
$OLESTARTUP
290
     0
  9
$SORTENTS
280
   127
  9
$INDEXCTL
280
     0
  9
$HIDETEXT
280
     1
  9
$XCLIPFRAME
280
     2
  9
$HALOGAP
280
     0
  9
$OBSCOLOR
 70
   257
  9
$OBSLTYPE
280
     0
  9
$INTERSECTIONDISPLAY
280
     0
  9
$INTERSECTIONCOLOR
 70
   257
  9
$DIMASSOC
280
     2
  9
$PROJECTNAME
  1

  9
$CAMERADISPLAY
290
     0
  9
$LENSLENGTH
 40
50.0
  9
$CAMERAHEIGHT
 40
0.0
  9
$STEPSPERSEC
 40
2.0
  9
$STEPSIZE
 40
6.0
  9
$3DDWFPREC
 40
2.0
  9
$PSOLWIDTH
 40
0.25
  9
$PSOLHEIGHT
 40
4.0
  9
$LOFTANG1
 40
1.570796326794897
  9
$LOFTANG2
 40
1.570796326794897
  9
$LOFTMAG1
 40
0.0
  9
$LOFTMAG2
 40
0.0
  9
$LOFTPARAM
 70
     7
  9
$LOFTNORMALS
280
     1
  9
$LATITUDE
 40
37.795
  9
$LONGITUDE
 40
-122.394
  9
$NORTHDIRECTION
 40
0.0
  9
$TIMEZONE
 70
 -8000
  9
$LIGHTGLYPHDISPLAY
280
     1
  9
$TILEMODELIGHTSYNCH
280
     1
  9
$CMATERIAL
347
3C
  9
$SOLIDHIST
280
     1
  9
$SHOWHIST
280
     1
  9
$DWFFRAME
280
     2
  9
$DGNFRAME
280
     2
  9
$REALWORLDSCALE
290
     1
  9
$INTERFERECOLOR
 62
   256
  9
$CSHADOW
280
     0
  9
$SHADOWPLANELOCATION
 40
0.0
  0
ENDSEC
  0
SECTION
  2
CLASSES
  0
CLASS
  1
ACDBDICTIONARYWDFLT
  2
AcDbDictionaryWithDefault
  3
ObjectDBX Classes
 90
        0
 91
        4
280
     0
281
     0
  0
CLASS
  1
VISUALSTYLE
  2
AcDbVisualStyle
  3
ObjectDBX Classes
 90
     4095
 91
        4
280
     0
281
     0
  0
CLASS
  1
MATERIAL
  2
AcDbMaterial
  3
ObjectDBX Classes
 90
     1153
 91
        4
280
     0
281
     0
  0
CLASS
  1
SUN
  2
AcDbSun
  3
SCENEOE
 90
     1024
 91
        4
280
     0
281
     0
  0
ENDSEC
  0
SECTION
  2
TABLES
  0
TABLE
  2
VPORT
  5
8
330
0
100
AcDbSymbolTable
 70
     1
  0
VPORT
  5
29
330
8
100
AcDbSymbolTableRecord
100
AcDbViewportTableRecord
  2
*Active
 70
     0
 10
0.0
 20
0.0
 11
1.0
 21
1.0
 12
0.0
 22
0.0
 13
0.0
 23
0.0
 14
0.5
 24
0.5
 15
0.5
 25
0.5
 16
0.0
 26
0.0
 36
1.0
 17
91.00082462281999
 27
-128.4993055234307
 37
0.0
 40
256.9986110468615
 41
0.7081814508812795
 42
50.0
 43
0.0
 44
0.0
 50
0.0
 51
0.0
 71
     0
 72
   100
 73
     1
 74
     3
 75
     0
 76
     0
 77
     0
 78
     0
281
     0
 65
     1
110
0.0
120
0.0
130
0.0
111
1.0
121
0.0
131
0.0
112
0.0
122
1.0
132
0.0
 79
     0
146
0.0
 60
     3
 61
     5
292
     1
282
     1
141
0.0
142
0.0
 63
   250
361
3F
  0
ENDTAB
  0
TABLE
  2
LTYPE
  5
5
330
0
100
AcDbSymbolTable
 70
     2
  0
LTYPE
  5
14
330
5
100
AcDbSymbolTableRecord
100
AcDbLinetypeTableRecord
  2
ByBlock
 70
     0
  3

 72
    65
 73
     0
 40
0.0
  0
LTYPE
  5
15
330
5
100
AcDbSymbolTableRecord
100
AcDbLinetypeTableRecord
  2
ByLayer
 70
     0
  3

 72
    65
 73
     0
 40
0.0
  0
LTYPE
  5
16
330
5
100
AcDbSymbolTableRecord
100
AcDbLinetypeTableRecord
  2
Continuous
 70
     0
  3
Solid line
 72
    65
 73
     0
 40
0.0
  0
LTYPE
  5
CF
330
5
100
AcDbSymbolTableRecord
100
AcDbLinetypeTableRecord
  2
AI-Linetype-1
 70
     0
  3
Adobe Illustrator Linetype No. 1
 72
    65
 73
     2
 40
1.411111110758333
 49
0.7055555553791667
 74
     0
 49
-0.7055555553791667
 74
     0
  0
ENDTAB
  0
TABLE
  2
LAYER
  5
2
330
0
100
AcDbSymbolTable
 70
     2
  0
LAYER
  5
10
330
2
100
AcDbSymbolTableRecord
100
AcDbLayerTableRecord
  2
0
 70
     0
 62
     7
  6
Continuous
370
    -3
390
F
347
3E
  0
LAYER
  5
40
330
2
100
AcDbSymbolTableRecord
100
AcDbLayerTableRecord
  2
_U+30EC_U+30A4_U+30E4_U+30FC 1
 70
     0
 62
     7
  6
Continuous
370
    -3
390
F
347
3E
  0
ENDTAB
  0
TABLE
  2
STYLE
  5
3
330
0
100
AcDbSymbolTable
 70
     1
  0
STYLE
  5
11
330
3
100
AcDbSymbolTableRecord
100
AcDbTextStyleTableRecord
  2
Standard
 70
     0
 40
0.0
 41
1.0
 50
0.0
 71
     0
 42
0.2
  3
txt
  4

  0
ENDTAB
  0
TABLE
  2
VIEW
  5
6
330
0
100
AcDbSymbolTable
 70
     0
  0
ENDTAB
  0
TABLE
  2
UCS
  5
7
330
0
100
AcDbSymbolTable
 70
     0
  0
ENDTAB
  0
TABLE
  2
APPID
  5
9
330
0
100
AcDbSymbolTable
 70
     1
  0
APPID
  5
12
330
9
100
AcDbSymbolTableRecord
100
AcDbRegAppTableRecord
  2
ACAD
 70
     0
  0
ENDTAB
  0
TABLE
  2
DIMSTYLE
  5
A
330
0
100
AcDbSymbolTable
 70
     1
100
AcDbDimStyleTable
  0
DIMSTYLE
105
27
330
A
100
AcDbSymbolTableRecord
100
AcDbDimStyleTableRecord
  2
Standard
 70
     0
178
     0
340
11
  0
ENDTAB
  0
TABLE
  2
BLOCK_RECORD
  5
1
330
0
100
AcDbSymbolTable
 70
     6
  0
BLOCK_RECORD
  5
1F
330
1
100
AcDbSymbolTableRecord
100
AcDbBlockTableRecord
  2
*Model_Space
340
22
 70
     0
280
     1
281
     0
  0
BLOCK_RECORD
  5
1B
330
1
100
AcDbSymbolTableRecord
100
AcDbBlockTableRecord
  2
*Paper_Space
340
1E
 70
     0
280
     1
281
     0
  0
BLOCK_RECORD
  5
23
330
1
100
AcDbSymbolTableRecord
100
AcDbBlockTableRecord
  2
*Paper_Space0
340
26
 70
     0
280
     1
281
     0
  0
BLOCK_RECORD
  5
63
330
1
100
AcDbSymbolTableRecord
100
AcDbBlockTableRecord
  2
block 2
340
0
102
{BLKREFS
331
64
102
}
 70
     0
280
     1
281
     0
  0
BLOCK_RECORD
  5
83
330
1
100
AcDbSymbolTableRecord
100
AcDbBlockTableRecord
  2
block 3
340
0
102
{BLKREFS
331
84
102
}
 70
     0
280
     1
281
     0
  0
BLOCK_RECORD
  5
A7
330
1
100
AcDbSymbolTableRecord
100
AcDbBlockTableRecord
  2
block 4
340
0
102
{BLKREFS
331
A8
102
}
 70
     0
280
     1
281
     0
  0
BLOCK_RECORD
  5
AF
330
1
100
AcDbSymbolTableRecord
100
AcDbBlockTableRecord
  2
block 5
340
0
102
{BLKREFS
331
B0
102
}
 70
     0
280
     1
281
     0
  0
BLOCK_RECORD
  5
C2
330
1
100
AcDbSymbolTableRecord
100
AcDbBlockTableRecord
  2
block 6
340
0
102
{BLKREFS
331
C3
102
}
 70
     0
280
     1
281
     0
  0
ENDTAB
  0
ENDSEC
  0
SECTION
  2
BLOCKS
  0
BLOCK
  5
20
330
1F
100
AcDbEntity
  8
0
100
AcDbBlockBegin
  2
*Model_Space
 70
     0
 10
0.0
 20
0.0
 30
0.0
  3
*Model_Space
  1

  0
ENDBLK
  5
21
330
1F
100
AcDbEntity
  8
0
100
AcDbBlockEnd
  0
BLOCK
  5
1C
330
1B
100
AcDbEntity
 67
     1
  8
0
100
AcDbBlockBegin
  2
*Paper_Space
 70
     0
 10
0.0
 20
0.0
 30
0.0
  3
*Paper_Space
  1

  0
ENDBLK
  5
1D
330
1B
100
AcDbEntity
 67
     1
  8
0
100
AcDbBlockEnd
  0
BLOCK
  5
24
330
23
100
AcDbEntity
  8
0
100
AcDbBlockBegin
  2
*Paper_Space0
 70
     0
 10
0.0
 20
0.0
 30
0.0
  3
*Paper_Space0
  1

  0
ENDBLK
  5
25
330
23
100
AcDbEntity
  8
0
100
AcDbBlockEnd
  0
BLOCK
  5
65
330
63
100
AcDbEntity
  8
0
100
AcDbBlockBegin
  2
block 2
 70
     0
 10
0.0
 20
0.0
 30
0.0
  3
block 2
  1

  0
SPLINE
  5
67
330
63
100
AcDbEntity
  8
_U+30EC_U+30A4_U+30E4_U+30FC 1
370
     0
100
AcDbSpline
210
0.0
220
0.0
230
1.0
 70
    11
 71
     3
 72
    26
 73
    22
 74
     0
 42
0.0000000001
 43
0.0000000001
 12
1.0
 22
0.0
 32
0.0
 13
1.0
 23
0.0
 33
0.0
 40
0.0
 40
0.0
 40
0.0
 40
0.0
 40
1.0
 40
1.0
 40
1.0
 40
2.0
 40
2.0
 40
2.0
 40
3.0
 40
3.0
 40
3.0
 40
4.0
 40
4.0
 40
4.0
 40
5.0
 40
5.0
 40
5.0
 40
6.0
 40
6.0
 40
6.0
 40
7.0
 40
7.0
 40
7.0
 40
7.0
 10
90.38535289624048
 20
-140.968484122744
 30
0.0
 10
90.38535289624048
 20
-140.968484122744
 30
0.0
 10
90.38535289624048
 20
-139.8639865101729
 30
0.0
 10
90.38535289624048
 20
-139.8639865101729
 30
0.0
 10
90.38535289624048
 20
-139.8639865101729
 30
0.0
 10
90.0325751185509
 20
-139.8639865101729
 30
0.0
 10
90.0325751185509
 20
-139.8639865101729
 30
0.0
 10
90.0325751185509
 20
-139.8639865101729
 30
0.0
 10
90.0325751185509
 20
-139.7158474043072
 30
0.0
 10
90.0325751185509
 20
-139.7158474043072
 30
0.0
 10
90.38759220830589
 20
-139.7010334937206
 30
0.0
 10
90.43720158329349
 20
-139.5384249868168
 30
0.0
 10
90.46889646175778
 20
-139.4240478167065
 30
0.0
 10
90.46889646175778
 20
-139.4240478167065
 30
0.0
 10
90.62495928723959
 20
-139.4240478167065
 30
0.0
 10
90.62495928723959
 20
-139.4240478167065
 30
0.0
 10
90.62495928723959
 20
-139.4240478167065
 30
0.0
 10
90.62495928723959
 20
-140.968484122744
 30
0.0
 10
90.62495928723959
 20
-140.968484122744
 30
0.0
 10
90.62495928723959
 20
-140.968484122744
 30
0.0
 10
90.38535289624048
 20
-140.968484122744
 30
0.0
 10
90.38535289624048
 20
-140.968484122744
 30
0.0
  0
HATCH
  5
68
330
63
100
AcDbEntity
  8
_U+30EC_U+30A4_U+30E4_U+30FC 1
 62
     7
420
 16777215
100
AcDbHatch
 10
0.0
 20
0.0
 30
0.0
210
0.0
220
0.0
230
1.0
  2
SOLID
 70
     1
 71
     0
 91
        1
 92
        1
 93
        1
 72
     4
 94
        3
 73
     0
 74
     1
 95
       26
 96
       22
 40
0.0
 40
0.0
 40
0.0
 40
0.0
 40
1.0
 40
1.0
 40
1.0
 40
2.0
 40
2.0
 40
2.0
 40
3.0
 40
3.0
 40
3.0
 40
4.0
 40
4.0
 40
4.0
 40
5.0
 40
5.0
 40
5.0
 40
6.0
 40
6.0
 40
6.0
 40
7.0
 40
7.0
 40
7.0
 40
7.0
 10
90.38535289624048
 20
-140.968484122744
 10
90.38535289624048
 20
-140.968484122744
 10
90.38535289624048
 20
-139.8639865101729
 10
90.38535289624048
 20
-139.8639865101729
 10
90.38535289624048
 20
-139.8639865101729
 10
90.0325751185509
 20
-139.8639865101729
 10
90.0325751185509
 20
-139.8639865101729
 10
90.0325751185509
 20
-139.8639865101729
 10
90.0325751185509
 20
-139.7158474043072
 10
90.0325751185509
 20
-139.7158474043072
 10
90.38759220830589
 20
-139.7010334937206
 10
90.43720158329349
 20
-139.5384249868168
 10
90.46889646175778
 20
-139.4240478167065
 10
90.46889646175778
 20
-139.4240478167065
 10
90.62495928723959
 20
-139.4240478167065
 10
90.62495928723959
 20
-139.4240478167065
 10
90.62495928723959
 20
-139.4240478167065
 10
90.62495928723959
 20
-140.968484122744
 10
90.62495928723959
 20
-140.968484122744
 10
90.62495928723959
 20
-140.968484122744
 10
90.38535289624048
 20
-140.968484122744
 10
90.38535289624048
 20
-140.968484122744
 97
        0
 97
        0
 75
     2
 76
     1
 98
        0
  0
SPLINE
  5
69
330
63
100
AcDbEntity
  8
_U+30EC_U+30A4_U+30E4_U+30FC 1
370
     0
100
AcDbSpline
210
0.0
220
0.0
230
1.0
 70
    11
 71
     3
 72
    32
 73
    28
 74
     0
 42
0.0000000001
 43
0.0000000001
 12
1.0
 22
0.0
 32
0.0
 13
1.0
 23
0.0
 33
0.0
 40
0.0
 40
0.0
 40
0.0
 40
0.0
 40
1.0
 40
1.0
 40
1.0
 40
2.0
 40
2.0
 40
2.0
 40
3.0
 40
3.0
 40
3.0
 40
4.0
 40
4.0
 40
4.0
 40
5.0
 40
5.0
 40
5.0
 40
6.0
 40
6.0
 40
6.0
 40
7.0
 40
7.0
 40
7.0
 40
8.0
 40
8.0
 40
8.0
 40
9.0
 40
9.0
 40
9.0
 40
9.0
 10
91.64987519410143
 20
-141.0191270263772
 30
0.0
 10
91.46452905699498
 20
-141.0191270263772
 30
0.0
 10
91.2021850357932
 20
-140.9491915880266
 30
0.0
 10
91.16153290906726
 20
-140.6170843832485
 30
0.0
 10
91.16153290906726
 20
-140.6170843832485
 30
0.0
 10
91.38977048496506
 20
-140.6170843832485
 30
0.0
 10
91.38977048496506
 20
-140.6170843832485
 30
0.0
 10
91.40113930006639
 20
-140.6763400255948
 30
0.0
 10
91.43490123582184
 20
-140.8244791314605
 30
0.0
 10
91.65194225139257
 20
-140.8244791314605
 30
0.0
 10
91.9640679023562
 20
-140.8244791314605
 30
0.0
 10
92.00472002908215
 20
-140.4944389839736
 30
0.0
 10
92.01850041102315
 20
-140.2891112930527
 30
0.0
 10
91.92100420879059
 20
-140.3697265274076
 30
0.0
 10
91.84865720360034
 20
-140.4269151124627
 30
0.0
 10
91.65435381823225
 20
-140.4269151124627
 30
0.0
 10
91.46211749015531
 20
-140.4269151124627
 30
0.0
 10
91.1387952788646
 20
-140.3211506810655
 30
0.0
 10
91.1387952788646
 20
-139.9149739233546
 30
0.0
 10
91.1387952788646
 20
-139.5952690623234
 30
0.0
 10
91.35135767030452
 20
-139.3754719703645
 30
0.0
 10
91.69052732082737
 20
-139.3754719703645
 30
0.0
 10
92.24002005072472
 20
-139.3754719703645
 30
0.0
 10
92.25104435627752
 20
-139.9297878339412
 30
0.0
 10
92.25104435627752
 20
-140.1433837540267
 30
0.0
 10
92.25104435627752
 20
-140.3738606419899
 30
0.0
 10
92.23071829291455
 20
-141.0191270263772
 30
0.0
 10
91.64987519410143
 20
-141.0191270263772
 30
0.0
  0
SPLINE
  5
6A
330
63
100
AcDbEntity
  8
_U+30EC_U+30A4_U+30E4_U+30FC 1
370
     0
100
AcDbSpline
210
0.0
220
0.0
230
1.0
 70
    11
 71
     3
 72
    17
 73
    13
 74
     0
 42
0.0000000001
 43
0.0000000001
 12
1.0
 22
0.0
 32
0.0
 13
1.0
 23
0.0
 33
0.0
 40
0.0
 40
0.0
 40
0.0
 40
0.0
 40
1.0
 40
1.0
 40
1.0
 40
2.0
 40
2.0
 40
2.0
 40
3.0
 40
3.0
 40
3.0
 40
4.0
 40
4.0
 40
4.0
 40
4.0
 10
91.69293888766704
 20
-139.5677082984414
 30
0.0
 10
91.56615937380985
 20
-139.5677082984414
 30
0.0
 10
91.37840166986373
 20
-139.6248968834965
 30
0.0
 10
91.37840166986373
 20
-139.9104952992238
 30
0.0
 10
91.37840166986373
 20
-140.1368380726047
 30
0.0
 10
91.52757430437505
 20
-140.2322672175461
 30
0.0
 10
91.67226831475554
 20
-140.2322672175461
 30
0.0
 10
91.95269908725489
 20
-140.2322672175461
 30
0.0
 10
91.99335121398083
 20
-140.0228054120429
 30
0.0
 10
91.99335121398083
 20
-139.9063611846415
 30
0.0
 10
91.99335121398083
 20
-139.7306613148937
 30
0.0
 10
91.89172089716597
 20
-139.5677082984414
 30
0.0
 10
91.69293888766704
 20
-139.5677082984414
 30
0.0
  0
HATCH
  5
6B
330
63
100
AcDbEntity
  8
_U+30EC_U+30A4_U+30E4_U+30FC 1
 62
     7
420
 16777215
100
AcDbHatch
 10
0.0
 20
0.0
 30
0.0
210
0.0
220
0.0
230
1.0
  2
SOLID
 70
     1
 71
     0
 91
        2
 92
        1
 93
        1
 72
     4
 94
        3
 73
     0
 74
     1
 95
       32
 96
       28
 40
0.0
 40
0.0
 40
0.0
 40
0.0
 40
1.0
 40
1.0
 40
1.0
 40
2.0
 40
2.0
 40
2.0
 40
3.0
 40
3.0
 40
3.0
 40
4.0
 40
4.0
 40
4.0
 40
5.0
 40
5.0
 40
5.0
 40
6.0
 40
6.0
 40
6.0
 40
7.0
 40
7.0
 40
7.0
 40
8.0
 40
8.0
 40
8.0
 40
9.0
 40
9.0
 40
9.0
 40
9.0
 10
91.64987519410143
 20
-141.0191270263772
 10
91.46452905699498
 20
-141.0191270263772
 10
91.2021850357932
 20
-140.9491915880266
 10
91.16153290906726
 20
-140.6170843832485
 10
91.16153290906726
 20
-140.6170843832485
 10
91.38977048496506
 20
-140.6170843832485
 10
91.38977048496506
 20
-140.6170843832485
 10
91.40113930006639
 20
-140.6763400255948
 10
91.43490123582184
 20
-140.8244791314605
 10
91.65194225139257
 20
-140.8244791314605
 10
91.9640679023562
 20
-140.8244791314605
 10
92.00472002908215
 20
-140.4944389839736
 10
92.01850041102315
 20
-140.2891112930527
 10
91.92100420879059
 20
-140.3697265274076
 10
91.84865720360034
 20
-140.4269151124627
 10
91.65435381823225
 20
-140.4269151124627
 10
91.46211749015531
 20
-140.4269151124627
 10
91.1387952788646
 20
-140.3211506810655
 10
91.1387952788646
 20
-139.9149739233546
 10
91.1387952788646
 20
-139.5952690623234
 10
91.35135767030452
 20
-139.3754719703645
 10
91.69052732082737
 20
-139.3754719703645
 10
92.24002005072472
 20
-139.3754719703645
 10
92.25104435627752
 20
-139.9297878339412
 10
92.25104435627752
 20
-140.1433837540267
 10
92.25104435627752
 20
-140.3738606419899
 10
92.23071829291455
 20
-141.0191270263772
 10
91.64987519410143
 20
-141.0191270263772
 97
        0
 97
        0
 92
        1
 93
        1
 72
     4
 94
        3
 73
     0
 74
     1
 95
       17
 96
       13
 40
0.0
 40
0.0
 40
0.0
 40
0.0
 40
1.0
 40
1.0
 40
1.0
 40
2.0
 40
2.0
 40
2.0
 40
3.0
 40
3.0
 40
3.0
 40
4.0
 40
4.0
 40
4.0
 40
4.0
 10
91.69293888766704
 20
-139.5677082984414
 10
91.56615937380985
 20
-139.5677082984414
 10
91.37840166986373
 20
-139.6248968834965
 10
91.37840166986373
 20
-139.9104952992238
 10
91.37840166986373
 20
-140.1368380726047
 10
91.52757430437505
 20
-140.2322672175461
 10
91.67226831475554
 20
-140.2322672175461
 10
91.95269908725489
 20
-140.2322672175461
 10
91.99335121398083
 20
-140.0228054120429
 10
91.99335121398083
 20
-139.9063611846415
 10
91.99335121398083
 20
-139.7306613148937
 10
91.89172089716597
 20
-139.5677082984414
 10
91.69293888766704
 20
-139.5677082984414
 97
        0
 97
        0
 75
     2
 76
     1
 98
        0
  0
POLYLINE
  5
6C
330
63
100
AcDbEntity
  8
_U+30EC_U+30A4_U+30E4_U+30FC 1
370
     0
100
AcDb2dPolyline
 66
     1
 10
0.0
 20
0.0
 30
0.0
  0
VERTEX
  5
6D
330
6C
100
AcDbEntity
  8
_U+30EC_U+30A4_U+30E4_U+30FC 1
370
     0
100
AcDbVertex
100
AcDb2dVertex
 10
92.4825547728863
 20
-140.968484122744
 30
0.0
  0
VERTEX
  5
6E
330
6C
100
AcDbEntity
  8
_U+30EC_U+30A4_U+30E4_U+30FC 1
370
     0
100
AcDbVertex
100
AcDb2dVertex
 10
92.4825547728863
 20
-140.7166476427722
 30
0.0
  0
VERTEX
  5
6F
330
6C
100
AcDbEntity
  8
_U+30EC_U+30A4_U+30E4_U+30FC 1
370
     0
100
AcDbVertex
100
AcDb2dVertex
 10
92.75161673028433
 20
-140.7166476427722
 30
0.0
  0
VERTEX
  5
70
330
6C
100
AcDbEntity
  8
_U+30EC_U+30A4_U+30E4_U+30FC 1
370
     0
100
AcDbVertex
100
AcDb2dVertex
 10
92.75161673028433
 20
-140.968484122744
 30
0.0
  0
VERTEX
  5
71
330
6C
100
AcDbEntity
  8
_U+30EC_U+30A4_U+30E4_U+30FC 1
370
     0
100
AcDbVertex
100
AcDb2dVertex
 10
92.4825547728863
 20
-140.968484122744
 30
0.0
  0
SEQEND
  5
72
330
6C
100
AcDbEntity
  8
_U+30EC_U+30A4_U+30E4_U+30FC 1
370
     0
  0
HATCH
  5
73
330
63
100
AcDbEntity
  8
_U+30EC_U+30A4_U+30E4_U+30FC 1
 62
     7
420
 16777215
100
AcDbHatch
 10
0.0
 20
0.0
 30
0.0
210
0.0
220
0.0
230
1.0
  2
SOLID
 70
     1
 71
     0
 91
        1
 92
        1
 93
        4
 72
     1
 10
92.4825547728863
 20
-140.968484122744
 11
92.4825547728863
 21
-140.7166476427722
 72
     1
 10
92.4825547728863
 20
-140.7166476427722
 11
92.75161673028433
 21
-140.7166476427722
 72
     1
 10
92.75161673028433
 20
-140.7166476427722
 11
92.75161673028433
 21
-140.968484122744
 72
     1
 10
92.75161673028433
 20
-140.968484122744
 11
92.4825547728863
 21
-140.968484122744
 97
        0
 75
     2
 76
     1
 98
        0
  0
SPLINE
  5
74
330
63
100
AcDbEntity
  8
_U+30EC_U+30A4_U+30E4_U+30FC 1
370
     0
100
AcDbSpline
210
0.0
220
0.0
230
1.0
 70
    11
 71
     3
 72
    53
 73
    49
 74
     0
 42
0.0000000001
 43
0.0000000001
 12
1.0
 22
0.0
 32
0.0
 13
1.0
 23
0.0
 33
0.0
 40
0.0
 40
0.0
 40
0.0
 40
0.0
 40
1.0
 40
1.0
 40
1.0
 40
2.0
 40
2.0
 40
2.0
 40
3.0
 40
3.0
 40
3.0
 40
4.0
 40
4.0
 40
4.0
 40
5.0
 40
5.0
 40
5.0
 40
6.0
 40
6.0
 40
6.0
 40
7.0
 40
7.0
 40
7.0
 40
8.0
 40
8.0
 40
8.0
 40
9.0
 40
9.0
 40
9.0
 40
10.0
 40
10.0
 40
10.0
 40
11.0
 40
11.0
 40
11.0
 40
12.0
 40
12.0
 40
12.0
 40
13.0
 40
13.0
 40
13.0
 40
14.0
 40
14.0
 40
14.0
 40
15.0
 40
15.0
 40
15.0
 40
16.0
 40
16.0
 40
16.0
 40
16.0
 10
93.51849498530093
 20
-141.0191270263772
 30
0.0
 10
93.43477916500936
 20
-141.0191270263772
 30
0.0
 10
93.32625865722399
 20
-141.0022460584995
 30
0.0
 10
93.21773814943863
 20
-140.9388563015708
 30
0.0
 10
93.03239201233218
 20
-140.8286132460429
 30
0.0
 10
93.00965438212954
 20
-140.6976996176033
 30
0.0
 10
92.98932831876657
 20
-140.5895236193665
 30
0.0
 10
92.98932831876657
 20
-140.5895236193665
 30
0.0
 10
93.22669539770027
 20
-140.5895236193665
 30
0.0
 10
93.22669539770027
 20
-140.5895236193665
 30
0.0
 10
93.28560653049804
 20
-140.7886501384139
 30
0.0
 10
93.42099878306837
 20
-140.8182779595871
 30
0.0
 10
93.52056204259209
 20
-140.8182779595871
 30
0.0
 10
93.6697346771034
 20
-140.8182779595871
 30
0.0
 10
93.83268769355573
 20
-140.7187147000634
 30
0.0
 10
93.83268769355573
 20
-140.486170754809
 30
0.0
 10
93.83268769355573
 20
-140.230200160255
 30
0.0
 10
93.64045136547878
 20
-140.1602647219044
 30
0.0
 10
93.51160479433044
 20
-140.1602647219044
 30
0.0
 10
93.47749834902646
 20
-140.1602647219044
 30
0.0
 10
93.32625865722399
 20
-140.1602647219044
 30
0.0
 10
93.2311740218311
 20
-140.2891112930527
 30
0.0
 10
93.2311740218311
 20
-140.2891112930527
 30
0.0
 10
93.04341631788499
 20
-140.2701632678838
 30
0.0
 10
93.04341631788499
 20
-140.2701632678838
 30
0.0
 10
93.04341631788499
 20
-140.2701632678838
 30
0.0
 10
93.17260739858185
 20
-139.4240478167065
 30
0.0
 10
93.17260739858185
 20
-139.4240478167065
 30
0.0
 10
93.17260739858185
 20
-139.4240478167065
 30
0.0
 10
94.00459795826968
 20
-139.4240478167065
 30
0.0
 10
94.00459795826968
 20
-139.4240478167065
 30
0.0
 10
94.00459795826968
 20
-139.4240478167065
 30
0.0
 10
94.00459795826968
 20
-139.6186957116231
 30
0.0
 10
94.00459795826968
 20
-139.6186957116231
 30
0.0
 10
94.00459795826968
 20
-139.6186957116231
 30
0.0
 10
93.34658472058697
 20
-139.6186957116231
 30
0.0
 10
93.34658472058697
 20
-139.6186957116231
 30
0.0
 10
93.34658472058697
 20
-139.6186957116231
 30
0.0
 10
93.27630477268788
 20
-140.0417534372118
 30
0.0
 10
93.27630477268788
 20
-140.0417534372118
 30
0.0
 10
93.34210609645615
 20
-140.0079915014563
 30
0.0
 10
93.43030054087853
 20
-139.9676838842789
 30
0.0
 10
93.55673554518721
 20
-139.9676838842789
 30
0.0
 10
93.8282090694249
 20
-139.9676838842789
 30
0.0
 10
94.08142358759076
 20
-140.1537190404824
 30
0.0
 10
94.08142358759076
 20
-140.4668782200916
 30
0.0
 10
94.08142358759076
 20
-140.7841715142831
 30
0.0
 10
93.84164494181736
 20
-141.0191270263772
 30
0.0
 10
93.51849498530093
 20
-141.0191270263772
 30
0.0
  0
HATCH
  5
75
330
63
100
AcDbEntity
  8
_U+30EC_U+30A4_U+30E4_U+30FC 1
 62
     7
420
 16777215
100
AcDbHatch
 10
0.0
 20
0.0
 30
0.0
210
0.0
220
0.0
230
1.0
  2
SOLID
 70
     1
 71
     0
 91
        1
 92
        1
 93
        1
 72
     4
 94
        3
 73
     0
 74
     1
 95
       53
 96
       49
 40
0.0
 40
0.0
 40
0.0
 40
0.0
 40
1.0
 40
1.0
 40
1.0
 40
2.0
 40
2.0
 40
2.0
 40
3.0
 40
3.0
 40
3.0
 40
4.0
 40
4.0
 40
4.0
 40
5.0
 40
5.0
 40
5.0
 40
6.0
 40
6.0
 40
6.0
 40
7.0
 40
7.0
 40
7.0
 40
8.0
 40
8.0
 40
8.0
 40
9.0
 40
9.0
 40
9.0
 40
10.0
 40
10.0
 40
10.0
 40
11.0
 40
11.0
 40
11.0
 40
12.0
 40
12.0
 40
12.0
 40
13.0
 40
13.0
 40
13.0
 40
14.0
 40
14.0
 40
14.0
 40
15.0
 40
15.0
 40
15.0
 40
16.0
 40
16.0
 40
16.0
 40
16.0
 10
93.51849498530093
 20
-141.0191270263772
 10
93.43477916500936
 20
-141.0191270263772
 10
93.32625865722399
 20
-141.0022460584995
 10
93.21773814943863
 20
-140.9388563015708
 10
93.03239201233218
 20
-140.8286132460429
 10
93.00965438212954
 20
-140.6976996176033
 10
92.98932831876657
 20
-140.5895236193665
 10
92.98932831876657
 20
-140.5895236193665
 10
93.22669539770027
 20
-140.5895236193665
 10
93.22669539770027
 20
-140.5895236193665
 10
93.28560653049804
 20
-140.7886501384139
 10
93.42099878306837
 20
-140.8182779595871
 10
93.52056204259209
 20
-140.8182779595871
 10
93.6697346771034
 20
-140.8182779595871
 10
93.83268769355573
 20
-140.7187147000634
 10
93.83268769355573
 20
-140.486170754809
 10
93.83268769355573
 20
-140.230200160255
 10
93.64045136547878
 20
-140.1602647219044
 10
93.51160479433044
 20
-140.1602647219044
 10
93.47749834902646
 20
-140.1602647219044
 10
93.32625865722399
 20
-140.1602647219044
 10
93.2311740218311
 20
-140.2891112930527
 10
93.2311740218311
 20
-140.2891112930527
 10
93.04341631788499
 20
-140.2701632678838
 10
93.04341631788499
 20
-140.2701632678838
 10
93.04341631788499
 20
-140.2701632678838
 10
93.17260739858185
 20
-139.4240478167065
 10
93.17260739858185
 20
-139.4240478167065
 10
93.17260739858185
 20
-139.4240478167065
 10
94.00459795826968
 20
-139.4240478167065
 10
94.00459795826968
 20
-139.4240478167065
 10
94.00459795826968
 20
-139.4240478167065
 10
94.00459795826968
 20
-139.6186957116231
 10
94.00459795826968
 20
-139.6186957116231
 10
94.00459795826968
 20
-139.6186957116231
 10
93.34658472058697
 20
-139.6186957116231
 10
93.34658472058697
 20
-139.6186957116231
 10
93.34658472058697
 20
-139.6186957116231
 10
93.27630477268788
 20
-140.0417534372118
 10
93.27630477268788
 20
-140.0417534372118
 10
93.34210609645615
 20
-140.0079915014563
 10
93.43030054087853
 20
-139.9676838842789
 10
93.55673554518721
 20
-139.9676838842789
 10
93.8282090694249
 20
-139.9676838842789
 10
94.08142358759076
 20
-140.1537190404824
 10
94.08142358759076
 20
-140.4668782200916
 10
94.08142358759076
 20
-140.7841715142831
 10
93.84164494181736
 20
-141.0191270263772
 10
93.51849498530093
 20
-141.0191270263772
 97
        0
 97
        0
 75
     2
 76
     1
 98
        0
  0
ENDBLK
  5
66
330
63
100
AcDbEntity
  8
0
100
AcDbBlockEnd
  0
BLOCK
  5
85
330
83
100
AcDbEntity
  8
0
100
AcDbBlockBegin
  2
block 3
 70
     0
 10
0.0
 20
0.0
 30
0.0
  3
block 3
  1

  0
SPLINE
  5
87
330
83
100
AcDbEntity
  8
_U+30EC_U+30A4_U+30E4_U+30FC 1
370
     0
100
AcDbSpline
210
0.0
220
0.0
230
1.0
 70
    11
 71
     3
 72
    26
 73
    22
 74
     0
 42
0.0000000001
 43
0.0000000001
 12
1.0
 22
0.0
 32
0.0
 13
1.0
 23
0.0
 33
0.0
 40
0.0
 40
0.0
 40
0.0
 40
0.0
 40
1.0
 40
1.0
 40
1.0
 40
2.0
 40
2.0
 40
2.0
 40
3.0
 40
3.0
 40
3.0
 40
4.0
 40
4.0
 40
4.0
 40
5.0
 40
5.0
 40
5.0
 40
6.0
 40
6.0
 40
6.0
 40
7.0
 40
7.0
 40
7.0
 40
7.0
 10
77.99902884334747
 20
-128.1935532991148
 30
0.0
 10
77.99902884334747
 20
-128.1935532991148
 30
0.0
 10
76.89470348555064
 20
-128.1935532991148
 30
0.0
 10
76.89470348555064
 20
-128.1935532991148
 30
0.0
 10
76.89470348555064
 20
-128.1935532991148
 30
0.0
 10
76.89470348555064
 20
-128.5463310768044
 30
0.0
 10
76.89470348555064
 20
-128.5463310768044
 30
0.0
 10
76.89470348555064
 20
-128.5463310768044
 30
0.0
 10
76.74673663445915
 20
-128.5463310768044
 30
0.0
 10
76.74673663445915
 20
-128.5463310768044
 30
0.0
 10
76.73192272387257
 20
-128.1913139870494
 30
0.0
 10
76.56896970742027
 20
-128.1417046120618
 30
0.0
 10
76.45476479208423
 20
-128.1100097335975
 30
0.0
 10
76.45476479208423
 20
-128.1100097335975
 30
0.0
 10
76.45476479208423
 20
-127.9539469081157
 30
0.0
 10
76.45476479208423
 20
-127.9539469081157
 30
0.0
 10
76.45476479208423
 20
-127.9539469081157
 30
0.0
 10
77.99902884334747
 20
-127.9539469081157
 30
0.0
 10
77.99902884334747
 20
-127.9539469081157
 30
0.0
 10
77.99902884334747
 20
-127.9539469081157
 30
0.0
 10
77.99902884334747
 20
-128.1935532991148
 30
0.0
 10
77.99902884334747
 20
-128.1935532991148
 30
0.0
  0
HATCH
  5
88
330
83
100
AcDbEntity
  8
_U+30EC_U+30A4_U+30E4_U+30FC 1
 62
     7
420
 16777215
100
AcDbHatch
 10
0.0
 20
0.0
 30
0.0
210
0.0
220
0.0
230
1.0
  2
SOLID
 70
     1
 71
     0
 91
        1
 92
        1
 93
        1
 72
     4
 94
        3
 73
     0
 74
     1
 95
       26
 96
       22
 40
0.0
 40
0.0
 40
0.0
 40
0.0
 40
1.0
 40
1.0
 40
1.0
 40
2.0
 40
2.0
 40
2.0
 40
3.0
 40
3.0
 40
3.0
 40
4.0
 40
4.0
 40
4.0
 40
5.0
 40
5.0
 40
5.0
 40
6.0
 40
6.0
 40
6.0
 40
7.0
 40
7.0
 40
7.0
 40
7.0
 10
77.99902884334747
 20
-128.1935532991148
 10
77.99902884334747
 20
-128.1935532991148
 10
76.89470348555064
 20
-128.1935532991148
 10
76.89470348555064
 20
-128.1935532991148
 10
76.89470348555064
 20
-128.1935532991148
 10
76.89470348555064
 20
-128.5463310768044
 10
76.89470348555064
 20
-128.5463310768044
 10
76.89470348555064
 20
-128.5463310768044
 10
76.74673663445915
 20
-128.5463310768044
 10
76.74673663445915
 20
-128.5463310768044
 10
76.73192272387257
 20
-128.1913139870494
 10
76.56896970742027
 20
-128.1417046120618
 10
76.45476479208423
 20
-128.1100097335975
 10
76.45476479208423
 20
-128.1100097335975
 10
76.45476479208423
 20
-127.9539469081157
 10
76.45476479208423
 20
-127.9539469081157
 10
76.45476479208423
 20
-127.9539469081157
 10
77.99902884334747
 20
-127.9539469081157
 10
77.99902884334747
 20
-127.9539469081157
 10
77.99902884334747
 20
-127.9539469081157
 10
77.99902884334747
 20
-128.1935532991148
 10
77.99902884334747
 20
-128.1935532991148
 97
        0
 97
        0
 75
     2
 76
     1
 98
        0
  0
SPLINE
  5
89
330
83
100
AcDbEntity
  8
_U+30EC_U+30A4_U+30E4_U+30FC 1
370
     0
100
AcDbSpline
210
0.0
220
0.0
230
1.0
 70
    11
 71
     3
 72
    32
 73
    28
 74
     0
 42
0.0000000001
 43
0.0000000001
 12
1.0
 22
0.0
 32
0.0
 13
1.0
 23
0.0
 33
0.0
 40
0.0
 40
0.0
 40
0.0
 40
0.0
 40
1.0
 40
1.0
 40
1.0
 40
2.0
 40
2.0
 40
2.0
 40
3.0
 40
3.0
 40
3.0
 40
4.0
 40
4.0
 40
4.0
 40
5.0
 40
5.0
 40
5.0
 40
6.0
 40
6.0
 40
6.0
 40
7.0
 40
7.0
 40
7.0
 40
8.0
 40
8.0
 40
8.0
 40
9.0
 40
9.0
 40
9.0
 40
9.0
 10
78.0498440017549
 20
-126.9290310012539
 30
0.0
 10
78.0498440017549
 20
-127.1145493931346
 30
0.0
 10
77.98008081817859
 20
-127.3767211595621
 30
0.0
 10
77.64797361340051
 20
-127.417373286288
 30
0.0
 10
77.64797361340051
 20
-127.417373286288
 30
0.0
 10
77.64797361340051
 20
-127.1891357103902
 30
0.0
 10
77.64797361340051
 20
-127.1891357103902
 30
0.0
 10
77.70705700097254
 20
-127.1777668952889
 30
0.0
 10
77.85519610683829
 20
-127.1438327047592
 30
0.0
 10
77.85519610683829
 20
-126.9267916891884
 30
0.0
 10
77.85519610683829
 20
-126.6148382929991
 30
0.0
 10
77.52515595935135
 20
-126.5741861662731
 30
0.0
 10
77.32000052320473
 20
-126.5605780391064
 30
0.0
 10
77.40044350278531
 20
-126.6577297317904
 30
0.0
 10
77.4574598330662
 20
-126.7300767369807
 30
0.0
 10
77.4574598330662
 20
-126.924552377123
 30
0.0
 10
77.4574598330662
 20
-127.1167887052
 30
0.0
 10
77.35169540166902
 20
-127.4401109164907
 30
0.0
 10
76.94551864395807
 20
-127.4401109164907
 30
0.0
 10
76.62615829247541
 20
-127.4401109164907
 30
0.0
 10
76.40601669096795
 20
-127.2275485250508
 30
0.0
 10
76.40601669096795
 20
-126.8883788745279
 30
0.0
 10
76.40601669096795
 20
-126.3390583994048
 30
0.0
 10
76.96033255454465
 20
-126.3276895843035
 30
0.0
 10
77.17392847463013
 20
-126.3276895843035
 30
0.0
 10
77.40457761736761
 20
-126.3276895843035
 30
0.0
 10
78.0498440017549
 20
-126.3480156476665
 30
0.0
 10
78.0498440017549
 20
-126.9290310012539
 30
0.0
  0
SPLINE
  5
8A
330
83
100
AcDbEntity
  8
_U+30EC_U+30A4_U+30E4_U+30FC 1
370
     0
100
AcDbSpline
210
0.0
220
0.0
230
1.0
 70
    11
 71
     3
 72
    17
 73
    13
 74
     0
 42
0.0000000001
 43
0.0000000001
 12
1.0
 22
0.0
 32
0.0
 13
1.0
 23
0.0
 33
0.0
 40
0.0
 40
0.0
 40
0.0
 40
0.0
 40
1.0
 40
1.0
 40
1.0
 40
2.0
 40
2.0
 40
2.0
 40
3.0
 40
3.0
 40
3.0
 40
4.0
 40
4.0
 40
4.0
 40
4.0
 10
76.59859752859342
 20
-126.8861395624625
 30
0.0
 10
76.59859752859342
 20
-127.0127468215454
 30
0.0
 10
76.65578611364856
 20
-127.2003322707173
 30
0.0
 10
76.94138452937577
 20
-127.2003322707173
 30
0.0
 10
77.16772730275669
 20
-127.2003322707173
 30
0.0
 10
77.26281193814958
 20
-127.051159636206
 30
0.0
 10
77.26281193814958
 20
-126.9064656258255
 30
0.0
 10
77.26281193814958
 20
-126.6262071081004
 30
0.0
 10
77.05335013264639
 20
-126.5853827266002
 30
0.0
 10
76.93707816001921
 20
-126.5853827266002
 30
0.0
 10
76.76155054504572
 20
-126.5853827266002
 30
0.0
 10
76.59859752859342
 20
-126.6871852981893
 30
0.0
 10
76.59859752859342
 20
-126.8861395624625
 30
0.0
  0
HATCH
  5
8B
330
83
100
AcDbEntity
  8
_U+30EC_U+30A4_U+30E4_U+30FC 1
 62
     7
420
 16777215
100
AcDbHatch
 10
0.0
 20
0.0
 30
0.0
210
0.0
220
0.0
230
1.0
  2
SOLID
 70
     1
 71
     0
 91
        2
 92
        1
 93
        1
 72
     4
 94
        3
 73
     0
 74
     1
 95
       32
 96
       28
 40
0.0
 40
0.0
 40
0.0
 40
0.0
 40
1.0
 40
1.0
 40
1.0
 40
2.0
 40
2.0
 40
2.0
 40
3.0
 40
3.0
 40
3.0
 40
4.0
 40
4.0
 40
4.0
 40
5.0
 40
5.0
 40
5.0
 40
6.0
 40
6.0
 40
6.0
 40
7.0
 40
7.0
 40
7.0
 40
8.0
 40
8.0
 40
8.0
 40
9.0
 40
9.0
 40
9.0
 40
9.0
 10
78.0498440017549
 20
-126.9290310012539
 10
78.0498440017549
 20
-127.1145493931346
 10
77.98008081817859
 20
-127.3767211595621
 10
77.64797361340051
 20
-127.417373286288
 10
77.64797361340051
 20
-127.417373286288
 10
77.64797361340051
 20
-127.1891357103902
 10
77.64797361340051
 20
-127.1891357103902
 10
77.70705700097254
 20
-127.1777668952889
 10
77.85519610683829
 20
-127.1438327047592
 10
77.85519610683829
 20
-126.9267916891884
 10
77.85519610683829
 20
-126.6148382929991
 10
77.52515595935135
 20
-126.5741861662731
 10
77.32000052320473
 20
-126.5605780391064
 10
77.40044350278531
 20
-126.6577297317904
 10
77.4574598330662
 20
-126.7300767369807
 10
77.4574598330662
 20
-126.924552377123
 10
77.4574598330662
 20
-127.1167887052
 10
77.35169540166902
 20
-127.4401109164907
 10
76.94551864395807
 20
-127.4401109164907
 10
76.62615829247541
 20
-127.4401109164907
 10
76.40601669096795
 20
-127.2275485250508
 10
76.40601669096795
 20
-126.8883788745279
 10
76.40601669096795
 20
-126.3390583994048
 10
76.96033255454465
 20
-126.3276895843035
 10
77.17392847463013
 20
-126.3276895843035
 10
77.40457761736761
 20
-126.3276895843035
 10
78.0498440017549
 20
-126.3480156476665
 10
78.0498440017549
 20
-126.9290310012539
 97
        0
 97
        0
 92
        1
 93
        1
 72
     4
 94
        3
 73
     0
 74
     1
 95
       17
 96
       13
 40
0.0
 40
0.0
 40
0.0
 40
0.0
 40
1.0
 40
1.0
 40
1.0
 40
2.0
 40
2.0
 40
2.0
 40
3.0
 40
3.0
 40
3.0
 40
4.0
 40
4.0
 40
4.0
 40
4.0
 10
76.59859752859342
 20
-126.8861395624625
 10
76.59859752859342
 20
-127.0127468215454
 10
76.65578611364856
 20
-127.2003322707173
 10
76.94138452937577
 20
-127.2003322707173
 10
77.16772730275669
 20
-127.2003322707173
 10
77.26281193814958
 20
-127.051159636206
 10
77.26281193814958
 20
-126.9064656258255
 10
77.26281193814958
 20
-126.6262071081004
 10
77.05335013264639
 20
-126.5853827266002
 10
76.93707816001921
 20
-126.5853827266002
 10
76.76155054504572
 20
-126.5853827266002
 10
76.59859752859342
 20
-126.6871852981893
 10
76.59859752859342
 20
-126.8861395624625
 97
        0
 97
        0
 75
     2
 76
     1
 98
        0
  0
POLYLINE
  5
8C
330
83
100
AcDbEntity
  8
_U+30EC_U+30A4_U+30E4_U+30FC 1
370
     0
100
AcDb2dPolyline
 66
     1
 10
0.0
 20
0.0
 30
0.0
  0
VERTEX
  5
8D
330
8C
100
AcDbEntity
  8
_U+30EC_U+30A4_U+30E4_U+30FC 1
370
     0
100
AcDbVertex
100
AcDb2dVertex
 10
77.99902884334747
 20
-126.096351422469
 30
0.0
  0
VERTEX
  5
8E
330
8C
100
AcDbEntity
  8
_U+30EC_U+30A4_U+30E4_U+30FC 1
370
     0
100
AcDbVertex
100
AcDb2dVertex
 10
77.74736461814997
 20
-126.096351422469
 30
0.0
  0
VERTEX
  5
8F
330
8C
100
AcDbEntity
  8
_U+30EC_U+30A4_U+30E4_U+30FC 1
370
     0
100
AcDbVertex
100
AcDb2dVertex
 10
77.74736461814997
 20
-125.827289465071
 30
0.0
  0
VERTEX
  5
90
330
8C
100
AcDbEntity
  8
_U+30EC_U+30A4_U+30E4_U+30FC 1
370
     0
100
AcDbVertex
100
AcDb2dVertex
 10
77.99902884334747
 20
-125.827289465071
 30
0.0
  0
VERTEX
  5
91
330
8C
100
AcDbEntity
  8
_U+30EC_U+30A4_U+30E4_U+30FC 1
370
     0
100
AcDbVertex
100
AcDb2dVertex
 10
77.99902884334747
 20
-126.096351422469
 30
0.0
  0
SEQEND
  5
92
330
8C
100
AcDbEntity
  8
_U+30EC_U+30A4_U+30E4_U+30FC 1
370
     0
  0
HATCH
  5
93
330
83
100
AcDbEntity
  8
_U+30EC_U+30A4_U+30E4_U+30FC 1
 62
     7
420
 16777215
100
AcDbHatch
 10
0.0
 20
0.0
 30
0.0
210
0.0
220
0.0
230
1.0
  2
SOLID
 70
     1
 71
     0
 91
        1
 92
        1
 93
        4
 72
     1
 10
77.99902884334747
 20
-126.096351422469
 11
77.74736461814997
 21
-126.096351422469
 72
     1
 10
77.74736461814997
 20
-126.096351422469
 11
77.74736461814997
 21
-125.827289465071
 72
     1
 10
77.74736461814997
 20
-125.827289465071
 11
77.99902884334747
 21
-125.827289465071
 72
     1
 10
77.99902884334747
 20
-125.827289465071
 11
77.99902884334747
 21
-126.096351422469
 97
        0
 75
     2
 76
     1
 98
        0
  0
SPLINE
  5
94
330
83
100
AcDbEntity
  8
_U+30EC_U+30A4_U+30E4_U+30FC 1
370
     0
100
AcDbSpline
210
0.0
220
0.0
230
1.0
 70
    11
 71
     3
 72
    53
 73
    49
 74
     0
 42
0.0000000001
 43
0.0000000001
 12
1.0
 22
0.0
 32
0.0
 13
1.0
 23
0.0
 33
0.0
 40
0.0
 40
0.0
 40
0.0
 40
0.0
 40
1.0
 40
1.0
 40
1.0
 40
2.0
 40
2.0
 40
2.0
 40
3.0
 40
3.0
 40
3.0
 40
4.0
 40
4.0
 40
4.0
 40
5.0
 40
5.0
 40
5.0
 40
6.0
 40
6.0
 40
6.0
 40
7.0
 40
7.0
 40
7.0
 40
8.0
 40
8.0
 40
8.0
 40
9.0
 40
9.0
 40
9.0
 40
10.0
 40
10.0
 40
10.0
 40
11.0
 40
11.0
 40
11.0
 40
12.0
 40
12.0
 40
12.0
 40
13.0
 40
13.0
 40
13.0
 40
14.0
 40
14.0
 40
14.0
 40
15.0
 40
15.0
 40
15.0
 40
16.0
 40
16.0
 40
16.0
 40
16.0
 10
78.0498440017549
 20
-125.0605834648286
 30
0.0
 10
78.0498440017549
 20
-125.1441270303459
 30
0.0
 10
78.03296303387718
 20
-125.2526475381313
 30
0.0
 10
77.96940102217432
 20
-125.3611680459167
 30
0.0
 10
77.85950247619485
 20
-125.5466864377974
 30
0.0
 10
77.72824433820684
 20
-125.5692518132257
 30
0.0
 10
77.62041284951852
 20
-125.5895778765887
 30
0.0
 10
77.62041284951852
 20
-125.5895778765887
 30
0.0
 10
77.62041284951852
 20
-125.352210797655
 30
0.0
 10
77.62041284951852
 20
-125.352210797655
 30
0.0
 10
77.81919485901743
 20
-125.2934719196315
 30
0.0
 10
77.84882268019058
 20
-125.1577351575127
 30
0.0
 10
77.84882268019058
 20
-125.0583441527632
 30
0.0
 10
77.84882268019058
 20
-124.9089992634776
 30
0.0
 10
77.74943167544112
 20
-124.7462185017996
 30
0.0
 10
77.5167154754125
 20
-124.7462185017996
 30
0.0
 10
77.26074488085843
 20
-124.7462185017996
 30
0.0
 10
77.19098169728213
 20
-124.9384548298765
 30
0.0
 10
77.19098169728213
 20
-125.0673014010248
 30
0.0
 10
77.19098169728213
 20
-125.1012355915546
 30
0.0
 10
77.19098169728213
 20
-125.2526475381313
 30
0.0
 10
77.32000052320473
 20
-125.3477321735242
 30
0.0
 10
77.32000052320473
 20
-125.3477321735242
 30
0.0
 10
77.30088024326159
 20
-125.535317622696
 30
0.0
 10
77.30088024326159
 20
-125.535317622696
 30
0.0
 10
77.30088024326159
 20
-125.535317622696
 30
0.0
 10
76.45476479208423
 20
-125.4064710515477
 30
0.0
 10
76.45476479208423
 20
-125.4064710515477
 30
0.0
 10
76.45476479208423
 20
-125.4064710515477
 30
0.0
 10
76.45476479208423
 20
-124.5744804918599
 30
0.0
 10
76.45476479208423
 20
-124.5744804918599
 30
0.0
 10
76.45476479208423
 20
-124.5744804918599
 30
0.0
 10
76.64941268700085
 20
-124.5744804918599
 30
0.0
 10
76.64941268700085
 20
-124.5744804918599
 30
0.0
 10
76.64941268700085
 20
-124.5744804918599
 30
0.0
 10
76.64941268700085
 20
-125.2323214747683
 30
0.0
 10
76.64941268700085
 20
-125.2323214747683
 30
0.0
 10
76.64941268700085
 20
-125.2323214747683
 30
0.0
 10
77.07247041258952
 20
-125.3024291678932
 30
0.0
 10
77.07247041258952
 20
-125.3024291678932
 30
0.0
 10
77.03853622205982
 20
-125.2369723536734
 30
0.0
 10
76.99840085965666
 20
-125.148777909251
 30
0.0
 10
76.99840085965666
 20
-125.0221706501681
 30
0.0
 10
76.99840085965666
 20
-124.7508693807046
 30
0.0
 10
77.18460827063441
 20
-124.4976548625388
 30
0.0
 10
77.49776745024361
 20
-124.4976548625388
 30
0.0
 10
77.81506074443513
 20
-124.4976548625388
 30
0.0
 10
78.0498440017549
 20
-124.7372612535379
 30
0.0
 10
78.0498440017549
 20
-125.0605834648286
 30
0.0
  0
HATCH
  5
95
330
83
100
AcDbEntity
  8
_U+30EC_U+30A4_U+30E4_U+30FC 1
 62
     7
420
 16777215
100
AcDbHatch
 10
0.0
 20
0.0
 30
0.0
210
0.0
220
0.0
230
1.0
  2
SOLID
 70
     1
 71
     0
 91
        1
 92
        1
 93
        1
 72
     4
 94
        3
 73
     0
 74
     1
 95
       53
 96
       49
 40
0.0
 40
0.0
 40
0.0
 40
0.0
 40
1.0
 40
1.0
 40
1.0
 40
2.0
 40
2.0
 40
2.0
 40
3.0
 40
3.0
 40
3.0
 40
4.0
 40
4.0
 40
4.0
 40
5.0
 40
5.0
 40
5.0
 40
6.0
 40
6.0
 40
6.0
 40
7.0
 40
7.0
 40
7.0
 40
8.0
 40
8.0
 40
8.0
 40
9.0
 40
9.0
 40
9.0
 40
10.0
 40
10.0
 40
10.0
 40
11.0
 40
11.0
 40
11.0
 40
12.0
 40
12.0
 40
12.0
 40
13.0
 40
13.0
 40
13.0
 40
14.0
 40
14.0
 40
14.0
 40
15.0
 40
15.0
 40
15.0
 40
16.0
 40
16.0
 40
16.0
 40
16.0
 10
78.0498440017549
 20
-125.0605834648286
 10
78.0498440017549
 20
-125.1441270303459
 10
78.03296303387718
 20
-125.2526475381313
 10
77.96940102217432
 20
-125.3611680459167
 10
77.85950247619485
 20
-125.5466864377974
 10
77.72824433820684
 20
-125.5692518132257
 10
77.62041284951852
 20
-125.5895778765887
 10
77.62041284951852
 20
-125.5895778765887
 10
77.62041284951852
 20
-125.352210797655
 10
77.62041284951852
 20
-125.352210797655
 10
77.81919485901743
 20
-125.2934719196315
 10
77.84882268019058
 20
-125.1577351575127
 10
77.84882268019058
 20
-125.0583441527632
 10
77.84882268019058
 20
-124.9089992634776
 10
77.74943167544112
 20
-124.7462185017996
 10
77.5167154754125
 20
-124.7462185017996
 10
77.26074488085843
 20
-124.7462185017996
 10
77.19098169728213
 20
-124.9384548298765
 10
77.19098169728213
 20
-125.0673014010248
 10
77.19098169728213
 20
-125.1012355915546
 10
77.19098169728213
 20
-125.2526475381313
 10
77.32000052320473
 20
-125.3477321735242
 10
77.32000052320473
 20
-125.3477321735242
 10
77.30088024326159
 20
-125.535317622696
 10
77.30088024326159
 20
-125.535317622696
 10
77.30088024326159
 20
-125.535317622696
 10
76.45476479208423
 20
-125.4064710515477
 10
76.45476479208423
 20
-125.4064710515477
 10
76.45476479208423
 20
-125.4064710515477
 10
76.45476479208423
 20
-124.5744804918599
 10
76.45476479208423
 20
-124.5744804918599
 10
76.45476479208423
 20
-124.5744804918599
 10
76.64941268700085
 20
-124.5744804918599
 10
76.64941268700085
 20
-124.5744804918599
 10
76.64941268700085
 20
-124.5744804918599
 10
76.64941268700085
 20
-125.2323214747683
 10
76.64941268700085
 20
-125.2323214747683
 10
76.64941268700085
 20
-125.2323214747683
 10
77.07247041258952
 20
-125.3024291678932
 10
77.07247041258952
 20
-125.3024291678932
 10
77.03853622205982
 20
-125.2369723536734
 10
76.99840085965666
 20
-125.148777909251
 10
76.99840085965666
 20
-125.0221706501681
 10
76.99840085965666
 20
-124.7508693807046
 10
77.18460827063441
 20
-124.4976548625388
 10
77.49776745024361
 20
-124.4976548625388
 10
77.81506074443513
 20
-124.4976548625388
 10
78.0498440017549
 20
-124.7372612535379
 10
78.0498440017549
 20
-125.0605834648286
 97
        0
 97
        0
 75
     2
 76
     1
 98
        0
  0
ENDBLK
  5
86
330
83
100
AcDbEntity
  8
0
100
AcDbBlockEnd
  0
BLOCK
  5
A9
330
A7
100
AcDbEntity
  8
0
100
AcDbBlockBegin
  2
block 4
 70
     0
 10
0.0
 20
0.0
 30
0.0
  3
block 4
  1

  0
SPLINE
  5
AB
330
A7
100
AcDbEntity
  8
_U+30EC_U+30A4_U+30E4_U+30FC 1
370
     0
100
AcDbSpline
210
0.0
220
0.0
230
1.0
 70
    11
 71
     3
 72
    26
 73
    22
 74
     0
 42
0.0000000001
 43
0.0000000001
 12
1.0
 22
0.0
 32
0.0
 13
1.0
 23
0.0
 33
0.0
 40
0.0
 40
0.0
 40
0.0
 40
0.0
 40
1.0
 40
1.0
 40
1.0
 40
2.0
 40
2.0
 40
2.0
 40
3.0
 40
3.0
 40
3.0
 40
4.0
 40
4.0
 40
4.0
 40
5.0
 40
5.0
 40
5.0
 40
6.0
 40
6.0
 40
6.0
 40
7.0
 40
7.0
 40
7.0
 40
7.0
 10
105.2345757115386
 20
-130.5219210828209
 30
0.0
 10
105.2345757115386
 20
-130.5219210828209
 30
0.0
 10
104.1300780989675
 20
-130.5219210828209
 30
0.0
 10
104.1300780989675
 20
-130.5219210828209
 30
0.0
 10
104.1300780989675
 20
-130.5219210828209
 30
0.0
 10
104.1300780989675
 20
-130.8746988605105
 30
0.0
 10
104.1300780989675
 20
-130.8746988605105
 30
0.0
 10
104.1300780989675
 20
-130.8746988605105
 30
0.0
 10
103.9819389931017
 20
-130.8746988605105
 30
0.0
 10
103.9819389931017
 20
-130.8746988605105
 30
0.0
 10
103.9671250825152
 20
-130.5195095159812
 30
0.0
 10
103.8045165756114
 20
-130.4699001409936
 30
0.0
 10
103.6901394055011
 20
-130.4382052625294
 30
0.0
 10
103.6901394055011
 20
-130.4382052625294
 30
0.0
 10
103.6901394055011
 20
-130.2821424370475
 30
0.0
 10
103.6901394055011
 20
-130.2821424370475
 30
0.0
 10
103.6901394055011
 20
-130.2821424370475
 30
0.0
 10
105.2345757115386
 20
-130.2821424370475
 30
0.0
 10
105.2345757115386
 20
-130.2821424370475
 30
0.0
 10
105.2345757115386
 20
-130.2821424370475
 30
0.0
 10
105.2345757115386
 20
-130.5219210828209
 30
0.0
 10
105.2345757115386
 20
-130.5219210828209
 30
0.0
  0
HATCH
  5
AC
330
A7
100
AcDbEntity
  8
_U+30EC_U+30A4_U+30E4_U+30FC 1
 62
     7
420
 16777215
100
AcDbHatch
 10
0.0
 20
0.0
 30
0.0
210
0.0
220
0.0
230
1.0
  2
SOLID
 70
     1
 71
     0
 91
        1
 92
        1
 93
        1
 72
     4
 94
        3
 73
     0
 74
     1
 95
       26
 96
       22
 40
0.0
 40
0.0
 40
0.0
 40
0.0
 40
1.0
 40
1.0
 40
1.0
 40
2.0
 40
2.0
 40
2.0
 40
3.0
 40
3.0
 40
3.0
 40
4.0
 40
4.0
 40
4.0
 40
5.0
 40
5.0
 40
5.0
 40
6.0
 40
6.0
 40
6.0
 40
7.0
 40
7.0
 40
7.0
 40
7.0
 10
105.2345757115386
 20
-130.5219210828209
 10
105.2345757115386
 20
-130.5219210828209
 10
104.1300780989675
 20
-130.5219210828209
 10
104.1300780989675
 20
-130.5219210828209
 10
104.1300780989675
 20
-130.5219210828209
 10
104.1300780989675
 20
-130.8746988605105
 10
104.1300780989675
 20
-130.8746988605105
 10
104.1300780989675
 20
-130.8746988605105
 10
103.9819389931017
 20
-130.8746988605105
 10
103.9819389931017
 20
-130.8746988605105
 10
103.9671250825152
 20
-130.5195095159812
 10
103.8045165756114
 20
-130.4699001409936
 10
103.6901394055011
 20
-130.4382052625294
 10
103.6901394055011
 20
-130.4382052625294
 10
103.6901394055011
 20
-130.2821424370475
 10
103.6901394055011
 20
-130.2821424370475
 10
103.6901394055011
 20
-130.2821424370475
 10
105.2345757115386
 20
-130.2821424370475
 10
105.2345757115386
 20
-130.2821424370475
 10
105.2345757115386
 20
-130.2821424370475
 10
105.2345757115386
 20
-130.5219210828209
 10
105.2345757115386
 20
-130.5219210828209
 97
        0
 97
        0
 75
     2
 76
     1
 98
        0
  0
SPLINE
  5
AD
330
A7
100
AcDbEntity
  8
_U+30EC_U+30A4_U+30E4_U+30FC 1
370
     0
100
AcDbSpline
210
0.0
220
0.0
230
1.0
 70
    11
 71
     3
 72
    62
 73
    58
 74
     0
 42
0.0000000001
 43
0.0000000001
 12
1.0
 22
0.0
 32
0.0
 13
1.0
 23
0.0
 33
0.0
 40
0.0
 40
0.0
 40
0.0
 40
0.0
 40
1.0
 40
1.0
 40
1.0
 40
2.0
 40
2.0
 40
2.0
 40
3.0
 40
3.0
 40
3.0
 40
4.0
 40
4.0
 40
4.0
 40
5.0
 40
5.0
 40
5.0
 40
6.0
 40
6.0
 40
6.0
 40
7.0
 40
7.0
 40
7.0
 40
8.0
 40
8.0
 40
8.0
 40
9.0
 40
9.0
 40
9.0
 40
10.0
 40
10.0
 40
10.0
 40
11.0
 40
11.0
 40
11.0
 40
12.0
 40
12.0
 40
12.0
 40
13.0
 40
13.0
 40
13.0
 40
14.0
 40
14.0
 40
14.0
 40
15.0
 40
15.0
 40
15.0
 40
16.0
 40
16.0
 40
16.0
 40
17.0
 40
17.0
 40
17.0
 40
18.0
 40
18.0
 40
18.0
 40
19.0
 40
19.0
 40
19.0
 40
19.0
 10
105.2852186151718
 20
-129.2210530275906
 30
0.0
 10
105.2852186151718
 20
-129.323027853954
 30
0.0
 10
105.2642035327117
 20
-129.5559163087568
 30
0.0
 10
105.0778238669597
 20
-129.689241504036
 30
0.0
 10
104.9658582636891
 20
-129.7684787001968
 30
0.0
 10
104.8662950041654
 20
-129.7729573243276
 30
0.0
 10
104.7818901647768
 20
-129.7774359484584
 30
0.0
 10
104.7818901647768
 20
-129.7774359484584
 30
0.0
 10
104.7818901647768
 20
-129.5421359268159
 30
0.0
 10
104.7818901647768
 20
-129.5421359268159
 30
0.0
 10
104.8556152081611
 20
-129.5400688695247
 30
0.0
 10
105.0905707202551
 20
-129.5287000544234
 30
0.0
 10
105.0905707202551
 20
-129.2258761612699
 30
0.0
 10
105.0905707202551
 20
-129.0787705840497
 30
0.0
 10
105.0206352819046
 20
-128.9158175675974
 30
0.0
 10
104.7922254512325
 20
-128.9158175675974
 30
0.0
 10
104.6757812238311
 20
-128.9158175675974
 30
0.0
 10
104.627205377489
 20
-128.9568142038719
 30
0.0
 10
104.5955104990247
 20
-128.9905761396274
 30
0.0
 10
104.5214409460919
 20
-129.0698133357881
 30
0.0
 10
104.5086940927964
 20
-129.1941812828056
 30
0.0
 10
104.5086940927964
 20
-129.2527479060549
 30
0.0
 10
104.5086940927964
 20
-129.2730739694179
 30
0.0
 10
104.5111056596361
 20
-129.3116590388526
 30
0.0
 10
104.5152397742184
 20
-129.3409423504773
 30
0.0
 10
104.5152397742184
 20
-129.3409423504773
 30
0.0
 10
104.3205918793018
 20
-129.3409423504773
 30
0.0
 10
104.3205918793018
 20
-129.3409423504773
 30
0.0
 10
104.3267930511752
 20
-129.3002902237513
 30
0.0
 10
104.3288601084664
 20
-129.2551594728945
 30
0.0
 10
104.3288601084664
 20
-129.2482692819241
 30
0.0
 10
104.3288601084664
 20
-129.1783338435735
 30
0.0
 10
104.3078450260064
 20
-128.9657714521336
 30
0.0
 10
104.0708224566212
 20
-128.9657714521336
 30
0.0
 10
103.8930555295823
 20
-128.9657714521336
 30
0.0
 10
103.8382785113668
 20
-129.1059868383832
 30
0.0
 10
103.8382785113668
 20
-129.2234645944303
 30
0.0
 10
103.8382785113668
 20
-129.5059624242207
 30
0.0
 10
104.0708224566212
 20
-129.5152641820309
 30
0.0
 10
104.1428249522629
 20
-129.5197428061617
 30
0.0
 10
104.1428249522629
 20
-129.5197428061617
 30
0.0
 10
104.1428249522629
 20
-129.7367838217325
 30
0.0
 10
104.1428249522629
 20
-129.7367838217325
 30
0.0
 10
104.0181124956969
 20
-129.7274820639223
 30
0.0
 10
103.6415635591591
 20
-129.6981987522977
 30
0.0
 10
103.6415635591591
 20
-129.2100287220378
 30
0.0
 10
103.6415635591591
 20
-128.9702500762644
 30
0.0
 10
103.7683430730163
 20
-128.7125569339677
 30
0.0
 10
104.0646212847477
 20
-128.7125569339677
 30
0.0
 10
104.2506564409512
 20
-128.7125569339677
 30
0.0
 10
104.3333387325972
 20
-128.8141872507826
 30
0.0
 10
104.3946614322347
 20
-128.9206407012768
 30
0.0
 10
104.4222221961167
 20
-128.8548393775085
 30
0.0
 10
104.502492920923
 20
-128.6605359921404
 30
0.0
 10
104.7794785979371
 20
-128.6605359921404
 30
0.0
 10
105.1181314841371
 20
-128.6605359921404
 30
0.0
 10
105.2852186151718
 20
-128.9251193254076
 30
0.0
 10
105.2852186151718
 20
-129.2210530275906
 30
0.0
  0
HATCH
  5
AE
330
A7
100
AcDbEntity
  8
_U+30EC_U+30A4_U+30E4_U+30FC 1
 62
     7
420
 16777215
100
AcDbHatch
 10
0.0
 20
0.0
 30
0.0
210
0.0
220
0.0
230
1.0
  2
SOLID
 70
     1
 71
     0
 91
        1
 92
        1
 93
        1
 72
     4
 94
        3
 73
     0
 74
     1
 95
       62
 96
       58
 40
0.0
 40
0.0
 40
0.0
 40
0.0
 40
1.0
 40
1.0
 40
1.0
 40
2.0
 40
2.0
 40
2.0
 40
3.0
 40
3.0
 40
3.0
 40
4.0
 40
4.0
 40
4.0
 40
5.0
 40
5.0
 40
5.0
 40
6.0
 40
6.0
 40
6.0
 40
7.0
 40
7.0
 40
7.0
 40
8.0
 40
8.0
 40
8.0
 40
9.0
 40
9.0
 40
9.0
 40
10.0
 40
10.0
 40
10.0
 40
11.0
 40
11.0
 40
11.0
 40
12.0
 40
12.0
 40
12.0
 40
13.0
 40
13.0
 40
13.0
 40
14.0
 40
14.0
 40
14.0
 40
15.0
 40
15.0
 40
15.0
 40
16.0
 40
16.0
 40
16.0
 40
17.0
 40
17.0
 40
17.0
 40
18.0
 40
18.0
 40
18.0
 40
19.0
 40
19.0
 40
19.0
 40
19.0
 10
105.2852186151718
 20
-129.2210530275906
 10
105.2852186151718
 20
-129.323027853954
 10
105.2642035327117
 20
-129.5559163087568
 10
105.0778238669597
 20
-129.689241504036
 10
104.9658582636891
 20
-129.7684787001968
 10
104.8662950041654
 20
-129.7729573243276
 10
104.7818901647768
 20
-129.7774359484584
 10
104.7818901647768
 20
-129.7774359484584
 10
104.7818901647768
 20
-129.5421359268159
 10
104.7818901647768
 20
-129.5421359268159
 10
104.8556152081611
 20
-129.5400688695247
 10
105.0905707202551
 20
-129.5287000544234
 10
105.0905707202551
 20
-129.2258761612699
 10
105.0905707202551
 20
-129.0787705840497
 10
105.0206352819046
 20
-128.9158175675974
 10
104.7922254512325
 20
-128.9158175675974
 10
104.6757812238311
 20
-128.9158175675974
 10
104.627205377489
 20
-128.9568142038719
 10
104.5955104990247
 20
-128.9905761396274
 10
104.5214409460919
 20
-129.0698133357881
 10
104.5086940927964
 20
-129.1941812828056
 10
104.5086940927964
 20
-129.2527479060549
 10
104.5086940927964
 20
-129.2730739694179
 10
104.5111056596361
 20
-129.3116590388526
 10
104.5152397742184
 20
-129.3409423504773
 10
104.5152397742184
 20
-129.3409423504773
 10
104.3205918793018
 20
-129.3409423504773
 10
104.3205918793018
 20
-129.3409423504773
 10
104.3267930511752
 20
-129.3002902237513
 10
104.3288601084664
 20
-129.2551594728945
 10
104.3288601084664
 20
-129.2482692819241
 10
104.3288601084664
 20
-129.1783338435735
 10
104.3078450260064
 20
-128.9657714521336
 10
104.0708224566212
 20
-128.9657714521336
 10
103.8930555295823
 20
-128.9657714521336
 10
103.8382785113668
 20
-129.1059868383832
 10
103.8382785113668
 20
-129.2234645944303
 10
103.8382785113668
 20
-129.5059624242207
 10
104.0708224566212
 20
-129.5152641820309
 10
104.1428249522629
 20
-129.5197428061617
 10
104.1428249522629
 20
-129.5197428061617
 10
104.1428249522629
 20
-129.7367838217325
 10
104.1428249522629
 20
-129.7367838217325
 10
104.0181124956969
 20
-129.7274820639223
 10
103.6415635591591
 20
-129.6981987522977
 10
103.6415635591591
 20
-129.2100287220378
 10
103.6415635591591
 20
-128.9702500762644
 10
103.7683430730163
 20
-128.7125569339677
 10
104.0646212847477
 20
-128.7125569339677
 10
104.2506564409512
 20
-128.7125569339677
 10
104.3333387325972
 20
-128.8141872507826
 10
104.3946614322347
 20
-128.9206407012768
 10
104.4222221961167
 20
-128.8548393775085
 10
104.502492920923
 20
-128.6605359921404
 10
104.7794785979371
 20
-128.6605359921404
 10
105.1181314841371
 20
-128.6605359921404
 10
105.2852186151718
 20
-128.9251193254076
 10
105.2852186151718
 20
-129.2210530275906
 97
        0
 97
        0
 75
     2
 76
     1
 98
        0
  0
ENDBLK
  5
AA
330
A7
100
AcDbEntity
  8
0
100
AcDbBlockEnd
  0
BLOCK
  5
B1
330
AF
100
AcDbEntity
  8
0
100
AcDbBlockBegin
  2
block 5
 70
     0
 10
0.0
 20
0.0
 30
0.0
  3
block 5
  1

  0
SPLINE
  5
B3
330
AF
100
AcDbEntity
  8
_U+30EC_U+30A4_U+30E4_U+30FC 1
370
     0
100
AcDbSpline
210
0.0
220
0.0
230
1.0
 70
    11
 71
     3
 72
    26
 73
    22
 74
     0
 42
0.0000000001
 43
0.0000000001
 12
1.0
 22
0.0
 32
0.0
 13
1.0
 23
0.0
 33
0.0
 40
0.0
 40
0.0
 40
0.0
 40
0.0
 40
1.0
 40
1.0
 40
1.0
 40
2.0
 40
2.0
 40
2.0
 40
3.0
 40
3.0
 40
3.0
 40
4.0
 40
4.0
 40
4.0
 40
5.0
 40
5.0
 40
5.0
 40
6.0
 40
6.0
 40
6.0
 40
7.0
 40
7.0
 40
7.0
 40
7.0
 10
105.3103678122141
 20
-138.3595133117643
 30
0.0
 10
105.3103678122141
 20
-138.3595133117643
 30
0.0
 10
104.205870199643
 20
-138.3595133117643
 30
0.0
 10
104.205870199643
 20
-138.3595133117643
 30
0.0
 10
104.205870199643
 20
-138.3595133117643
 30
0.0
 10
104.205870199643
 20
-138.7119465799053
 30
0.0
 10
104.205870199643
 20
-138.7119465799053
 30
0.0
 10
104.205870199643
 20
-138.7119465799053
 30
0.0
 10
104.0577310937772
 20
-138.7119465799053
 30
0.0
 10
104.0577310937772
 20
-138.7119465799053
 30
0.0
 10
104.0429171831907
 20
-138.3571017449246
 30
0.0
 10
103.8803086762869
 20
-138.307492369937
 30
0.0
 10
103.7659315061766
 20
-138.2757974914727
 30
0.0
 10
103.7659315061766
 20
-138.2757974914727
 30
0.0
 10
103.7659315061766
 20
-138.1197346659909
 30
0.0
 10
103.7659315061766
 20
-138.1197346659909
 30
0.0
 10
103.7659315061766
 20
-138.1197346659909
 30
0.0
 10
105.3103678122141
 20
-138.1197346659909
 30
0.0
 10
105.3103678122141
 20
-138.1197346659909
 30
0.0
 10
105.3103678122141
 20
-138.1197346659909
 30
0.0
 10
105.3103678122141
 20
-138.3595133117643
 30
0.0
 10
105.3103678122141
 20
-138.3595133117643
 30
0.0
  0
HATCH
  5
B4
330
AF
100
AcDbEntity
  8
_U+30EC_U+30A4_U+30E4_U+30FC 1
 62
     7
420
 16777215
100
AcDbHatch
 10
0.0
 20
0.0
 30
0.0
210
0.0
220
0.0
230
1.0
  2
SOLID
 70
     1
 71
     0
 91
        1
 92
        1
 93
        1
 72
     4
 94
        3
 73
     0
 74
     1
 95
       26
 96
       22
 40
0.0
 40
0.0
 40
0.0
 40
0.0
 40
1.0
 40
1.0
 40
1.0
 40
2.0
 40
2.0
 40
2.0
 40
3.0
 40
3.0
 40
3.0
 40
4.0
 40
4.0
 40
4.0
 40
5.0
 40
5.0
 40
5.0
 40
6.0
 40
6.0
 40
6.0
 40
7.0
 40
7.0
 40
7.0
 40
7.0
 10
105.3103678122141
 20
-138.3595133117643
 10
105.3103678122141
 20
-138.3595133117643
 10
104.205870199643
 20
-138.3595133117643
 10
104.205870199643
 20
-138.3595133117643
 10
104.205870199643
 20
-138.3595133117643
 10
104.205870199643
 20
-138.7119465799053
 10
104.205870199643
 20
-138.7119465799053
 10
104.205870199643
 20
-138.7119465799053
 10
104.0577310937772
 20
-138.7119465799053
 10
104.0577310937772
 20
-138.7119465799053
 10
104.0429171831907
 20
-138.3571017449246
 10
103.8803086762869
 20
-138.307492369937
 10
103.7659315061766
 20
-138.2757974914727
 10
103.7659315061766
 20
-138.2757974914727
 10
103.7659315061766
 20
-138.1197346659909
 10
103.7659315061766
 20
-138.1197346659909
 10
103.7659315061766
 20
-138.1197346659909
 10
105.3103678122141
 20
-138.1197346659909
 10
105.3103678122141
 20
-138.1197346659909
 10
105.3103678122141
 20
-138.1197346659909
 10
105.3103678122141
 20
-138.3595133117643
 10
105.3103678122141
 20
-138.3595133117643
 97
        0
 97
        0
 75
     2
 76
     1
 98
        0
  0
ENDBLK
  5
B2
330
AF
100
AcDbEntity
  8
0
100
AcDbBlockEnd
  0
BLOCK
  5
C4
330
C2
100
AcDbEntity
  8
0
100
AcDbBlockBegin
  2
block 6
 70
     0
 10
0.0
 20
0.0
 30
0.0
  3
block 6
  1

  0
SPLINE
  5
C6
330
C2
100
AcDbEntity
  8
_U+30EC_U+30A4_U+30E4_U+30FC 1
370
     0
100
AcDbSpline
210
0.0
220
0.0
230
1.0
 70
    11
 71
     3
 72
    29
 73
    25
 74
     0
 42
0.0000000001
 43
0.0000000001
 12
1.0
 22
0.0
 32
0.0
 13
1.0
 23
0.0
 33
0.0
 40
0.0
 40
0.0
 40
0.0
 40
0.0
 40
1.0
 40
1.0
 40
1.0
 40
2.0
 40
2.0
 40
2.0
 40
3.0
 40
3.0
 40
3.0
 40
4.0
 40
4.0
 40
4.0
 40
5.0
 40
5.0
 40
5.0
 40
6.0
 40
6.0
 40
6.0
 40
7.0
 40
7.0
 40
7.0
 40
8.0
 40
8.0
 40
8.0
 40
8.0
 10
88.12519800314232
 20
-117.5283989506526
 30
0.0
 10
87.89523787950189
 20
-117.3601060361982
 30
0.0
 10
87.75760631486615
 20
-117.088977021509
 30
0.0
 10
87.9636230248841
 20
-116.8073404655898
 30
0.0
 10
88.11486271668656
 20
-116.6008069912491
 30
0.0
 10
88.29331866282251
 20
-116.6133815897703
 30
0.0
 10
88.42078719577675
 20
-116.6306070671965
 30
0.0
 10
88.34809568103798
 20
-116.5039998081136
 30
0.0
 10
88.34999048355486
 20
-116.3637844218639
 30
0.0
 10
88.4449028641735
 20
-116.2340765768443
 30
0.0
 10
88.60733911630302
 20
-116.0120401728199
 30
0.0
 10
88.85883108672627
 20
-116.0284043763749
 30
0.0
 10
89.09602591088571
 20
-116.2020371888314
 30
0.0
 10
89.3404554355642
 20
-116.3808376445159
 30
0.0
 10
89.41969263172494
 20
-116.617171194804
 30
0.0
 10
89.26225176804903
 20
-116.8323174078579
 30
0.0
 10
89.16733938743039
 20
-116.9620252528776
 30
0.0
 10
89.0322916444086
 20
-117.0047444368947
 30
0.0
 10
88.88966469131925
 20
-116.9737385775274
 30
0.0
 10
88.93634573514439
 20
-117.0708902702115
 30
0.0
 10
89.01696096949924
 20
-117.247795923379
 30
0.0
 10
88.86193167266299
 20
-117.4594970409476
 30
0.0
 10
88.64092879728422
 20
-117.761631915004
 30
0.0
 10
88.33121471316025
 20
-117.6792941329066
 30
0.0
 10
88.12519800314232
 20
-117.5283989506526
 30
0.0
  0
SPLINE
  5
C7
330
C2
100
AcDbEntity
  8
_U+30EC_U+30A4_U+30E4_U+30FC 1
370
     0
100
AcDbSpline
210
0.0
220
0.0
230
1.0
 70
    11
 71
     3
 72
    17
 73
    13
 74
     0
 42
0.0000000001
 43
0.0000000001
 12
1.0
 22
0.0
 32
0.0
 13
1.0
 23
0.0
 33
0.0
 40
0.0
 40
0.0
 40
0.0
 40
0.0
 40
1.0
 40
1.0
 40
1.0
 40
2.0
 40
2.0
 40
2.0
 40
3.0
 40
3.0
 40
3.0
 40
4.0
 40
4.0
 40
4.0
 40
4.0
 10
88.5923529509422
 20
-116.8900227572358
 30
0.0
 10
88.4683295134732
 20
-116.7990722364252
 30
0.0
 10
88.28573945275495
 20
-116.7730617655116
 30
0.0
 10
88.16585012986826
 20
-116.9368760558352
 30
0.0
 10
88.04458276878746
 20
-117.1024128939015
 30
0.0
 10
88.09419214377506
 20
-117.2645046364825
 30
0.0
 10
88.2400919375754
 20
-117.3713025965252
 30
0.0
 10
88.40063338718804
 20
-117.4889526073465
 30
0.0
 10
88.56789277299691
 20
-117.4593247861734
 30
0.0
 10
88.67296818529704
 20
-117.3158365592127
 30
0.0
 10
88.8040540685108
 20
-117.1366915939797
 30
0.0
 10
88.70741914014954
 20
-116.9740830870759
 30
0.0
 10
88.5923529509422
 20
-116.8900227572358
 30
0.0
  0
SPLINE
  5
C8
330
C2
100
AcDbEntity
  8
_U+30EC_U+30A4_U+30E4_U+30FC 1
370
     0
100
AcDbSpline
210
0.0
220
0.0
230
1.0
 70
    11
 71
     3
 72
    17
 73
    13
 74
     0
 42
0.0000000001
 43
0.0000000001
 12
1.0
 22
0.0
 32
0.0
 13
1.0
 23
0.0
 33
0.0
 40
0.0
 40
0.0
 40
0.0
 40
0.0
 40
1.0
 40
1.0
 40
1.0
 40
2.0
 40
2.0
 40
2.0
 40
3.0
 40
3.0
 40
3.0
 40
4.0
 40
4.0
 40
4.0
 40
4.0
 10
88.98233775987248
 20
-116.3572387404419
 30
0.0
 10
88.8398830615574
 20
-116.2531968567874
 30
0.0
 10
88.71069198086053
 20
-116.2766235060871
 30
0.0
 10
88.63076576560273
 20
-116.3858330329695
 30
0.0
 10
88.55824650563822
 20
-116.4848795281705
 30
0.0
 10
88.55032278602215
 20
-116.6257839335172
 30
0.0
 10
88.70362953511577
 20
-116.7379217915621
 30
0.0
 10
88.85693628420938
 20
-116.8502319043812
 30
0.0
 10
88.98888344129445
 20
-116.7999335102966
 30
0.0
 10
89.06140270125896
 20
-116.7008870150956
 30
0.0
 10
89.14132891651676
 20
-116.5916774882132
 30
0.0
 10
89.1227254008964
 20
-116.4600748406767
 30
0.0
 10
88.98233775987248
 20
-116.3572387404419
 30
0.0
  0
HATCH
  5
C9
330
C2
100
AcDbEntity
  8
_U+30EC_U+30A4_U+30E4_U+30FC 1
 62
     7
420
 16777215
100
AcDbHatch
 10
0.0
 20
0.0
 30
0.0
210
0.0
220
0.0
230
1.0
  2
SOLID
 70
     1
 71
     0
 91
        3
 92
        1
 93
        1
 72
     4
 94
        3
 73
     0
 74
     1
 95
       29
 96
       25
 40
0.0
 40
0.0
 40
0.0
 40
0.0
 40
1.0
 40
1.0
 40
1.0
 40
2.0
 40
2.0
 40
2.0
 40
3.0
 40
3.0
 40
3.0
 40
4.0
 40
4.0
 40
4.0
 40
5.0
 40
5.0
 40
5.0
 40
6.0
 40
6.0
 40
6.0
 40
7.0
 40
7.0
 40
7.0
 40
8.0
 40
8.0
 40
8.0
 40
8.0
 10
88.12519800314232
 20
-117.5283989506526
 10
87.89523787950189
 20
-117.3601060361982
 10
87.75760631486615
 20
-117.088977021509
 10
87.9636230248841
 20
-116.8073404655898
 10
88.11486271668656
 20
-116.6008069912491
 10
88.29331866282251
 20
-116.6133815897703
 10
88.42078719577675
 20
-116.6306070671965
 10
88.34809568103798
 20
-116.5039998081136
 10
88.34999048355486
 20
-116.3637844218639
 10
88.4449028641735
 20
-116.2340765768443
 10
88.60733911630302
 20
-116.0120401728199
 10
88.85883108672627
 20
-116.0284043763749
 10
89.09602591088571
 20
-116.2020371888314
 10
89.3404554355642
 20
-116.3808376445159
 10
89.41969263172494
 20
-116.617171194804
 10
89.26225176804903
 20
-116.8323174078579
 10
89.16733938743039
 20
-116.9620252528776
 10
89.0322916444086
 20
-117.0047444368947
 10
88.88966469131925
 20
-116.9737385775274
 10
88.93634573514439
 20
-117.0708902702115
 10
89.01696096949924
 20
-117.247795923379
 10
88.86193167266299
 20
-117.4594970409476
 10
88.64092879728422
 20
-117.761631915004
 10
88.33121471316025
 20
-117.6792941329066
 10
88.12519800314232
 20
-117.5283989506526
 97
        0
 97
        0
 92
        1
 93
        1
 72
     4
 94
        3
 73
     0
 74
     1
 95
       17
 96
       13
 40
0.0
 40
0.0
 40
0.0
 40
0.0
 40
1.0
 40
1.0
 40
1.0
 40
2.0
 40
2.0
 40
2.0
 40
3.0
 40
3.0
 40
3.0
 40
4.0
 40
4.0
 40
4.0
 40
4.0
 10
88.5923529509422
 20
-116.8900227572358
 10
88.4683295134732
 20
-116.7990722364252
 10
88.28573945275495
 20
-116.7730617655116
 10
88.16585012986826
 20
-116.9368760558352
 10
88.04458276878746
 20
-117.1024128939015
 10
88.09419214377506
 20
-117.2645046364825
 10
88.2400919375754
 20
-117.3713025965252
 10
88.40063338718804
 20
-117.4889526073465
 10
88.56789277299691
 20
-117.4593247861734
 10
88.67296818529704
 20
-117.3158365592127
 10
88.8040540685108
 20
-117.1366915939797
 10
88.70741914014954
 20
-116.9740830870759
 10
88.5923529509422
 20
-116.8900227572358
 97
        0
 97
        0
 92
        1
 93
        1
 72
     4
 94
        3
 73
     0
 74
     1
 95
       17
 96
       13
 40
0.0
 40
0.0
 40
0.0
 40
0.0
 40
1.0
 40
1.0
 40
1.0
 40
2.0
 40
2.0
 40
2.0
 40
3.0
 40
3.0
 40
3.0
 40
4.0
 40
4.0
 40
4.0
 40
4.0
 10
88.98233775987248
 20
-116.3572387404419
 10
88.8398830615574
 20
-116.2531968567874
 10
88.71069198086053
 20
-116.2766235060871
 10
88.63076576560273
 20
-116.3858330329695
 10
88.55824650563822
 20
-116.4848795281705
 10
88.55032278602215
 20
-116.6257839335172
 10
88.70362953511577
 20
-116.7379217915621
 10
88.85693628420938
 20
-116.8502319043812
 10
88.98888344129445
 20
-116.7999335102966
 10
89.06140270125896
 20
-116.7008870150956
 10
89.14132891651676
 20
-116.5916774882132
 10
89.1227254008964
 20
-116.4600748406767
 10
88.98233775987248
 20
-116.3572387404419
 97
        0
 97
        0
 75
     2
 76
     1
 98
        0
  0
ENDBLK
  5
C5
330
C2
100
AcDbEntity
  8
0
100
AcDbBlockEnd
  0
ENDSEC
  0
SECTION
  2
ENTITIES
  0
SPLINE
  5
41
330
1F
100
AcDbEntity
  8
_U+30EC_U+30A4_U+30E4_U+30FC 1
370
     0
100
AcDbSpline
210
0.0
220
0.0
230
1.0
 70
    11
 71
     3
 72
    47
 73
    43
 74
     0
 42
0.0000000001
 43
0.0000000001
 12
1.0
 22
0.0
 32
0.0
 13
1.0
 23
0.0
 33
0.0
 40
0.0
 40
0.0
 40
0.0
 40
0.0
 40
1.0
 40
1.0
 40
1.0
 40
2.0
 40
2.0
 40
2.0
 40
3.0
 40
3.0
 40
3.0
 40
4.0
 40
4.0
 40
4.0
 40
5.0
 40
5.0
 40
5.0
 40
6.0
 40
6.0
 40
6.0
 40
7.0
 40
7.0
 40
7.0
 40
8.0
 40
8.0
 40
8.0
 40
9.0
 40
9.0
 40
9.0
 40
10.0
 40
10.0
 40
10.0
 40
11.0
 40
11.0
 40
11.0
 40
12.0
 40
12.0
 40
12.0
 40
13.0
 40
13.0
 40
13.0
 40
14.0
 40
14.0
 40
14.0
 40
14.0
 10
101.5814060195535
 20
-137.3159982990045
 30
0.0
 10
101.5814060195535
 20
-137.3159982990045
 30
0.0
 10
100.6312343771278
 20
-136.3658266325754
 30
0.0
 10
100.6312343771278
 20
-136.3658266325754
 30
0.0
 10
100.6250254883973
 20
-136.3720355214624
 30
0.0
 10
100.6160649330703
 20
-136.3761630214617
 30
0.0
 10
100.6064340999827
 20
-136.3761630214617
 30
0.0
 10
100.5871371560306
 20
-136.3761630214617
 30
0.0
 10
100.5712999748574
 20
-136.3603232992432
 30
0.0
 10
100.5712999748574
 20
-136.3410263548034
 30
0.0
 10
100.5712999748574
 20
-136.3410263548034
 30
0.0
 10
83.371123428581
 20
-136.3410263548034
 30
0.0
 10
83.371123428581
 20
-136.3410263548034
 30
0.0
 10
83.371123428581
 20
-136.3410263548034
 30
0.0
 10
83.371123428581
 20
-120.2805005254853
 30
0.0
 10
83.371123428581
 20
-120.2805005254853
 30
0.0
 10
83.371123428581
 20
-120.2805005254853
 30
0.0
 10
87.20828721957568
 20
-123.3407771913871
 30
0.0
 10
87.20828721957568
 20
-123.3407771913871
 30
0.0
 10
87.20828721957568
 20
-123.3407771913871
 30
0.0
 10
88.95079997776239
 20
-123.3407771913871
 30
0.0
 10
88.95079997776239
 20
-123.3407771913871
 30
0.0
 10
88.95079997776239
 20
-123.3332277469444
 30
0.0
 10
88.95425495281012
 20
-123.3276891358347
 30
0.0
 10
88.95838245270481
 20
-123.3221858025028
 30
0.0
 10
88.95838245270481
 20
-123.3221858025028
 30
0.0
 10
82.39893845338351
 20
-117.9592227482879
 30
0.0
 10
82.39893845338351
 20
-117.9592227482879
 30
0.0
 10
82.39272956465301
 20
-117.968853581619
 30
0.0
 10
82.38376900932606
 20
-117.9760855260615
 30
0.0
 10
82.37138650964197
 20
-117.9760855260615
 30
0.0
 10
82.37138650964197
 20
-117.9760855260615
 30
0.0
 10
82.37138650964197
 20
-137.3056619101182
 30
0.0
 10
82.37138650964197
 20
-137.3056619101182
 30
0.0
 10
82.39064817581723
 20
-137.3056619101182
 30
0.0
 10
82.40652317541222
 20
-137.3215016323361
 30
0.0
 10
82.40652317541222
 20
-137.3407985767759
 30
0.0
 10
82.40652317541222
 20
-137.3407985767759
 30
0.0
 10
101.5710721968293
 20
-137.3407985767759
 30
0.0
 10
101.5710721968293
 20
-137.3407985767759
 30
0.0
 10
101.5710721968293
 20
-137.3311677434451
 30
0.0
 10
101.5751971308231
 20
-137.3222071878916
 30
0.0
 10
101.5814060195535
 20
-137.3159982990045
 30
0.0
  0
HATCH
  5
42
330
1F
100
AcDbEntity
  8
_U+30EC_U+30A4_U+30E4_U+30FC 1
 62
   253
420
 11711154
100
AcDbHatch
 10
0.0
 20
0.0
 30
0.0
210
0.0
220
0.0
230
1.0
  2
SOLID
 70
     1
 71
     0
 91
        1
 92
        1
 93
        1
 72
     4
 94
        3
 73
     0
 74
     1
 95
       47
 96
       43
 40
0.0
 40
0.0
 40
0.0
 40
0.0
 40
1.0
 40
1.0
 40
1.0
 40
2.0
 40
2.0
 40
2.0
 40
3.0
 40
3.0
 40
3.0
 40
4.0
 40
4.0
 40
4.0
 40
5.0
 40
5.0
 40
5.0
 40
6.0
 40
6.0
 40
6.0
 40
7.0
 40
7.0
 40
7.0
 40
8.0
 40
8.0
 40
8.0
 40
9.0
 40
9.0
 40
9.0
 40
10.0
 40
10.0
 40
10.0
 40
11.0
 40
11.0
 40
11.0
 40
12.0
 40
12.0
 40
12.0
 40
13.0
 40
13.0
 40
13.0
 40
14.0
 40
14.0
 40
14.0
 40
14.0
 10
101.5814060195535
 20
-137.3159982990045
 10
101.5814060195535
 20
-137.3159982990045
 10
100.6312343771278
 20
-136.3658266325754
 10
100.6312343771278
 20
-136.3658266325754
 10
100.6250254883973
 20
-136.3720355214624
 10
100.6160649330703
 20
-136.3761630214617
 10
100.6064340999827
 20
-136.3761630214617
 10
100.5871371560306
 20
-136.3761630214617
 10
100.5712999748574
 20
-136.3603232992432
 10
100.5712999748574
 20
-136.3410263548034
 10
100.5712999748574
 20
-136.3410263548034
 10
83.371123428581
 20
-136.3410263548034
 10
83.371123428581
 20
-136.3410263548034
 10
83.371123428581
 20
-136.3410263548034
 10
83.371123428581
 20
-120.2805005254853
 10
83.371123428581
 20
-120.2805005254853
 10
83.371123428581
 20
-120.2805005254853
 10
87.20828721957568
 20
-123.3407771913871
 10
87.20828721957568
 20
-123.3407771913871
 10
87.20828721957568
 20
-123.3407771913871
 10
88.95079997776239
 20
-123.3407771913871
 10
88.95079997776239
 20
-123.3407771913871
 10
88.95079997776239
 20
-123.3332277469444
 10
88.95425495281012
 20
-123.3276891358347
 10
88.95838245270481
 20
-123.3221858025028
 10
88.95838245270481
 20
-123.3221858025028
 10
82.39893845338351
 20
-117.9592227482879
 10
82.39893845338351
 20
-117.9592227482879
 10
82.39272956465301
 20
-117.968853581619
 10
82.38376900932606
 20
-117.9760855260615
 10
82.37138650964197
 20
-117.9760855260615
 10
82.37138650964197
 20
-117.9760855260615
 10
82.37138650964197
 20
-137.3056619101182
 10
82.37138650964197
 20
-137.3056619101182
 10
82.39064817581723
 20
-137.3056619101182
 10
82.40652317541222
 20
-137.3215016323361
 10
82.40652317541222
 20
-137.3407985767759
 10
82.40652317541222
 20
-137.3407985767759
 10
101.5710721968293
 20
-137.3407985767759
 10
101.5710721968293
 20
-137.3407985767759
 10
101.5710721968293
 20
-137.3311677434451
 10
101.5751971308231
 20
-137.3222071878916
 10
101.5814060195535
 20
-137.3159982990045
 97
        0
 97
        0
 75
     2
 76
     1
 98
        0
  0
POLYLINE
  5
43
330
1F
100
AcDbEntity
  8
_U+30EC_U+30A4_U+30E4_U+30FC 1
 62
     7
420
 16777215
370
    25
100
AcDb2dPolyline
 66
     1
 10
0.0
 20
0.0
 30
0.0
  0
VERTEX
  5
44
330
43
100
AcDbEntity
  8
_U+30EC_U+30A4_U+30E4_U+30FC 1
 62
     7
420
 16777215
370
    25
100
AcDbVertex
100
AcDb2dVertex
 10
82.37138650964197
 20
-137.3407985767759
 30
0.0
  0
VERTEX
  5
45
330
43
100
AcDbEntity
  8
_U+30EC_U+30A4_U+30E4_U+30FC 1
 62
     7
420
 16777215
370
    25
100
AcDbVertex
100
AcDb2dVertex
 10
82.37138650964197
 20
-117.940596081626
 30
0.0
  0
VERTEX
  5
46
330
43
100
AcDbEntity
  8
_U+30EC_U+30A4_U+30E4_U+30FC 1
 62
     7
420
 16777215
370
    25
100
AcDbVertex
100
AcDb2dVertex
 10
88.98596967422323
 20
-123.3407771913871
 30
0.0
  0
VERTEX
  5
47
330
43
100
AcDbEntity
  8
_U+30EC_U+30A4_U+30E4_U+30FC 1
 62
     7
420
 16777215
370
    25
100
AcDbVertex
100
AcDb2dVertex
 10
87.20828721957568
 20
-123.3407771913871
 30
0.0
  0
VERTEX
  5
48
330
43
100
AcDbEntity
  8
_U+30EC_U+30A4_U+30E4_U+30FC 1
 62
     7
420
 16777215
370
    25
100
AcDbVertex
100
AcDb2dVertex
 10
83.371123428581
 20
-120.2805005254853
 30
0.0
  0
VERTEX
  5
49
330
43
100
AcDbEntity
  8
_U+30EC_U+30A4_U+30E4_U+30FC 1
 62
     7
420
 16777215
370
    25
100
AcDbVertex
100
AcDb2dVertex
 10
83.371123428581
 20
-136.3410263548034
 30
0.0
  0
VERTEX
  5
4A
330
43
100
AcDbEntity
  8
_U+30EC_U+30A4_U+30E4_U+30FC 1
 62
     7
420
 16777215
370
    25
100
AcDbVertex
100
AcDb2dVertex
 10
100.6064340999827
 20
-136.3410263548034
 30
0.0
  0
VERTEX
  5
4B
330
43
100
AcDbEntity
  8
_U+30EC_U+30A4_U+30E4_U+30FC 1
 62
     7
420
 16777215
370
    25
100
AcDbVertex
100
AcDb2dVertex
 10
101.6062062966986
 20
-137.3407985767759
 30
0.0
  0
VERTEX
  5
4C
330
43
100
AcDbEntity
  8
_U+30EC_U+30A4_U+30E4_U+30FC 1
 62
     7
420
 16777215
370
    25
100
AcDbVertex
100
AcDb2dVertex
 10
82.37138650964197
 20
-137.3407985767759
 30
0.0
  0
SEQEND
  5
4D
330
43
100
AcDbEntity
  8
_U+30EC_U+30A4_U+30E4_U+30FC 1
 62
     7
420
 16777215
370
    25
  0
SPLINE
  5
4E
330
1F
100
AcDbEntity
  8
_U+30EC_U+30A4_U+30E4_U+30FC 1
 62
     7
420
 16777215
370
     9
100
AcDbSpline
210
0.0
220
0.0
230
1.0
 70
    11
 71
     3
 72
    17
 73
    13
 74
     0
 42
0.0000000001
 43
0.0000000001
 12
1.0
 22
0.0
 32
0.0
 13
1.0
 23
0.0
 33
0.0
 40
0.0
 40
0.0
 40
0.0
 40
0.0
 40
1.0
 40
1.0
 40
1.0
 40
2.0
 40
2.0
 40
2.0
 40
3.0
 40
3.0
 40
3.0
 40
4.0
 40
4.0
 40
4.0
 40
4.0
 10
78.47153609149333
 20
-137.3407985767759
 30
0.0
 10
78.47153609149333
 20
-137.285694687901
 30
0.0
 10
78.42673331372661
 20
-137.2408919101343
 30
0.0
 10
78.37162744501765
 20
-137.2408919101343
 30
0.0
 10
78.3164882797577
 20
-137.2408919101343
 30
0.0
 10
78.27172078089981
 20
-137.285694687901
 30
0.0
 10
78.27172078089981
 20
-137.3407985767759
 30
0.0
 10
78.27172078089981
 20
-137.395937743429
 30
0.0
 10
78.3164882797577
 20
-137.4407052434176
 30
0.0
 10
78.37162744501765
 20
-137.4407052434176
 30
0.0
 10
78.42673331372661
 20
-137.4407052434176
 30
0.0
 10
78.47153609149333
 20
-137.395937743429
 30
0.0
 10
78.47153609149333
 20
-137.3407985767759
 30
0.0
  0
SPLINE
  5
4F
330
1F
100
AcDbEntity
  8
_U+30EC_U+30A4_U+30E4_U+30FC 1
 62
     7
420
 16777215
370
     9
100
AcDbSpline
210
0.0
220
0.0
230
1.0
 70
    11
 71
     3
 72
    17
 73
    13
 74
     0
 42
0.0000000001
 43
0.0000000001
 12
1.0
 22
0.0
 32
0.0
 13
1.0
 23
0.0
 33
0.0
 40
0.0
 40
0.0
 40
0.0
 40
0.0
 40
1.0
 40
1.0
 40
1.0
 40
2.0
 40
2.0
 40
2.0
 40
3.0
 40
3.0
 40
3.0
 40
4.0
 40
4.0
 40
4.0
 40
4.0
 10
82.4712931737598
 20
-141.3398521868873
 30
0.0
 10
82.4712931737598
 20
-141.2847482980124
 30
0.0
 10
82.42649039712504
 20
-141.2399455202456
 30
0.0
 10
82.37138650964197
 20
-141.2399455202456
 30
0.0
 10
82.31624734438202
 20
-141.2399455202456
 30
0.0
 10
82.27144456774725
 20
-141.2847482980124
 30
0.0
 10
82.27144456774725
 20
-141.3398521868873
 30
0.0
 10
82.27144456774725
 20
-141.3956616313177
 30
0.0
 10
82.31624734438202
 20
-141.4404644090844
 30
0.0
 10
82.37138650964197
 20
-141.4404644090844
 30
0.0
 10
82.42649039712504
 20
-141.4404644090844
 30
0.0
 10
82.4712931737598
 20
-141.3956616313177
 30
0.0
 10
82.4712931737598
 20
-141.3398521868873
 30
0.0
  0
SPLINE
  5
50
330
1F
100
AcDbEntity
  8
_U+30EC_U+30A4_U+30E4_U+30FC 1
 62
     7
420
 16777215
370
     9
100
AcDbSpline
210
0.0
220
0.0
230
1.0
 70
    11
 71
     3
 72
    17
 73
    13
 74
     0
 42
0.0000000001
 43
0.0000000001
 12
1.0
 22
0.0
 32
0.0
 13
1.0
 23
0.0
 33
0.0
 40
0.0
 40
0.0
 40
0.0
 40
0.0
 40
1.0
 40
1.0
 40
1.0
 40
2.0
 40
2.0
 40
2.0
 40
3.0
 40
3.0
 40
3.0
 40
4.0
 40
4.0
 40
4.0
 40
4.0
 10
105.7065423032014
 20
-136.3410263548034
 30
0.0
 10
105.7065423032014
 20
-136.2859224659285
 30
0.0
 10
105.6617748043436
 20
-136.2411196881617
 30
0.0
 10
105.6059653613229
 20
-136.2411196881617
 30
0.0
 10
105.550826196063
 20
-136.2411196881617
 30
0.0
 10
105.5060586972051
 20
-136.2859224659285
 30
0.0
 10
105.5060586972051
 20
-136.3410263548034
 30
0.0
 10
105.5060586972051
 20
-136.3961655214565
 30
0.0
 10
105.550826196063
 20
-136.440933021445
 30
0.0
 10
105.6059653613229
 20
-136.440933021445
 30
0.0
 10
105.6617748043436
 20
-136.440933021445
 30
0.0
 10
105.7065423032014
 20
-136.3961655214565
 30
0.0
 10
105.7065423032014
 20
-136.3410263548034
 30
0.0
  0
SPLINE
  5
51
330
1F
100
AcDbEntity
  8
_U+30EC_U+30A4_U+30E4_U+30FC 1
 62
     7
420
 16777215
370
     9
100
AcDbSpline
210
0.0
220
0.0
230
1.0
 70
    11
 71
     3
 72
    17
 73
    13
 74
     0
 42
0.0000000001
 43
0.0000000001
 12
1.0
 22
0.0
 32
0.0
 13
1.0
 23
0.0
 33
0.0
 40
0.0
 40
0.0
 40
0.0
 40
0.0
 40
1.0
 40
1.0
 40
1.0
 40
2.0
 40
2.0
 40
2.0
 40
3.0
 40
3.0
 40
3.0
 40
4.0
 40
4.0
 40
4.0
 40
4.0
 10
105.7065423032014
 20
-137.3407985767759
 30
0.0
 10
105.7065423032014
 20
-137.285694687901
 30
0.0
 10
105.6617748043436
 20
-137.2408919101343
 30
0.0
 10
105.6059653613229
 20
-137.2408919101343
 30
0.0
 10
105.550826196063
 20
-137.2408919101343
 30
0.0
 10
105.5060586972051
 20
-137.285694687901
 30
0.0
 10
105.5060586972051
 20
-137.3407985767759
 30
0.0
 10
105.5060586972051
 20
-137.395937743429
 30
0.0
 10
105.550826196063
 20
-137.4407052434176
 30
0.0
 10
105.6059653613229
 20
-137.4407052434176
 30
0.0
 10
105.6617748043436
 20
-137.4407052434176
 30
0.0
 10
105.7065423032014
 20
-137.395937743429
 30
0.0
 10
105.7065423032014
 20
-137.3407985767759
 30
0.0
  0
SPLINE
  5
52
330
1F
100
AcDbEntity
  8
_U+30EC_U+30A4_U+30E4_U+30FC 1
 62
     7
420
 16777215
370
     9
100
AcDbSpline
210
0.0
220
0.0
230
1.0
 70
    11
 71
     3
 72
    17
 73
    13
 74
     0
 42
0.0000000001
 43
0.0000000001
 12
1.0
 22
0.0
 32
0.0
 13
1.0
 23
0.0
 33
0.0
 40
0.0
 40
0.0
 40
0.0
 40
0.0
 40
1.0
 40
1.0
 40
1.0
 40
2.0
 40
2.0
 40
2.0
 40
3.0
 40
3.0
 40
3.0
 40
4.0
 40
4.0
 40
4.0
 40
4.0
 10
101.7061129608164
 20
-141.3398521868873
 30
0.0
 10
101.7061129608164
 20
-141.2847482980124
 30
0.0
 10
101.6613101841817
 20
-141.2399455202456
 30
0.0
 10
101.6062062966986
 20
-141.2399455202456
 30
0.0
 10
101.5510671314387
 20
-141.2399455202456
 30
0.0
 10
101.5062996325808
 20
-141.2847482980124
 30
0.0
 10
101.5062996325808
 20
-141.3398521868873
 30
0.0
 10
101.5062996325808
 20
-141.3956616313177
 30
0.0
 10
101.5510671314387
 20
-141.4404644090844
 30
0.0
 10
101.6062062966986
 20
-141.4404644090844
 30
0.0
 10
101.6613101841817
 20
-141.4404644090844
 30
0.0
 10
101.7061129608164
 20
-141.3956616313177
 30
0.0
 10
101.7061129608164
 20
-141.3398521868873
 30
0.0
  0
SPLINE
  5
53
330
1F
100
AcDbEntity
  8
_U+30EC_U+30A4_U+30E4_U+30FC 1
 62
     7
420
 16777215
370
     9
100
AcDbSpline
210
0.0
220
0.0
230
1.0
 70
    11
 71
     3
 72
    17
 73
    13
 74
     0
 42
0.0000000001
 43
0.0000000001
 12
1.0
 22
0.0
 32
0.0
 13
1.0
 23
0.0
 33
0.0
 40
0.0
 40
0.0
 40
0.0
 40
0.0
 40
1.0
 40
1.0
 40
1.0
 40
2.0
 40
2.0
 40
2.0
 40
3.0
 40
3.0
 40
3.0
 40
4.0
 40
4.0
 40
4.0
 40
4.0
 10
78.47153609149333
 20
-117.940596081626
 30
0.0
 10
78.47153609149333
 20
-117.8854921927508
 30
0.0
 10
78.42673331372661
 20
-117.8406894149844
 30
0.0
 10
78.37162744501765
 20
-117.8406894149844
 30
0.0
 10
78.3164882797577
 20
-117.8406894149844
 30
0.0
 10
78.27172078089981
 20
-117.8854921927508
 30
0.0
 10
78.27172078089981
 20
-117.940596081626
 30
0.0
 10
78.27172078089981
 20
-117.9960880260566
 30
0.0
 10
78.3164882797577
 20
-118.0408555260454
 30
0.0
 10
78.37162744501765
 20
-118.0408555260454
 30
0.0
 10
78.42673331372661
 20
-118.0408555260454
 30
0.0
 10
78.47153609149333
 20
-117.9960880260566
 30
0.0
 10
78.47153609149333
 20
-117.940596081626
 30
0.0
  0
SPLINE
  5
54
330
1F
100
AcDbEntity
  8
_U+30EC_U+30A4_U+30E4_U+30FC 1
 62
     7
420
 16777215
370
     9
100
AcDbSpline
210
0.0
220
0.0
230
1.0
 70
    11
 71
     3
 72
    17
 73
    13
 74
     0
 42
0.0000000001
 43
0.0000000001
 12
1.0
 22
0.0
 32
0.0
 13
1.0
 23
0.0
 33
0.0
 40
0.0
 40
0.0
 40
0.0
 40
0.0
 40
1.0
 40
1.0
 40
1.0
 40
2.0
 40
2.0
 40
2.0
 40
3.0
 40
3.0
 40
3.0
 40
4.0
 40
4.0
 40
4.0
 40
4.0
 10
91.26110406062415
 20
-120.1554408032945
 30
0.0
 10
91.26315017168307
 20
-120.1003369144193
 30
0.0
 10
91.21975850612341
 20
-120.0541583033197
 30
0.0
 10
91.16461934086347
 20
-120.0527824699868
 30
0.0
 10
91.1095154533804
 20
-120.0507363588762
 30
0.0
 10
91.06333684344739
 20
-120.0934577477546
 30
0.0
 10
91.06129073238849
 20
-120.1485616366295
 30
0.0
 10
91.05991489909024
 20
-120.2037008032825
 30
0.0
 10
91.10263628688922
 20
-120.2498441366043
 30
0.0
 10
91.1577401743723
 20
-120.2519255254927
 30
0.0
 10
91.21287933963225
 20
-120.2539716366033
 30
0.0
 10
91.2590249771852
 20
-120.2105799699473
 30
0.0
 10
91.26110406062415
 20
-120.1554408032945
 30
0.0
  0
SPLINE
  5
55
330
1F
100
AcDbEntity
  8
_U+30EC_U+30A4_U+30E4_U+30FC 1
 62
     7
420
 16777215
370
     9
100
AcDbSpline
210
0.0
220
0.0
230
1.0
 70
    11
 71
     3
 72
    17
 73
    13
 74
     0
 42
0.0000000001
 43
0.0000000001
 12
1.0
 22
0.0
 32
0.0
 13
1.0
 23
0.0
 33
0.0
 40
0.0
 40
0.0
 40
0.0
 40
0.0
 40
1.0
 40
1.0
 40
1.0
 40
2.0
 40
2.0
 40
2.0
 40
3.0
 40
3.0
 40
3.0
 40
4.0
 40
4.0
 40
4.0
 40
4.0
 10
84.80844589191184
 20
-115.4281127489207
 30
0.0
 10
84.81049200297076
 20
-115.3723033044903
 30
0.0
 10
84.76710033741111
 20
-115.3261246933907
 30
0.0
 10
84.71231394991993
 20
-115.3240433045023
 30
0.0
 10
84.65650450689931
 20
-115.3226674711694
 30
0.0
 10
84.61000839697441
 20
-115.3653888600477
 30
0.0
 10
84.6082797859074
 20
-115.4205280267005
 30
0.0
 10
84.60619839707161
 20
-115.4756319155757
 30
0.0
 10
84.64927256263937
 20
-115.521810526675
 30
0.0
 10
84.70508200565999
 20
-115.5238566377855
 30
0.0
 10
84.76018589314306
 20
-115.525938026674
 30
0.0
 10
84.80671942324274
 20
-115.4825463600183
 30
0.0
 10
84.80844589191184
 20
-115.4281127489207
 30
0.0
  0
SPLINE
  5
56
330
1F
100
AcDbEntity
  8
_U+30EC_U+30A4_U+30E4_U+30FC 1
 62
     7
420
 16777215
370
     9
100
AcDbSpline
210
0.0
220
0.0
230
1.0
 70
    11
 71
     3
 72
    17
 73
    13
 74
     0
 42
0.0000000001
 43
0.0000000001
 12
1.0
 22
0.0
 32
0.0
 13
1.0
 23
0.0
 33
0.0
 40
0.0
 40
0.0
 40
0.0
 40
0.0
 40
1.0
 40
1.0
 40
1.0
 40
2.0
 40
2.0
 40
2.0
 40
3.0
 40
3.0
 40
3.0
 40
4.0
 40
4.0
 40
4.0
 40
4.0
 10
105.7065423032014
 20
-123.3407771913871
 30
0.0
 10
105.7065423032014
 20
-123.2856733025119
 30
0.0
 10
105.6617748043436
 20
-123.2408705247452
 30
0.0
 10
105.6059653613229
 20
-123.2408705247452
 30
0.0
 10
105.550826196063
 20
-123.2408705247452
 30
0.0
 10
105.5060586972051
 20
-123.2856733025119
 30
0.0
 10
105.5060586972051
 20
-123.3407771913871
 30
0.0
 10
105.5060586972051
 20
-123.3959163580399
 30
0.0
 10
105.550826196063
 20
-123.4406838580288
 30
0.0
 10
105.6059653613229
 20
-123.4406838580288
 30
0.0
 10
105.6617748043436
 20
-123.4406838580288
 30
0.0
 10
105.7065423032014
 20
-123.3959163580399
 30
0.0
 10
105.7065423032014
 20
-123.3407771913871
 30
0.0
  0
POLYLINE
  5
57
330
1F
100
AcDbEntity
  8
_U+30EC_U+30A4_U+30E4_U+30FC 1
 62
     7
420
 16777215
370
     9
100
AcDb2dPolyline
 66
     1
 10
0.0
 20
0.0
 30
0.0
  0
VERTEX
  5
58
330
57
100
AcDbEntity
  8
_U+30EC_U+30A4_U+30E4_U+30FC 1
 62
     7
420
 16777215
370
     9
100
AcDbVertex
100
AcDb2dVertex
 10
82.37138650964197
 20
-141.3398521868873
 30
0.0
  0
VERTEX
  5
59
330
57
100
AcDbEntity
  8
_U+30EC_U+30A4_U+30E4_U+30FC 1
 62
     7
420
 16777215
370
     9
100
AcDbVertex
100
AcDb2dVertex
 10
101.6062062966986
 20
-141.3398521868873
 30
0.0
  0
SEQEND
  5
5A
330
57
100
AcDbEntity
  8
_U+30EC_U+30A4_U+30E4_U+30FC 1
 62
     7
420
 16777215
370
     9
  0
POLYLINE
  5
5B
330
1F
100
AcDbEntity
  8
_U+30EC_U+30A4_U+30E4_U+30FC 1
 62
     7
420
 16777215
370
     9
100
AcDb2dPolyline
 66
     1
 10
0.0
 20
0.0
 30
0.0
  0
VERTEX
  5
5C
330
5B
100
AcDbEntity
  8
_U+30EC_U+30A4_U+30E4_U+30FC 1
 62
     7
420
 16777215
370
     9
100
AcDbVertex
100
AcDb2dVertex
 10
82.37138650964197
 20
-139.8798460761411
 30
0.0
  0
VERTEX
  5
5D
330
5B
100
AcDbEntity
  8
_U+30EC_U+30A4_U+30E4_U+30FC 1
 62
     7
420
 16777215
370
     9
100
AcDbVertex
100
AcDb2dVertex
 10
82.37138650964197
 20
-142.3403299644147
 30
0.0
  0
SEQEND
  5
5E
330
5B
100
AcDbEntity
  8
_U+30EC_U+30A4_U+30E4_U+30FC 1
 62
     7
420
 16777215
370
     9
  0
POLYLINE
  5
5F
330
1F
100
AcDbEntity
  8
_U+30EC_U+30A4_U+30E4_U+30FC 1
 62
     7
420
 16777215
370
     9
100
AcDb2dPolyline
 66
     1
 10
0.0
 20
0.0
 30
0.0
  0
VERTEX
  5
60
330
5F
100
AcDbEntity
  8
_U+30EC_U+30A4_U+30E4_U+30FC 1
 62
     7
420
 16777215
370
     9
100
AcDbVertex
100
AcDb2dVertex
 10
101.6062062966986
 20
-139.8798460761411
 30
0.0
  0
VERTEX
  5
61
330
5F
100
AcDbEntity
  8
_U+30EC_U+30A4_U+30E4_U+30FC 1
 62
     7
420
 16777215
370
     9
100
AcDbVertex
100
AcDb2dVertex
 10
101.6062062966986
 20
-142.3403299644147
 30
0.0
  0
SEQEND
  5
62
330
5F
100
AcDbEntity
  8
_U+30EC_U+30A4_U+30E4_U+30FC 1
 62
     7
420
 16777215
370
     9
  0
INSERT
  5
64
330
1F
100
AcDbEntity
  8
_U+30EC_U+30A4_U+30E4_U+30FC 1
100
AcDbBlockReference
  2
block 2
 10
0.0
 20
0.0
 30
0.0
  0
SPLINE
  5
76
330
1F
100
AcDbEntity
  8
_U+30EC_U+30A4_U+30E4_U+30FC 1
 62
     7
420
 16777215
370
     9
100
AcDbSpline
210
0.0
220
0.0
230
1.0
 70
    11
 71
     3
 72
    17
 73
    13
 74
     0
 42
0.0000000001
 43
0.0000000001
 12
1.0
 22
0.0
 32
0.0
 13
1.0
 23
0.0
 33
0.0
 40
0.0
 40
0.0
 40
0.0
 40
0.0
 40
1.0
 40
1.0
 40
1.0
 40
2.0
 40
2.0
 40
2.0
 40
3.0
 40
3.0
 40
3.0
 40
4.0
 40
4.0
 40
4.0
 40
4.0
 10
101.6413429624689
 20
-141.3398521868873
 30
0.0
 10
101.6413429624689
 20
-141.359854686882
 30
0.0
 10
101.6255032406507
 20
-141.3756944091005
 30
0.0
 10
101.6062062966986
 20
-141.3756944091005
 30
0.0
 10
101.5869093527465
 20
-141.3756944091005
 30
0.0
 10
101.5710721968293
 20
-141.359854686882
 30
0.0
 10
101.5710721968293
 20
-141.3398521868873
 30
0.0
 10
101.5710721968293
 20
-141.3205905202256
 30
0.0
 10
101.5869093527465
 20
-141.3047155202296
 30
0.0
 10
101.6062062966986
 20
-141.3047155202296
 30
0.0
 10
101.6255032406507
 20
-141.3047155202296
 30
0.0
 10
101.6413429624689
 20
-141.3205905202256
 30
0.0
 10
101.6413429624689
 20
-141.3398521868873
 30
0.0
  0
POLYLINE
  5
77
330
1F
100
AcDbEntity
  8
_U+30EC_U+30A4_U+30E4_U+30FC 1
 62
     7
420
 16777215
370
     9
100
AcDb2dPolyline
 66
     1
 10
0.0
 20
0.0
 30
0.0
  0
VERTEX
  5
78
330
77
100
AcDbEntity
  8
_U+30EC_U+30A4_U+30E4_U+30FC 1
 62
     7
420
 16777215
370
     9
100
AcDbVertex
100
AcDb2dVertex
 10
78.37162744501765
 20
-117.940596081626
 30
0.0
  0
VERTEX
  5
79
330
77
100
AcDbEntity
  8
_U+30EC_U+30A4_U+30E4_U+30FC 1
 62
     7
420
 16777215
370
     9
100
AcDbVertex
100
AcDb2dVertex
 10
78.37162744501765
 20
-137.3407985767759
 30
0.0
  0
SEQEND
  5
7A
330
77
100
AcDbEntity
  8
_U+30EC_U+30A4_U+30E4_U+30FC 1
 62
     7
420
 16777215
370
     9
  0
POLYLINE
  5
7B
330
1F
100
AcDbEntity
  8
_U+30EC_U+30A4_U+30E4_U+30FC 1
 62
     7
420
 16777215
370
     9
100
AcDb2dPolyline
 66
     1
 10
0.0
 20
0.0
 30
0.0
  0
VERTEX
  5
7C
330
7B
100
AcDbEntity
  8
_U+30EC_U+30A4_U+30E4_U+30FC 1
 62
     7
420
 16777215
370
     9
100
AcDbVertex
100
AcDb2dVertex
 10
79.8316335188809
 20
-117.940596081626
 30
0.0
  0
VERTEX
  5
7D
330
7B
100
AcDbEntity
  8
_U+30EC_U+30A4_U+30E4_U+30FC 1
 62
     7
420
 16777215
370
     9
100
AcDbVertex
100
AcDb2dVertex
 10
77.37114969276419
 20
-117.940596081626
 30
0.0
  0
SEQEND
  5
7E
330
7B
100
AcDbEntity
  8
_U+30EC_U+30A4_U+30E4_U+30FC 1
 62
     7
420
 16777215
370
     9
  0
POLYLINE
  5
7F
330
1F
100
AcDbEntity
  8
_U+30EC_U+30A4_U+30E4_U+30FC 1
 62
     7
420
 16777215
370
     9
100
AcDb2dPolyline
 66
     1
 10
0.0
 20
0.0
 30
0.0
  0
VERTEX
  5
80
330
7F
100
AcDbEntity
  8
_U+30EC_U+30A4_U+30E4_U+30FC 1
 62
     7
420
 16777215
370
     9
100
AcDbVertex
100
AcDb2dVertex
 10
79.8316335188809
 20
-137.3407985767759
 30
0.0
  0
VERTEX
  5
81
330
7F
100
AcDbEntity
  8
_U+30EC_U+30A4_U+30E4_U+30FC 1
 62
     7
420
 16777215
370
     9
100
AcDbVertex
100
AcDb2dVertex
 10
77.37114969276419
 20
-137.3407985767759
 30
0.0
  0
SEQEND
  5
82
330
7F
100
AcDbEntity
  8
_U+30EC_U+30A4_U+30E4_U+30FC 1
 62
     7
420
 16777215
370
     9
  0
INSERT
  5
84
330
1F
100
AcDbEntity
  8
_U+30EC_U+30A4_U+30E4_U+30FC 1
100
AcDbBlockReference
  2
block 3
 10
0.0
 20
0.0
 30
0.0
  0
SPLINE
  5
96
330
1F
100
AcDbEntity
  8
_U+30EC_U+30A4_U+30E4_U+30FC 1
 62
     7
420
 16777215
370
     9
100
AcDbSpline
210
0.0
220
0.0
230
1.0
 70
    11
 71
     3
 72
    17
 73
    13
 74
     0
 42
0.0000000001
 43
0.0000000001
 12
1.0
 22
0.0
 32
0.0
 13
1.0
 23
0.0
 33
0.0
 40
0.0
 40
0.0
 40
0.0
 40
0.0
 40
1.0
 40
1.0
 40
1.0
 40
2.0
 40
2.0
 40
2.0
 40
3.0
 40
3.0
 40
3.0
 40
4.0
 40
4.0
 40
4.0
 40
4.0
 10
78.4067641107879
 20
-137.3407985767759
 30
0.0
 10
78.4067641107879
 20
-137.3600955212158
 30
0.0
 10
78.39088911119292
 20
-137.3759352434336
 30
0.0
 10
78.37162744501765
 20
-137.3759352434336
 30
0.0
 10
78.35162494552796
 20
-137.3759352434336
 30
0.0
 10
78.3364907792474
 20
-137.3600955212158
 30
0.0
 10
78.3364907792474
 20
-137.3407985767759
 30
0.0
 10
78.3364907792474
 20
-137.3215016323361
 30
0.0
 10
78.35162494552796
 20
-137.3056619101182
 30
0.0
 10
78.37162744501765
 20
-137.3056619101182
 30
0.0
 10
78.39088911119292
 20
-137.3056619101182
 30
0.0
 10
78.4067641107879
 20
-137.3215016323361
 30
0.0
 10
78.4067641107879
 20
-137.3407985767759
 30
0.0
  0
POLYLINE
  5
97
330
1F
100
AcDbEntity
  8
_U+30EC_U+30A4_U+30E4_U+30FC 1
 62
     7
420
 16777215
370
     9
100
AcDb2dPolyline
 66
     1
 10
0.0
 20
0.0
 30
0.0
  0
VERTEX
  5
98
330
97
100
AcDbEntity
  8
_U+30EC_U+30A4_U+30E4_U+30FC 1
 62
     7
420
 16777215
370
     9
100
AcDbVertex
100
AcDb2dVertex
 10
105.6059653613229
 20
-137.3407985767759
 30
0.0
  0
VERTEX
  5
99
330
97
100
AcDbEntity
  8
_U+30EC_U+30A4_U+30E4_U+30FC 1
 62
     7
420
 16777215
370
     9
100
AcDbVertex
100
AcDb2dVertex
 10
105.6059653613229
 20
-123.3407771913871
 30
0.0
  0
SEQEND
  5
9A
330
97
100
AcDbEntity
  8
_U+30EC_U+30A4_U+30E4_U+30FC 1
 62
     7
420
 16777215
370
     9
  0
POLYLINE
  5
9B
330
1F
100
AcDbEntity
  8
_U+30EC_U+30A4_U+30E4_U+30FC 1
 62
     7
420
 16777215
370
     9
100
AcDb2dPolyline
 66
     1
 10
0.0
 20
0.0
 30
0.0
  0
VERTEX
  5
9C
330
9B
100
AcDbEntity
  8
_U+30EC_U+30A4_U+30E4_U+30FC 1
 62
     7
420
 16777215
370
     9
100
AcDbVertex
100
AcDb2dVertex
 10
103.1461518129669
 20
-136.3410263548034
 30
0.0
  0
VERTEX
  5
9D
330
9B
100
AcDbEntity
  8
_U+30EC_U+30A4_U+30E4_U+30FC 1
 62
     7
420
 16777215
370
     9
100
AcDbVertex
100
AcDb2dVertex
 10
106.6064078357995
 20
-136.3410263548034
 30
0.0
  0
SEQEND
  5
9E
330
9B
100
AcDbEntity
  8
_U+30EC_U+30A4_U+30E4_U+30FC 1
 62
     7
420
 16777215
370
     9
  0
POLYLINE
  5
9F
330
1F
100
AcDbEntity
  8
_U+30EC_U+30A4_U+30E4_U+30FC 1
 62
     7
420
 16777215
370
     9
100
AcDb2dPolyline
 66
     1
 10
0.0
 20
0.0
 30
0.0
  0
VERTEX
  5
A0
330
9F
100
AcDbEntity
  8
_U+30EC_U+30A4_U+30E4_U+30FC 1
 62
     7
420
 16777215
370
     9
100
AcDbVertex
100
AcDb2dVertex
 10
103.1461518129669
 20
-137.3407985767759
 30
0.0
  0
VERTEX
  5
A1
330
9F
100
AcDbEntity
  8
_U+30EC_U+30A4_U+30E4_U+30FC 1
 62
     7
420
 16777215
370
     9
100
AcDbVertex
100
AcDb2dVertex
 10
106.6064078357995
 20
-137.3407985767759
 30
0.0
  0
SEQEND
  5
A2
330
9F
100
AcDbEntity
  8
_U+30EC_U+30A4_U+30E4_U+30FC 1
 62
     7
420
 16777215
370
     9
  0
POLYLINE
  5
A3
330
1F
100
AcDbEntity
  8
_U+30EC_U+30A4_U+30E4_U+30FC 1
 62
     7
420
 16777215
370
     9
100
AcDb2dPolyline
 66
     1
 10
0.0
 20
0.0
 30
0.0
  0
VERTEX
  5
A4
330
A3
100
AcDbEntity
  8
_U+30EC_U+30A4_U+30E4_U+30FC 1
 62
     7
420
 16777215
370
     9
100
AcDbVertex
100
AcDb2dVertex
 10
98.76055970263043
 20
-123.3407771913871
 30
0.0
  0
VERTEX
  5
A5
330
A3
100
AcDbEntity
  8
_U+30EC_U+30A4_U+30E4_U+30FC 1
 62
     7
420
 16777215
370
     9
100
AcDbVertex
100
AcDb2dVertex
 10
106.6064078357995
 20
-123.3407771913871
 30
0.0
  0
SEQEND
  5
A6
330
A3
100
AcDbEntity
  8
_U+30EC_U+30A4_U+30E4_U+30FC 1
 62
     7
420
 16777215
370
     9
  0
INSERT
  5
A8
330
1F
100
AcDbEntity
  8
_U+30EC_U+30A4_U+30E4_U+30FC 1
100
AcDbBlockReference
  2
block 4
 10
0.0
 20
0.0
 30
0.0
  0
INSERT
  5
B0
330
1F
100
AcDbEntity
  8
_U+30EC_U+30A4_U+30E4_U+30FC 1
100
AcDbBlockReference
  2
block 5
 10
0.0
 20
0.0
 30
0.0
  0
SPLINE
  5
B5
330
1F
100
AcDbEntity
  8
_U+30EC_U+30A4_U+30E4_U+30FC 1
 62
     7
420
 16777215
370
     9
100
AcDbSpline
210
0.0
220
0.0
230
1.0
 70
    11
 71
     3
 72
    17
 73
    13
 74
     0
 42
0.0000000001
 43
0.0000000001
 12
1.0
 22
0.0
 32
0.0
 13
1.0
 23
0.0
 33
0.0
 40
0.0
 40
0.0
 40
0.0
 40
0.0
 40
1.0
 40
1.0
 40
1.0
 40
2.0
 40
2.0
 40
2.0
 40
3.0
 40
3.0
 40
3.0
 40
4.0
 40
4.0
 40
4.0
 40
4.0
 10
105.6417749735897
 20
-123.3407771913871
 30
0.0
 10
105.6417749735897
 20
-123.3600741358267
 30
0.0
 10
105.6259325830357
 20
-123.3759491358227
 30
0.0
 10
105.6059653613229
 20
-123.3759491358227
 30
0.0
 10
105.5866684173708
 20
-123.3759491358227
 30
0.0
 10
105.5708286955527
 20
-123.3600741358267
 30
0.0
 10
105.5708286955527
 20
-123.3407771913871
 30
0.0
 10
105.5708286955527
 20
-123.3215155247252
 30
0.0
 10
105.5866684173708
 20
-123.3056405247291
 30
0.0
 10
105.6059653613229
 20
-123.3056405247291
 30
0.0
 10
105.6259325830357
 20
-123.3056405247291
 30
0.0
 10
105.6417749735897
 20
-123.3215155247252
 30
0.0
 10
105.6417749735897
 20
-123.3407771913871
 30
0.0
  0
POLYLINE
  5
B6
330
1F
100
AcDbEntity
  8
_U+30EC_U+30A4_U+30E4_U+30FC 1
 62
     7
420
 16777215
370
     9
100
AcDb2dPolyline
 66
     1
 10
0.0
 20
0.0
 30
0.0
  0
VERTEX
  5
B7
330
B6
100
AcDbEntity
  8
_U+30EC_U+30A4_U+30E4_U+30FC 1
 62
     7
420
 16777215
370
     9
100
AcDbVertex
100
AcDb2dVertex
 10
84.708539227794
 20
-115.4246555266994
 30
0.0
  0
VERTEX
  5
B8
330
B6
100
AcDbEntity
  8
_U+30EC_U+30A4_U+30E4_U+30FC 1
 62
     7
420
 16777215
370
     9
100
AcDbVertex
100
AcDb2dVertex
 10
91.16119739650632
 20
-120.1520188588508
 30
0.0
  0
SEQEND
  5
B9
330
B6
100
AcDbEntity
  8
_U+30EC_U+30A4_U+30E4_U+30FC 1
 62
     7
420
 16777215
370
     9
  0
POLYLINE
  5
BA
330
1F
100
AcDbEntity
  8
_U+30EC_U+30A4_U+30E4_U+30FC 1
 62
     7
420
 16777215
370
     9
100
AcDb2dPolyline
 66
     1
 10
0.0
 20
0.0
 30
0.0
  0
VERTEX
  5
BB
330
BA
100
AcDbEntity
  8
_U+30EC_U+30A4_U+30E4_U+30FC 1
 62
     7
420
 16777215
370
     9
100
AcDbVertex
100
AcDb2dVertex
 10
83.8458564720251
 20
-116.6021924708493
 30
0.0
  0
VERTEX
  5
BC
330
BA
100
AcDbEntity
  8
_U+30EC_U+30A4_U+30E4_U+30FC 1
 62
     7
420
 16777215
370
     9
100
AcDbVertex
100
AcDb2dVertex
 10
85.29968893493475
 20
-114.6178174713454
 30
0.0
  0
SEQEND
  5
BD
330
BA
100
AcDbEntity
  8
_U+30EC_U+30A4_U+30E4_U+30FC 1
 62
     7
420
 16777215
370
     9
  0
POLYLINE
  5
BE
330
1F
100
AcDbEntity
  8
_U+30EC_U+30A4_U+30E4_U+30FC 1
 62
     7
420
 16777215
370
     9
100
AcDb2dPolyline
 66
     1
 10
0.0
 20
0.0
 30
0.0
  0
VERTEX
  5
BF
330
BE
100
AcDbEntity
  8
_U+30EC_U+30A4_U+30E4_U+30FC 1
 62
     7
420
 16777215
370
     9
100
AcDbVertex
100
AcDb2dVertex
 10
90.2985499185143
 20
-121.3302260807787
 30
0.0
  0
VERTEX
  5
C0
330
BE
100
AcDbEntity
  8
_U+30EC_U+30A4_U+30E4_U+30FC 1
 62
     7
420
 16777215
370
     9
100
AcDbVertex
100
AcDb2dVertex
 10
91.753229048069
 20
-119.3458510812748
 30
0.0
  0
SEQEND
  5
C1
330
BE
100
AcDbEntity
  8
_U+30EC_U+30A4_U+30E4_U+30FC 1
 62
     7
420
 16777215
370
     9
  0
INSERT
  5
C3
330
1F
100
AcDbEntity
  8
_U+30EC_U+30A4_U+30E4_U+30FC 1
100
AcDbBlockReference
  2
block 6
 10
0.0
 20
0.0
 30
0.0
  0
SPLINE
  5
CA
330
1F
100
AcDbEntity
  8
_U+30EC_U+30A4_U+30E4_U+30FC 1
 62
     7
420
 16777215
370
     9
100
AcDbSpline
210
0.0
220
0.0
230
1.0
 70
    11
 71
     3
 72
    17
 73
    13
 74
     0
 42
0.0000000001
 43
0.0000000001
 12
1.0
 22
0.0
 32
0.0
 13
1.0
 23
0.0
 33
0.0
 40
0.0
 40
0.0
 40
0.0
 40
0.0
 40
1.0
 40
1.0
 40
1.0
 40
2.0
 40
2.0
 40
2.0
 40
3.0
 40
3.0
 40
3.0
 40
4.0
 40
4.0
 40
4.0
 40
4.0
 10
91.19633406227658
 20
-120.153394692184
 30
0.0
 10
91.19562850673901
 20
-120.1726916366235
 30
0.0
 10
91.18049434045845
 20
-120.1878258032865
 30
0.0
 10
91.16049184096876
 20
-120.1871555255088
 30
0.0
 10
91.14119719943695
 20
-120.1864499699533
 30
0.0
 10
91.12535517519851
 20
-120.1699399699574
 30
0.0
 10
91.12606073073606
 20
-120.1513133032956
 30
0.0
 10
91.12673331055161
 20
-120.1313460810784
 30
0.0
 10
91.14327628585241
 20
-120.1161766366375
 30
0.0
 10
91.16257322980455
 20
-120.116882192193
 30
0.0
 10
91.18254045151737
 20
-120.1175524699707
 30
0.0
 10
91.19700434003725
 20
-120.1340977477441
 30
0.0
 10
91.19633406227658
 20
-120.153394692184
 30
0.0
  0
POLYLINE
  5
CB
330
1F
100
AcDbEntity
  8
_U+30EC_U+30A4_U+30E4_U+30FC 1
  6
AI-Linetype-1
 62
   251
420
  5855577
370
    25
100
AcDb2dPolyline
 66
     1
 10
0.0
 20
0.0
 30
0.0
  0
VERTEX
  5
CC
330
CB
100
AcDbEntity
  8
_U+30EC_U+30A4_U+30E4_U+30FC 1
  6
AI-Linetype-1
 62
   251
420
  5855577
370
    25
100
AcDbVertex
100
AcDb2dVertex
 10
81.64755708366395
 20
-137.3407985767759
 30
0.0
  0
VERTEX
  5
CD
330
CB
100
AcDbEntity
  8
_U+30EC_U+30A4_U+30E4_U+30FC 1
  6
AI-Linetype-1
 62
   251
420
  5855577
370
    25
100
AcDbVertex
100
AcDb2dVertex
 10
81.64755708366395
 20
-116.4440421931111
 30
0.0
  0
VERTEX
  5
CE
330
CB
100
AcDbEntity
  8
_U+30EC_U+30A4_U+30E4_U+30FC 1
  6
AI-Linetype-1
 62
   251
420
  5855577
370
    25
100
AcDbVertex
100
AcDb2dVertex
 10
90.0308621475658
 20
-123.3407771913871
 30
0.0
  0
SEQEND
  5
D0
330
CB
100
AcDbEntity
  8
_U+30EC_U+30A4_U+30E4_U+30FC 1
  6
AI-Linetype-1
 62
   251
420
  5855577
370
    25
  0
ENDSEC
  0
SECTION
  2
OBJECTS
  0
DICTIONARY
  5
C
330
0
100
AcDbDictionary
281
     1
  3
ACAD_GROUP
350
D
  3
ACAD_LAYOUT
350
1A
  3
ACAD_MATERIAL
350
3B
  3
ACAD_MLEADERSTYLE
350
D2
  3
ACAD_MLINESTYLE
350
17
  3
ACAD_PLOTSETTINGS
350
19
  3
ACAD_PLOTSTYLENAME
350
E
  3
ACAD_TABLESTYLE
350
D1
  3
ACAD_VISUALSTYLE
350
2A
  0
SUN
  5
3F
330
29
100
AcDbSun
 90
        1
290
     0
 63
     7
421
 16777215
 40
1.0
291
     1
 91
  2455826
 92
 54000000
292
     0
 70
     2
 71
   256
280
     1
  0
DICTIONARY
  5
D
102
{ACAD_REACTORS
330
C
102
}
330
C
100
AcDbDictionary
281
     1
  0
DICTIONARY
  5
1A
102
{ACAD_REACTORS
330
C
102
}
330
C
100
AcDbDictionary
281
     1
  3
Layout1
350
1E
  3
Layout2
350
26
  3
Model
350
22
  0
DICTIONARY
  5
3B
102
{ACAD_REACTORS
330
C
102
}
330
C
100
AcDbDictionary
281
     1
  3
ByBlock
350
3D
  3
ByLayer
350
3C
  3
Global
350
3E
  0
DICTIONARY
  5
D2
102
{ACAD_REACTORS
330
C
102
}
330
C
100
AcDbDictionary
281
     1
  0
DICTIONARY
  5
17
102
{ACAD_REACTORS
330
C
102
}
330
C
100
AcDbDictionary
281
     1
  3
Standard
350
18
  0
DICTIONARY
  5
19
102
{ACAD_REACTORS
330
C
102
}
330
C
100
AcDbDictionary
281
     1
  0
ACDBDICTIONARYWDFLT
  5
E
102
{ACAD_REACTORS
330
C
102
}
330
C
100
AcDbDictionary
281
     1
  3
Normal
350
F
100
AcDbDictionaryWithDefault
340
F
  0
DICTIONARY
  5
D1
102
{ACAD_REACTORS
330
C
102
}
330
C
100
AcDbDictionary
281
     1
  0
DICTIONARY
  5
2A
102
{ACAD_REACTORS
330
C
102
}
330
C
100
AcDbDictionary
281
     1
  3
2dWireframe
350
2F
  3
3D Hidden
350
31
  3
3dWireframe
350
30
  3
Basic
350
32
  3
Brighten
350
36
  3
ColorChange
350
3A
  3
Conceptual
350
34
  3
Dim
350
35
  3
Facepattern
350
39
  3
Flat
350
2B
  3
FlatWithEdges
350
2C
  3
Gouraud
350
2D
  3
GouraudWithEdges
350
2E
  3
Linepattern
350
38
  3
Realistic
350
33
  3
Thicken
350
37
  0
LAYOUT
  5
1E
102
{ACAD_REACTORS
330
1A
102
}
330
1A
100
AcDbPlotSettings
  1

  2
none_device
  4

  6

 40
0.0
 41
0.0
 42
0.0
 43
0.0
 44
0.0
 45
0.0
 46
0.0
 47
0.0
 48
0.0
 49
0.0
140
0.0
141
0.0
142
1.0
143
1.0
 70
   688
 72
     0
 73
     0
 74
     5
  7

 75
    16
 76
     0
 77
     2
 78
   300
147
1.0
148
0.0
149
0.0
100
AcDbLayout
  1
Layout1
 70
     1
 71
     1
 10
0.0
 20
0.0
 11
12.0
 21
9.0
 12
0.0
 22
0.0
 32
0.0
 14
1.000000000000000E+20
 24
1.000000000000000E+20
 34
1.000000000000000E+20
 15
-1.000000000000000E+20
 25
-1.000000000000000E+20
 35
-1.000000000000000E+20
146
0.0
 13
0.0
 23
0.0
 33
0.0
 16
1.0
 26
0.0
 36
0.0
 17
0.0
 27
1.0
 37
0.0
 76
     0
330
1B
  0
LAYOUT
  5
26
102
{ACAD_REACTORS
330
1A
102
}
330
1A
100
AcDbPlotSettings
  1

  2
none_device
  4

  6

 40
0.0
 41
0.0
 42
0.0
 43
0.0
 44
0.0
 45
0.0
 46
0.0
 47
0.0
 48
0.0
 49
0.0
140
0.0
141
0.0
142
1.0
143
1.0
 70
   688
 72
     0
 73
     0
 74
     5
  7

 75
    16
 76
     0
 77
     2
 78
   300
147
1.0
148
0.0
149
0.0
100
AcDbLayout
  1
Layout2
 70
     1
 71
     2
 10
0.0
 20
0.0
 11
0.0
 21
0.0
 12
0.0
 22
0.0
 32
0.0
 14
0.0
 24
0.0
 34
0.0
 15
0.0
 25
0.0
 35
0.0
146
0.0
 13
0.0
 23
0.0
 33
0.0
 16
1.0
 26
0.0
 36
0.0
 17
0.0
 27
1.0
 37
0.0
 76
     0
330
23
  0
LAYOUT
  5
22
102
{ACAD_REACTORS
330
1A
102
}
330
1A
100
AcDbPlotSettings
  1

  2
none_device
  4

  6

 40
0.0
 41
0.0
 42
0.0
 43
0.0
 44
0.0
 45
0.0
 46
0.0
 47
0.0
 48
0.0
 49
0.0
140
0.0
141
0.0
142
1.0
143
1.0
 70
  1712
 72
     0
 73
     0
 74
     0
  7

 75
     0
 76
     0
 77
     2
 78
   300
147
1.0
148
0.0
149
0.0
100
AcDbLayout
  1
Model
 70
     1
 71
     0
 10
0.0
 20
0.0
 11
12.0
 21
9.0
 12
0.0
 22
0.0
 32
0.0
 14
1.000000000000000E+20
 24
1.000000000000000E+20
 34
1.000000000000000E+20
 15
-1.000000000000000E+20
 25
-1.000000000000000E+20
 35
-1.000000000000000E+20
146
0.0
 13
0.0
 23
0.0
 33
0.0
 16
1.0
 26
0.0
 36
0.0
 17
0.0
 27
1.0
 37
0.0
 76
     0
330
1F
331
29
  0
MATERIAL
  5
3D
102
{ACAD_REACTORS
330
3B
102
}
330
3B
100
AcDbMaterial
  1
ByBlock
 72
     1
 94
      127
  0
MATERIAL
  5
3C
102
{ACAD_REACTORS
330
3B
102
}
330
3B
100
AcDbMaterial
  1
ByLayer
 72
     1
 94
      127
  0
MATERIAL
  5
3E
102
{ACAD_REACTORS
330
3B
102
}
330
3B
100
AcDbMaterial
  1
Global
 72
     1
 94
      127
  0
MLINESTYLE
  5
18
102
{ACAD_REACTORS
330
17
102
}
330
17
100
AcDbMlineStyle
  2
Standard
 70
     0
  3

 62
   256
 51
90.0
 52
90.0
 71
     2
 49
0.5
 62
   256
  6
BYLAYER
 49
-0.5
 62
   256
  6
BYLAYER
  0
ACDBPLACEHOLDER
  5
F
102
{ACAD_REACTORS
330
E
102
}
330
E
  0
VISUALSTYLE
  5
2F
102
{ACAD_REACTORS
330
2A
102
}
330
2A
100
AcDbVisualStyle
  2
2dWireframe
 70
     4
177
     2
291
     0
 71
     0
176
     1
 72
     2
176
     1
 73
     0
176
     1
 90
        0
176
     1
 40
-0.6
176
     1
 41
-30.0
176
     1
 62
     5
 63
     7
421
 16777215
176
     1
 74
     1
176
     1
 91
        4
176
     1
 64
     7
176
     1
 65
   257
176
     1
 75
     1
176
     1
175
     1
176
     1
 42
1.0
176
     1
 92
        0
176
     1
 66
   257
176
     1
 43
1.0
176
     1
 76
     1
176
     1
 77
     6
176
     1
 78
     2
176
     1
 67
     7
176
     1
 79
     5
176
     1
170
     0
176
     1
171
     0
176
     1
290
     0
176
     1
 93
        1
176
     1
 44
0.0
176
     1
173
     0
176
     1
  0
VISUALSTYLE
  5
31
102
{ACAD_REACTORS
330
2A
102
}
330
2A
100
AcDbVisualStyle
  2
3D Hidden
 70
     6
177
     2
291
     0
 71
     1
176
     1
 72
     2
176
     1
 73
     2
176
     1
 90
        0
176
     1
 40
-0.6
176
     1
 41
-30.0
176
     1
 62
     5
 63
     7
421
 16777215
176
     1
 74
     2
176
     1
 91
        2
176
     1
 64
     7
176
     1
 65
   257
176
     1
 75
     2
176
     1
175
     1
176
     1
 42
40.0
176
     1
 92
        0
176
     1
 66
   257
176
     1
 43
1.0
176
     1
 76
     1
176
     1
 77
     6
176
     1
 78
     2
176
     1
 67
     7
176
     1
 79
     3
176
     1
170
     0
176
     1
171
     0
176
     1
290
     0
176
     1
 93
        1
176
     1
 44
0.0
176
     1
173
     0
176
     1
  0
VISUALSTYLE
  5
30
102
{ACAD_REACTORS
330
2A
102
}
330
2A
100
AcDbVisualStyle
  2
3dWireframe
 70
     5
177
     2
291
     0
 71
     0
176
     1
 72
     2
176
     1
 73
     0
176
     1
 90
        0
176
     1
 40
-0.6
176
     1
 41
-30.0
176
     1
 62
     5
 63
     7
421
 16777215
176
     1
 74
     1
176
     1
 91
        4
176
     1
 64
     7
176
     1
 65
   257
176
     1
 75
     1
176
     1
175
     1
176
     1
 42
1.0
176
     1
 92
        0
176
     1
 66
   257
176
     1
 43
1.0
176
     1
 76
     1
176
     1
 77
     6
176
     1
 78
     2
176
     1
 67
     7
176
     1
 79
     5
176
     1
170
     0
176
     1
171
     0
176
     1
290
     0
176
     1
 93
        1
176
     1
 44
0.0
176
     1
173
     0
176
     1
  0
VISUALSTYLE
  5
32
102
{ACAD_REACTORS
330
2A
102
}
330
2A
100
AcDbVisualStyle
  2
Basic
 70
     7
177
     2
291
     1
 71
     1
176
     1
 72
     0
176
     1
 73
     1
176
     1
 90
        0
176
     1
 40
-0.6
176
     1
 41
-30.0
176
     1
 62
     5
 63
     7
421
 16777215
176
     1
 74
     0
176
     1
 91
        4
176
     1
 64
     7
176
     1
 65
   257
176
     1
 75
     1
176
     1
175
     1
176
     1
 42
1.0
176
     1
 92
        8
176
     1
 66
     7
176
     1
 43
1.0
176
     1
 76
     1
176
     1
 77
     6
176
     1
 78
     2
176
     1
 67
     7
176
     1
 79
     5
176
     1
170
     0
176
     1
171
     0
176
     1
290
     0
176
     1
 93
        1
176
     1
 44
0.0
176
     1
173
     0
176
     1
  0
VISUALSTYLE
  5
36
102
{ACAD_REACTORS
330
2A
102
}
330
2A
100
AcDbVisualStyle
  2
Brighten
 70
    12
177
     2
291
     1
 71
     2
176
     1
 72
     2
176
     1
 73
     0
176
     1
 90
        0
176
     1
 40
-0.6
176
     1
 41
-30.0
176
     1
 62
     5
 63
     7
421
 16777215
176
     1
 74
     1
176
     1
 91
        4
176
     1
 64
     7
176
     1
 65
   257
176
     1
 75
     1
176
     1
175
     1
176
     1
 42
1.0
176
     1
 92
        8
176
     1
 66
     7
176
     1
 43
1.0
176
     1
 76
     1
176
     1
 77
     6
176
     1
 78
     2
176
     1
 67
     7
176
     1
 79
     5
176
     1
170
     0
176
     1
171
     0
176
     1
290
     0
176
     1
 93
        1
176
     1
 44
50.0
176
     1
173
     0
176
     1
  0
VISUALSTYLE
  5
3A
102
{ACAD_REACTORS
330
2A
102
}
330
2A
100
AcDbVisualStyle
  2
ColorChange
 70
    16
177
     2
291
     1
 71
     2
176
     1
 72
     2
176
     1
 73
     3
176
     1
 90
        0
176
     1
 40
-0.6
176
     1
 41
-30.0
176
     1
 62
     5
 63
     8
421
  8421504
176
     1
 74
     1
176
     1
 91
        4
176
     1
 64
     7
176
     1
 65
   257
176
     1
 75
     1
176
     1
175
     1
176
     1
 42
1.0
176
     1
 92
        8
176
     1
 66
     8
424
  8421504
176
     1
 43
1.0
176
     1
 76
     1
176
     1
 77
     6
176
     1
 78
     2
176
     1
 67
     7
176
     1
 79
     5
176
     1
170
     0
176
     1
171
     0
176
     1
290
     0
176
     1
 93
        1
176
     1
 44
0.0
176
     1
173
     0
176
     1
  0
VISUALSTYLE
  5
34
102
{ACAD_REACTORS
330
2A
102
}
330
2A
100
AcDbVisualStyle
  2
Conceptual
 70
     9
177
     2
291
     0
 71
     3
176
     1
 72
     2
176
     1
 73
     0
176
     1
 90
        0
176
     1
 40
-0.6
176
     1
 41
-30.0
176
     1
 62
     5
 63
     7
421
 16777215
176
     1
 74
     2
176
     1
 91
        2
176
     1
 64
     7
176
     1
 65
   257
176
     1
 75
     1
176
     1
175
     1
176
     1
 42
40.0
176
     1
 92
        8
176
     1
 66
     7
176
     1
 43
1.0
176
     1
 76
     1
176
     1
 77
     6
176
     1
 78
     2
176
     1
 67
     7
176
     1
 79
     3
176
     1
170
     0
176
     1
171
     0
176
     1
290
     0
176
     1
 93
        1
176
     1
 44
0.0
176
     1
173
     0
176
     1
  0
VISUALSTYLE
  5
35
102
{ACAD_REACTORS
330
2A
102
}
330
2A
100
AcDbVisualStyle
  2
Dim
 70
    11
177
     2
291
     1
 71
     2
176
     1
 72
     2
176
     1
 73
     0
176
     1
 90
        0
176
     1
 40
-0.6
176
     1
 41
-30.0
176
     1
 62
     5
 63
     7
421
 16777215
176
     1
 74
     1
176
     1
 91
        4
176
     1
 64
     7
176
     1
 65
   257
176
     1
 75
     1
176
     1
175
     1
176
     1
 42
1.0
176
     1
 92
        8
176
     1
 66
     7
176
     1
 43
1.0
176
     1
 76
     1
176
     1
 77
     6
176
     1
 78
     2
176
     1
 67
     7
176
     1
 79
     5
176
     1
170
     0
176
     1
171
     0
176
     1
290
     0
176
     1
 93
        1
176
     1
 44
-50.0
176
     1
173
     0
176
     1
  0
VISUALSTYLE
  5
39
102
{ACAD_REACTORS
330
2A
102
}
330
2A
100
AcDbVisualStyle
  2
Facepattern
 70
    15
177
     2
291
     1
 71
     2
176
     1
 72
     2
176
     1
 73
     0
176
     1
 90
        0
176
     1
 40
-0.6
176
     1
 41
-30.0
176
     1
 62
     5
 63
     7
421
 16777215
176
     1
 74
     1
176
     1
 91
        4
176
     1
 64
     7
176
     1
 65
   257
176
     1
 75
     1
176
     1
175
     1
176
     1
 42
1.0
176
     1
 92
        8
176
     1
 66
     7
176
     1
 43
1.0
176
     1
 76
     1
176
     1
 77
     6
176
     1
 78
     2
176
     1
 67
     7
176
     1
 79
     5
176
     1
170
     0
176
     1
171
     0
176
     1
290
     0
176
     1
 93
        1
176
     1
 44
0.0
176
     1
173
     0
176
     1
  0
VISUALSTYLE
  5
2B
102
{ACAD_REACTORS
330
2A
102
}
330
2A
100
AcDbVisualStyle
  2
Flat
 70
     0
177
     2
291
     1
 71
     2
176
     1
 72
     1
176
     1
 73
     1
176
     1
 90
        2
176
     1
 40
-0.6
176
     1
 41
30.0
176
     1
 62
     5
 63
     7
421
 16777215
176
     1
 74
     0
176
     1
 91
        4
176
     1
 64
     7
176
     1
 65
   257
176
     1
 75
     1
176
     1
175
     1
176
     1
 42
1.0
176
     1
 92
        8
176
     1
 66
     7
176
     1
 43
1.0
176
     1
 76
     1
176
     1
 77
     6
176
     1
 78
     2
176
     1
 67
     7
176
     1
 79
     5
176
     1
170
     0
176
     1
171
     0
176
     1
290
     0
176
     1
 93
       13
176
     1
 44
0.0
176
     1
173
     0
176
     1
  0
VISUALSTYLE
  5
2C
102
{ACAD_REACTORS
330
2A
102
}
330
2A
100
AcDbVisualStyle
  2
FlatWithEdges
 70
     1
177
     2
291
     1
 71
     2
176
     1
 72
     1
176
     1
 73
     1
176
     1
 90
        2
176
     1
 40
-0.6
176
     1
 41
30.0
176
     1
 62
     5
 63
     7
421
 16777215
176
     1
 74
     1
176
     1
 91
        4
176
     1
 64
     7
176
     1
 65
   257
176
     1
 75
     1
176
     1
175
     1
176
     1
 42
1.0
176
     1
 92
        0
176
     1
 66
   257
176
     1
 43
1.0
176
     1
 76
     1
176
     1
 77
     6
176
     1
 78
     2
176
     1
 67
     7
176
     1
 79
     5
176
     1
170
     0
176
     1
171
     0
176
     1
290
     0
176
     1
 93
       13
176
     1
 44
0.0
176
     1
173
     0
176
     1
  0
VISUALSTYLE
  5
2D
102
{ACAD_REACTORS
330
2A
102
}
330
2A
100
AcDbVisualStyle
  2
Gouraud
 70
     2
177
     2
291
     1
 71
     2
176
     1
 72
     2
176
     1
 73
     1
176
     1
 90
        2
176
     1
 40
-0.6
176
     1
 41
30.0
176
     1
 62
     5
 63
     7
421
 16777215
176
     1
 74
     0
176
     1
 91
        4
176
     1
 64
     7
176
     1
 65
   257
176
     1
 75
     1
176
     1
175
     1
176
     1
 42
1.0
176
     1
 92
        0
176
     1
 66
     7
176
     1
 43
1.0
176
     1
 76
     1
176
     1
 77
     6
176
     1
 78
     2
176
     1
 67
     7
176
     1
 79
     5
176
     1
170
     0
176
     1
171
     0
176
     1
290
     0
176
     1
 93
       13
176
     1
 44
0.0
176
     1
173
     0
176
     1
  0
VISUALSTYLE
  5
2E
102
{ACAD_REACTORS
330
2A
102
}
330
2A
100
AcDbVisualStyle
  2
GouraudWithEdges
 70
     3
177
     2
291
     1
 71
     2
176
     1
 72
     2
176
     1
 73
     1
176
     1
 90
        2
176
     1
 40
-0.6
176
     1
 41
30.0
176
     1
 62
     5
 63
     7
421
 16777215
176
     1
 74
     1
176
     1
 91
        4
176
     1
 64
     7
176
     1
 65
   257
176
     1
 75
     1
176
     1
175
     1
176
     1
 42
1.0
176
     1
 92
        0
176
     1
 66
   257
176
     1
 43
1.0
176
     1
 76
     1
176
     1
 77
     6
176
     1
 78
     2
176
     1
 67
     7
176
     1
 79
     5
176
     1
170
     0
176
     1
171
     0
176
     1
290
     0
176
     1
 93
       13
176
     1
 44
0.0
176
     1
173
     0
176
     1
  0
VISUALSTYLE
  5
38
102
{ACAD_REACTORS
330
2A
102
}
330
2A
100
AcDbVisualStyle
  2
Linepattern
 70
    14
177
     2
291
     1
 71
     2
176
     1
 72
     2
176
     1
 73
     0
176
     1
 90
        0
176
     1
 40
-0.6
176
     1
 41
-30.0
176
     1
 62
     5
 63
     7
421
 16777215
176
     1
 74
     1
176
     1
 91
        4
176
     1
 64
     7
176
     1
 65
   257
176
     1
 75
     7
176
     1
175
     7
176
     1
 42
1.0
176
     1
 92
        8
176
     1
 66
     7
176
     1
 43
1.0
176
     1
 76
     1
176
     1
 77
     6
176
     1
 78
     2
176
     1
 67
     7
176
     1
 79
     5
176
     1
170
     0
176
     1
171
     0
176
     1
290
     0
176
     1
 93
        1
176
     1
 44
0.0
176
     1
173
     0
176
     1
  0
VISUALSTYLE
  5
33
102
{ACAD_REACTORS
330
2A
102
}
330
2A
100
AcDbVisualStyle
  2
Realistic
 70
     8
177
     2
291
     0
 71
     2
176
     1
 72
     2
176
     1
 73
     0
176
     1
 90
        0
176
     1
 40
-0.6
176
     1
 41
-30.0
176
     1
 62
     5
 63
     7
421
 16777215
176
     1
 74
     1
176
     1
 91
        0
176
     1
 64
     7
176
     1
 65
   257
176
     1
 75
     1
176
     1
175
     1
176
     1
 42
1.0
176
     1
 92
        8
176
     1
 66
     8
424
  7895160
176
     1
 43
1.0
176
     1
 76
     1
176
     1
 77
     6
176
     1
 78
     2
176
     1
 67
     7
176
     1
 79
     5
176
     1
170
     0
176
     1
171
     0
176
     1
290
     0
176
     1
 93
       13
176
     1
 44
0.0
176
     1
173
     0
176
     1
  0
VISUALSTYLE
  5
37
102
{ACAD_REACTORS
330
2A
102
}
330
2A
100
AcDbVisualStyle
  2
Thicken
 70
    13
177
     2
291
     1
 71
     2
176
     1
 72
     2
176
     1
 73
     0
176
     1
 90
        0
176
     1
 40
-0.6
176
     1
 41
-30.0
176
     1
 62
     5
 63
     7
421
 16777215
176
     1
 74
     1
176
     1
 91
        4
176
     1
 64
     7
176
     1
 65
   257
176
     1
 75
     1
176
     1
175
     1
176
     1
 42
1.0
176
     1
 92
       12
176
     1
 66
     7
176
     1
 43
1.0
176
     1
 76
     1
176
     1
 77
     6
176
     1
 78
     2
176
     1
 67
     7
176
     1
 79
     5
176
     1
170
     0
176
     1
171
     0
176
     1
290
     0
176
     1
 93
        1
176
     1
 44
0.0
176
     1
173
     0
176
     1
  0
ENDSEC
  0
EOF
