  0
SECTION
  2
HEADER
  9
$ACADVER
  1
AC1024
  9
$ACADMAINTVER
 70
     6
  9
$DWGCODEPAGE
  3
UNDEFINED
  9
$INSBASE
 10
0.0
 20
0.0
 30
0.0
  9
$EXTMIN
 10
1.000000000000000E+20
 20
1.000000000000000E+20
 30
1.000000000000000E+20
  9
$EXTMAX
 10
-1.000000000000000E+20
 20
-1.000000000000000E+20
 30
-1.000000000000000E+20
  9
$LIMMIN
 10
0.0
 20
0.0
  9
$LIMMAX
 10
12.0
 20
9.0
  9
$ORTHOMODE
 70
     0
  9
$REGENMODE
 70
     1
  9
$FILLMODE
 70
     1
  9
$QTEXTMODE
 70
     0
  9
$MIRRTEXT
 70
     1
  9
$LTSCALE
 40
1.0
  9
$ATTMODE
 70
     1
  9
$TEXTSIZE
 40
0.2
  9
$TRACEWID
 40
0.05
  9
$TEXTSTYLE
  7
Standard
  9
$CLAYER
  8
0
  9
$CELTYPE
  6
ByLayer
  9
$CECOLOR
 62
   256
  9
$CELTSCALE
 40
1.0
  9
$DISPSILH
 70
     0
  9
$DIMSCALE
 40
1.0
  9
$DIMASZ
 40
0.18
  9
$DIMEXO
 40
0.0625
  9
$DIMDLI
 40
0.38
  9
$DIMRND
 40
0.0
  9
$DIMDLE
 40
0.0
  9
$DIMEXE
 40
0.18
  9
$DIMTP
 40
0.0
  9
$DIMTM
 40
0.0
  9
$DIMTXT
 40
0.18
  9
$DIMCEN
 40
0.09
  9
$DIMTSZ
 40
0.0
  9
$DIMTOL
 70
     0
  9
$DIMLIM
 70
     0
  9
$DIMTIH
 70
     1
  9
$DIMTOH
 70
     1
  9
$DIMSE1
 70
     0
  9
$DIMSE2
 70
     0
  9
$DIMTAD
 70
     0
  9
$DIMZIN
 70
     0
  9
$DIMBLK
  1

  9
$DIMASO
 70
     1
  9
$DIMSHO
 70
     1
  9
$DIMPOST
  1

  9
$DIMAPOST
  1

  9
$DIMALT
 70
     0
  9
$DIMALTD
 70
     2
  9
$DIMALTF
 40
25.4
  9
$DIMLFAC
 40
1.0
  9
$DIMTOFL
 70
     0
  9
$DIMTVP
 40
0.0
  9
$DIMTIX
 70
     0
  9
$DIMSOXD
 70
     0
  9
$DIMSAH
 70
     0
  9
$DIMBLK1
  1

  9
$DIMBLK2
  1

  9
$DIMSTYLE
  2
Standard
  9
$DIMCLRD
 70
     0
  9
$DIMCLRE
 70
     0
  9
$DIMCLRT
 70
     0
  9
$DIMTFAC
 40
1.0
  9
$DIMGAP
 40
0.09
  9
$DIMJUST
 70
     0
  9
$DIMSD1
 70
     0
  9
$DIMSD2
 70
     0
  9
$DIMTOLJ
 70
     1
  9
$DIMTZIN
 70
     0
  9
$DIMALTZ
 70
     0
  9
$DIMALTTZ
 70
     0
  9
$DIMUPT
 70
     0
  9
$DIMDEC
 70
     4
  9
$DIMTDEC
 70
     4
  9
$DIMALTU
 70
     2
  9
$DIMALTTD
 70
     2
  9
$DIMTXSTY
  7
Standard
  9
$DIMAUNIT
 70
     0
  9
$DIMADEC
 70
     0
  9
$DIMALTRND
 40
0.0
  9
$DIMAZIN
 70
     0
  9
$DIMDSEP
 70
    46
  9
$DIMATFIT
 70
     3
  9
$DIMFRAC
 70
     0
  9
$DIMLDRBLK
  1

  9
$DIMLUNIT
 70
     2
  9
$DIMLWD
 70
    -2
  9
$DIMLWE
 70
    -2
  9
$DIMTMOVE
 70
     0
  9
$DIMFXL
 40
1.0
  9
$DIMFXLON
 70
     0
  9
$DIMJOGANG
 40
0.7853981633974483
  9
$DIMTFILL
 70
     0
  9
$DIMTFILLCLR
 70
     0
  9
$DIMARCSYM
 70
     0
  9
$DIMLTYPE
  6

  9
$DIMLTEX1
  6

  9
$DIMLTEX2
  6

  9
$DIMTXTDIRECTION
 70
     0
  9
$LUNITS
 70
     2
  9
$LUPREC
 70
     4
  9
$SKETCHINC
 40
0.1
  9
$FILLETRAD
 40
0.5
  9
$AUNITS
 70
     0
  9
$AUPREC
 70
     0
  9
$MENU
  1
.
  9
$ELEVATION
 40
0.0
  9
$PELEVATION
 40
0.0
  9
$THICKNESS
 40
0.0
  9
$LIMCHECK
 70
     0
  9
$CHAMFERA
 40
0.5
  9
$CHAMFERB
 40
0.5
  9
$CHAMFERC
 40
1.0
  9
$CHAMFERD
 40
0.0
  9
$SKPOLY
 70
     0
  9
$TDCREATE
 40
2457917.622592593
  9
$TDUCREATE
 40
2457917.247592593
  9
$TDUPDATE
 40
2457917.622592593
  9
$TDUUPDATE
 40
2457917.247592593
  9
$TDINDWG
 40
0.0000000116
  9
$TDUSRTIMER
 40
0.0000000116
  9
$USRTIMER
 70
     1
  9
$ANGBASE
 50
0.0
  9
$ANGDIR
 70
     0
  9
$PDMODE
 70
     0
  9
$PDSIZE
 40
0.0
  9
$PLINEWID
 40
0.0
  9
$SPLFRAME
 70
     0
  9
$SPLINETYPE
 70
     6
  9
$SPLINESEGS
 70
     8
  9
$HANDSEED
  5
EA
  9
$SURFTAB1
 70
     6
  9
$SURFTAB2
 70
     6
  9
$SURFTYPE
 70
     6
  9
$SURFU
 70
     6
  9
$SURFV
 70
     6
  9
$UCSBASE
  2

  9
$UCSNAME
  2

  9
$UCSORG
 10
0.0
 20
0.0
 30
0.0
  9
$UCSXDIR
 10
1.0
 20
0.0
 30
0.0
  9
$UCSYDIR
 10
0.0
 20
1.0
 30
0.0
  9
$UCSORTHOREF
  2

  9
$UCSORTHOVIEW
 70
     0
  9
$UCSORGTOP
 10
0.0
 20
0.0
 30
0.0
  9
$UCSORGBOTTOM
 10
0.0
 20
0.0
 30
0.0
  9
$UCSORGLEFT
 10
0.0
 20
0.0
 30
0.0
  9
$UCSORGRIGHT
 10
0.0
 20
0.0
 30
0.0
  9
$UCSORGFRONT
 10
0.0
 20
0.0
 30
0.0
  9
$UCSORGBACK
 10
0.0
 20
0.0
 30
0.0
  9
$PUCSBASE
  2

  9
$PUCSNAME
  2

  9
$PUCSORG
 10
0.0
 20
0.0
 30
0.0
  9
$PUCSXDIR
 10
1.0
 20
0.0
 30
0.0
  9
$PUCSYDIR
 10
0.0
 20
1.0
 30
0.0
  9
$PUCSORTHOREF
  2

  9
$PUCSORTHOVIEW
 70
     0
  9
$PUCSORGTOP
 10
0.0
 20
0.0
 30
0.0
  9
$PUCSORGBOTTOM
 10
0.0
 20
0.0
 30
0.0
  9
$PUCSORGLEFT
 10
0.0
 20
0.0
 30
0.0
  9
$PUCSORGRIGHT
 10
0.0
 20
0.0
 30
0.0
  9
$PUCSORGFRONT
 10
0.0
 20
0.0
 30
0.0
  9
$PUCSORGBACK
 10
0.0
 20
0.0
 30
0.0
  9
$USERI1
 70
     0
  9
$USERI2
 70
     0
  9
$USERI3
 70
     0
  9
$USERI4
 70
     0
  9
$USERI5
 70
     0
  9
$USERR1
 40
0.0
  9
$USERR2
 40
0.0
  9
$USERR3
 40
0.0
  9
$USERR4
 40
0.0
  9
$USERR5
 40
0.0
  9
$WORLDVIEW
 70
     1
  9
$SHADEDGE
 70
     3
  9
$SHADEDIF
 70
    70
  9
$TILEMODE
 70
     1
  9
$MAXACTVP
 70
    64
  9
$PINSBASE
 10
0.0
 20
0.0
 30
0.0
  9
$PLIMCHECK
 70
     0
  9
$PEXTMIN
 10
1.000000000000000E+20
 20
1.000000000000000E+20
 30
1.000000000000000E+20
  9
$PEXTMAX
 10
-1.000000000000000E+20
 20
-1.000000000000000E+20
 30
-1.000000000000000E+20
  9
$PLIMMIN
 10
0.0
 20
0.0
  9
$PLIMMAX
 10
12.0
 20
9.0
  9
$UNITMODE
 70
     0
  9
$VISRETAIN
 70
     1
  9
$PLINEGEN
 70
     0
  9
$PSLTSCALE
 70
     1
  9
$TREEDEPTH
 70
  3020
  9
$CMLSTYLE
  2
Standard
  9
$CMLJUST
 70
     0
  9
$CMLSCALE
 40
1.0
  9
$PROXYGRAPHICS
 70
     1
  9
$MEASUREMENT
 70
     0
  9
$CELWEIGHT
370
    -1
  9
$ENDCAPS
280
     0
  9
$JOINSTYLE
280
     0
  9
$LWDISPLAY
290
     1
  9
$INSUNITS
 70
     1
  9
$HYPERLINKBASE
  1

  9
$STYLESHEET
  1

  9
$XEDIT
290
     1
  9
$CEPSNTYPE
380
     0
  9
$PSTYLEMODE
290
     1
  9
$FINGERPRINTGUID
  2
{E7299F2E-F364-D6A8-8869-25F37296EC85}
  9
$VERSIONGUID
  2
{FAEB1C32-E019-11D5-929B-00C0DF256EC4}
  9
$EXTNAMES
290
     1
  9
$PSVPSCALE
 40
0.0
  9
$OLESTARTUP
290
     0
  9
$SORTENTS
280
   127
  9
$INDEXCTL
280
     0
  9
$HIDETEXT
280
     1
  9
$XCLIPFRAME
280
     2
  9
$HALOGAP
280
     0
  9
$OBSCOLOR
 70
   257
  9
$OBSLTYPE
280
     0
  9
$INTERSECTIONDISPLAY
280
     0
  9
$INTERSECTIONCOLOR
 70
   257
  9
$DIMASSOC
280
     2
  9
$PROJECTNAME
  1

  9
$CAMERADISPLAY
290
     0
  9
$LENSLENGTH
 40
50.0
  9
$CAMERAHEIGHT
 40
0.0
  9
$STEPSPERSEC
 40
2.0
  9
$STEPSIZE
 40
6.0
  9
$3DDWFPREC
 40
2.0
  9
$PSOLWIDTH
 40
0.25
  9
$PSOLHEIGHT
 40
4.0
  9
$LOFTANG1
 40
1.570796326794897
  9
$LOFTANG2
 40
1.570796326794897
  9
$LOFTMAG1
 40
0.0
  9
$LOFTMAG2
 40
0.0
  9
$LOFTPARAM
 70
     7
  9
$LOFTNORMALS
280
     1
  9
$LATITUDE
 40
37.795
  9
$LONGITUDE
 40
-122.394
  9
$NORTHDIRECTION
 40
0.0
  9
$TIMEZONE
 70
 -8000
  9
$LIGHTGLYPHDISPLAY
280
     1
  9
$TILEMODELIGHTSYNCH
280
     1
  9
$CMATERIAL
347
3C
  9
$SOLIDHIST
280
     1
  9
$SHOWHIST
280
     1
  9
$DWFFRAME
280
     2
  9
$DGNFRAME
280
     2
  9
$REALWORLDSCALE
290
     1
  9
$INTERFERECOLOR
 62
   256
  9
$CSHADOW
280
     0
  9
$SHADOWPLANELOCATION
 40
0.0
  0
ENDSEC
  0
SECTION
  2
CLASSES
  0
CLASS
  1
ACDBDICTIONARYWDFLT
  2
AcDbDictionaryWithDefault
  3
ObjectDBX Classes
 90
        0
 91
        4
280
     0
281
     0
  0
CLASS
  1
VISUALSTYLE
  2
AcDbVisualStyle
  3
ObjectDBX Classes
 90
     4095
 91
        4
280
     0
281
     0
  0
CLASS
  1
MATERIAL
  2
AcDbMaterial
  3
ObjectDBX Classes
 90
     1153
 91
        4
280
     0
281
     0
  0
CLASS
  1
SUN
  2
AcDbSun
  3
SCENEOE
 90
     1024
 91
        4
280
     0
281
     0
  0
ENDSEC
  0
SECTION
  2
TABLES
  0
TABLE
  2
VPORT
  5
8
330
0
100
AcDbSymbolTable
 70
     1
  0
VPORT
  5
29
330
8
100
AcDbSymbolTableRecord
100
AcDbViewportTableRecord
  2
*Active
 70
     0
 10
0.0
 20
0.0
 11
1.0
 21
1.0
 12
0.0
 22
0.0
 13
0.0
 23
0.0
 14
0.5
 24
0.5
 15
0.5
 25
0.5
 16
0.0
 26
0.0
 36
1.0
 17
91.00082462281999
 27
-128.4993055234307
 37
0.0
 40
256.9986110468615
 41
0.7081814508812795
 42
50.0
 43
0.0
 44
0.0
 50
0.0
 51
0.0
 71
     0
 72
   100
 73
     1
 74
     3
 75
     0
 76
     0
 77
     0
 78
     0
281
     0
 65
     1
110
0.0
120
0.0
130
0.0
111
1.0
121
0.0
131
0.0
112
0.0
122
1.0
132
0.0
 79
     0
146
0.0
 60
     3
 61
     5
292
     1
282
     1
141
0.0
142
0.0
 63
   250
361
3F
  0
ENDTAB
  0
TABLE
  2
LTYPE
  5
5
330
0
100
AcDbSymbolTable
 70
     1
  0
LTYPE
  5
14
330
5
100
AcDbSymbolTableRecord
100
AcDbLinetypeTableRecord
  2
ByBlock
 70
     0
  3

 72
    65
 73
     0
 40
0.0
  0
LTYPE
  5
15
330
5
100
AcDbSymbolTableRecord
100
AcDbLinetypeTableRecord
  2
ByLayer
 70
     0
  3

 72
    65
 73
     0
 40
0.0
  0
LTYPE
  5
16
330
5
100
AcDbSymbolTableRecord
100
AcDbLinetypeTableRecord
  2
Continuous
 70
     0
  3
Solid line
 72
    65
 73
     0
 40
0.0
  0
ENDTAB
  0
TABLE
  2
LAYER
  5
2
330
0
100
AcDbSymbolTable
 70
     2
  0
LAYER
  5
10
330
2
100
AcDbSymbolTableRecord
100
AcDbLayerTableRecord
  2
0
 70
     0
 62
     7
  6
Continuous
370
    -3
390
F
347
3E
  0
LAYER
  5
40
330
2
100
AcDbSymbolTableRecord
100
AcDbLayerTableRecord
  2
_U+30EC_U+30A4_U+30E4_U+30FC 1
 70
     0
 62
     7
  6
Continuous
370
    -3
390
F
347
3E
  0
ENDTAB
  0
TABLE
  2
STYLE
  5
3
330
0
100
AcDbSymbolTable
 70
     1
  0
STYLE
  5
11
330
3
100
AcDbSymbolTableRecord
100
AcDbTextStyleTableRecord
  2
Standard
 70
     0
 40
0.0
 41
1.0
 50
0.0
 71
     0
 42
0.2
  3
txt
  4

  0
ENDTAB
  0
TABLE
  2
VIEW
  5
6
330
0
100
AcDbSymbolTable
 70
     0
  0
ENDTAB
  0
TABLE
  2
UCS
  5
7
330
0
100
AcDbSymbolTable
 70
     0
  0
ENDTAB
  0
TABLE
  2
APPID
  5
9
330
0
100
AcDbSymbolTable
 70
     1
  0
APPID
  5
12
330
9
100
AcDbSymbolTableRecord
100
AcDbRegAppTableRecord
  2
ACAD
 70
     0
  0
ENDTAB
  0
TABLE
  2
DIMSTYLE
  5
A
330
0
100
AcDbSymbolTable
 70
     1
100
AcDbDimStyleTable
  0
DIMSTYLE
105
27
330
A
100
AcDbSymbolTableRecord
100
AcDbDimStyleTableRecord
  2
Standard
 70
     0
178
     0
340
11
  0
ENDTAB
  0
TABLE
  2
BLOCK_RECORD
  5
1
330
0
100
AcDbSymbolTable
 70
     6
  0
BLOCK_RECORD
  5
1F
330
1
100
AcDbSymbolTableRecord
100
AcDbBlockTableRecord
  2
*Model_Space
340
22
 70
     0
280
     1
281
     0
  0
BLOCK_RECORD
  5
1B
330
1
100
AcDbSymbolTableRecord
100
AcDbBlockTableRecord
  2
*Paper_Space
340
1E
 70
     0
280
     1
281
     0
  0
BLOCK_RECORD
  5
23
330
1
100
AcDbSymbolTableRecord
100
AcDbBlockTableRecord
  2
*Paper_Space0
340
26
 70
     0
280
     1
281
     0
  0
BLOCK_RECORD
  5
78
330
1
100
AcDbSymbolTableRecord
100
AcDbBlockTableRecord
  2
block 2
340
0
102
{BLKREFS
331
79
102
}
 70
     0
280
     1
281
     0
  0
BLOCK_RECORD
  5
9A
330
1
100
AcDbSymbolTableRecord
100
AcDbBlockTableRecord
  2
block 3
340
0
102
{BLKREFS
331
9B
102
}
 70
     0
280
     1
281
     0
  0
BLOCK_RECORD
  5
C0
330
1
100
AcDbSymbolTableRecord
100
AcDbBlockTableRecord
  2
block 4
340
0
102
{BLKREFS
331
C1
102
}
 70
     0
280
     1
281
     0
  0
BLOCK_RECORD
  5
C8
330
1
100
AcDbSymbolTableRecord
100
AcDbBlockTableRecord
  2
block 5
340
0
102
{BLKREFS
331
C9
102
}
 70
     0
280
     1
281
     0
  0
BLOCK_RECORD
  5
DD
330
1
100
AcDbSymbolTableRecord
100
AcDbBlockTableRecord
  2
block 6
340
0
102
{BLKREFS
331
DE
102
}
 70
     0
280
     1
281
     0
  0
ENDTAB
  0
ENDSEC
  0
SECTION
  2
BLOCKS
  0
BLOCK
  5
20
330
1F
100
AcDbEntity
  8
0
100
AcDbBlockBegin
  2
*Model_Space
 70
     0
 10
0.0
 20
0.0
 30
0.0
  3
*Model_Space
  1

  0
ENDBLK
  5
21
330
1F
100
AcDbEntity
  8
0
100
AcDbBlockEnd
  0
BLOCK
  5
1C
330
1B
100
AcDbEntity
 67
     1
  8
0
100
AcDbBlockBegin
  2
*Paper_Space
 70
     0
 10
0.0
 20
0.0
 30
0.0
  3
*Paper_Space
  1

  0
ENDBLK
  5
1D
330
1B
100
AcDbEntity
 67
     1
  8
0
100
AcDbBlockEnd
  0
BLOCK
  5
24
330
23
100
AcDbEntity
  8
0
100
AcDbBlockBegin
  2
*Paper_Space0
 70
     0
 10
0.0
 20
0.0
 30
0.0
  3
*Paper_Space0
  1

  0
ENDBLK
  5
25
330
23
100
AcDbEntity
  8
0
100
AcDbBlockEnd
  0
BLOCK
  5
7A
330
78
100
AcDbEntity
  8
0
100
AcDbBlockBegin
  2
block 2
 70
     0
 10
0.0
 20
0.0
 30
0.0
  3
block 2
  1

  0
SPLINE
  5
7C
330
78
100
AcDbEntity
  8
_U+30EC_U+30A4_U+30E4_U+30FC 1
370
     0
100
AcDbSpline
210
0.0
220
0.0
230
1.0
 70
    11
 71
     3
 72
    26
 73
    22
 74
     0
 42
0.0000000001
 43
0.0000000001
 12
1.0
 22
0.0
 32
0.0
 13
1.0
 23
0.0
 33
0.0
 40
0.0
 40
0.0
 40
0.0
 40
0.0
 40
1.0
 40
1.0
 40
1.0
 40
2.0
 40
2.0
 40
2.0
 40
3.0
 40
3.0
 40
3.0
 40
4.0
 40
4.0
 40
4.0
 40
5.0
 40
5.0
 40
5.0
 40
6.0
 40
6.0
 40
6.0
 40
7.0
 40
7.0
 40
7.0
 40
7.0
 10
90.4766479265996
 20
-141.0856173692425
 30
0.0
 10
90.4766479265996
 20
-141.0856173692425
 30
0.0
 10
90.4766479265996
 20
-139.9811197566714
 30
0.0
 10
90.4766479265996
 20
-139.9811197566714
 30
0.0
 10
90.4766479265996
 20
-139.9811197566714
 30
0.0
 10
90.12387014891002
 20
-139.9811197566714
 30
0.0
 10
90.12387014891002
 20
-139.9811197566714
 30
0.0
 10
90.12387014891002
 20
-139.9811197566714
 30
0.0
 10
90.12387014891002
 20
-139.8329806508056
 30
0.0
 10
90.12387014891002
 20
-139.8329806508056
 30
0.0
 10
90.47888723866501
 20
-139.8181667402191
 30
0.0
 10
90.5284966136526
 20
-139.6555582333153
 30
0.0
 10
90.5601914921169
 20
-139.541181063205
 30
0.0
 10
90.5601914921169
 20
-139.541181063205
 30
0.0
 10
90.71625431759873
 20
-139.541181063205
 30
0.0
 10
90.71625431759873
 20
-139.541181063205
 30
0.0
 10
90.71625431759873
 20
-139.541181063205
 30
0.0
 10
90.71625431759873
 20
-141.0856173692425
 30
0.0
 10
90.71625431759873
 20
-141.0856173692425
 30
0.0
 10
90.71625431759873
 20
-141.0856173692425
 30
0.0
 10
90.4766479265996
 20
-141.0856173692425
 30
0.0
 10
90.4766479265996
 20
-141.0856173692425
 30
0.0
  0
HATCH
  5
7D
330
78
100
AcDbEntity
  8
_U+30EC_U+30A4_U+30E4_U+30FC 1
 62
   179
420
  2234388
100
AcDbHatch
 10
0.0
 20
0.0
 30
0.0
210
0.0
220
0.0
230
1.0
  2
SOLID
 70
     1
 71
     0
 91
        1
 92
        1
 93
        1
 72
     4
 94
        3
 73
     0
 74
     1
 95
       26
 96
       22
 40
0.0
 40
0.0
 40
0.0
 40
0.0
 40
1.0
 40
1.0
 40
1.0
 40
2.0
 40
2.0
 40
2.0
 40
3.0
 40
3.0
 40
3.0
 40
4.0
 40
4.0
 40
4.0
 40
5.0
 40
5.0
 40
5.0
 40
6.0
 40
6.0
 40
6.0
 40
7.0
 40
7.0
 40
7.0
 40
7.0
 10
90.4766479265996
 20
-141.0856173692425
 10
90.4766479265996
 20
-141.0856173692425
 10
90.4766479265996
 20
-139.9811197566714
 10
90.4766479265996
 20
-139.9811197566714
 10
90.4766479265996
 20
-139.9811197566714
 10
90.12387014891002
 20
-139.9811197566714
 10
90.12387014891002
 20
-139.9811197566714
 10
90.12387014891002
 20
-139.9811197566714
 10
90.12387014891002
 20
-139.8329806508056
 10
90.12387014891002
 20
-139.8329806508056
 10
90.47888723866501
 20
-139.8181667402191
 10
90.5284966136526
 20
-139.6555582333153
 10
90.5601914921169
 20
-139.541181063205
 10
90.5601914921169
 20
-139.541181063205
 10
90.71625431759873
 20
-139.541181063205
 10
90.71625431759873
 20
-139.541181063205
 10
90.71625431759873
 20
-139.541181063205
 10
90.71625431759873
 20
-141.0856173692425
 10
90.71625431759873
 20
-141.0856173692425
 10
90.71625431759873
 20
-141.0856173692425
 10
90.4766479265996
 20
-141.0856173692425
 10
90.4766479265996
 20
-141.0856173692425
 97
        0
 97
        0
 75
     2
 76
     1
 98
        0
  0
SPLINE
  5
7E
330
78
100
AcDbEntity
  8
_U+30EC_U+30A4_U+30E4_U+30FC 1
370
     0
100
AcDbSpline
210
0.0
220
0.0
230
1.0
 70
    11
 71
     3
 72
    32
 73
    28
 74
     0
 42
0.0000000001
 43
0.0000000001
 12
1.0
 22
0.0
 32
0.0
 13
1.0
 23
0.0
 33
0.0
 40
0.0
 40
0.0
 40
0.0
 40
0.0
 40
1.0
 40
1.0
 40
1.0
 40
2.0
 40
2.0
 40
2.0
 40
3.0
 40
3.0
 40
3.0
 40
4.0
 40
4.0
 40
4.0
 40
5.0
 40
5.0
 40
5.0
 40
6.0
 40
6.0
 40
6.0
 40
7.0
 40
7.0
 40
7.0
 40
8.0
 40
8.0
 40
8.0
 40
9.0
 40
9.0
 40
9.0
 40
9.0
 10
91.74117022446055
 20
-141.1362602728757
 30
0.0
 10
91.5558240873541
 20
-141.1362602728757
 30
0.0
 10
91.29348006615233
 20
-141.0663248345251
 30
0.0
 10
91.25282793942638
 20
-140.734217629747
 30
0.0
 10
91.25282793942638
 20
-140.734217629747
 30
0.0
 10
91.48106551532418
 20
-140.734217629747
 30
0.0
 10
91.48106551532418
 20
-140.734217629747
 30
0.0
 10
91.49243433042551
 20
-140.7934732720933
 30
0.0
 10
91.52619626618096
 20
-140.941612377959
 30
0.0
 10
91.74323728175169
 20
-140.941612377959
 30
0.0
 10
92.05536293271533
 20
-140.941612377959
 30
0.0
 10
92.09601505944129
 20
-140.6115722304721
 30
0.0
 10
92.10979544138227
 20
-140.4062445395512
 30
0.0
 10
92.01229923914971
 20
-140.4868597739061
 30
0.0
 10
91.93995223395946
 20
-140.5440483589612
 30
0.0
 10
91.74564884859137
 20
-140.5440483589612
 30
0.0
 10
91.55341252051443
 20
-140.5440483589612
 30
0.0
 10
91.23009030922373
 20
-140.438283927564
 30
0.0
 10
91.23009030922373
 20
-140.0321071698531
 30
0.0
 10
91.23009030922373
 20
-139.7124023088219
 30
0.0
 10
91.44282495543791
 20
-139.492605216863
 30
0.0
 10
91.78182235118649
 20
-139.492605216863
 30
0.0
 10
92.33131508108384
 20
-139.492605216863
 30
0.0
 10
92.34233938663664
 20
-140.0469210804397
 30
0.0
 10
92.34233938663664
 20
-140.2605170005251
 30
0.0
 10
92.34233938663664
 20
-140.4909938884884
 30
0.0
 10
92.32201332327367
 20
-141.1362602728757
 30
0.0
 10
91.74117022446055
 20
-141.1362602728757
 30
0.0
  0
SPLINE
  5
7F
330
78
100
AcDbEntity
  8
_U+30EC_U+30A4_U+30E4_U+30FC 1
370
     0
100
AcDbSpline
210
0.0
220
0.0
230
1.0
 70
    11
 71
     3
 72
    17
 73
    13
 74
     0
 42
0.0000000001
 43
0.0000000001
 12
1.0
 22
0.0
 32
0.0
 13
1.0
 23
0.0
 33
0.0
 40
0.0
 40
0.0
 40
0.0
 40
0.0
 40
1.0
 40
1.0
 40
1.0
 40
2.0
 40
2.0
 40
2.0
 40
3.0
 40
3.0
 40
3.0
 40
4.0
 40
4.0
 40
4.0
 40
4.0
 10
91.78423391802617
 20
-139.6848415449399
 30
0.0
 10
91.65745440416897
 20
-139.6848415449399
 30
0.0
 10
91.46969670022285
 20
-139.742030129995
 30
0.0
 10
91.46969670022285
 20
-140.0276285457223
 30
0.0
 10
91.46969670022285
 20
-140.2539713191032
 30
0.0
 10
91.61886933473417
 20
-140.3494004640446
 30
0.0
 10
91.76356334511468
 20
-140.3494004640446
 30
0.0
 10
92.043994117614
 20
-140.3494004640446
 30
0.0
 10
92.08464624433995
 20
-140.1399386585414
 30
0.0
 10
92.08464624433995
 20
-140.02349443114
 30
0.0
 10
92.08464624433995
 20
-139.8477945613922
 30
0.0
 10
91.98301592752509
 20
-139.6848415449399
 30
0.0
 10
91.78423391802617
 20
-139.6848415449399
 30
0.0
  0
HATCH
  5
80
330
78
100
AcDbEntity
  8
_U+30EC_U+30A4_U+30E4_U+30FC 1
 62
   179
420
  2234388
100
AcDbHatch
 10
0.0
 20
0.0
 30
0.0
210
0.0
220
0.0
230
1.0
  2
SOLID
 70
     1
 71
     0
 91
        2
 92
        1
 93
        1
 72
     4
 94
        3
 73
     0
 74
     1
 95
       32
 96
       28
 40
0.0
 40
0.0
 40
0.0
 40
0.0
 40
1.0
 40
1.0
 40
1.0
 40
2.0
 40
2.0
 40
2.0
 40
3.0
 40
3.0
 40
3.0
 40
4.0
 40
4.0
 40
4.0
 40
5.0
 40
5.0
 40
5.0
 40
6.0
 40
6.0
 40
6.0
 40
7.0
 40
7.0
 40
7.0
 40
8.0
 40
8.0
 40
8.0
 40
9.0
 40
9.0
 40
9.0
 40
9.0
 10
91.74117022446055
 20
-141.1362602728757
 10
91.5558240873541
 20
-141.1362602728757
 10
91.29348006615233
 20
-141.0663248345251
 10
91.25282793942638
 20
-140.734217629747
 10
91.25282793942638
 20
-140.734217629747
 10
91.48106551532418
 20
-140.734217629747
 10
91.48106551532418
 20
-140.734217629747
 10
91.49243433042551
 20
-140.7934732720933
 10
91.52619626618096
 20
-140.941612377959
 10
91.74323728175169
 20
-140.941612377959
 10
92.05536293271533
 20
-140.941612377959
 10
92.09601505944129
 20
-140.6115722304721
 10
92.10979544138227
 20
-140.4062445395512
 10
92.01229923914971
 20
-140.4868597739061
 10
91.93995223395946
 20
-140.5440483589612
 10
91.74564884859137
 20
-140.5440483589612
 10
91.55341252051443
 20
-140.5440483589612
 10
91.23009030922373
 20
-140.438283927564
 10
91.23009030922373
 20
-140.0321071698531
 10
91.23009030922373
 20
-139.7124023088219
 10
91.44282495543791
 20
-139.492605216863
 10
91.78182235118649
 20
-139.492605216863
 10
92.33131508108384
 20
-139.492605216863
 10
92.34233938663664
 20
-140.0469210804397
 10
92.34233938663664
 20
-140.2605170005251
 10
92.34233938663664
 20
-140.4909938884884
 10
92.32201332327367
 20
-141.1362602728757
 10
91.74117022446055
 20
-141.1362602728757
 97
        0
 97
        0
 92
        1
 93
        1
 72
     4
 94
        3
 73
     0
 74
     1
 95
       17
 96
       13
 40
0.0
 40
0.0
 40
0.0
 40
0.0
 40
1.0
 40
1.0
 40
1.0
 40
2.0
 40
2.0
 40
2.0
 40
3.0
 40
3.0
 40
3.0
 40
4.0
 40
4.0
 40
4.0
 40
4.0
 10
91.78423391802617
 20
-139.6848415449399
 10
91.65745440416897
 20
-139.6848415449399
 10
91.46969670022285
 20
-139.742030129995
 10
91.46969670022285
 20
-140.0276285457223
 10
91.46969670022285
 20
-140.2539713191032
 10
91.61886933473417
 20
-140.3494004640446
 10
91.76356334511468
 20
-140.3494004640446
 10
92.043994117614
 20
-140.3494004640446
 10
92.08464624433995
 20
-140.1399386585414
 10
92.08464624433995
 20
-140.02349443114
 10
92.08464624433995
 20
-139.8477945613922
 10
91.98301592752509
 20
-139.6848415449399
 10
91.78423391802617
 20
-139.6848415449399
 97
        0
 97
        0
 75
     2
 76
     1
 98
        0
  0
POLYLINE
  5
81
330
78
100
AcDbEntity
  8
_U+30EC_U+30A4_U+30E4_U+30FC 1
370
     0
100
AcDb2dPolyline
 66
     1
 10
0.0
 20
0.0
 30
0.0
  0
VERTEX
  5
82
330
81
100
AcDbEntity
  8
_U+30EC_U+30A4_U+30E4_U+30FC 1
370
     0
100
AcDbVertex
100
AcDb2dVertex
 10
92.57384980324544
 20
-141.0856173692425
 30
0.0
  0
VERTEX
  5
83
330
81
100
AcDbEntity
  8
_U+30EC_U+30A4_U+30E4_U+30FC 1
370
     0
100
AcDbVertex
100
AcDb2dVertex
 10
92.57384980324544
 20
-140.8337808892707
 30
0.0
  0
VERTEX
  5
84
330
81
100
AcDbEntity
  8
_U+30EC_U+30A4_U+30E4_U+30FC 1
370
     0
100
AcDbVertex
100
AcDb2dVertex
 10
92.84291176064345
 20
-140.8337808892707
 30
0.0
  0
VERTEX
  5
85
330
81
100
AcDbEntity
  8
_U+30EC_U+30A4_U+30E4_U+30FC 1
370
     0
100
AcDbVertex
100
AcDb2dVertex
 10
92.84291176064345
 20
-141.0856173692425
 30
0.0
  0
VERTEX
  5
86
330
81
100
AcDbEntity
  8
_U+30EC_U+30A4_U+30E4_U+30FC 1
370
     0
100
AcDbVertex
100
AcDb2dVertex
 10
92.57384980324544
 20
-141.0856173692425
 30
0.0
  0
SEQEND
  5
87
330
81
100
AcDbEntity
  8
_U+30EC_U+30A4_U+30E4_U+30FC 1
370
     0
  0
HATCH
  5
88
330
78
100
AcDbEntity
  8
_U+30EC_U+30A4_U+30E4_U+30FC 1
 62
   179
420
  2234388
100
AcDbHatch
 10
0.0
 20
0.0
 30
0.0
210
0.0
220
0.0
230
1.0
  2
SOLID
 70
     1
 71
     0
 91
        1
 92
        1
 93
        4
 72
     1
 10
92.57384980324544
 20
-141.0856173692425
 11
92.57384980324544
 21
-140.8337808892707
 72
     1
 10
92.57384980324544
 20
-140.8337808892707
 11
92.84291176064345
 21
-140.8337808892707
 72
     1
 10
92.84291176064345
 20
-140.8337808892707
 11
92.84291176064345
 21
-141.0856173692425
 72
     1
 10
92.84291176064345
 20
-141.0856173692425
 11
92.57384980324544
 21
-141.0856173692425
 97
        0
 75
     2
 76
     1
 98
        0
  0
SPLINE
  5
89
330
78
100
AcDbEntity
  8
_U+30EC_U+30A4_U+30E4_U+30FC 1
370
     0
100
AcDbSpline
210
0.0
220
0.0
230
1.0
 70
    11
 71
     3
 72
    53
 73
    49
 74
     0
 42
0.0000000001
 43
0.0000000001
 12
1.0
 22
0.0
 32
0.0
 13
1.0
 23
0.0
 33
0.0
 40
0.0
 40
0.0
 40
0.0
 40
0.0
 40
1.0
 40
1.0
 40
1.0
 40
2.0
 40
2.0
 40
2.0
 40
3.0
 40
3.0
 40
3.0
 40
4.0
 40
4.0
 40
4.0
 40
5.0
 40
5.0
 40
5.0
 40
6.0
 40
6.0
 40
6.0
 40
7.0
 40
7.0
 40
7.0
 40
8.0
 40
8.0
 40
8.0
 40
9.0
 40
9.0
 40
9.0
 40
10.0
 40
10.0
 40
10.0
 40
11.0
 40
11.0
 40
11.0
 40
12.0
 40
12.0
 40
12.0
 40
13.0
 40
13.0
 40
13.0
 40
14.0
 40
14.0
 40
14.0
 40
15.0
 40
15.0
 40
15.0
 40
16.0
 40
16.0
 40
16.0
 40
16.0
 10
93.60979001566005
 20
-141.1362602728757
 30
0.0
 10
93.52607419536848
 20
-141.1362602728757
 30
0.0
 10
93.41755368758312
 20
-141.1193793049979
 30
0.0
 10
93.30903317979775
 20
-141.0559895480693
 30
0.0
 10
93.1236870426913
 20
-140.9457464925414
 30
0.0
 10
93.10094941248866
 20
-140.8148328641018
 30
0.0
 10
93.08062334912569
 20
-140.706656865865
 30
0.0
 10
93.08062334912569
 20
-140.706656865865
 30
0.0
 10
93.31799042805939
 20
-140.706656865865
 30
0.0
 10
93.31799042805939
 20
-140.706656865865
 30
0.0
 10
93.37690156085716
 20
-140.9057833849124
 30
0.0
 10
93.51229381342749
 20
-140.9354112060856
 30
0.0
 10
93.61185707295121
 20
-140.9354112060856
 30
0.0
 10
93.76102970746253
 20
-140.9354112060856
 30
0.0
 10
93.92398272391485
 20
-140.8358479465619
 30
0.0
 10
93.92398272391485
 20
-140.6033040013075
 30
0.0
 10
93.92398272391485
 20
-140.3473334067534
 30
0.0
 10
93.7317463958379
 20
-140.2773979684029
 30
0.0
 10
93.60289982468956
 20
-140.2773979684029
 30
0.0
 10
93.56879337938558
 20
-140.2773979684029
 30
0.0
 10
93.41755368758312
 20
-140.2773979684029
 30
0.0
 10
93.32246905219021
 20
-140.4062445395512
 30
0.0
 10
93.32246905219021
 20
-140.4062445395512
 30
0.0
 10
93.13471134824411
 20
-140.3872965143823
 30
0.0
 10
93.13471134824411
 20
-140.3872965143823
 30
0.0
 10
93.13471134824411
 20
-140.3872965143823
 30
0.0
 10
93.26390242894097
 20
-139.541181063205
 30
0.0
 10
93.26390242894097
 20
-139.541181063205
 30
0.0
 10
93.26390242894097
 20
-139.541181063205
 30
0.0
 10
94.0958929886288
 20
-139.541181063205
 30
0.0
 10
94.0958929886288
 20
-139.541181063205
 30
0.0
 10
94.0958929886288
 20
-139.541181063205
 30
0.0
 10
94.0958929886288
 20
-139.7358289581216
 30
0.0
 10
94.0958929886288
 20
-139.7358289581216
 30
0.0
 10
94.0958929886288
 20
-139.7358289581216
 30
0.0
 10
93.4378797509461
 20
-139.7358289581216
 30
0.0
 10
93.4378797509461
 20
-139.7358289581216
 30
0.0
 10
93.4378797509461
 20
-139.7358289581216
 30
0.0
 10
93.367599803047
 20
-140.1588866837103
 30
0.0
 10
93.367599803047
 20
-140.1588866837103
 30
0.0
 10
93.43340112681527
 20
-140.1251247479548
 30
0.0
 10
93.52159557123765
 20
-140.0848171307774
 30
0.0
 10
93.64803057554633
 20
-140.0848171307774
 30
0.0
 10
93.91950409978402
 20
-140.0848171307774
 30
0.0
 10
94.17271861794988
 20
-140.2708522869809
 30
0.0
 10
94.17271861794988
 20
-140.5840114665901
 30
0.0
 10
94.17271861794988
 20
-140.9013047607816
 30
0.0
 10
93.9329399721765
 20
-141.1362602728757
 30
0.0
 10
93.60979001566005
 20
-141.1362602728757
 30
0.0
  0
HATCH
  5
8A
330
78
100
AcDbEntity
  8
_U+30EC_U+30A4_U+30E4_U+30FC 1
 62
   179
420
  2234388
100
AcDbHatch
 10
0.0
 20
0.0
 30
0.0
210
0.0
220
0.0
230
1.0
  2
SOLID
 70
     1
 71
     0
 91
        1
 92
        1
 93
        1
 72
     4
 94
        3
 73
     0
 74
     1
 95
       53
 96
       49
 40
0.0
 40
0.0
 40
0.0
 40
0.0
 40
1.0
 40
1.0
 40
1.0
 40
2.0
 40
2.0
 40
2.0
 40
3.0
 40
3.0
 40
3.0
 40
4.0
 40
4.0
 40
4.0
 40
5.0
 40
5.0
 40
5.0
 40
6.0
 40
6.0
 40
6.0
 40
7.0
 40
7.0
 40
7.0
 40
8.0
 40
8.0
 40
8.0
 40
9.0
 40
9.0
 40
9.0
 40
10.0
 40
10.0
 40
10.0
 40
11.0
 40
11.0
 40
11.0
 40
12.0
 40
12.0
 40
12.0
 40
13.0
 40
13.0
 40
13.0
 40
14.0
 40
14.0
 40
14.0
 40
15.0
 40
15.0
 40
15.0
 40
16.0
 40
16.0
 40
16.0
 40
16.0
 10
93.60979001566005
 20
-141.1362602728757
 10
93.52607419536848
 20
-141.1362602728757
 10
93.41755368758312
 20
-141.1193793049979
 10
93.30903317979775
 20
-141.0559895480693
 10
93.1236870426913
 20
-140.9457464925414
 10
93.10094941248866
 20
-140.8148328641018
 10
93.08062334912569
 20
-140.706656865865
 10
93.08062334912569
 20
-140.706656865865
 10
93.31799042805939
 20
-140.706656865865
 10
93.31799042805939
 20
-140.706656865865
 10
93.37690156085716
 20
-140.9057833849124
 10
93.51229381342749
 20
-140.9354112060856
 10
93.61185707295121
 20
-140.9354112060856
 10
93.76102970746253
 20
-140.9354112060856
 10
93.92398272391485
 20
-140.8358479465619
 10
93.92398272391485
 20
-140.6033040013075
 10
93.92398272391485
 20
-140.3473334067534
 10
93.7317463958379
 20
-140.2773979684029
 10
93.60289982468956
 20
-140.2773979684029
 10
93.56879337938558
 20
-140.2773979684029
 10
93.41755368758312
 20
-140.2773979684029
 10
93.32246905219021
 20
-140.4062445395512
 10
93.32246905219021
 20
-140.4062445395512
 10
93.13471134824411
 20
-140.3872965143823
 10
93.13471134824411
 20
-140.3872965143823
 10
93.13471134824411
 20
-140.3872965143823
 10
93.26390242894097
 20
-139.541181063205
 10
93.26390242894097
 20
-139.541181063205
 10
93.26390242894097
 20
-139.541181063205
 10
94.0958929886288
 20
-139.541181063205
 10
94.0958929886288
 20
-139.541181063205
 10
94.0958929886288
 20
-139.541181063205
 10
94.0958929886288
 20
-139.7358289581216
 10
94.0958929886288
 20
-139.7358289581216
 10
94.0958929886288
 20
-139.7358289581216
 10
93.4378797509461
 20
-139.7358289581216
 10
93.4378797509461
 20
-139.7358289581216
 10
93.4378797509461
 20
-139.7358289581216
 10
93.367599803047
 20
-140.1588866837103
 10
93.367599803047
 20
-140.1588866837103
 10
93.43340112681527
 20
-140.1251247479548
 10
93.52159557123765
 20
-140.0848171307774
 10
93.64803057554633
 20
-140.0848171307774
 10
93.91950409978402
 20
-140.0848171307774
 10
94.17271861794988
 20
-140.2708522869809
 10
94.17271861794988
 20
-140.5840114665901
 10
94.17271861794988
 20
-140.9013047607816
 10
93.9329399721765
 20
-141.1362602728757
 10
93.60979001566005
 20
-141.1362602728757
 97
        0
 97
        0
 75
     2
 76
     1
 98
        0
  0
ENDBLK
  5
7B
330
78
100
AcDbEntity
  8
0
100
AcDbBlockEnd
  0
BLOCK
  5
9C
330
9A
100
AcDbEntity
  8
0
100
AcDbBlockBegin
  2
block 3
 70
     0
 10
0.0
 20
0.0
 30
0.0
  3
block 3
  1

  0
SPLINE
  5
9E
330
9A
100
AcDbEntity
  8
_U+30EC_U+30A4_U+30E4_U+30FC 1
370
     0
100
AcDbSpline
210
0.0
220
0.0
230
1.0
 70
    11
 71
     3
 72
    26
 73
    22
 74
     0
 42
0.0000000001
 43
0.0000000001
 12
1.0
 22
0.0
 32
0.0
 13
1.0
 23
0.0
 33
0.0
 40
0.0
 40
0.0
 40
0.0
 40
0.0
 40
1.0
 40
1.0
 40
1.0
 40
2.0
 40
2.0
 40
2.0
 40
3.0
 40
3.0
 40
3.0
 40
4.0
 40
4.0
 40
4.0
 40
5.0
 40
5.0
 40
5.0
 40
6.0
 40
6.0
 40
6.0
 40
7.0
 40
7.0
 40
7.0
 40
7.0
 10
78.0903238737066
 20
-128.3105142908391
 30
0.0
 10
78.0903238737066
 20
-128.3105142908391
 30
0.0
 10
76.98599851590976
 20
-128.3105142908391
 30
0.0
 10
76.98599851590976
 20
-128.3105142908391
 30
0.0
 10
76.98599851590976
 20
-128.3105142908391
 30
0.0
 10
76.98599851590976
 20
-128.6632920685286
 30
0.0
 10
76.98599851590976
 20
-128.6632920685286
 30
0.0
 10
76.98599851590976
 20
-128.6632920685286
 30
0.0
 10
76.83803166481827
 20
-128.6632920685286
 30
0.0
 10
76.83803166481827
 20
-128.6632920685286
 30
0.0
 10
76.8232177542317
 20
-128.3082749787736
 30
0.0
 10
76.66026473777939
 20
-128.2584933490118
 30
0.0
 10
76.54605982244335
 20
-128.2267984705475
 30
0.0
 10
76.54605982244335
 20
-128.2267984705475
 30
0.0
 10
76.54605982244335
 20
-128.0709078998399
 30
0.0
 10
76.54605982244335
 20
-128.0709078998399
 30
0.0
 10
76.54605982244335
 20
-128.0709078998399
 30
0.0
 10
78.0903238737066
 20
-128.0709078998399
 30
0.0
 10
78.0903238737066
 20
-128.0709078998399
 30
0.0
 10
78.0903238737066
 20
-128.0709078998399
 30
0.0
 10
78.0903238737066
 20
-128.3105142908391
 30
0.0
 10
78.0903238737066
 20
-128.3105142908391
 30
0.0
  0
HATCH
  5
9F
330
9A
100
AcDbEntity
  8
_U+30EC_U+30A4_U+30E4_U+30FC 1
 62
   179
420
  2234388
100
AcDbHatch
 10
0.0
 20
0.0
 30
0.0
210
0.0
220
0.0
230
1.0
  2
SOLID
 70
     1
 71
     0
 91
        1
 92
        1
 93
        1
 72
     4
 94
        3
 73
     0
 74
     1
 95
       26
 96
       22
 40
0.0
 40
0.0
 40
0.0
 40
0.0
 40
1.0
 40
1.0
 40
1.0
 40
2.0
 40
2.0
 40
2.0
 40
3.0
 40
3.0
 40
3.0
 40
4.0
 40
4.0
 40
4.0
 40
5.0
 40
5.0
 40
5.0
 40
6.0
 40
6.0
 40
6.0
 40
7.0
 40
7.0
 40
7.0
 40
7.0
 10
78.0903238737066
 20
-128.3105142908391
 10
78.0903238737066
 20
-128.3105142908391
 10
76.98599851590976
 20
-128.3105142908391
 10
76.98599851590976
 20
-128.3105142908391
 10
76.98599851590976
 20
-128.3105142908391
 10
76.98599851590976
 20
-128.6632920685286
 10
76.98599851590976
 20
-128.6632920685286
 10
76.98599851590976
 20
-128.6632920685286
 10
76.83803166481827
 20
-128.6632920685286
 10
76.83803166481827
 20
-128.6632920685286
 10
76.8232177542317
 20
-128.3082749787736
 10
76.66026473777939
 20
-128.2584933490118
 10
76.54605982244335
 20
-128.2267984705475
 10
76.54605982244335
 20
-128.2267984705475
 10
76.54605982244335
 20
-128.0709078998399
 10
76.54605982244335
 20
-128.0709078998399
 10
76.54605982244335
 20
-128.0709078998399
 10
78.0903238737066
 20
-128.0709078998399
 10
78.0903238737066
 20
-128.0709078998399
 10
78.0903238737066
 20
-128.0709078998399
 10
78.0903238737066
 20
-128.3105142908391
 10
78.0903238737066
 20
-128.3105142908391
 97
        0
 97
        0
 75
     2
 76
     1
 98
        0
  0
SPLINE
  5
A0
330
9A
100
AcDbEntity
  8
_U+30EC_U+30A4_U+30E4_U+30FC 1
370
     0
100
AcDbSpline
210
0.0
220
0.0
230
1.0
 70
    11
 71
     3
 72
    32
 73
    28
 74
     0
 42
0.0000000001
 43
0.0000000001
 12
1.0
 22
0.0
 32
0.0
 13
1.0
 23
0.0
 33
0.0
 40
0.0
 40
0.0
 40
0.0
 40
0.0
 40
1.0
 40
1.0
 40
1.0
 40
2.0
 40
2.0
 40
2.0
 40
3.0
 40
3.0
 40
3.0
 40
4.0
 40
4.0
 40
4.0
 40
5.0
 40
5.0
 40
5.0
 40
6.0
 40
6.0
 40
6.0
 40
7.0
 40
7.0
 40
7.0
 40
8.0
 40
8.0
 40
8.0
 40
9.0
 40
9.0
 40
9.0
 40
9.0
 10
78.14113903211403
 20
-127.0459919929781
 30
0.0
 10
78.14113903211403
 20
-127.2313381300845
 30
0.0
 10
78.07137584853771
 20
-127.4936821512863
 30
0.0
 10
77.73926864375963
 20
-127.5343342780123
 30
0.0
 10
77.73926864375963
 20
-127.5343342780123
 30
0.0
 10
77.73926864375963
 20
-127.3059244473402
 30
0.0
 10
77.73926864375963
 20
-127.3059244473402
 30
0.0
 10
77.79835203133166
 20
-127.2947278870131
 30
0.0
 10
77.94649113719741
 20
-127.2607936964834
 30
0.0
 10
77.94649113719741
 20
-127.0437526809127
 30
0.0
 10
77.94649113719741
 20
-126.731627029949
 30
0.0
 10
77.61645098971047
 20
-126.6909749032231
 30
0.0
 10
77.41129555356385
 20
-126.6773667760564
 30
0.0
 10
77.49173853314443
 20
-126.7746907235147
 30
0.0
 10
77.54875486342532
 20
-126.8470377287049
 30
0.0
 10
77.54875486342532
 20
-127.0415133688473
 30
0.0
 10
77.54875486342532
 20
-127.23357744215
 30
0.0
 10
77.44299043202814
 20
-127.5568996534406
 30
0.0
 10
77.03681367431719
 20
-127.5568996534406
 30
0.0
 10
76.71745332283453
 20
-127.5568996534406
 30
0.0
 10
76.49731172132707
 20
-127.3443372620007
 30
0.0
 10
76.49731172132707
 20
-127.0053398662521
 30
0.0
 10
76.49731172132707
 20
-126.4558471363548
 30
0.0
 10
77.05162758490377
 20
-126.4446505760277
 30
0.0
 10
77.26522350498925
 20
-126.4446505760277
 30
0.0
 10
77.49587264772673
 20
-126.4446505760277
 30
0.0
 10
78.14113903211403
 20
-126.4649766393907
 30
0.0
 10
78.14113903211403
 20
-127.0459919929781
 30
0.0
  0
SPLINE
  5
A1
330
9A
100
AcDbEntity
  8
_U+30EC_U+30A4_U+30E4_U+30FC 1
370
     0
100
AcDbSpline
210
0.0
220
0.0
230
1.0
 70
    11
 71
     3
 72
    17
 73
    13
 74
     0
 42
0.0000000001
 43
0.0000000001
 12
1.0
 22
0.0
 32
0.0
 13
1.0
 23
0.0
 33
0.0
 40
0.0
 40
0.0
 40
0.0
 40
0.0
 40
1.0
 40
1.0
 40
1.0
 40
2.0
 40
2.0
 40
2.0
 40
3.0
 40
3.0
 40
3.0
 40
4.0
 40
4.0
 40
4.0
 40
4.0
 10
76.68989255895254
 20
-127.0029282994125
 30
0.0
 10
76.68989255895254
 20
-127.1295355584954
 30
0.0
 10
76.74708114400768
 20
-127.3172932624415
 30
0.0
 10
77.03267955973489
 20
-127.3172932624415
 30
0.0
 10
77.25902233311581
 20
-127.3172932624415
 30
0.0
 10
77.3541069685087
 20
-127.1681206279302
 30
0.0
 10
77.3541069685087
 20
-127.0234266175497
 30
0.0
 10
77.3541069685087
 20
-126.7429958450504
 30
0.0
 10
77.1446451630055
 20
-126.7023437183244
 30
0.0
 10
77.02837319037833
 20
-126.7023437183244
 30
0.0
 10
76.85284557540484
 20
-126.7023437183244
 30
0.0
 10
76.68989255895254
 20
-126.8039740351393
 30
0.0
 10
76.68989255895254
 20
-127.0029282994125
 30
0.0
  0
HATCH
  5
A2
330
9A
100
AcDbEntity
  8
_U+30EC_U+30A4_U+30E4_U+30FC 1
 62
   179
420
  2234388
100
AcDbHatch
 10
0.0
 20
0.0
 30
0.0
210
0.0
220
0.0
230
1.0
  2
SOLID
 70
     1
 71
     0
 91
        2
 92
        1
 93
        1
 72
     4
 94
        3
 73
     0
 74
     1
 95
       32
 96
       28
 40
0.0
 40
0.0
 40
0.0
 40
0.0
 40
1.0
 40
1.0
 40
1.0
 40
2.0
 40
2.0
 40
2.0
 40
3.0
 40
3.0
 40
3.0
 40
4.0
 40
4.0
 40
4.0
 40
5.0
 40
5.0
 40
5.0
 40
6.0
 40
6.0
 40
6.0
 40
7.0
 40
7.0
 40
7.0
 40
8.0
 40
8.0
 40
8.0
 40
9.0
 40
9.0
 40
9.0
 40
9.0
 10
78.14113903211403
 20
-127.0459919929781
 10
78.14113903211403
 20
-127.2313381300845
 10
78.07137584853771
 20
-127.4936821512863
 10
77.73926864375963
 20
-127.5343342780123
 10
77.73926864375963
 20
-127.5343342780123
 10
77.73926864375963
 20
-127.3059244473402
 10
77.73926864375963
 20
-127.3059244473402
 10
77.79835203133166
 20
-127.2947278870131
 10
77.94649113719741
 20
-127.2607936964834
 10
77.94649113719741
 20
-127.0437526809127
 10
77.94649113719741
 20
-126.731627029949
 10
77.61645098971047
 20
-126.6909749032231
 10
77.41129555356385
 20
-126.6773667760564
 10
77.49173853314443
 20
-126.7746907235147
 10
77.54875486342532
 20
-126.8470377287049
 10
77.54875486342532
 20
-127.0415133688473
 10
77.54875486342532
 20
-127.23357744215
 10
77.44299043202814
 20
-127.5568996534406
 10
77.03681367431719
 20
-127.5568996534406
 10
76.71745332283453
 20
-127.5568996534406
 10
76.49731172132707
 20
-127.3443372620007
 10
76.49731172132707
 20
-127.0053398662521
 10
76.49731172132707
 20
-126.4558471363548
 10
77.05162758490377
 20
-126.4446505760277
 10
77.26522350498925
 20
-126.4446505760277
 10
77.49587264772673
 20
-126.4446505760277
 10
78.14113903211403
 20
-126.4649766393907
 10
78.14113903211403
 20
-127.0459919929781
 97
        0
 97
        0
 92
        1
 93
        1
 72
     4
 94
        3
 73
     0
 74
     1
 95
       17
 96
       13
 40
0.0
 40
0.0
 40
0.0
 40
0.0
 40
1.0
 40
1.0
 40
1.0
 40
2.0
 40
2.0
 40
2.0
 40
3.0
 40
3.0
 40
3.0
 40
4.0
 40
4.0
 40
4.0
 40
4.0
 10
76.68989255895254
 20
-127.0029282994125
 10
76.68989255895254
 20
-127.1295355584954
 10
76.74708114400768
 20
-127.3172932624415
 10
77.03267955973489
 20
-127.3172932624415
 10
77.25902233311581
 20
-127.3172932624415
 10
77.3541069685087
 20
-127.1681206279302
 10
77.3541069685087
 20
-127.0234266175497
 10
77.3541069685087
 20
-126.7429958450504
 10
77.1446451630055
 20
-126.7023437183244
 10
77.02837319037833
 20
-126.7023437183244
 10
76.85284557540484
 20
-126.7023437183244
 10
76.68989255895254
 20
-126.8039740351393
 10
76.68989255895254
 20
-127.0029282994125
 97
        0
 97
        0
 75
     2
 76
     1
 98
        0
  0
POLYLINE
  5
A3
330
9A
100
AcDbEntity
  8
_U+30EC_U+30A4_U+30E4_U+30FC 1
370
     0
100
AcDb2dPolyline
 66
     1
 10
0.0
 20
0.0
 30
0.0
  0
VERTEX
  5
A4
330
A3
100
AcDbEntity
  8
_U+30EC_U+30A4_U+30E4_U+30FC 1
370
     0
100
AcDbVertex
100
AcDb2dVertex
 10
78.0903238737066
 20
-126.2133124141932
 30
0.0
  0
VERTEX
  5
A5
330
A3
100
AcDbEntity
  8
_U+30EC_U+30A4_U+30E4_U+30FC 1
370
     0
100
AcDbVertex
100
AcDb2dVertex
 10
77.8386596485091
 20
-126.2133124141932
 30
0.0
  0
VERTEX
  5
A6
330
A3
100
AcDbEntity
  8
_U+30EC_U+30A4_U+30E4_U+30FC 1
370
     0
100
AcDbVertex
100
AcDb2dVertex
 10
77.8386596485091
 20
-125.9442504567952
 30
0.0
  0
VERTEX
  5
A7
330
A3
100
AcDbEntity
  8
_U+30EC_U+30A4_U+30E4_U+30FC 1
370
     0
100
AcDbVertex
100
AcDb2dVertex
 10
78.0903238737066
 20
-125.9442504567952
 30
0.0
  0
VERTEX
  5
A8
330
A3
100
AcDbEntity
  8
_U+30EC_U+30A4_U+30E4_U+30FC 1
370
     0
100
AcDbVertex
100
AcDb2dVertex
 10
78.0903238737066
 20
-126.2133124141932
 30
0.0
  0
SEQEND
  5
A9
330
A3
100
AcDbEntity
  8
_U+30EC_U+30A4_U+30E4_U+30FC 1
370
     0
  0
HATCH
  5
AA
330
9A
100
AcDbEntity
  8
_U+30EC_U+30A4_U+30E4_U+30FC 1
 62
   179
420
  2234388
100
AcDbHatch
 10
0.0
 20
0.0
 30
0.0
210
0.0
220
0.0
230
1.0
  2
SOLID
 70
     1
 71
     0
 91
        1
 92
        1
 93
        4
 72
     1
 10
78.0903238737066
 20
-126.2133124141932
 11
77.8386596485091
 21
-126.2133124141932
 72
     1
 10
77.8386596485091
 20
-126.2133124141932
 11
77.8386596485091
 21
-125.9442504567952
 72
     1
 10
77.8386596485091
 20
-125.9442504567952
 11
78.0903238737066
 21
-125.9442504567952
 72
     1
 10
78.0903238737066
 20
-125.9442504567952
 11
78.0903238737066
 21
-126.2133124141932
 97
        0
 75
     2
 76
     1
 98
        0
  0
SPLINE
  5
AB
330
9A
100
AcDbEntity
  8
_U+30EC_U+30A4_U+30E4_U+30FC 1
370
     0
100
AcDbSpline
210
0.0
220
0.0
230
1.0
 70
    11
 71
     3
 72
    53
 73
    49
 74
     0
 42
0.0000000001
 43
0.0000000001
 12
1.0
 22
0.0
 32
0.0
 13
1.0
 23
0.0
 33
0.0
 40
0.0
 40
0.0
 40
0.0
 40
0.0
 40
1.0
 40
1.0
 40
1.0
 40
2.0
 40
2.0
 40
2.0
 40
3.0
 40
3.0
 40
3.0
 40
4.0
 40
4.0
 40
4.0
 40
5.0
 40
5.0
 40
5.0
 40
6.0
 40
6.0
 40
6.0
 40
7.0
 40
7.0
 40
7.0
 40
8.0
 40
8.0
 40
8.0
 40
9.0
 40
9.0
 40
9.0
 40
10.0
 40
10.0
 40
10.0
 40
11.0
 40
11.0
 40
11.0
 40
12.0
 40
12.0
 40
12.0
 40
13.0
 40
13.0
 40
13.0
 40
14.0
 40
14.0
 40
14.0
 40
15.0
 40
15.0
 40
15.0
 40
16.0
 40
16.0
 40
16.0
 40
16.0
 10
78.14113903211403
 20
-125.1773722017786
 30
0.0
 10
78.14113903211403
 20
-125.2610880220702
 30
0.0
 10
78.1242580642363
 20
-125.3696085298555
 30
0.0
 10
78.06069605253344
 20
-125.4781290376409
 30
0.0
 10
77.95079750655397
 20
-125.6634751747473
 30
0.0
 10
77.81953936856596
 20
-125.68621280495
 30
0.0
 10
77.71170787987764
 20
-125.706538868313
 30
0.0
 10
77.71170787987764
 20
-125.706538868313
 30
0.0
 10
77.71170787987764
 20
-125.4691717893792
 30
0.0
 10
77.71170787987764
 20
-125.4691717893792
 30
0.0
 10
77.91048988937655
 20
-125.4102606565815
 30
0.0
 10
77.9401177105497
 20
-125.2746961492369
 30
0.0
 10
77.9401177105497
 20
-125.1751328897132
 30
0.0
 10
77.9401177105497
 20
-125.0259602552019
 30
0.0
 10
77.84072670580024
 20
-124.8631794935238
 30
0.0
 10
77.60801050577162
 20
-124.8631794935238
 30
0.0
 10
77.35203991121755
 20
-124.8631794935238
 30
0.0
 10
77.28227672764125
 20
-125.0554158216007
 30
0.0
 10
77.28227672764125
 20
-125.1842623927491
 30
0.0
 10
77.28227672764125
 20
-125.2181965832788
 30
0.0
 10
77.28227672764125
 20
-125.3696085298555
 30
0.0
 10
77.41129555356385
 20
-125.4645209104741
 30
0.0
 10
77.41129555356385
 20
-125.4645209104741
 30
0.0
 10
77.39217527362071
 20
-125.6522786144203
 30
0.0
 10
77.39217527362071
 20
-125.6522786144203
 30
0.0
 10
77.39217527362071
 20
-125.6522786144203
 30
0.0
 10
76.54605982244335
 20
-125.5234320432719
 30
0.0
 10
76.54605982244335
 20
-125.5234320432719
 30
0.0
 10
76.54605982244335
 20
-125.5234320432719
 30
0.0
 10
76.54605982244335
 20
-124.6914414835841
 30
0.0
 10
76.54605982244335
 20
-124.6914414835841
 30
0.0
 10
76.54605982244335
 20
-124.6914414835841
 30
0.0
 10
76.74070771735997
 20
-124.6914414835841
 30
0.0
 10
76.74070771735997
 20
-124.6914414835841
 30
0.0
 10
76.74070771735997
 20
-124.6914414835841
 30
0.0
 10
76.74070771735997
 20
-125.3492824664925
 30
0.0
 10
76.74070771735997
 20
-125.3492824664925
 30
0.0
 10
76.74070771735997
 20
-125.3492824664925
 30
0.0
 10
77.16376544294864
 20
-125.4193901596174
 30
0.0
 10
77.16376544294864
 20
-125.4193901596174
 30
0.0
 10
77.12983125241894
 20
-125.3537610906234
 30
0.0
 10
77.08969589001578
 20
-125.265566646201
 30
0.0
 10
77.08969589001578
 20
-125.138959387118
 30
0.0
 10
77.08969589001578
 20
-124.8676581176546
 30
0.0
 10
77.27590330099353
 20
-124.6144435994888
 30
0.0
 10
77.58906248060273
 20
-124.6144435994888
 30
0.0
 10
77.90635577479425
 20
-124.6144435994888
 30
0.0
 10
78.14113903211403
 20
-124.8542222452622
 30
0.0
 10
78.14113903211403
 20
-125.1773722017786
 30
0.0
  0
HATCH
  5
AC
330
9A
100
AcDbEntity
  8
_U+30EC_U+30A4_U+30E4_U+30FC 1
 62
   179
420
  2234388
100
AcDbHatch
 10
0.0
 20
0.0
 30
0.0
210
0.0
220
0.0
230
1.0
  2
SOLID
 70
     1
 71
     0
 91
        1
 92
        1
 93
        1
 72
     4
 94
        3
 73
     0
 74
     1
 95
       53
 96
       49
 40
0.0
 40
0.0
 40
0.0
 40
0.0
 40
1.0
 40
1.0
 40
1.0
 40
2.0
 40
2.0
 40
2.0
 40
3.0
 40
3.0
 40
3.0
 40
4.0
 40
4.0
 40
4.0
 40
5.0
 40
5.0
 40
5.0
 40
6.0
 40
6.0
 40
6.0
 40
7.0
 40
7.0
 40
7.0
 40
8.0
 40
8.0
 40
8.0
 40
9.0
 40
9.0
 40
9.0
 40
10.0
 40
10.0
 40
10.0
 40
11.0
 40
11.0
 40
11.0
 40
12.0
 40
12.0
 40
12.0
 40
13.0
 40
13.0
 40
13.0
 40
14.0
 40
14.0
 40
14.0
 40
15.0
 40
15.0
 40
15.0
 40
16.0
 40
16.0
 40
16.0
 40
16.0
 10
78.14113903211403
 20
-125.1773722017786
 10
78.14113903211403
 20
-125.2610880220702
 10
78.1242580642363
 20
-125.3696085298555
 10
78.06069605253344
 20
-125.4781290376409
 10
77.95079750655397
 20
-125.6634751747473
 10
77.81953936856596
 20
-125.68621280495
 10
77.71170787987764
 20
-125.706538868313
 10
77.71170787987764
 20
-125.706538868313
 10
77.71170787987764
 20
-125.4691717893792
 10
77.71170787987764
 20
-125.4691717893792
 10
77.91048988937655
 20
-125.4102606565815
 10
77.9401177105497
 20
-125.2746961492369
 10
77.9401177105497
 20
-125.1751328897132
 10
77.9401177105497
 20
-125.0259602552019
 10
77.84072670580024
 20
-124.8631794935238
 10
77.60801050577162
 20
-124.8631794935238
 10
77.35203991121755
 20
-124.8631794935238
 10
77.28227672764125
 20
-125.0554158216007
 10
77.28227672764125
 20
-125.1842623927491
 10
77.28227672764125
 20
-125.2181965832788
 10
77.28227672764125
 20
-125.3696085298555
 10
77.41129555356385
 20
-125.4645209104741
 10
77.41129555356385
 20
-125.4645209104741
 10
77.39217527362071
 20
-125.6522786144203
 10
77.39217527362071
 20
-125.6522786144203
 10
77.39217527362071
 20
-125.6522786144203
 10
76.54605982244335
 20
-125.5234320432719
 10
76.54605982244335
 20
-125.5234320432719
 10
76.54605982244335
 20
-125.5234320432719
 10
76.54605982244335
 20
-124.6914414835841
 10
76.54605982244335
 20
-124.6914414835841
 10
76.54605982244335
 20
-124.6914414835841
 10
76.74070771735997
 20
-124.6914414835841
 10
76.74070771735997
 20
-124.6914414835841
 10
76.74070771735997
 20
-124.6914414835841
 10
76.74070771735997
 20
-125.3492824664925
 10
76.74070771735997
 20
-125.3492824664925
 10
76.74070771735997
 20
-125.3492824664925
 10
77.16376544294864
 20
-125.4193901596174
 10
77.16376544294864
 20
-125.4193901596174
 10
77.12983125241894
 20
-125.3537610906234
 10
77.08969589001578
 20
-125.265566646201
 10
77.08969589001578
 20
-125.138959387118
 10
77.08969589001578
 20
-124.8676581176546
 10
77.27590330099353
 20
-124.6144435994888
 10
77.58906248060273
 20
-124.6144435994888
 10
77.90635577479425
 20
-124.6144435994888
 10
78.14113903211403
 20
-124.8542222452622
 10
78.14113903211403
 20
-125.1773722017786
 97
        0
 97
        0
 75
     2
 76
     1
 98
        0
  0
ENDBLK
  5
9D
330
9A
100
AcDbEntity
  8
0
100
AcDbBlockEnd
  0
BLOCK
  5
C2
330
C0
100
AcDbEntity
  8
0
100
AcDbBlockBegin
  2
block 4
 70
     0
 10
0.0
 20
0.0
 30
0.0
  3
block 4
  1

  0
SPLINE
  5
C4
330
C0
100
AcDbEntity
  8
_U+30EC_U+30A4_U+30E4_U+30FC 1
370
     0
100
AcDbSpline
210
0.0
220
0.0
230
1.0
 70
    11
 71
     3
 72
    26
 73
    22
 74
     0
 42
0.0000000001
 43
0.0000000001
 12
1.0
 22
0.0
 32
0.0
 13
1.0
 23
0.0
 33
0.0
 40
0.0
 40
0.0
 40
0.0
 40
0.0
 40
1.0
 40
1.0
 40
1.0
 40
2.0
 40
2.0
 40
2.0
 40
3.0
 40
3.0
 40
3.0
 40
4.0
 40
4.0
 40
4.0
 40
5.0
 40
5.0
 40
5.0
 40
6.0
 40
6.0
 40
6.0
 40
7.0
 40
7.0
 40
7.0
 40
7.0
 10
105.3255262323492
 20
-130.6393988388679
 30
0.0
 10
105.3255262323492
 20
-130.6393988388679
 30
0.0
 10
104.2210286197781
 20
-130.6393988388679
 30
0.0
 10
104.2210286197781
 20
-130.6393988388679
 30
0.0
 10
104.2210286197781
 20
-130.6393988388679
 30
0.0
 10
104.2210286197781
 20
-130.9921766165575
 30
0.0
 10
104.2210286197781
 20
-130.9921766165575
 30
0.0
 10
104.2210286197781
 20
-130.9921766165575
 30
0.0
 10
104.0728895139123
 20
-130.9921766165575
 30
0.0
 10
104.0728895139123
 20
-130.9921766165575
 30
0.0
 10
104.0580756033258
 20
-130.6373317815768
 30
0.0
 10
103.895467096422
 20
-130.5873778970407
 30
0.0
 10
103.7810899263117
 20
-130.5556830185764
 30
0.0
 10
103.7810899263117
 20
-130.5556830185764
 30
0.0
 10
103.7810899263117
 20
-130.3999647026431
 30
0.0
 10
103.7810899263117
 20
-130.3999647026431
 30
0.0
 10
103.7810899263117
 20
-130.3999647026431
 30
0.0
 10
105.3255262323492
 20
-130.3999647026431
 30
0.0
 10
105.3255262323492
 20
-130.3999647026431
 30
0.0
 10
105.3255262323492
 20
-130.3999647026431
 30
0.0
 10
105.3255262323492
 20
-130.6393988388679
 30
0.0
 10
105.3255262323492
 20
-130.6393988388679
 30
0.0
  0
HATCH
  5
C5
330
C0
100
AcDbEntity
  8
_U+30EC_U+30A4_U+30E4_U+30FC 1
 62
   179
420
  2234388
100
AcDbHatch
 10
0.0
 20
0.0
 30
0.0
210
0.0
220
0.0
230
1.0
  2
SOLID
 70
     1
 71
     0
 91
        1
 92
        1
 93
        1
 72
     4
 94
        3
 73
     0
 74
     1
 95
       26
 96
       22
 40
0.0
 40
0.0
 40
0.0
 40
0.0
 40
1.0
 40
1.0
 40
1.0
 40
2.0
 40
2.0
 40
2.0
 40
3.0
 40
3.0
 40
3.0
 40
4.0
 40
4.0
 40
4.0
 40
5.0
 40
5.0
 40
5.0
 40
6.0
 40
6.0
 40
6.0
 40
7.0
 40
7.0
 40
7.0
 40
7.0
 10
105.3255262323492
 20
-130.6393988388679
 10
105.3255262323492
 20
-130.6393988388679
 10
104.2210286197781
 20
-130.6393988388679
 10
104.2210286197781
 20
-130.6393988388679
 10
104.2210286197781
 20
-130.6393988388679
 10
104.2210286197781
 20
-130.9921766165575
 10
104.2210286197781
 20
-130.9921766165575
 10
104.2210286197781
 20
-130.9921766165575
 10
104.0728895139123
 20
-130.9921766165575
 10
104.0728895139123
 20
-130.9921766165575
 10
104.0580756033258
 20
-130.6373317815768
 10
103.895467096422
 20
-130.5873778970407
 10
103.7810899263117
 20
-130.5556830185764
 10
103.7810899263117
 20
-130.5556830185764
 10
103.7810899263117
 20
-130.3999647026431
 10
103.7810899263117
 20
-130.3999647026431
 10
103.7810899263117
 20
-130.3999647026431
 10
105.3255262323492
 20
-130.3999647026431
 10
105.3255262323492
 20
-130.3999647026431
 10
105.3255262323492
 20
-130.3999647026431
 10
105.3255262323492
 20
-130.6393988388679
 10
105.3255262323492
 20
-130.6393988388679
 97
        0
 97
        0
 75
     2
 76
     1
 98
        0
  0
SPLINE
  5
C6
330
C0
100
AcDbEntity
  8
_U+30EC_U+30A4_U+30E4_U+30FC 1
370
     0
100
AcDbSpline
210
0.0
220
0.0
230
1.0
 70
    11
 71
     3
 72
    62
 73
    58
 74
     0
 42
0.0000000001
 43
0.0000000001
 12
1.0
 22
0.0
 32
0.0
 13
1.0
 23
0.0
 33
0.0
 40
0.0
 40
0.0
 40
0.0
 40
0.0
 40
1.0
 40
1.0
 40
1.0
 40
2.0
 40
2.0
 40
2.0
 40
3.0
 40
3.0
 40
3.0
 40
4.0
 40
4.0
 40
4.0
 40
5.0
 40
5.0
 40
5.0
 40
6.0
 40
6.0
 40
6.0
 40
7.0
 40
7.0
 40
7.0
 40
8.0
 40
8.0
 40
8.0
 40
9.0
 40
9.0
 40
9.0
 40
10.0
 40
10.0
 40
10.0
 40
11.0
 40
11.0
 40
11.0
 40
12.0
 40
12.0
 40
12.0
 40
13.0
 40
13.0
 40
13.0
 40
14.0
 40
14.0
 40
14.0
 40
15.0
 40
15.0
 40
15.0
 40
16.0
 40
16.0
 40
16.0
 40
17.0
 40
17.0
 40
17.0
 40
18.0
 40
18.0
 40
18.0
 40
19.0
 40
19.0
 40
19.0
 40
19.0
 10
105.3761691359824
 20
-129.3388752931861
 30
0.0
 10
105.3761691359824
 20
-129.440505610001
 30
0.0
 10
105.3551540535223
 20
-129.6733940648039
 30
0.0
 10
105.1687743877703
 20
-129.806719260083
 30
0.0
 10
105.0568087844997
 20
-129.8859564562438
 30
0.0
 10
104.957245524976
 20
-129.8904350803746
 30
0.0
 10
104.8728406855873
 20
-129.8949137045055
 30
0.0
 10
104.8728406855873
 20
-129.8949137045055
 30
0.0
 10
104.8728406855873
 20
-129.6599581924114
 30
0.0
 10
104.8728406855873
 20
-129.6599581924114
 30
0.0
 10
104.9465657289717
 20
-129.6575466255717
 30
0.0
 10
105.1815212410657
 20
-129.6461778104704
 30
0.0
 10
105.1815212410657
 20
-129.3433539173169
 30
0.0
 10
105.1815212410657
 20
-129.1962483400968
 30
0.0
 10
105.1115858027152
 20
-129.033639833193
 30
0.0
 10
104.8831759720431
 20
-129.033639833193
 30
0.0
 10
104.7667317446417
 20
-129.033639833193
 30
0.0
 10
104.7181558982996
 20
-129.0742919599189
 30
0.0
 10
104.6864610198353
 20
-129.1080538956744
 30
0.0
 10
104.6123914669025
 20
-129.1872910918351
 30
0.0
 10
104.599644613607
 20
-129.3116590388526
 30
0.0
 10
104.599644613607
 20
-129.3705701716504
 30
0.0
 10
104.599644613607
 20
-129.3908962350134
 30
0.0
 10
104.6020561804467
 20
-129.4291367948997
 30
0.0
 10
104.606190295029
 20
-129.4584201065243
 30
0.0
 10
104.606190295029
 20
-129.4584201065243
 30
0.0
 10
104.4115424001124
 20
-129.4584201065243
 30
0.0
 10
104.4115424001124
 20
-129.4584201065243
 30
0.0
 10
104.4177435719859
 20
-129.4177679797984
 30
0.0
 10
104.419810629277
 20
-129.3726372289416
 30
0.0
 10
104.419810629277
 20
-129.3657470379711
 30
0.0
 10
104.419810629277
 20
-129.2958115996205
 30
0.0
 10
104.398795546817
 20
-129.0832492081806
 30
0.0
 10
104.1617729774318
 20
-129.0832492081806
 30
0.0
 10
103.9840060503929
 20
-129.0832492081806
 30
0.0
 10
103.9292290321774
 20
-129.2234645944303
 30
0.0
 10
103.9292290321774
 20
-129.3409423504773
 30
0.0
 10
103.9292290321774
 20
-129.6237846898163
 30
0.0
 10
104.1617729774318
 20
-129.6327419380779
 30
0.0
 10
104.2337754730735
 20
-129.6372205622088
 30
0.0
 10
104.2337754730735
 20
-129.6372205622088
 30
0.0
 10
104.2337754730735
 20
-129.8542615777795
 30
0.0
 10
104.2337754730735
 20
-129.8542615777795
 30
0.0
 10
104.1090630165075
 20
-129.8453043295179
 30
0.0
 10
103.7325140799696
 20
-129.8156765083447
 30
0.0
 10
103.7325140799696
 20
-129.3275064780848
 30
0.0
 10
103.7325140799696
 20
-129.0877278323114
 30
0.0
 10
103.8592935938268
 20
-128.8300346900147
 30
0.0
 10
104.1555718055583
 20
-128.8300346900147
 30
0.0
 10
104.3416069617618
 20
-128.8300346900147
 30
0.0
 10
104.4242892534078
 20
-128.9316650068296
 30
0.0
 10
104.4856119530453
 20
-129.0381184573238
 30
0.0
 10
104.5131727169273
 20
-128.9726616431041
 30
0.0
 10
104.5934434417336
 20
-128.7780137481874
 30
0.0
 10
104.8704291187477
 20
-128.7780137481874
 30
0.0
 10
105.2090820049477
 20
-128.7780137481874
 30
0.0
 10
105.3761691359824
 20
-129.0425970814546
 30
0.0
 10
105.3761691359824
 20
-129.3388752931861
 30
0.0
  0
HATCH
  5
C7
330
C0
100
AcDbEntity
  8
_U+30EC_U+30A4_U+30E4_U+30FC 1
 62
   179
420
  2234388
100
AcDbHatch
 10
0.0
 20
0.0
 30
0.0
210
0.0
220
0.0
230
1.0
  2
SOLID
 70
     1
 71
     0
 91
        1
 92
        1
 93
        1
 72
     4
 94
        3
 73
     0
 74
     1
 95
       62
 96
       58
 40
0.0
 40
0.0
 40
0.0
 40
0.0
 40
1.0
 40
1.0
 40
1.0
 40
2.0
 40
2.0
 40
2.0
 40
3.0
 40
3.0
 40
3.0
 40
4.0
 40
4.0
 40
4.0
 40
5.0
 40
5.0
 40
5.0
 40
6.0
 40
6.0
 40
6.0
 40
7.0
 40
7.0
 40
7.0
 40
8.0
 40
8.0
 40
8.0
 40
9.0
 40
9.0
 40
9.0
 40
10.0
 40
10.0
 40
10.0
 40
11.0
 40
11.0
 40
11.0
 40
12.0
 40
12.0
 40
12.0
 40
13.0
 40
13.0
 40
13.0
 40
14.0
 40
14.0
 40
14.0
 40
15.0
 40
15.0
 40
15.0
 40
16.0
 40
16.0
 40
16.0
 40
17.0
 40
17.0
 40
17.0
 40
18.0
 40
18.0
 40
18.0
 40
19.0
 40
19.0
 40
19.0
 40
19.0
 10
105.3761691359824
 20
-129.3388752931861
 10
105.3761691359824
 20
-129.440505610001
 10
105.3551540535223
 20
-129.6733940648039
 10
105.1687743877703
 20
-129.806719260083
 10
105.0568087844997
 20
-129.8859564562438
 10
104.957245524976
 20
-129.8904350803746
 10
104.8728406855873
 20
-129.8949137045055
 10
104.8728406855873
 20
-129.8949137045055
 10
104.8728406855873
 20
-129.6599581924114
 10
104.8728406855873
 20
-129.6599581924114
 10
104.9465657289717
 20
-129.6575466255717
 10
105.1815212410657
 20
-129.6461778104704
 10
105.1815212410657
 20
-129.3433539173169
 10
105.1815212410657
 20
-129.1962483400968
 10
105.1115858027152
 20
-129.033639833193
 10
104.8831759720431
 20
-129.033639833193
 10
104.7667317446417
 20
-129.033639833193
 10
104.7181558982996
 20
-129.0742919599189
 10
104.6864610198353
 20
-129.1080538956744
 10
104.6123914669025
 20
-129.1872910918351
 10
104.599644613607
 20
-129.3116590388526
 10
104.599644613607
 20
-129.3705701716504
 10
104.599644613607
 20
-129.3908962350134
 10
104.6020561804467
 20
-129.4291367948997
 10
104.606190295029
 20
-129.4584201065243
 10
104.606190295029
 20
-129.4584201065243
 10
104.4115424001124
 20
-129.4584201065243
 10
104.4115424001124
 20
-129.4584201065243
 10
104.4177435719859
 20
-129.4177679797984
 10
104.419810629277
 20
-129.3726372289416
 10
104.419810629277
 20
-129.3657470379711
 10
104.419810629277
 20
-129.2958115996205
 10
104.398795546817
 20
-129.0832492081806
 10
104.1617729774318
 20
-129.0832492081806
 10
103.9840060503929
 20
-129.0832492081806
 10
103.9292290321774
 20
-129.2234645944303
 10
103.9292290321774
 20
-129.3409423504773
 10
103.9292290321774
 20
-129.6237846898163
 10
104.1617729774318
 20
-129.6327419380779
 10
104.2337754730735
 20
-129.6372205622088
 10
104.2337754730735
 20
-129.6372205622088
 10
104.2337754730735
 20
-129.8542615777795
 10
104.2337754730735
 20
-129.8542615777795
 10
104.1090630165075
 20
-129.8453043295179
 10
103.7325140799696
 20
-129.8156765083447
 10
103.7325140799696
 20
-129.3275064780848
 10
103.7325140799696
 20
-129.0877278323114
 10
103.8592935938268
 20
-128.8300346900147
 10
104.1555718055583
 20
-128.8300346900147
 10
104.3416069617618
 20
-128.8300346900147
 10
104.4242892534078
 20
-128.9316650068296
 10
104.4856119530453
 20
-129.0381184573238
 10
104.5131727169273
 20
-128.9726616431041
 10
104.5934434417336
 20
-128.7780137481874
 10
104.8704291187477
 20
-128.7780137481874
 10
105.2090820049477
 20
-128.7780137481874
 10
105.3761691359824
 20
-129.0425970814546
 10
105.3761691359824
 20
-129.3388752931861
 97
        0
 97
        0
 75
     2
 76
     1
 98
        0
  0
ENDBLK
  5
C3
330
C0
100
AcDbEntity
  8
0
100
AcDbBlockEnd
  0
BLOCK
  5
CA
330
C8
100
AcDbEntity
  8
0
100
AcDbBlockBegin
  2
block 5
 70
     0
 10
0.0
 20
0.0
 30
0.0
  3
block 5
  1

  0
SPLINE
  5
CC
330
C8
100
AcDbEntity
  8
_U+30EC_U+30A4_U+30E4_U+30FC 1
370
     0
100
AcDbSpline
210
0.0
220
0.0
230
1.0
 70
    11
 71
     3
 72
    26
 73
    22
 74
     0
 42
0.0000000001
 43
0.0000000001
 12
1.0
 22
0.0
 32
0.0
 13
1.0
 23
0.0
 33
0.0
 40
0.0
 40
0.0
 40
0.0
 40
0.0
 40
1.0
 40
1.0
 40
1.0
 40
2.0
 40
2.0
 40
2.0
 40
3.0
 40
3.0
 40
3.0
 40
4.0
 40
4.0
 40
4.0
 40
5.0
 40
5.0
 40
5.0
 40
6.0
 40
6.0
 40
6.0
 40
7.0
 40
7.0
 40
7.0
 40
7.0
 10
105.4013183330247
 20
-138.4766465582628
 30
0.0
 10
105.4013183330247
 20
-138.4766465582628
 30
0.0
 10
104.2968207204536
 20
-138.4766465582628
 30
0.0
 10
104.2968207204536
 20
-138.4766465582628
 30
0.0
 10
104.2968207204536
 20
-138.4766465582628
 30
0.0
 10
104.2968207204536
 20
-138.8290798264038
 30
0.0
 10
104.2968207204536
 20
-138.8290798264038
 30
0.0
 10
104.2968207204536
 20
-138.8290798264038
 30
0.0
 10
104.1486816145878
 20
-138.8290798264038
 30
0.0
 10
104.1486816145878
 20
-138.8290798264038
 30
0.0
 10
104.1338677040013
 20
-138.4742349914231
 30
0.0
 10
103.9712591970975
 20
-138.4246256164355
 30
0.0
 10
103.8568820269872
 20
-138.3929307379712
 30
0.0
 10
103.8568820269872
 20
-138.3929307379712
 30
0.0
 10
103.8568820269872
 20
-138.2368679124894
 30
0.0
 10
103.8568820269872
 20
-138.2368679124894
 30
0.0
 10
103.8568820269872
 20
-138.2368679124894
 30
0.0
 10
105.4013183330247
 20
-138.2368679124894
 30
0.0
 10
105.4013183330247
 20
-138.2368679124894
 30
0.0
 10
105.4013183330247
 20
-138.2368679124894
 30
0.0
 10
105.4013183330247
 20
-138.4766465582628
 30
0.0
 10
105.4013183330247
 20
-138.4766465582628
 30
0.0
  0
HATCH
  5
CD
330
C8
100
AcDbEntity
  8
_U+30EC_U+30A4_U+30E4_U+30FC 1
 62
   179
420
  2234388
100
AcDbHatch
 10
0.0
 20
0.0
 30
0.0
210
0.0
220
0.0
230
1.0
  2
SOLID
 70
     1
 71
     0
 91
        1
 92
        1
 93
        1
 72
     4
 94
        3
 73
     0
 74
     1
 95
       26
 96
       22
 40
0.0
 40
0.0
 40
0.0
 40
0.0
 40
1.0
 40
1.0
 40
1.0
 40
2.0
 40
2.0
 40
2.0
 40
3.0
 40
3.0
 40
3.0
 40
4.0
 40
4.0
 40
4.0
 40
5.0
 40
5.0
 40
5.0
 40
6.0
 40
6.0
 40
6.0
 40
7.0
 40
7.0
 40
7.0
 40
7.0
 10
105.4013183330247
 20
-138.4766465582628
 10
105.4013183330247
 20
-138.4766465582628
 10
104.2968207204536
 20
-138.4766465582628
 10
104.2968207204536
 20
-138.4766465582628
 10
104.2968207204536
 20
-138.4766465582628
 10
104.2968207204536
 20
-138.8290798264038
 10
104.2968207204536
 20
-138.8290798264038
 10
104.2968207204536
 20
-138.8290798264038
 10
104.1486816145878
 20
-138.8290798264038
 10
104.1486816145878
 20
-138.8290798264038
 10
104.1338677040013
 20
-138.4742349914231
 10
103.9712591970975
 20
-138.4246256164355
 10
103.8568820269872
 20
-138.3929307379712
 10
103.8568820269872
 20
-138.3929307379712
 10
103.8568820269872
 20
-138.2368679124894
 10
103.8568820269872
 20
-138.2368679124894
 10
103.8568820269872
 20
-138.2368679124894
 10
105.4013183330247
 20
-138.2368679124894
 10
105.4013183330247
 20
-138.2368679124894
 10
105.4013183330247
 20
-138.2368679124894
 10
105.4013183330247
 20
-138.4766465582628
 10
105.4013183330247
 20
-138.4766465582628
 97
        0
 97
        0
 75
     2
 76
     1
 98
        0
  0
ENDBLK
  5
CB
330
C8
100
AcDbEntity
  8
0
100
AcDbBlockEnd
  0
BLOCK
  5
DF
330
DD
100
AcDbEntity
  8
0
100
AcDbBlockBegin
  2
block 6
 70
     0
 10
0.0
 20
0.0
 30
0.0
  3
block 6
  1

  0
SPLINE
  5
E1
330
DD
100
AcDbEntity
  8
_U+30EC_U+30A4_U+30E4_U+30FC 1
370
     0
100
AcDbSpline
210
0.0
220
0.0
230
1.0
 70
    11
 71
     3
 72
    29
 73
    25
 74
     0
 42
0.0000000001
 43
0.0000000001
 12
1.0
 22
0.0
 32
0.0
 13
1.0
 23
0.0
 33
0.0
 40
0.0
 40
0.0
 40
0.0
 40
0.0
 40
1.0
 40
1.0
 40
1.0
 40
2.0
 40
2.0
 40
2.0
 40
3.0
 40
3.0
 40
3.0
 40
4.0
 40
4.0
 40
4.0
 40
5.0
 40
5.0
 40
5.0
 40
6.0
 40
6.0
 40
6.0
 40
7.0
 40
7.0
 40
7.0
 40
8.0
 40
8.0
 40
8.0
 40
8.0
 10
88.21649303350144
 20
-117.6457044519254
 30
0.0
 10
87.98653290986101
 20
-117.4775837922452
 30
0.0
 10
87.84890134522527
 20
-117.2062825227818
 30
0.0
 10
88.05509031001748
 20
-116.9246459668626
 30
0.0
 10
88.2061577470457
 20
-116.7181124925219
 30
0.0
 10
88.38461369318163
 20
-116.730687091043
 30
0.0
 10
88.51208222613587
 20
-116.7479125684693
 30
0.0
 10
88.43956296617137
 20
-116.6213053093863
 30
0.0
 10
88.44128551391398
 20
-116.4810899231367
 30
0.0
 10
88.53619789453262
 20
-116.351382078117
 30
0.0
 10
88.69863414666216
 20
-116.1295179288669
 30
0.0
 10
88.95012611708539
 20
-116.1457098776476
 30
0.0
 10
89.18732094124483
 20
-116.3193426901042
 30
0.0
 10
89.43175046592332
 20
-116.4983154005629
 30
0.0
 10
89.51098766208406
 20
-116.7344766960768
 30
0.0
 10
89.35354679840815
 20
-116.9496229091307
 30
0.0
 10
89.25863441778951
 20
-117.0793307541503
 30
0.0
 10
89.12358667476772
 20
-117.1220499381674
 30
0.0
 10
88.98095972167837
 20
-117.0912163335744
 30
0.0
 10
89.0276407655035
 20
-117.1881957714842
 30
0.0
 10
89.10825599985836
 20
-117.3651014246518
 30
0.0
 10
88.95339895779638
 20
-117.5768025422204
 30
0.0
 10
88.73222382764334
 20
-117.8791096710511
 30
0.0
 10
88.42268199829364
 20
-117.7965996341793
 30
0.0
 10
88.21649303350144
 20
-117.6457044519254
 30
0.0
  0
SPLINE
  5
E2
330
DD
100
AcDbEntity
  8
_U+30EC_U+30A4_U+30E4_U+30FC 1
370
     0
100
AcDbSpline
210
0.0
220
0.0
230
1.0
 70
    11
 71
     3
 72
    17
 73
    13
 74
     0
 42
0.0000000001
 43
0.0000000001
 12
1.0
 22
0.0
 32
0.0
 13
1.0
 23
0.0
 33
0.0
 40
0.0
 40
0.0
 40
0.0
 40
0.0
 40
1.0
 40
1.0
 40
1.0
 40
2.0
 40
2.0
 40
2.0
 40
3.0
 40
3.0
 40
3.0
 40
4.0
 40
4.0
 40
4.0
 40
4.0
 10
88.68382023607558
 20
-117.0073282585086
 30
0.0
 10
88.55979679860658
 20
-116.9165499924723
 30
0.0
 10
88.37720673788834
 20
-116.8903672667844
 30
0.0
 10
88.25714516022738
 20
-117.054181557108
 30
0.0
 10
88.13605005392085
 20
-117.2198906499485
 30
0.0
 10
88.18548717413418
 20
-117.3818101377553
 30
0.0
 10
88.33138696793452
 20
-117.4887803525722
 30
0.0
 10
88.49192841754716
 20
-117.6062581086193
 30
0.0
 10
88.6593600581303
 20
-117.5766302874461
 30
0.0
 10
88.76426321565616
 20
-117.4333143152597
 30
0.0
 10
88.89552135364418
 20
-117.2539970952525
 30
0.0
 10
88.79871417050866
 20
-117.0913885883487
 30
0.0
 10
88.68382023607558
 20
-117.0073282585086
 30
0.0
  0
SPLINE
  5
E3
330
DD
100
AcDbEntity
  8
_U+30EC_U+30A4_U+30E4_U+30FC 1
370
     0
100
AcDbSpline
210
0.0
220
0.0
230
1.0
 70
    11
 71
     3
 72
    17
 73
    13
 74
     0
 42
0.0000000001
 43
0.0000000001
 12
1.0
 22
0.0
 32
0.0
 13
1.0
 23
0.0
 33
0.0
 40
0.0
 40
0.0
 40
0.0
 40
0.0
 40
1.0
 40
1.0
 40
1.0
 40
2.0
 40
2.0
 40
2.0
 40
3.0
 40
3.0
 40
3.0
 40
4.0
 40
4.0
 40
4.0
 40
4.0
 10
89.0736327902316
 20
-116.474716496489
 30
0.0
 10
88.93135034669078
 20
-116.3705023580602
 30
0.0
 10
88.80215926599391
 20
-116.3939290073599
 30
0.0
 10
88.72206079596185
 20
-116.5031385342423
 30
0.0
 10
88.6497137907716
 20
-116.6021850294432
 30
0.0
 10
88.64179007115553
 20
-116.7432616895642
 30
0.0
 10
88.79492456547489
 20
-116.8553995476091
 30
0.0
 10
88.9482313145685
 20
-116.967537405654
 30
0.0
 10
89.08017847165357
 20
-116.9172390115693
 30
0.0
 10
89.15269773161808
 20
-116.8183647711426
 30
0.0
 10
89.23262394687588
 20
-116.708982989486
 30
0.0
 10
89.21402043125552
 20
-116.5775525967237
 30
0.0
 10
89.0736327902316
 20
-116.474716496489
 30
0.0
  0
HATCH
  5
E4
330
DD
100
AcDbEntity
  8
_U+30EC_U+30A4_U+30E4_U+30FC 1
 62
   179
420
  2234388
100
AcDbHatch
 10
0.0
 20
0.0
 30
0.0
210
0.0
220
0.0
230
1.0
  2
SOLID
 70
     1
 71
     0
 91
        3
 92
        1
 93
        1
 72
     4
 94
        3
 73
     0
 74
     1
 95
       29
 96
       25
 40
0.0
 40
0.0
 40
0.0
 40
0.0
 40
1.0
 40
1.0
 40
1.0
 40
2.0
 40
2.0
 40
2.0
 40
3.0
 40
3.0
 40
3.0
 40
4.0
 40
4.0
 40
4.0
 40
5.0
 40
5.0
 40
5.0
 40
6.0
 40
6.0
 40
6.0
 40
7.0
 40
7.0
 40
7.0
 40
8.0
 40
8.0
 40
8.0
 40
8.0
 10
88.21649303350144
 20
-117.6457044519254
 10
87.98653290986101
 20
-117.4775837922452
 10
87.84890134522527
 20
-117.2062825227818
 10
88.05509031001748
 20
-116.9246459668626
 10
88.2061577470457
 20
-116.7181124925219
 10
88.38461369318163
 20
-116.730687091043
 10
88.51208222613587
 20
-116.7479125684693
 10
88.43956296617137
 20
-116.6213053093863
 10
88.44128551391398
 20
-116.4810899231367
 10
88.53619789453262
 20
-116.351382078117
 10
88.69863414666216
 20
-116.1295179288669
 10
88.95012611708539
 20
-116.1457098776476
 10
89.18732094124483
 20
-116.3193426901042
 10
89.43175046592332
 20
-116.4983154005629
 10
89.51098766208406
 20
-116.7344766960768
 10
89.35354679840815
 20
-116.9496229091307
 10
89.25863441778951
 20
-117.0793307541503
 10
89.12358667476772
 20
-117.1220499381674
 10
88.98095972167837
 20
-117.0912163335744
 10
89.0276407655035
 20
-117.1881957714842
 10
89.10825599985836
 20
-117.3651014246518
 10
88.95339895779638
 20
-117.5768025422204
 10
88.73222382764334
 20
-117.8791096710511
 10
88.42268199829364
 20
-117.7965996341793
 10
88.21649303350144
 20
-117.6457044519254
 97
        0
 97
        0
 92
        1
 93
        1
 72
     4
 94
        3
 73
     0
 74
     1
 95
       17
 96
       13
 40
0.0
 40
0.0
 40
0.0
 40
0.0
 40
1.0
 40
1.0
 40
1.0
 40
2.0
 40
2.0
 40
2.0
 40
3.0
 40
3.0
 40
3.0
 40
4.0
 40
4.0
 40
4.0
 40
4.0
 10
88.68382023607558
 20
-117.0073282585086
 10
88.55979679860658
 20
-116.9165499924723
 10
88.37720673788834
 20
-116.8903672667844
 10
88.25714516022738
 20
-117.054181557108
 10
88.13605005392085
 20
-117.2198906499485
 10
88.18548717413418
 20
-117.3818101377553
 10
88.33138696793452
 20
-117.4887803525722
 10
88.49192841754716
 20
-117.6062581086193
 10
88.6593600581303
 20
-117.5766302874461
 10
88.76426321565616
 20
-117.4333143152597
 10
88.89552135364418
 20
-117.2539970952525
 10
88.79871417050866
 20
-117.0913885883487
 10
88.68382023607558
 20
-117.0073282585086
 97
        0
 97
        0
 92
        1
 93
        1
 72
     4
 94
        3
 73
     0
 74
     1
 95
       17
 96
       13
 40
0.0
 40
0.0
 40
0.0
 40
0.0
 40
1.0
 40
1.0
 40
1.0
 40
2.0
 40
2.0
 40
2.0
 40
3.0
 40
3.0
 40
3.0
 40
4.0
 40
4.0
 40
4.0
 40
4.0
 10
89.0736327902316
 20
-116.474716496489
 10
88.93135034669078
 20
-116.3705023580602
 10
88.80215926599391
 20
-116.3939290073599
 10
88.72206079596185
 20
-116.5031385342423
 10
88.6497137907716
 20
-116.6021850294432
 10
88.64179007115553
 20
-116.7432616895642
 10
88.79492456547489
 20
-116.8553995476091
 10
88.9482313145685
 20
-116.967537405654
 10
89.08017847165357
 20
-116.9172390115693
 10
89.15269773161808
 20
-116.8183647711426
 10
89.23262394687588
 20
-116.708982989486
 10
89.21402043125552
 20
-116.5775525967237
 10
89.0736327902316
 20
-116.474716496489
 97
        0
 97
        0
 75
     2
 76
     1
 98
        0
  0
ENDBLK
  5
E0
330
DD
100
AcDbEntity
  8
0
100
AcDbBlockEnd
  0
ENDSEC
  0
SECTION
  2
ENTITIES
  0
SPLINE
  5
41
330
1F
100
AcDbEntity
  8
_U+30EC_U+30A4_U+30E4_U+30FC 1
370
     0
100
AcDbSpline
210
0.0
220
0.0
230
1.0
 70
    11
 71
     3
 72
    47
 73
    43
 74
     0
 42
0.0000000001
 43
0.0000000001
 12
1.0
 22
0.0
 32
0.0
 13
1.0
 23
0.0
 33
0.0
 40
0.0
 40
0.0
 40
0.0
 40
0.0
 40
1.0
 40
1.0
 40
1.0
 40
2.0
 40
2.0
 40
2.0
 40
3.0
 40
3.0
 40
3.0
 40
4.0
 40
4.0
 40
4.0
 40
5.0
 40
5.0
 40
5.0
 40
6.0
 40
6.0
 40
6.0
 40
7.0
 40
7.0
 40
7.0
 40
8.0
 40
8.0
 40
8.0
 40
9.0
 40
9.0
 40
9.0
 40
10.0
 40
10.0
 40
10.0
 40
11.0
 40
11.0
 40
11.0
 40
12.0
 40
12.0
 40
12.0
 40
13.0
 40
13.0
 40
13.0
 40
14.0
 40
14.0
 40
14.0
 40
14.0
 10
101.6723521283444
 20
-137.433120521197
 30
0.0
 10
101.6723521283444
 20
-137.433120521197
 30
0.0
 10
100.7221804859187
 20
-136.482984132546
 30
0.0
 10
100.7221804859187
 20
-136.482984132546
 30
0.0
 10
100.7159715971882
 20
-136.4891577436555
 30
0.0
 10
100.7070463196381
 20
-136.4933205214323
 30
0.0
 10
100.6973802087736
 20
-136.4933205214323
 30
0.0
 10
100.6780832648214
 20
-136.4933205214323
 30
0.0
 10
100.6622435430033
 20
-136.4774455214363
 30
0.0
 10
100.6622435430033
 20
-136.4581485769965
 30
0.0
 10
100.6622435430033
 20
-136.4581485769965
 30
0.0
 10
83.46242231514066
 20
-136.4581485769965
 30
0.0
 10
83.46242231514066
 20
-136.4581485769965
 30
0.0
 10
83.46242231514066
 20
-136.4581485769965
 30
0.0
 10
83.46242231514066
 20
-120.3978344143451
 30
0.0
 10
83.46242231514066
 20
-120.3978344143451
 30
0.0
 10
83.46242231514066
 20
-120.3978344143451
 30
0.0
 10
87.29958610613534
 20
-123.4581110802466
 30
0.0
 10
87.29958610613534
 20
-123.4581110802466
 30
0.0
 10
87.29958610613534
 20
-123.4581110802466
 30
0.0
 10
89.04209661723576
 20
-123.4581110802466
 30
0.0
 10
89.04209661723576
 20
-123.4581110802466
 30
0.0
 10
89.04209661723576
 20
-123.4505263580263
 30
0.0
 10
89.04555383936977
 20
-123.4450230246942
 30
0.0
 10
89.04968133926447
 20
-123.4394844135845
 30
0.0
 10
89.04968133926447
 20
-123.4394844135845
 30
0.0
 10
82.49023733994316
 20
-118.0765213593698
 30
0.0
 10
82.49023733994316
 20
-118.0765213593698
 30
0.0
 10
82.48403053493459
 20
-118.0861521927006
 30
0.0
 10
82.47506789588573
 20
-118.0933841371435
 30
0.0
 10
82.46265011842475
 20
-118.0933841371435
 30
0.0
 10
82.46265011842475
 20
-118.0933841371435
 30
0.0
 10
82.46265011842475
 20
-137.4227841323113
 30
0.0
 10
82.46265011842475
 20
-137.4227841323113
 30
0.0
 10
82.48194706237689
 20
-137.4227841323113
 30
0.0
 10
82.49782206197189
 20
-137.4386238545291
 30
0.0
 10
82.49782206197189
 20
-137.457920798969
 30
0.0
 10
82.49782206197189
 20
-137.457920798969
 30
0.0
 10
101.6620157397192
 20
-137.457920798969
 30
0.0
 10
101.6620157397192
 20
-137.457920798969
 30
0.0
 10
101.6620157397192
 20
-137.4482899656381
 30
0.0
 10
101.6661432396139
 20
-137.4393294100847
 30
0.0
 10
101.6723521283444
 20
-137.433120521197
 30
0.0
  0
HATCH
  5
42
330
1F
100
AcDbEntity
  8
_U+30EC_U+30A4_U+30E4_U+30FC 1
 62
   253
420
 11711154
100
AcDbHatch
 10
0.0
 20
0.0
 30
0.0
210
0.0
220
0.0
230
1.0
  2
SOLID
 70
     1
 71
     0
 91
        1
 92
        1
 93
        1
 72
     4
 94
        3
 73
     0
 74
     1
 95
       47
 96
       43
 40
0.0
 40
0.0
 40
0.0
 40
0.0
 40
1.0
 40
1.0
 40
1.0
 40
2.0
 40
2.0
 40
2.0
 40
3.0
 40
3.0
 40
3.0
 40
4.0
 40
4.0
 40
4.0
 40
5.0
 40
5.0
 40
5.0
 40
6.0
 40
6.0
 40
6.0
 40
7.0
 40
7.0
 40
7.0
 40
8.0
 40
8.0
 40
8.0
 40
9.0
 40
9.0
 40
9.0
 40
10.0
 40
10.0
 40
10.0
 40
11.0
 40
11.0
 40
11.0
 40
12.0
 40
12.0
 40
12.0
 40
13.0
 40
13.0
 40
13.0
 40
14.0
 40
14.0
 40
14.0
 40
14.0
 10
101.6723521283444
 20
-137.433120521197
 10
101.6723521283444
 20
-137.433120521197
 10
100.7221804859187
 20
-136.482984132546
 10
100.7221804859187
 20
-136.482984132546
 10
100.7159715971882
 20
-136.4891577436555
 10
100.7070463196381
 20
-136.4933205214323
 10
100.6973802087736
 20
-136.4933205214323
 10
100.6780832648214
 20
-136.4933205214323
 10
100.6622435430033
 20
-136.4774455214363
 10
100.6622435430033
 20
-136.4581485769965
 10
100.6622435430033
 20
-136.4581485769965
 10
83.46242231514066
 20
-136.4581485769965
 10
83.46242231514066
 20
-136.4581485769965
 10
83.46242231514066
 20
-136.4581485769965
 10
83.46242231514066
 20
-120.3978344143451
 10
83.46242231514066
 20
-120.3978344143451
 10
83.46242231514066
 20
-120.3978344143451
 10
87.29958610613534
 20
-123.4581110802466
 10
87.29958610613534
 20
-123.4581110802466
 10
87.29958610613534
 20
-123.4581110802466
 10
89.04209661723576
 20
-123.4581110802466
 10
89.04209661723576
 20
-123.4581110802466
 10
89.04209661723576
 20
-123.4505263580263
 10
89.04555383936977
 20
-123.4450230246942
 10
89.04968133926447
 20
-123.4394844135845
 10
89.04968133926447
 20
-123.4394844135845
 10
82.49023733994316
 20
-118.0765213593698
 10
82.49023733994316
 20
-118.0765213593698
 10
82.48403053493459
 20
-118.0861521927006
 10
82.47506789588573
 20
-118.0933841371435
 10
82.46265011842475
 20
-118.0933841371435
 10
82.46265011842475
 20
-118.0933841371435
 10
82.46265011842475
 20
-137.4227841323113
 10
82.46265011842475
 20
-137.4227841323113
 10
82.48194706237689
 20
-137.4227841323113
 10
82.49782206197189
 20
-137.4386238545291
 10
82.49782206197189
 20
-137.457920798969
 10
82.49782206197189
 20
-137.457920798969
 10
101.6620157397192
 20
-137.457920798969
 10
101.6620157397192
 20
-137.457920798969
 10
101.6620157397192
 20
-137.4482899656381
 10
101.6661432396139
 20
-137.4393294100847
 10
101.6723521283444
 20
-137.433120521197
 97
        0
 97
        0
 75
     2
 76
     1
 98
        0
  0
POLYLINE
  5
43
330
1F
100
AcDbEntity
  8
_U+30EC_U+30A4_U+30E4_U+30FC 1
 62
   179
420
  2234388
370
    25
100
AcDb2dPolyline
 66
     1
 10
0.0
 20
0.0
 30
0.0
  0
VERTEX
  5
44
330
43
100
AcDbEntity
  8
_U+30EC_U+30A4_U+30E4_U+30FC 1
 62
   179
420
  2234388
370
    25
100
AcDbVertex
100
AcDb2dVertex
 10
83.46242231514066
 20
-136.4581485769965
 30
0.0
  0
VERTEX
  5
45
330
43
100
AcDbEntity
  8
_U+30EC_U+30A4_U+30E4_U+30FC 1
 62
   179
420
  2234388
370
    25
100
AcDbVertex
100
AcDb2dVertex
 10
100.6973802087736
 20
-136.4581485769965
 30
0.0
  0
SEQEND
  5
46
330
43
100
AcDbEntity
  8
_U+30EC_U+30A4_U+30E4_U+30FC 1
 62
   179
420
  2234388
370
    25
  0
POLYLINE
  5
47
330
1F
100
AcDbEntity
  8
_U+30EC_U+30A4_U+30E4_U+30FC 1
 62
   179
420
  2234388
370
    25
100
AcDb2dPolyline
 66
     1
 10
0.0
 20
0.0
 30
0.0
  0
VERTEX
  5
48
330
47
100
AcDbEntity
  8
_U+30EC_U+30A4_U+30E4_U+30FC 1
 62
   179
420
  2234388
370
    25
100
AcDbVertex
100
AcDb2dVertex
 10
82.46265011842475
 20
-118.0578946927077
 30
0.0
  0
VERTEX
  5
49
330
47
100
AcDbEntity
  8
_U+30EC_U+30A4_U+30E4_U+30FC 1
 62
   179
420
  2234388
370
    25
100
AcDbVertex
100
AcDb2dVertex
 10
82.46265011842475
 20
-137.457920798969
 30
0.0
  0
SEQEND
  5
4A
330
47
100
AcDbEntity
  8
_U+30EC_U+30A4_U+30E4_U+30FC 1
 62
   179
420
  2234388
370
    25
  0
POLYLINE
  5
4B
330
1F
100
AcDbEntity
  8
_U+30EC_U+30A4_U+30E4_U+30FC 1
 62
   179
420
  2234388
370
    25
100
AcDb2dPolyline
 66
     1
 10
0.0
 20
0.0
 30
0.0
  0
VERTEX
  5
4C
330
4B
100
AcDbEntity
  8
_U+30EC_U+30A4_U+30E4_U+30FC 1
 62
   179
420
  2234388
370
    25
100
AcDbVertex
100
AcDb2dVertex
 10
82.46265011842475
 20
-137.457920798969
 30
0.0
  0
VERTEX
  5
4D
330
4B
100
AcDbEntity
  8
_U+30EC_U+30A4_U+30E4_U+30FC 1
 62
   179
420
  2234388
370
    25
100
AcDbVertex
100
AcDb2dVertex
 10
101.6971524054895
 20
-137.457920798969
 30
0.0
  0
SEQEND
  5
4E
330
4B
100
AcDbEntity
  8
_U+30EC_U+30A4_U+30E4_U+30FC 1
 62
   179
420
  2234388
370
    25
  0
POLYLINE
  5
4F
330
1F
100
AcDbEntity
  8
_U+30EC_U+30A4_U+30E4_U+30FC 1
 62
   179
420
  2234388
370
    25
100
AcDb2dPolyline
 66
     1
 10
0.0
 20
0.0
 30
0.0
  0
VERTEX
  5
50
330
4F
100
AcDbEntity
  8
_U+30EC_U+30A4_U+30E4_U+30FC 1
 62
   179
420
  2234388
370
    25
100
AcDbVertex
100
AcDb2dVertex
 10
83.46242231514066
 20
-120.3978344143451
 30
0.0
  0
VERTEX
  5
51
330
4F
100
AcDbEntity
  8
_U+30EC_U+30A4_U+30E4_U+30FC 1
 62
   179
420
  2234388
370
    25
100
AcDbVertex
100
AcDb2dVertex
 10
83.46242231514066
 20
-136.4581485769965
 30
0.0
  0
SEQEND
  5
52
330
4F
100
AcDbEntity
  8
_U+30EC_U+30A4_U+30E4_U+30FC 1
 62
   179
420
  2234388
370
    25
  0
POLYLINE
  5
53
330
1F
100
AcDbEntity
  8
_U+30EC_U+30A4_U+30E4_U+30FC 1
 62
   179
420
  2234388
370
    25
100
AcDb2dPolyline
 66
     1
 10
0.0
 20
0.0
 30
0.0
  0
VERTEX
  5
54
330
53
100
AcDbEntity
  8
_U+30EC_U+30A4_U+30E4_U+30FC 1
 62
   179
420
  2234388
370
    25
100
AcDbVertex
100
AcDb2dVertex
 10
100.6973802087736
 20
-136.4581485769965
 30
0.0
  0
VERTEX
  5
55
330
53
100
AcDbEntity
  8
_U+30EC_U+30A4_U+30E4_U+30FC 1
 62
   179
420
  2234388
370
    25
100
AcDbVertex
100
AcDb2dVertex
 10
101.6971524054895
 20
-137.457920798969
 30
0.0
  0
SEQEND
  5
56
330
53
100
AcDbEntity
  8
_U+30EC_U+30A4_U+30E4_U+30FC 1
 62
   179
420
  2234388
370
    25
  0
POLYLINE
  5
57
330
1F
100
AcDbEntity
  8
_U+30EC_U+30A4_U+30E4_U+30FC 1
 62
   179
420
  2234388
370
    25
100
AcDb2dPolyline
 66
     1
 10
0.0
 20
0.0
 30
0.0
  0
VERTEX
  5
58
330
57
100
AcDbEntity
  8
_U+30EC_U+30A4_U+30E4_U+30FC 1
 62
   179
420
  2234388
370
    25
100
AcDbVertex
100
AcDb2dVertex
 10
87.29958610613534
 20
-123.4581110802466
 30
0.0
  0
VERTEX
  5
59
330
57
100
AcDbEntity
  8
_U+30EC_U+30A4_U+30E4_U+30FC 1
 62
   179
420
  2234388
370
    25
100
AcDbVertex
100
AcDb2dVertex
 10
89.07723328300601
 20
-123.4581110802466
 30
0.0
  0
SEQEND
  5
5A
330
57
100
AcDbEntity
  8
_U+30EC_U+30A4_U+30E4_U+30FC 1
 62
   179
420
  2234388
370
    25
  0
POLYLINE
  5
5B
330
1F
100
AcDbEntity
  8
_U+30EC_U+30A4_U+30E4_U+30FC 1
 62
   179
420
  2234388
370
    25
100
AcDb2dPolyline
 66
     1
 10
0.0
 20
0.0
 30
0.0
  0
VERTEX
  5
5C
330
5B
100
AcDbEntity
  8
_U+30EC_U+30A4_U+30E4_U+30FC 1
 62
   179
420
  2234388
370
    25
100
AcDbVertex
100
AcDb2dVertex
 10
82.46265011842475
 20
-118.0578946927077
 30
0.0
  0
VERTEX
  5
5D
330
5B
100
AcDbEntity
  8
_U+30EC_U+30A4_U+30E4_U+30FC 1
 62
   179
420
  2234388
370
    25
100
AcDbVertex
100
AcDb2dVertex
 10
89.07723328300601
 20
-123.4581110802466
 30
0.0
  0
SEQEND
  5
5E
330
5B
100
AcDbEntity
  8
_U+30EC_U+30A4_U+30E4_U+30FC 1
 62
   179
420
  2234388
370
    25
  0
POLYLINE
  5
5F
330
1F
100
AcDbEntity
  8
_U+30EC_U+30A4_U+30E4_U+30FC 1
 62
   179
420
  2234388
370
    25
100
AcDb2dPolyline
 66
     1
 10
0.0
 20
0.0
 30
0.0
  0
VERTEX
  5
60
330
5F
100
AcDbEntity
  8
_U+30EC_U+30A4_U+30E4_U+30FC 1
 62
   179
420
  2234388
370
    25
100
AcDbVertex
100
AcDb2dVertex
 10
83.46242231514066
 20
-120.3978344143451
 30
0.0
  0
VERTEX
  5
61
330
5F
100
AcDbEntity
  8
_U+30EC_U+30A4_U+30E4_U+30FC 1
 62
   179
420
  2234388
370
    25
100
AcDbVertex
100
AcDb2dVertex
 10
87.29958610613534
 20
-123.4581110802466
 30
0.0
  0
SEQEND
  5
62
330
5F
100
AcDbEntity
  8
_U+30EC_U+30A4_U+30E4_U+30FC 1
 62
   179
420
  2234388
370
    25
  0
SPLINE
  5
63
330
1F
100
AcDbEntity
  8
_U+30EC_U+30A4_U+30E4_U+30FC 1
 62
   179
420
  2234388
370
     9
100
AcDbSpline
210
0.0
220
0.0
230
1.0
 70
    11
 71
     3
 72
    17
 73
    13
 74
     0
 42
0.0000000001
 43
0.0000000001
 12
1.0
 22
0.0
 32
0.0
 13
1.0
 23
0.0
 33
0.0
 40
0.0
 40
0.0
 40
0.0
 40
0.0
 40
1.0
 40
1.0
 40
1.0
 40
2.0
 40
2.0
 40
2.0
 40
3.0
 40
3.0
 40
3.0
 40
4.0
 40
4.0
 40
4.0
 40
4.0
 10
78.56283299569515
 20
-137.457920798969
 30
0.0
 10
78.56283299569515
 20
-137.4028169100941
 30
0.0
 10
78.51803021906039
 20
-137.3580141323273
 30
0.0
 10
78.46292633157732
 20
-137.3580141323273
 30
0.0
 10
78.40778716631736
 20
-137.3580141323273
 30
0.0
 10
78.3629843896826
 20
-137.4028169100941
 30
0.0
 10
78.3629843896826
 20
-137.457920798969
 30
0.0
 10
78.3629843896826
 20
-137.5130599656221
 30
0.0
 10
78.40778716631736
 20
-137.5578274656106
 30
0.0
 10
78.46292633157732
 20
-137.5578274656106
 30
0.0
 10
78.51803021906039
 20
-137.5578274656106
 30
0.0
 10
78.56283299569515
 20
-137.5130599656221
 30
0.0
 10
78.56283299569515
 20
-137.457920798969
 30
0.0
  0
SPLINE
  5
64
330
1F
100
AcDbEntity
  8
_U+30EC_U+30A4_U+30E4_U+30FC 1
 62
   179
420
  2234388
370
     9
100
AcDbSpline
210
0.0
220
0.0
230
1.0
 70
    11
 71
     3
 72
    17
 73
    13
 74
     0
 42
0.0000000001
 43
0.0000000001
 12
1.0
 22
0.0
 32
0.0
 13
1.0
 23
0.0
 33
0.0
 40
0.0
 40
0.0
 40
0.0
 40
0.0
 40
1.0
 40
1.0
 40
1.0
 40
2.0
 40
2.0
 40
2.0
 40
3.0
 40
3.0
 40
3.0
 40
4.0
 40
4.0
 40
4.0
 40
4.0
 10
82.56255678254259
 20
-141.4573271868581
 30
0.0
 10
82.56255678254259
 20
-141.4022232979825
 30
0.0
 10
82.51778928368469
 20
-141.3574205202165
 30
0.0
 10
82.46265011842475
 20
-141.3574205202165
 30
0.0
 10
82.40754623094168
 20
-141.3574205202165
 30
0.0
 10
82.36274345430691
 20
-141.4022232979825
 30
0.0
 10
82.36274345430691
 20
-141.4573271868581
 30
0.0
 10
82.36274345430691
 20
-141.5131366312885
 30
0.0
 10
82.40754623094168
 20
-141.5579394090553
 30
0.0
 10
82.46265011842475
 20
-141.5579394090553
 30
0.0
 10
82.51778928368469
 20
-141.5579394090553
 30
0.0
 10
82.56255678254259
 20
-141.5131366312885
 30
0.0
 10
82.56255678254259
 20
-141.4573271868581
 30
0.0
  0
SPLINE
  5
65
330
1F
100
AcDbEntity
  8
_U+30EC_U+30A4_U+30E4_U+30FC 1
 62
   179
420
  2234388
370
     9
100
AcDbSpline
210
0.0
220
0.0
230
1.0
 70
    11
 71
     3
 72
    17
 73
    13
 74
     0
 42
0.0000000001
 43
0.0000000001
 12
1.0
 22
0.0
 32
0.0
 13
1.0
 23
0.0
 33
0.0
 40
0.0
 40
0.0
 40
0.0
 40
0.0
 40
1.0
 40
1.0
 40
1.0
 40
2.0
 40
2.0
 40
2.0
 40
3.0
 40
3.0
 40
3.0
 40
4.0
 40
4.0
 40
4.0
 40
4.0
 10
105.7974884119923
 20
-136.4581485769965
 30
0.0
 10
105.7974884119923
 20
-136.4030446881215
 30
0.0
 10
105.7527209131344
 20
-136.3582419103548
 30
0.0
 10
105.6969114701138
 20
-136.3582419103548
 30
0.0
 10
105.6417749735897
 20
-136.3582419103548
 30
0.0
 10
105.597004805996
 20
-136.4030446881215
 30
0.0
 10
105.597004805996
 20
-136.4581485769965
 30
0.0
 10
105.597004805996
 20
-136.5132877436495
 30
0.0
 10
105.6417749735897
 20
-136.5580905214162
 30
0.0
 10
105.6969114701138
 20
-136.5580905214162
 30
0.0
 10
105.7527209131344
 20
-136.5580905214162
 30
0.0
 10
105.7974884119923
 20
-136.5132877436495
 30
0.0
 10
105.7974884119923
 20
-136.4581485769965
 30
0.0
  0
SPLINE
  5
66
330
1F
100
AcDbEntity
  8
_U+30EC_U+30A4_U+30E4_U+30FC 1
 62
   179
420
  2234388
370
     9
100
AcDbSpline
210
0.0
220
0.0
230
1.0
 70
    11
 71
     3
 72
    17
 73
    13
 74
     0
 42
0.0000000001
 43
0.0000000001
 12
1.0
 22
0.0
 32
0.0
 13
1.0
 23
0.0
 33
0.0
 40
0.0
 40
0.0
 40
0.0
 40
0.0
 40
1.0
 40
1.0
 40
1.0
 40
2.0
 40
2.0
 40
2.0
 40
3.0
 40
3.0
 40
3.0
 40
4.0
 40
4.0
 40
4.0
 40
4.0
 10
105.7974884119923
 20
-137.4582735767467
 30
0.0
 10
105.7974884119923
 20
-137.4031696878712
 30
0.0
 10
105.7527209131344
 20
-137.3583669101051
 30
0.0
 10
105.6969114701138
 20
-137.3583669101051
 30
0.0
 10
105.6417749735897
 20
-137.3583669101051
 30
0.0
 10
105.597004805996
 20
-137.4031696878712
 30
0.0
 10
105.597004805996
 20
-137.4582735767467
 30
0.0
 10
105.597004805996
 20
-137.5134127433992
 30
0.0
 10
105.6417749735897
 20
-137.5581802433884
 30
0.0
 10
105.6969114701138
 20
-137.5581802433884
 30
0.0
 10
105.7527209131344
 20
-137.5581802433884
 30
0.0
 10
105.7974884119923
 20
-137.5134127433992
 30
0.0
 10
105.7974884119923
 20
-137.4582735767467
 30
0.0
  0
SPLINE
  5
67
330
1F
100
AcDbEntity
  8
_U+30EC_U+30A4_U+30E4_U+30FC 1
 62
   179
420
  2234388
370
     9
100
AcDbSpline
210
0.0
220
0.0
230
1.0
 70
    11
 71
     3
 72
    17
 73
    13
 74
     0
 42
0.0000000001
 43
0.0000000001
 12
1.0
 22
0.0
 32
0.0
 13
1.0
 23
0.0
 33
0.0
 40
0.0
 40
0.0
 40
0.0
 40
0.0
 40
1.0
 40
1.0
 40
1.0
 40
2.0
 40
2.0
 40
2.0
 40
3.0
 40
3.0
 40
3.0
 40
4.0
 40
4.0
 40
4.0
 40
4.0
 10
101.7970590696073
 20
-141.4573271868581
 30
0.0
 10
101.7970590696073
 20
-141.4022232979825
 30
0.0
 10
101.7522562929726
 20
-141.3574205202165
 30
0.0
 10
101.6971524054895
 20
-141.3574205202165
 30
0.0
 10
101.6420132402295
 20
-141.3574205202165
 30
0.0
 10
101.5972457413717
 20
-141.4022232979825
 30
0.0
 10
101.5972457413717
 20
-141.4573271868581
 30
0.0
 10
101.5972457413717
 20
-141.5131366312885
 30
0.0
 10
101.6420132402295
 20
-141.5579394090553
 30
0.0
 10
101.6971524054895
 20
-141.5579394090553
 30
0.0
 10
101.7522562929726
 20
-141.5579394090553
 30
0.0
 10
101.7970590696073
 20
-141.5131366312885
 30
0.0
 10
101.7970590696073
 20
-141.4573271868581
 30
0.0
  0
SPLINE
  5
68
330
1F
100
AcDbEntity
  8
_U+30EC_U+30A4_U+30E4_U+30FC 1
 62
   179
420
  2234388
370
     9
100
AcDbSpline
210
0.0
220
0.0
230
1.0
 70
    11
 71
     3
 72
    17
 73
    13
 74
     0
 42
0.0000000001
 43
0.0000000001
 12
1.0
 22
0.0
 32
0.0
 13
1.0
 23
0.0
 33
0.0
 40
0.0
 40
0.0
 40
0.0
 40
0.0
 40
1.0
 40
1.0
 40
1.0
 40
2.0
 40
2.0
 40
2.0
 40
3.0
 40
3.0
 40
3.0
 40
4.0
 40
4.0
 40
4.0
 40
4.0
 10
78.56283299569515
 20
-118.0578946927077
 30
0.0
 10
78.56283299569515
 20
-118.0027908038328
 30
0.0
 10
78.51803021906039
 20
-117.957988026066
 30
0.0
 10
78.46292633157732
 20
-117.957988026066
 30
0.0
 10
78.40778716631736
 20
-117.957988026066
 30
0.0
 10
78.3629843896826
 20
-118.0027908038328
 30
0.0
 10
78.3629843896826
 20
-118.0578946927077
 30
0.0
 10
78.3629843896826
 20
-118.1133866371382
 30
0.0
 10
78.40778716631736
 20
-118.1581541371271
 30
0.0
 10
78.46292633157732
 20
-118.1581541371271
 30
0.0
 10
78.51803021906039
 20
-118.1581541371271
 30
0.0
 10
78.56283299569515
 20
-118.1133866371382
 30
0.0
 10
78.56283299569515
 20
-118.0578946927077
 30
0.0
  0
SPLINE
  5
69
330
1F
100
AcDbEntity
  8
_U+30EC_U+30A4_U+30E4_U+30FC 1
 62
   179
420
  2234388
370
     9
100
AcDbSpline
210
0.0
220
0.0
230
1.0
 70
    11
 71
     3
 72
    17
 73
    13
 74
     0
 42
0.0000000001
 43
0.0000000001
 12
1.0
 22
0.0
 32
0.0
 13
1.0
 23
0.0
 33
0.0
 40
0.0
 40
0.0
 40
0.0
 40
0.0
 40
1.0
 40
1.0
 40
1.0
 40
2.0
 40
2.0
 40
2.0
 40
3.0
 40
3.0
 40
3.0
 40
4.0
 40
4.0
 40
4.0
 40
4.0
 10
91.35240294718382
 20
-120.272774692154
 30
0.0
 10
91.35444905824272
 20
-120.2176355255012
 30
0.0
 10
91.31105739268307
 20
-120.1714921921795
 30
0.0
 10
91.25591822742312
 20
-120.1700810810687
 30
0.0
 10
91.20081664386645
 20
-120.1680349699579
 30
0.0
 10
91.15463573000706
 20
-120.2107563588362
 30
0.0
 10
91.15258961894814
 20
-120.2658602477114
 30
0.0
 10
91.15117850787303
 20
-120.3209994143642
 30
0.0
 10
91.193899895672
 20
-120.3671427476859
 30
0.0
 10
91.24903906093196
 20
-120.3692241365743
 30
0.0
 10
91.30414294841503
 20
-120.3713055254627
 30
0.0
 10
91.35032155834803
 20
-120.3278785810292
 30
0.0
 10
91.35240294718382
 20
-120.272774692154
 30
0.0
  0
SPLINE
  5
6A
330
1F
100
AcDbEntity
  8
_U+30EC_U+30A4_U+30E4_U+30FC 1
 62
   179
420
  2234388
370
     9
100
AcDbSpline
210
0.0
220
0.0
230
1.0
 70
    11
 71
     3
 72
    17
 73
    13
 74
     0
 42
0.0000000001
 43
0.0000000001
 12
1.0
 22
0.0
 32
0.0
 13
1.0
 23
0.0
 33
0.0
 40
0.0
 40
0.0
 40
0.0
 40
0.0
 40
1.0
 40
1.0
 40
1.0
 40
2.0
 40
2.0
 40
2.0
 40
3.0
 40
3.0
 40
3.0
 40
4.0
 40
4.0
 40
4.0
 40
4.0
 10
84.89970950069463
 20
-115.5454113600027
 30
0.0
 10
84.90179088953042
 20
-115.4896019155719
 30
0.0
 10
84.85839922397076
 20
-115.4434233044726
 30
0.0
 10
84.80361283647959
 20
-115.4413771933617
 30
0.0
 10
84.74780553436845
 20
-115.439966082251
 30
0.0
 10
84.70127200575719
 20
-115.4826874711293
 30
0.0
 10
84.69957867246706
 20
-115.5378266377821
 30
0.0
 10
84.69749728363126
 20
-115.5929305266573
 30
0.0
 10
84.74057144919902
 20
-115.6391091377569
 30
0.0
 10
84.79638089221964
 20
-115.6411905266453
 30
0.0
 10
84.85148477970272
 20
-115.6432366377559
 30
0.0
 10
84.89801616740449
 20
-115.5998449710999
 30
0.0
 10
84.89970950069463
 20
-115.5454113600027
 30
0.0
  0
SPLINE
  5
6B
330
1F
100
AcDbEntity
  8
_U+30EC_U+30A4_U+30E4_U+30FC 1
 62
   179
420
  2234388
370
     9
100
AcDbSpline
210
0.0
220
0.0
230
1.0
 70
    11
 71
     3
 72
    17
 73
    13
 74
     0
 42
0.0000000001
 43
0.0000000001
 12
1.0
 22
0.0
 32
0.0
 13
1.0
 23
0.0
 33
0.0
 40
0.0
 40
0.0
 40
0.0
 40
0.0
 40
1.0
 40
1.0
 40
1.0
 40
2.0
 40
2.0
 40
2.0
 40
3.0
 40
3.0
 40
3.0
 40
4.0
 40
4.0
 40
4.0
 40
4.0
 10
105.7974884119923
 20
-123.4581110802466
 30
0.0
 10
105.7974884119923
 20
-123.4029719135938
 30
0.0
 10
105.7527209131344
 20
-123.358204413605
 30
0.0
 10
105.6969114701138
 20
-123.358204413605
 30
0.0
 10
105.6417749735897
 20
-123.358204413605
 30
0.0
 10
105.597004805996
 20
-123.4029719135938
 30
0.0
 10
105.597004805996
 20
-123.4581110802466
 30
0.0
 10
105.597004805996
 20
-123.5132149691218
 30
0.0
 10
105.6417749735897
 20
-123.5580177468882
 30
0.0
 10
105.6969114701138
 20
-123.5580177468882
 30
0.0
 10
105.7527209131344
 20
-123.5580177468882
 30
0.0
 10
105.7974884119923
 20
-123.5132149691218
 30
0.0
 10
105.7974884119923
 20
-123.4581110802466
 30
0.0
  0
POLYLINE
  5
6C
330
1F
100
AcDbEntity
  8
_U+30EC_U+30A4_U+30E4_U+30FC 1
 62
   179
420
  2234388
370
     9
100
AcDb2dPolyline
 66
     1
 10
0.0
 20
0.0
 30
0.0
  0
VERTEX
  5
6D
330
6C
100
AcDbEntity
  8
_U+30EC_U+30A4_U+30E4_U+30FC 1
 62
   179
420
  2234388
370
     9
100
AcDbVertex
100
AcDb2dVertex
 10
82.46265011842475
 20
-141.4573271868581
 30
0.0
  0
VERTEX
  5
6E
330
6C
100
AcDbEntity
  8
_U+30EC_U+30A4_U+30E4_U+30FC 1
 62
   179
420
  2234388
370
     9
100
AcDbVertex
100
AcDb2dVertex
 10
101.6971524054895
 20
-141.4573271868581
 30
0.0
  0
SEQEND
  5
6F
330
6C
100
AcDbEntity
  8
_U+30EC_U+30A4_U+30E4_U+30FC 1
 62
   179
420
  2234388
370
     9
  0
POLYLINE
  5
70
330
1F
100
AcDbEntity
  8
_U+30EC_U+30A4_U+30E4_U+30FC 1
 62
   179
420
  2234388
370
     9
100
AcDb2dPolyline
 66
     1
 10
0.0
 20
0.0
 30
0.0
  0
VERTEX
  5
71
330
70
100
AcDbEntity
  8
_U+30EC_U+30A4_U+30E4_U+30FC 1
 62
   179
420
  2234388
370
     9
100
AcDbVertex
100
AcDb2dVertex
 10
82.46265011842475
 20
-139.9973210761119
 30
0.0
  0
VERTEX
  5
72
330
70
100
AcDbEntity
  8
_U+30EC_U+30A4_U+30E4_U+30FC 1
 62
   179
420
  2234388
370
     9
100
AcDbVertex
100
AcDb2dVertex
 10
82.46265011842475
 20
-142.4578049643855
 30
0.0
  0
SEQEND
  5
73
330
70
100
AcDbEntity
  8
_U+30EC_U+30A4_U+30E4_U+30FC 1
 62
   179
420
  2234388
370
     9
  0
POLYLINE
  5
74
330
1F
100
AcDbEntity
  8
_U+30EC_U+30A4_U+30E4_U+30FC 1
 62
   179
420
  2234388
370
     9
100
AcDb2dPolyline
 66
     1
 10
0.0
 20
0.0
 30
0.0
  0
VERTEX
  5
75
330
74
100
AcDbEntity
  8
_U+30EC_U+30A4_U+30E4_U+30FC 1
 62
   179
420
  2234388
370
     9
100
AcDbVertex
100
AcDb2dVertex
 10
101.6971524054895
 20
-139.9973210761119
 30
0.0
  0
VERTEX
  5
76
330
74
100
AcDbEntity
  8
_U+30EC_U+30A4_U+30E4_U+30FC 1
 62
   179
420
  2234388
370
     9
100
AcDbVertex
100
AcDb2dVertex
 10
101.6971524054895
 20
-142.4578049643855
 30
0.0
  0
SEQEND
  5
77
330
74
100
AcDbEntity
  8
_U+30EC_U+30A4_U+30E4_U+30FC 1
 62
   179
420
  2234388
370
     9
  0
INSERT
  5
79
330
1F
100
AcDbEntity
  8
_U+30EC_U+30A4_U+30E4_U+30FC 1
100
AcDbBlockReference
  2
block 2
 10
0.0
 20
0.0
 30
0.0
  0
SPLINE
  5
8B
330
1F
100
AcDbEntity
  8
_U+30EC_U+30A4_U+30E4_U+30FC 1
 62
   179
420
  2234388
370
    25
100
AcDbSpline
210
0.0
220
0.0
230
1.0
 70
    11
 71
     3
 72
    17
 73
    13
 74
     0
 42
0.0000000001
 43
0.0000000001
 12
1.0
 22
0.0
 32
0.0
 13
1.0
 23
0.0
 33
0.0
 40
0.0
 40
0.0
 40
0.0
 40
0.0
 40
1.0
 40
1.0
 40
1.0
 40
2.0
 40
2.0
 40
2.0
 40
3.0
 40
3.0
 40
3.0
 40
4.0
 40
4.0
 40
4.0
 40
4.0
 10
82.49782206197189
 20
-137.457920798969
 30
0.0
 10
82.49782206197189
 20
-137.4772177434082
 30
0.0
 10
82.48194706237689
 20
-137.4930574656267
 30
0.0
 10
82.46265011842475
 20
-137.4930574656267
 30
0.0
 10
82.4433884522495
 20
-137.4930574656267
 30
0.0
 10
82.4275134526545
 20
-137.4772177434082
 30
0.0
 10
82.4275134526545
 20
-137.457920798969
 30
0.0
 10
82.4275134526545
 20
-137.4386238545291
 30
0.0
 10
82.4433884522495
 20
-137.4227841323113
 30
0.0
 10
82.46265011842475
 20
-137.4227841323113
 30
0.0
 10
82.48194706237689
 20
-137.4227841323113
 30
0.0
 10
82.49782206197189
 20
-137.4386238545291
 30
0.0
 10
82.49782206197189
 20
-137.457920798969
 30
0.0
  0
SPLINE
  5
8C
330
1F
100
AcDbEntity
  8
_U+30EC_U+30A4_U+30E4_U+30FC 1
 62
   179
420
  2234388
370
    25
100
AcDbSpline
210
0.0
220
0.0
230
1.0
 70
    11
 71
     3
 72
    17
 73
    13
 74
     0
 42
0.0000000001
 43
0.0000000001
 12
1.0
 22
0.0
 32
0.0
 13
1.0
 23
0.0
 33
0.0
 40
0.0
 40
0.0
 40
0.0
 40
0.0
 40
1.0
 40
1.0
 40
1.0
 40
2.0
 40
2.0
 40
2.0
 40
3.0
 40
3.0
 40
3.0
 40
4.0
 40
4.0
 40
4.0
 40
4.0
 10
101.7322916412336
 20
-137.457920798969
 30
0.0
 10
101.7322916412336
 20
-137.4772177434082
 30
0.0
 10
101.7164493494416
 20
-137.4930574656267
 30
0.0
 10
101.6971524054895
 20
-137.4930574656267
 30
0.0
 10
101.6778554615373
 20
-137.4930574656267
 30
0.0
 10
101.6620157397192
 20
-137.4772177434082
 30
0.0
 10
101.6620157397192
 20
-137.457920798969
 30
0.0
 10
101.6620157397192
 20
-137.4386238545291
 30
0.0
 10
101.6778554615373
 20
-137.4227841323113
 30
0.0
 10
101.6971524054895
 20
-137.4227841323113
 30
0.0
 10
101.7164493494416
 20
-137.4227841323113
 30
0.0
 10
101.7322916412336
 20
-137.4386238545291
 30
0.0
 10
101.7322916412336
 20
-137.457920798969
 30
0.0
  0
SPLINE
  5
8D
330
1F
100
AcDbEntity
  8
_U+30EC_U+30A4_U+30E4_U+30FC 1
 62
   179
420
  2234388
370
     9
100
AcDbSpline
210
0.0
220
0.0
230
1.0
 70
    11
 71
     3
 72
    17
 73
    13
 74
     0
 42
0.0000000001
 43
0.0000000001
 12
1.0
 22
0.0
 32
0.0
 13
1.0
 23
0.0
 33
0.0
 40
0.0
 40
0.0
 40
0.0
 40
0.0
 40
1.0
 40
1.0
 40
1.0
 40
2.0
 40
2.0
 40
2.0
 40
3.0
 40
3.0
 40
3.0
 40
4.0
 40
4.0
 40
4.0
 40
4.0
 10
101.7322916412336
 20
-141.4573271868581
 30
0.0
 10
101.7322916412336
 20
-141.4773296868528
 30
0.0
 10
101.7164493494416
 20
-141.4931694090714
 30
0.0
 10
101.6971524054895
 20
-141.4931694090714
 30
0.0
 10
101.6778554615373
 20
-141.4931694090714
 30
0.0
 10
101.6620157397192
 20
-141.4773296868528
 30
0.0
 10
101.6620157397192
 20
-141.4573271868581
 30
0.0
 10
101.6620157397192
 20
-141.4380655201958
 30
0.0
 10
101.6778554615373
 20
-141.4221905201997
 30
0.0
 10
101.6971524054895
 20
-141.4221905201997
 30
0.0
 10
101.7164493494416
 20
-141.4221905201997
 30
0.0
 10
101.7322916412336
 20
-141.4380655201958
 30
0.0
 10
101.7322916412336
 20
-141.4573271868581
 30
0.0
  0
POLYLINE
  5
8E
330
1F
100
AcDbEntity
  8
_U+30EC_U+30A4_U+30E4_U+30FC 1
 62
   179
420
  2234388
370
     9
100
AcDb2dPolyline
 66
     1
 10
0.0
 20
0.0
 30
0.0
  0
VERTEX
  5
8F
330
8E
100
AcDbEntity
  8
_U+30EC_U+30A4_U+30E4_U+30FC 1
 62
   179
420
  2234388
370
     9
100
AcDbVertex
100
AcDb2dVertex
 10
78.46292633157732
 20
-118.0578946927077
 30
0.0
  0
VERTEX
  5
90
330
8E
100
AcDbEntity
  8
_U+30EC_U+30A4_U+30E4_U+30FC 1
 62
   179
420
  2234388
370
     9
100
AcDbVertex
100
AcDb2dVertex
 10
78.46292633157732
 20
-137.457920798969
 30
0.0
  0
SEQEND
  5
91
330
8E
100
AcDbEntity
  8
_U+30EC_U+30A4_U+30E4_U+30FC 1
 62
   179
420
  2234388
370
     9
  0
POLYLINE
  5
92
330
1F
100
AcDbEntity
  8
_U+30EC_U+30A4_U+30E4_U+30FC 1
 62
   179
420
  2234388
370
     9
100
AcDb2dPolyline
 66
     1
 10
0.0
 20
0.0
 30
0.0
  0
VERTEX
  5
93
330
92
100
AcDbEntity
  8
_U+30EC_U+30A4_U+30E4_U+30FC 1
 62
   179
420
  2234388
370
     9
100
AcDbVertex
100
AcDb2dVertex
 10
79.92293240544056
 20
-118.0578946927077
 30
0.0
  0
VERTEX
  5
94
330
92
100
AcDbEntity
  8
_U+30EC_U+30A4_U+30E4_U+30FC 1
 62
   179
420
  2234388
370
     9
100
AcDbVertex
100
AcDb2dVertex
 10
77.46244857932385
 20
-118.0578946927077
 30
0.0
  0
SEQEND
  5
95
330
92
100
AcDbEntity
  8
_U+30EC_U+30A4_U+30E4_U+30FC 1
 62
   179
420
  2234388
370
     9
  0
POLYLINE
  5
96
330
1F
100
AcDbEntity
  8
_U+30EC_U+30A4_U+30E4_U+30FC 1
 62
   179
420
  2234388
370
     9
100
AcDb2dPolyline
 66
     1
 10
0.0
 20
0.0
 30
0.0
  0
VERTEX
  5
97
330
96
100
AcDbEntity
  8
_U+30EC_U+30A4_U+30E4_U+30FC 1
 62
   179
420
  2234388
370
     9
100
AcDbVertex
100
AcDb2dVertex
 10
79.92293240544056
 20
-137.457920798969
 30
0.0
  0
VERTEX
  5
98
330
96
100
AcDbEntity
  8
_U+30EC_U+30A4_U+30E4_U+30FC 1
 62
   179
420
  2234388
370
     9
100
AcDbVertex
100
AcDb2dVertex
 10
77.46244857932385
 20
-137.457920798969
 30
0.0
  0
SEQEND
  5
99
330
96
100
AcDbEntity
  8
_U+30EC_U+30A4_U+30E4_U+30FC 1
 62
   179
420
  2234388
370
     9
  0
INSERT
  5
9B
330
1F
100
AcDbEntity
  8
_U+30EC_U+30A4_U+30E4_U+30FC 1
100
AcDbBlockReference
  2
block 3
 10
0.0
 20
0.0
 30
0.0
  0
SPLINE
  5
AD
330
1F
100
AcDbEntity
  8
_U+30EC_U+30A4_U+30E4_U+30FC 1
 62
   179
420
  2234388
370
    25
100
AcDbSpline
210
0.0
220
0.0
230
1.0
 70
    11
 71
     3
 72
    17
 73
    13
 74
     0
 42
0.0000000001
 43
0.0000000001
 12
1.0
 22
0.0
 32
0.0
 13
1.0
 23
0.0
 33
0.0
 40
0.0
 40
0.0
 40
0.0
 40
0.0
 40
1.0
 40
1.0
 40
1.0
 40
2.0
 40
2.0
 40
2.0
 40
3.0
 40
3.0
 40
3.0
 40
4.0
 40
4.0
 40
4.0
 40
4.0
 10
82.49782206197189
 20
-118.0578946927077
 30
0.0
 10
82.49782206197189
 20
-118.0775444149249
 30
0.0
 10
82.48194706237689
 20
-118.0933841371435
 30
0.0
 10
82.46265011842475
 20
-118.0933841371435
 30
0.0
 10
82.4433884522495
 20
-118.0933841371435
 30
0.0
 10
82.4275134526545
 20
-118.0775444149249
 30
0.0
 10
82.4275134526545
 20
-118.0578946927077
 30
0.0
 10
82.4275134526545
 20
-118.038633026046
 30
0.0
 10
82.4433884522495
 20
-118.0227580260499
 30
0.0
 10
82.46265011842475
 20
-118.0227580260499
 30
0.0
 10
82.48194706237689
 20
-118.0227580260499
 30
0.0
 10
82.49782206197189
 20
-118.038633026046
 30
0.0
 10
82.49782206197189
 20
-118.0578946927077
 30
0.0
  0
SPLINE
  5
AE
330
1F
100
AcDbEntity
  8
_U+30EC_U+30A4_U+30E4_U+30FC 1
 62
   179
420
  2234388
370
    25
100
AcDbSpline
210
0.0
220
0.0
230
1.0
 70
    11
 71
     3
 72
    17
 73
    13
 74
     0
 42
0.0000000001
 43
0.0000000001
 12
1.0
 22
0.0
 32
0.0
 13
1.0
 23
0.0
 33
0.0
 40
0.0
 40
0.0
 40
0.0
 40
0.0
 40
1.0
 40
1.0
 40
1.0
 40
2.0
 40
2.0
 40
2.0
 40
3.0
 40
3.0
 40
3.0
 40
4.0
 40
4.0
 40
4.0
 40
4.0
 10
82.49782206197189
 20
-137.457920798969
 30
0.0
 10
82.49782206197189
 20
-137.4772177434082
 30
0.0
 10
82.48194706237689
 20
-137.4930574656267
 30
0.0
 10
82.46265011842475
 20
-137.4930574656267
 30
0.0
 10
82.4433884522495
 20
-137.4930574656267
 30
0.0
 10
82.4275134526545
 20
-137.4772177434082
 30
0.0
 10
82.4275134526545
 20
-137.457920798969
 30
0.0
 10
82.4275134526545
 20
-137.4386238545291
 30
0.0
 10
82.4433884522495
 20
-137.4227841323113
 30
0.0
 10
82.46265011842475
 20
-137.4227841323113
 30
0.0
 10
82.48194706237689
 20
-137.4227841323113
 30
0.0
 10
82.49782206197189
 20
-137.4386238545291
 30
0.0
 10
82.49782206197189
 20
-137.457920798969
 30
0.0
  0
SPLINE
  5
AF
330
1F
100
AcDbEntity
  8
_U+30EC_U+30A4_U+30E4_U+30FC 1
 62
   179
420
  2234388
370
     9
100
AcDbSpline
210
0.0
220
0.0
230
1.0
 70
    11
 71
     3
 72
    17
 73
    13
 74
     0
 42
0.0000000001
 43
0.0000000001
 12
1.0
 22
0.0
 32
0.0
 13
1.0
 23
0.0
 33
0.0
 40
0.0
 40
0.0
 40
0.0
 40
0.0
 40
1.0
 40
1.0
 40
1.0
 40
2.0
 40
2.0
 40
2.0
 40
3.0
 40
3.0
 40
3.0
 40
4.0
 40
4.0
 40
4.0
 40
4.0
 10
78.49806299734757
 20
-137.457920798969
 30
0.0
 10
78.49806299734757
 20
-137.4772177434082
 30
0.0
 10
78.48218799775258
 20
-137.4930574656267
 30
0.0
 10
78.46292633157732
 20
-137.4930574656267
 30
0.0
 10
78.44292383208762
 20
-137.4930574656267
 30
0.0
 10
78.42775438803018
 20
-137.4772177434082
 30
0.0
 10
78.42775438803018
 20
-137.457920798969
 30
0.0
 10
78.42775438803018
 20
-137.4386238545291
 30
0.0
 10
78.44292383208762
 20
-137.4227841323113
 30
0.0
 10
78.46292633157732
 20
-137.4227841323113
 30
0.0
 10
78.48218799775258
 20
-137.4227841323113
 30
0.0
 10
78.49806299734757
 20
-137.4386238545291
 30
0.0
 10
78.49806299734757
 20
-137.457920798969
 30
0.0
  0
POLYLINE
  5
B0
330
1F
100
AcDbEntity
  8
_U+30EC_U+30A4_U+30E4_U+30FC 1
 62
   179
420
  2234388
370
     9
100
AcDb2dPolyline
 66
     1
 10
0.0
 20
0.0
 30
0.0
  0
VERTEX
  5
B1
330
B0
100
AcDbEntity
  8
_U+30EC_U+30A4_U+30E4_U+30FC 1
 62
   179
420
  2234388
370
     9
100
AcDbVertex
100
AcDb2dVertex
 10
105.6969114701138
 20
-137.4582735767467
 30
0.0
  0
VERTEX
  5
B2
330
B0
100
AcDbEntity
  8
_U+30EC_U+30A4_U+30E4_U+30FC 1
 62
   179
420
  2234388
370
     9
100
AcDbVertex
100
AcDb2dVertex
 10
105.6969114701138
 20
-123.4581110802466
 30
0.0
  0
SEQEND
  5
B3
330
B0
100
AcDbEntity
  8
_U+30EC_U+30A4_U+30E4_U+30FC 1
 62
   179
420
  2234388
370
     9
  0
POLYLINE
  5
B4
330
1F
100
AcDbEntity
  8
_U+30EC_U+30A4_U+30E4_U+30FC 1
 62
   179
420
  2234388
370
     9
100
AcDb2dPolyline
 66
     1
 10
0.0
 20
0.0
 30
0.0
  0
VERTEX
  5
B5
330
B4
100
AcDbEntity
  8
_U+30EC_U+30A4_U+30E4_U+30FC 1
 62
   179
420
  2234388
370
     9
100
AcDbVertex
100
AcDb2dVertex
 10
103.2370979217578
 20
-136.4581485769965
 30
0.0
  0
VERTEX
  5
B6
330
B4
100
AcDbEntity
  8
_U+30EC_U+30A4_U+30E4_U+30FC 1
 62
   179
420
  2234388
370
     9
100
AcDbVertex
100
AcDb2dVertex
 10
106.6973539445904
 20
-136.4581485769965
 30
0.0
  0
SEQEND
  5
B7
330
B4
100
AcDbEntity
  8
_U+30EC_U+30A4_U+30E4_U+30FC 1
 62
   179
420
  2234388
370
     9
  0
POLYLINE
  5
B8
330
1F
100
AcDbEntity
  8
_U+30EC_U+30A4_U+30E4_U+30FC 1
 62
   179
420
  2234388
370
     9
100
AcDb2dPolyline
 66
     1
 10
0.0
 20
0.0
 30
0.0
  0
VERTEX
  5
B9
330
B8
100
AcDbEntity
  8
_U+30EC_U+30A4_U+30E4_U+30FC 1
 62
   179
420
  2234388
370
     9
100
AcDbVertex
100
AcDb2dVertex
 10
103.2370979217578
 20
-137.4582735767467
 30
0.0
  0
VERTEX
  5
BA
330
B8
100
AcDbEntity
  8
_U+30EC_U+30A4_U+30E4_U+30FC 1
 62
   179
420
  2234388
370
     9
100
AcDbVertex
100
AcDb2dVertex
 10
106.6973539445904
 20
-137.4582735767467
 30
0.0
  0
SEQEND
  5
BB
330
B8
100
AcDbEntity
  8
_U+30EC_U+30A4_U+30E4_U+30FC 1
 62
   179
420
  2234388
370
     9
  0
POLYLINE
  5
BC
330
1F
100
AcDbEntity
  8
_U+30EC_U+30A4_U+30E4_U+30FC 1
 62
   179
420
  2234388
370
     9
100
AcDb2dPolyline
 66
     1
 10
0.0
 20
0.0
 30
0.0
  0
VERTEX
  5
BD
330
BC
100
AcDbEntity
  8
_U+30EC_U+30A4_U+30E4_U+30FC 1
 62
   179
420
  2234388
370
     9
100
AcDbVertex
100
AcDb2dVertex
 10
98.85150830862072
 20
-123.4581110802466
 30
0.0
  0
VERTEX
  5
BE
330
BC
100
AcDbEntity
  8
_U+30EC_U+30A4_U+30E4_U+30FC 1
 62
   179
420
  2234388
370
     9
100
AcDbVertex
100
AcDb2dVertex
 10
106.6973539445904
 20
-123.4581110802466
 30
0.0
  0
SEQEND
  5
BF
330
BC
100
AcDbEntity
  8
_U+30EC_U+30A4_U+30E4_U+30FC 1
 62
   179
420
  2234388
370
     9
  0
INSERT
  5
C1
330
1F
100
AcDbEntity
  8
_U+30EC_U+30A4_U+30E4_U+30FC 1
100
AcDbBlockReference
  2
block 4
 10
0.0
 20
0.0
 30
0.0
  0
INSERT
  5
C9
330
1F
100
AcDbEntity
  8
_U+30EC_U+30A4_U+30E4_U+30FC 1
100
AcDbBlockReference
  2
block 5
 10
0.0
 20
0.0
 30
0.0
  0
SPLINE
  5
CE
330
1F
100
AcDbEntity
  8
_U+30EC_U+30A4_U+30E4_U+30FC 1
 62
   179
420
  2234388
370
    25
100
AcDbSpline
210
0.0
220
0.0
230
1.0
 70
    11
 71
     3
 72
    17
 73
    13
 74
     0
 42
0.0000000001
 43
0.0000000001
 12
1.0
 22
0.0
 32
0.0
 13
1.0
 23
0.0
 33
0.0
 40
0.0
 40
0.0
 40
0.0
 40
0.0
 40
1.0
 40
1.0
 40
1.0
 40
2.0
 40
2.0
 40
2.0
 40
3.0
 40
3.0
 40
3.0
 40
4.0
 40
4.0
 40
4.0
 40
4.0
 10
100.7325194192611
 20
-136.4581485769965
 30
0.0
 10
100.7325194192611
 20
-136.4774455214363
 30
0.0
 10
100.7166771527257
 20
-136.4933205214323
 30
0.0
 10
100.6973802087736
 20
-136.4933205214323
 30
0.0
 10
100.6780832648214
 20
-136.4933205214323
 30
0.0
 10
100.6622435430033
 20
-136.4774455214363
 30
0.0
 10
100.6622435430033
 20
-136.4581485769965
 30
0.0
 10
100.6622435430033
 20
-136.4381813547792
 30
0.0
 10
100.6780832648214
 20
-136.4223416325613
 30
0.0
 10
100.6973802087736
 20
-136.4223416325613
 30
0.0
 10
100.7166771527257
 20
-136.4223416325613
 30
0.0
 10
100.7325194192611
 20
-136.4381813547792
 30
0.0
 10
100.7325194192611
 20
-136.4581485769965
 30
0.0
  0
SPLINE
  5
CF
330
1F
100
AcDbEntity
  8
_U+30EC_U+30A4_U+30E4_U+30FC 1
 62
   179
420
  2234388
370
    25
100
AcDbSpline
210
0.0
220
0.0
230
1.0
 70
    11
 71
     3
 72
    17
 73
    13
 74
     0
 42
0.0000000001
 43
0.0000000001
 12
1.0
 22
0.0
 32
0.0
 13
1.0
 23
0.0
 33
0.0
 40
0.0
 40
0.0
 40
0.0
 40
0.0
 40
1.0
 40
1.0
 40
1.0
 40
2.0
 40
2.0
 40
2.0
 40
3.0
 40
3.0
 40
3.0
 40
4.0
 40
4.0
 40
4.0
 40
4.0
 10
89.11240522655314
 20
-123.4581110802466
 30
0.0
 10
89.11240522655314
 20
-123.4773727469086
 30
0.0
 10
89.09653022695815
 20
-123.4932477469043
 30
0.0
 10
89.07723328300601
 20
-123.4932477469043
 30
0.0
 10
89.05726606129319
 20
-123.4932477469043
 30
0.0
 10
89.04209661723576
 20
-123.4773727469086
 30
0.0
 10
89.04209661723576
 20
-123.4581110802466
 30
0.0
 10
89.04209661723576
 20
-123.4388141358071
 30
0.0
 10
89.05726606129319
 20
-123.4229744135886
 30
0.0
 10
89.07723328300601
 20
-123.4229744135886
 30
0.0
 10
89.09653022695815
 20
-123.4229744135886
 30
0.0
 10
89.11240522655314
 20
-123.4388141358071
 30
0.0
 10
89.11240522655314
 20
-123.4581110802466
 30
0.0
  0
SPLINE
  5
D0
330
1F
100
AcDbEntity
  8
_U+30EC_U+30A4_U+30E4_U+30FC 1
 62
   179
420
  2234388
370
     9
100
AcDbSpline
210
0.0
220
0.0
230
1.0
 70
    11
 71
     3
 72
    17
 73
    13
 74
     0
 42
0.0000000001
 43
0.0000000001
 12
1.0
 22
0.0
 32
0.0
 13
1.0
 23
0.0
 33
0.0
 40
0.0
 40
0.0
 40
0.0
 40
0.0
 40
1.0
 40
1.0
 40
1.0
 40
2.0
 40
2.0
 40
2.0
 40
3.0
 40
3.0
 40
3.0
 40
4.0
 40
4.0
 40
4.0
 40
4.0
 10
105.7327184136447
 20
-123.4581110802466
 30
0.0
 10
105.7327184136447
 20
-123.4773727469086
 30
0.0
 10
105.7168786918266
 20
-123.4932477469043
 30
0.0
 10
105.6969114701138
 20
-123.4932477469043
 30
0.0
 10
105.6776145261617
 20
-123.4932477469043
 30
0.0
 10
105.6617748043436
 20
-123.4773727469086
 30
0.0
 10
105.6617748043436
 20
-123.4581110802466
 30
0.0
 10
105.6617748043436
 20
-123.4388141358071
 30
0.0
 10
105.6776145261617
 20
-123.4229744135886
 30
0.0
 10
105.6969114701138
 20
-123.4229744135886
 30
0.0
 10
105.7168786918266
 20
-123.4229744135886
 30
0.0
 10
105.7327184136447
 20
-123.4388141358071
 30
0.0
 10
105.7327184136447
 20
-123.4581110802466
 30
0.0
  0
POLYLINE
  5
D1
330
1F
100
AcDbEntity
  8
_U+30EC_U+30A4_U+30E4_U+30FC 1
 62
   179
420
  2234388
370
     9
100
AcDb2dPolyline
 66
     1
 10
0.0
 20
0.0
 30
0.0
  0
VERTEX
  5
D2
330
D1
100
AcDbEntity
  8
_U+30EC_U+30A4_U+30E4_U+30FC 1
 62
   179
420
  2234388
370
     9
100
AcDbVertex
100
AcDb2dVertex
 10
84.79980283657679
 20
-115.541954137781
 30
0.0
  0
VERTEX
  5
D3
330
D1
100
AcDbEntity
  8
_U+30EC_U+30A4_U+30E4_U+30FC 1
 62
   179
420
  2234388
370
     9
100
AcDbVertex
100
AcDb2dVertex
 10
91.25249628306598
 20
-120.2693174699327
 30
0.0
  0
SEQEND
  5
D4
330
D1
100
AcDbEntity
  8
_U+30EC_U+30A4_U+30E4_U+30FC 1
 62
   179
420
  2234388
370
     9
  0
POLYLINE
  5
D5
330
1F
100
AcDbEntity
  8
_U+30EC_U+30A4_U+30E4_U+30FC 1
 62
   179
420
  2234388
370
     9
100
AcDb2dPolyline
 66
     1
 10
0.0
 20
0.0
 30
0.0
  0
VERTEX
  5
D6
330
D5
100
AcDbEntity
  8
_U+30EC_U+30A4_U+30E4_U+30FC 1
 62
   179
420
  2234388
370
     9
100
AcDbVertex
100
AcDb2dVertex
 10
83.93715535858476
 20
-116.7194910819313
 30
0.0
  0
VERTEX
  5
D7
330
D5
100
AcDbEntity
  8
_U+30EC_U+30A4_U+30E4_U+30FC 1
 62
   179
420
  2234388
370
     9
100
AcDbVertex
100
AcDb2dVertex
 10
85.3909878214944
 20
-114.7351160824274
 30
0.0
  0
SEQEND
  5
D8
330
D5
100
AcDbEntity
  8
_U+30EC_U+30A4_U+30E4_U+30FC 1
 62
   179
420
  2234388
370
     9
  0
POLYLINE
  5
D9
330
1F
100
AcDbEntity
  8
_U+30EC_U+30A4_U+30E4_U+30FC 1
 62
   179
420
  2234388
370
     9
100
AcDb2dPolyline
 66
     1
 10
0.0
 20
0.0
 30
0.0
  0
VERTEX
  5
DA
330
D9
100
AcDbEntity
  8
_U+30EC_U+30A4_U+30E4_U+30FC 1
 62
   179
420
  2234388
370
     9
100
AcDbVertex
100
AcDb2dVertex
 10
90.38981352729708
 20
-121.4475246918603
 30
0.0
  0
VERTEX
  5
DB
330
D9
100
AcDbEntity
  8
_U+30EC_U+30A4_U+30E4_U+30FC 1
 62
   179
420
  2234388
370
     9
100
AcDbVertex
100
AcDb2dVertex
 10
91.84417515685988
 20
-119.4631496923564
 30
0.0
  0
SEQEND
  5
DC
330
D9
100
AcDbEntity
  8
_U+30EC_U+30A4_U+30E4_U+30FC 1
 62
   179
420
  2234388
370
     9
  0
INSERT
  5
DE
330
1F
100
AcDbEntity
  8
_U+30EC_U+30A4_U+30E4_U+30FC 1
100
AcDbBlockReference
  2
block 6
 10
0.0
 20
0.0
 30
0.0
  0
SPLINE
  5
E5
330
1F
100
AcDbEntity
  8
_U+30EC_U+30A4_U+30E4_U+30FC 1
 62
   179
420
  2234388
370
    25
100
AcDbSpline
210
0.0
220
0.0
230
1.0
 70
    11
 71
     3
 72
    17
 73
    13
 74
     0
 42
0.0000000001
 43
0.0000000001
 12
1.0
 22
0.0
 32
0.0
 13
1.0
 23
0.0
 33
0.0
 40
0.0
 40
0.0
 40
0.0
 40
0.0
 40
1.0
 40
1.0
 40
1.0
 40
2.0
 40
2.0
 40
2.0
 40
3.0
 40
3.0
 40
3.0
 40
4.0
 40
4.0
 40
4.0
 40
4.0
 10
82.49782206197189
 20
-118.0578946927077
 30
0.0
 10
82.49782206197189
 20
-118.0775444149249
 30
0.0
 10
82.48194706237689
 20
-118.0933841371435
 30
0.0
 10
82.46265011842475
 20
-118.0933841371435
 30
0.0
 10
82.4433884522495
 20
-118.0933841371435
 30
0.0
 10
82.4275134526545
 20
-118.0775444149249
 30
0.0
 10
82.4275134526545
 20
-118.0578946927077
 30
0.0
 10
82.4275134526545
 20
-118.038633026046
 30
0.0
 10
82.4433884522495
 20
-118.0227580260499
 30
0.0
 10
82.46265011842475
 20
-118.0227580260499
 30
0.0
 10
82.48194706237689
 20
-118.0227580260499
 30
0.0
 10
82.49782206197189
 20
-118.038633026046
 30
0.0
 10
82.49782206197189
 20
-118.0578946927077
 30
0.0
  0
SPLINE
  5
E6
330
1F
100
AcDbEntity
  8
_U+30EC_U+30A4_U+30E4_U+30FC 1
 62
   179
420
  2234388
370
    25
100
AcDbSpline
210
0.0
220
0.0
230
1.0
 70
    11
 71
     3
 72
    17
 73
    13
 74
     0
 42
0.0000000001
 43
0.0000000001
 12
1.0
 22
0.0
 32
0.0
 13
1.0
 23
0.0
 33
0.0
 40
0.0
 40
0.0
 40
0.0
 40
0.0
 40
1.0
 40
1.0
 40
1.0
 40
2.0
 40
2.0
 40
2.0
 40
3.0
 40
3.0
 40
3.0
 40
4.0
 40
4.0
 40
4.0
 40
4.0
 10
89.11240522655314
 20
-123.4581110802466
 30
0.0
 10
89.11240522655314
 20
-123.4773727469086
 30
0.0
 10
89.09653022695815
 20
-123.4932477469043
 30
0.0
 10
89.07723328300601
 20
-123.4932477469043
 30
0.0
 10
89.05726606129319
 20
-123.4932477469043
 30
0.0
 10
89.04209661723576
 20
-123.4773727469086
 30
0.0
 10
89.04209661723576
 20
-123.4581110802466
 30
0.0
 10
89.04209661723576
 20
-123.4388141358071
 30
0.0
 10
89.05726606129319
 20
-123.4229744135886
 30
0.0
 10
89.07723328300601
 20
-123.4229744135886
 30
0.0
 10
89.09653022695815
 20
-123.4229744135886
 30
0.0
 10
89.11240522655314
 20
-123.4388141358071
 30
0.0
 10
89.11240522655314
 20
-123.4581110802466
 30
0.0
  0
SPLINE
  5
E7
330
1F
100
AcDbEntity
  8
_U+30EC_U+30A4_U+30E4_U+30FC 1
 62
   179
420
  2234388
370
     9
100
AcDbSpline
210
0.0
220
0.0
230
1.0
 70
    11
 71
     3
 72
    17
 73
    13
 74
     0
 42
0.0000000001
 43
0.0000000001
 12
1.0
 22
0.0
 32
0.0
 13
1.0
 23
0.0
 33
0.0
 40
0.0
 40
0.0
 40
0.0
 40
0.0
 40
1.0
 40
1.0
 40
1.0
 40
2.0
 40
2.0
 40
2.0
 40
3.0
 40
3.0
 40
3.0
 40
4.0
 40
4.0
 40
4.0
 40
4.0
 10
91.28763294883623
 20
-120.2706933032656
 30
0.0
 10
91.28692739329868
 20
-120.2899902477054
 30
0.0
 10
91.27175794924123
 20
-120.3051596921459
 30
0.0
 10
91.25179072752843
 20
-120.3044541365904
 30
0.0
 10
91.23249378357629
 20
-120.3037838588131
 30
0.0
 10
91.21665406175816
 20
-120.2872385810393
 30
0.0
 10
91.21732433951884
 20
-120.2686119143772
 30
0.0
 10
91.2180298950564
 20
-120.24864469216
 30
0.0
 10
91.23457517241208
 20
-120.2334752477195
 30
0.0
 10
91.2538721163642
 20
-120.2341808032747
 30
0.0
 10
91.2738416438483
 20
-120.2348510810523
 30
0.0
 10
91.28830553273363
 20
-120.2513963588261
 30
0.0
 10
91.28763294883623
 20
-120.2706933032656
 30
0.0
  0
ENDSEC
  0
SECTION
  2
OBJECTS
  0
DICTIONARY
  5
C
330
0
100
AcDbDictionary
281
     1
  3
ACAD_GROUP
350
D
  3
ACAD_LAYOUT
350
1A
  3
ACAD_MATERIAL
350
3B
  3
ACAD_MLEADERSTYLE
350
E9
  3
ACAD_MLINESTYLE
350
17
  3
ACAD_PLOTSETTINGS
350
19
  3
ACAD_PLOTSTYLENAME
350
E
  3
ACAD_TABLESTYLE
350
E8
  3
ACAD_VISUALSTYLE
350
2A
  0
SUN
  5
3F
330
29
100
AcDbSun
 90
        1
290
     0
 63
     7
421
 16777215
 40
1.0
291
     1
 91
  2455826
 92
 54000000
292
     0
 70
     2
 71
   256
280
     1
  0
DICTIONARY
  5
D
102
{ACAD_REACTORS
330
C
102
}
330
C
100
AcDbDictionary
281
     1
  0
DICTIONARY
  5
1A
102
{ACAD_REACTORS
330
C
102
}
330
C
100
AcDbDictionary
281
     1
  3
Layout1
350
1E
  3
Layout2
350
26
  3
Model
350
22
  0
DICTIONARY
  5
3B
102
{ACAD_REACTORS
330
C
102
}
330
C
100
AcDbDictionary
281
     1
  3
ByBlock
350
3D
  3
ByLayer
350
3C
  3
Global
350
3E
  0
DICTIONARY
  5
E9
102
{ACAD_REACTORS
330
C
102
}
330
C
100
AcDbDictionary
281
     1
  0
DICTIONARY
  5
17
102
{ACAD_REACTORS
330
C
102
}
330
C
100
AcDbDictionary
281
     1
  3
Standard
350
18
  0
DICTIONARY
  5
19
102
{ACAD_REACTORS
330
C
102
}
330
C
100
AcDbDictionary
281
     1
  0
ACDBDICTIONARYWDFLT
  5
E
102
{ACAD_REACTORS
330
C
102
}
330
C
100
AcDbDictionary
281
     1
  3
Normal
350
F
100
AcDbDictionaryWithDefault
340
F
  0
DICTIONARY
  5
E8
102
{ACAD_REACTORS
330
C
102
}
330
C
100
AcDbDictionary
281
     1
  0
DICTIONARY
  5
2A
102
{ACAD_REACTORS
330
C
102
}
330
C
100
AcDbDictionary
281
     1
  3
2dWireframe
350
2F
  3
3D Hidden
350
31
  3
3dWireframe
350
30
  3
Basic
350
32
  3
Brighten
350
36
  3
ColorChange
350
3A
  3
Conceptual
350
34
  3
Dim
350
35
  3
Facepattern
350
39
  3
Flat
350
2B
  3
FlatWithEdges
350
2C
  3
Gouraud
350
2D
  3
GouraudWithEdges
350
2E
  3
Linepattern
350
38
  3
Realistic
350
33
  3
Thicken
350
37
  0
LAYOUT
  5
1E
102
{ACAD_REACTORS
330
1A
102
}
330
1A
100
AcDbPlotSettings
  1

  2
none_device
  4

  6

 40
0.0
 41
0.0
 42
0.0
 43
0.0
 44
0.0
 45
0.0
 46
0.0
 47
0.0
 48
0.0
 49
0.0
140
0.0
141
0.0
142
1.0
143
1.0
 70
   688
 72
     0
 73
     0
 74
     5
  7

 75
    16
 76
     0
 77
     2
 78
   300
147
1.0
148
0.0
149
0.0
100
AcDbLayout
  1
Layout1
 70
     1
 71
     1
 10
0.0
 20
0.0
 11
12.0
 21
9.0
 12
0.0
 22
0.0
 32
0.0
 14
1.000000000000000E+20
 24
1.000000000000000E+20
 34
1.000000000000000E+20
 15
-1.000000000000000E+20
 25
-1.000000000000000E+20
 35
-1.000000000000000E+20
146
0.0
 13
0.0
 23
0.0
 33
0.0
 16
1.0
 26
0.0
 36
0.0
 17
0.0
 27
1.0
 37
0.0
 76
     0
330
1B
  0
LAYOUT
  5
26
102
{ACAD_REACTORS
330
1A
102
}
330
1A
100
AcDbPlotSettings
  1

  2
none_device
  4

  6

 40
0.0
 41
0.0
 42
0.0
 43
0.0
 44
0.0
 45
0.0
 46
0.0
 47
0.0
 48
0.0
 49
0.0
140
0.0
141
0.0
142
1.0
143
1.0
 70
   688
 72
     0
 73
     0
 74
     5
  7

 75
    16
 76
     0
 77
     2
 78
   300
147
1.0
148
0.0
149
0.0
100
AcDbLayout
  1
Layout2
 70
     1
 71
     2
 10
0.0
 20
0.0
 11
0.0
 21
0.0
 12
0.0
 22
0.0
 32
0.0
 14
0.0
 24
0.0
 34
0.0
 15
0.0
 25
0.0
 35
0.0
146
0.0
 13
0.0
 23
0.0
 33
0.0
 16
1.0
 26
0.0
 36
0.0
 17
0.0
 27
1.0
 37
0.0
 76
     0
330
23
  0
LAYOUT
  5
22
102
{ACAD_REACTORS
330
1A
102
}
330
1A
100
AcDbPlotSettings
  1

  2
none_device
  4

  6

 40
0.0
 41
0.0
 42
0.0
 43
0.0
 44
0.0
 45
0.0
 46
0.0
 47
0.0
 48
0.0
 49
0.0
140
0.0
141
0.0
142
1.0
143
1.0
 70
  1712
 72
     0
 73
     0
 74
     0
  7

 75
     0
 76
     0
 77
     2
 78
   300
147
1.0
148
0.0
149
0.0
100
AcDbLayout
  1
Model
 70
     1
 71
     0
 10
0.0
 20
0.0
 11
12.0
 21
9.0
 12
0.0
 22
0.0
 32
0.0
 14
1.000000000000000E+20
 24
1.000000000000000E+20
 34
1.000000000000000E+20
 15
-1.000000000000000E+20
 25
-1.000000000000000E+20
 35
-1.000000000000000E+20
146
0.0
 13
0.0
 23
0.0
 33
0.0
 16
1.0
 26
0.0
 36
0.0
 17
0.0
 27
1.0
 37
0.0
 76
     0
330
1F
331
29
  0
MATERIAL
  5
3D
102
{ACAD_REACTORS
330
3B
102
}
330
3B
100
AcDbMaterial
  1
ByBlock
 72
     1
 94
      127
  0
MATERIAL
  5
3C
102
{ACAD_REACTORS
330
3B
102
}
330
3B
100
AcDbMaterial
  1
ByLayer
 72
     1
 94
      127
  0
MATERIAL
  5
3E
102
{ACAD_REACTORS
330
3B
102
}
330
3B
100
AcDbMaterial
  1
Global
 72
     1
 94
      127
  0
MLINESTYLE
  5
18
102
{ACAD_REACTORS
330
17
102
}
330
17
100
AcDbMlineStyle
  2
Standard
 70
     0
  3

 62
   256
 51
90.0
 52
90.0
 71
     2
 49
0.5
 62
   256
  6
BYLAYER
 49
-0.5
 62
   256
  6
BYLAYER
  0
ACDBPLACEHOLDER
  5
F
102
{ACAD_REACTORS
330
E
102
}
330
E
  0
VISUALSTYLE
  5
2F
102
{ACAD_REACTORS
330
2A
102
}
330
2A
100
AcDbVisualStyle
  2
2dWireframe
 70
     4
177
     2
291
     0
 71
     0
176
     1
 72
     2
176
     1
 73
     0
176
     1
 90
        0
176
     1
 40
-0.6
176
     1
 41
-30.0
176
     1
 62
     5
 63
     7
421
 16777215
176
     1
 74
     1
176
     1
 91
        4
176
     1
 64
     7
176
     1
 65
   257
176
     1
 75
     1
176
     1
175
     1
176
     1
 42
1.0
176
     1
 92
        0
176
     1
 66
   257
176
     1
 43
1.0
176
     1
 76
     1
176
     1
 77
     6
176
     1
 78
     2
176
     1
 67
     7
176
     1
 79
     5
176
     1
170
     0
176
     1
171
     0
176
     1
290
     0
176
     1
 93
        1
176
     1
 44
0.0
176
     1
173
     0
176
     1
  0
VISUALSTYLE
  5
31
102
{ACAD_REACTORS
330
2A
102
}
330
2A
100
AcDbVisualStyle
  2
3D Hidden
 70
     6
177
     2
291
     0
 71
     1
176
     1
 72
     2
176
     1
 73
     2
176
     1
 90
        0
176
     1
 40
-0.6
176
     1
 41
-30.0
176
     1
 62
     5
 63
     7
421
 16777215
176
     1
 74
     2
176
     1
 91
        2
176
     1
 64
     7
176
     1
 65
   257
176
     1
 75
     2
176
     1
175
     1
176
     1
 42
40.0
176
     1
 92
        0
176
     1
 66
   257
176
     1
 43
1.0
176
     1
 76
     1
176
     1
 77
     6
176
     1
 78
     2
176
     1
 67
     7
176
     1
 79
     3
176
     1
170
     0
176
     1
171
     0
176
     1
290
     0
176
     1
 93
        1
176
     1
 44
0.0
176
     1
173
     0
176
     1
  0
VISUALSTYLE
  5
30
102
{ACAD_REACTORS
330
2A
102
}
330
2A
100
AcDbVisualStyle
  2
3dWireframe
 70
     5
177
     2
291
     0
 71
     0
176
     1
 72
     2
176
     1
 73
     0
176
     1
 90
        0
176
     1
 40
-0.6
176
     1
 41
-30.0
176
     1
 62
     5
 63
     7
421
 16777215
176
     1
 74
     1
176
     1
 91
        4
176
     1
 64
     7
176
     1
 65
   257
176
     1
 75
     1
176
     1
175
     1
176
     1
 42
1.0
176
     1
 92
        0
176
     1
 66
   257
176
     1
 43
1.0
176
     1
 76
     1
176
     1
 77
     6
176
     1
 78
     2
176
     1
 67
     7
176
     1
 79
     5
176
     1
170
     0
176
     1
171
     0
176
     1
290
     0
176
     1
 93
        1
176
     1
 44
0.0
176
     1
173
     0
176
     1
  0
VISUALSTYLE
  5
32
102
{ACAD_REACTORS
330
2A
102
}
330
2A
100
AcDbVisualStyle
  2
Basic
 70
     7
177
     2
291
     1
 71
     1
176
     1
 72
     0
176
     1
 73
     1
176
     1
 90
        0
176
     1
 40
-0.6
176
     1
 41
-30.0
176
     1
 62
     5
 63
     7
421
 16777215
176
     1
 74
     0
176
     1
 91
        4
176
     1
 64
     7
176
     1
 65
   257
176
     1
 75
     1
176
     1
175
     1
176
     1
 42
1.0
176
     1
 92
        8
176
     1
 66
     7
176
     1
 43
1.0
176
     1
 76
     1
176
     1
 77
     6
176
     1
 78
     2
176
     1
 67
     7
176
     1
 79
     5
176
     1
170
     0
176
     1
171
     0
176
     1
290
     0
176
     1
 93
        1
176
     1
 44
0.0
176
     1
173
     0
176
     1
  0
VISUALSTYLE
  5
36
102
{ACAD_REACTORS
330
2A
102
}
330
2A
100
AcDbVisualStyle
  2
Brighten
 70
    12
177
     2
291
     1
 71
     2
176
     1
 72
     2
176
     1
 73
     0
176
     1
 90
        0
176
     1
 40
-0.6
176
     1
 41
-30.0
176
     1
 62
     5
 63
     7
421
 16777215
176
     1
 74
     1
176
     1
 91
        4
176
     1
 64
     7
176
     1
 65
   257
176
     1
 75
     1
176
     1
175
     1
176
     1
 42
1.0
176
     1
 92
        8
176
     1
 66
     7
176
     1
 43
1.0
176
     1
 76
     1
176
     1
 77
     6
176
     1
 78
     2
176
     1
 67
     7
176
     1
 79
     5
176
     1
170
     0
176
     1
171
     0
176
     1
290
     0
176
     1
 93
        1
176
     1
 44
50.0
176
     1
173
     0
176
     1
  0
VISUALSTYLE
  5
3A
102
{ACAD_REACTORS
330
2A
102
}
330
2A
100
AcDbVisualStyle
  2
ColorChange
 70
    16
177
     2
291
     1
 71
     2
176
     1
 72
     2
176
     1
 73
     3
176
     1
 90
        0
176
     1
 40
-0.6
176
     1
 41
-30.0
176
     1
 62
     5
 63
     8
421
  8421504
176
     1
 74
     1
176
     1
 91
        4
176
     1
 64
     7
176
     1
 65
   257
176
     1
 75
     1
176
     1
175
     1
176
     1
 42
1.0
176
     1
 92
        8
176
     1
 66
     8
424
  8421504
176
     1
 43
1.0
176
     1
 76
     1
176
     1
 77
     6
176
     1
 78
     2
176
     1
 67
     7
176
     1
 79
     5
176
     1
170
     0
176
     1
171
     0
176
     1
290
     0
176
     1
 93
        1
176
     1
 44
0.0
176
     1
173
     0
176
     1
  0
VISUALSTYLE
  5
34
102
{ACAD_REACTORS
330
2A
102
}
330
2A
100
AcDbVisualStyle
  2
Conceptual
 70
     9
177
     2
291
     0
 71
     3
176
     1
 72
     2
176
     1
 73
     0
176
     1
 90
        0
176
     1
 40
-0.6
176
     1
 41
-30.0
176
     1
 62
     5
 63
     7
421
 16777215
176
     1
 74
     2
176
     1
 91
        2
176
     1
 64
     7
176
     1
 65
   257
176
     1
 75
     1
176
     1
175
     1
176
     1
 42
40.0
176
     1
 92
        8
176
     1
 66
     7
176
     1
 43
1.0
176
     1
 76
     1
176
     1
 77
     6
176
     1
 78
     2
176
     1
 67
     7
176
     1
 79
     3
176
     1
170
     0
176
     1
171
     0
176
     1
290
     0
176
     1
 93
        1
176
     1
 44
0.0
176
     1
173
     0
176
     1
  0
VISUALSTYLE
  5
35
102
{ACAD_REACTORS
330
2A
102
}
330
2A
100
AcDbVisualStyle
  2
Dim
 70
    11
177
     2
291
     1
 71
     2
176
     1
 72
     2
176
     1
 73
     0
176
     1
 90
        0
176
     1
 40
-0.6
176
     1
 41
-30.0
176
     1
 62
     5
 63
     7
421
 16777215
176
     1
 74
     1
176
     1
 91
        4
176
     1
 64
     7
176
     1
 65
   257
176
     1
 75
     1
176
     1
175
     1
176
     1
 42
1.0
176
     1
 92
        8
176
     1
 66
     7
176
     1
 43
1.0
176
     1
 76
     1
176
     1
 77
     6
176
     1
 78
     2
176
     1
 67
     7
176
     1
 79
     5
176
     1
170
     0
176
     1
171
     0
176
     1
290
     0
176
     1
 93
        1
176
     1
 44
-50.0
176
     1
173
     0
176
     1
  0
VISUALSTYLE
  5
39
102
{ACAD_REACTORS
330
2A
102
}
330
2A
100
AcDbVisualStyle
  2
Facepattern
 70
    15
177
     2
291
     1
 71
     2
176
     1
 72
     2
176
     1
 73
     0
176
     1
 90
        0
176
     1
 40
-0.6
176
     1
 41
-30.0
176
     1
 62
     5
 63
     7
421
 16777215
176
     1
 74
     1
176
     1
 91
        4
176
     1
 64
     7
176
     1
 65
   257
176
     1
 75
     1
176
     1
175
     1
176
     1
 42
1.0
176
     1
 92
        8
176
     1
 66
     7
176
     1
 43
1.0
176
     1
 76
     1
176
     1
 77
     6
176
     1
 78
     2
176
     1
 67
     7
176
     1
 79
     5
176
     1
170
     0
176
     1
171
     0
176
     1
290
     0
176
     1
 93
        1
176
     1
 44
0.0
176
     1
173
     0
176
     1
  0
VISUALSTYLE
  5
2B
102
{ACAD_REACTORS
330
2A
102
}
330
2A
100
AcDbVisualStyle
  2
Flat
 70
     0
177
     2
291
     1
 71
     2
176
     1
 72
     1
176
     1
 73
     1
176
     1
 90
        2
176
     1
 40
-0.6
176
     1
 41
30.0
176
     1
 62
     5
 63
     7
421
 16777215
176
     1
 74
     0
176
     1
 91
        4
176
     1
 64
     7
176
     1
 65
   257
176
     1
 75
     1
176
     1
175
     1
176
     1
 42
1.0
176
     1
 92
        8
176
     1
 66
     7
176
     1
 43
1.0
176
     1
 76
     1
176
     1
 77
     6
176
     1
 78
     2
176
     1
 67
     7
176
     1
 79
     5
176
     1
170
     0
176
     1
171
     0
176
     1
290
     0
176
     1
 93
       13
176
     1
 44
0.0
176
     1
173
     0
176
     1
  0
VISUALSTYLE
  5
2C
102
{ACAD_REACTORS
330
2A
102
}
330
2A
100
AcDbVisualStyle
  2
FlatWithEdges
 70
     1
177
     2
291
     1
 71
     2
176
     1
 72
     1
176
     1
 73
     1
176
     1
 90
        2
176
     1
 40
-0.6
176
     1
 41
30.0
176
     1
 62
     5
 63
     7
421
 16777215
176
     1
 74
     1
176
     1
 91
        4
176
     1
 64
     7
176
     1
 65
   257
176
     1
 75
     1
176
     1
175
     1
176
     1
 42
1.0
176
     1
 92
        0
176
     1
 66
   257
176
     1
 43
1.0
176
     1
 76
     1
176
     1
 77
     6
176
     1
 78
     2
176
     1
 67
     7
176
     1
 79
     5
176
     1
170
     0
176
     1
171
     0
176
     1
290
     0
176
     1
 93
       13
176
     1
 44
0.0
176
     1
173
     0
176
     1
  0
VISUALSTYLE
  5
2D
102
{ACAD_REACTORS
330
2A
102
}
330
2A
100
AcDbVisualStyle
  2
Gouraud
 70
     2
177
     2
291
     1
 71
     2
176
     1
 72
     2
176
     1
 73
     1
176
     1
 90
        2
176
     1
 40
-0.6
176
     1
 41
30.0
176
     1
 62
     5
 63
     7
421
 16777215
176
     1
 74
     0
176
     1
 91
        4
176
     1
 64
     7
176
     1
 65
   257
176
     1
 75
     1
176
     1
175
     1
176
     1
 42
1.0
176
     1
 92
        0
176
     1
 66
     7
176
     1
 43
1.0
176
     1
 76
     1
176
     1
 77
     6
176
     1
 78
     2
176
     1
 67
     7
176
     1
 79
     5
176
     1
170
     0
176
     1
171
     0
176
     1
290
     0
176
     1
 93
       13
176
     1
 44
0.0
176
     1
173
     0
176
     1
  0
VISUALSTYLE
  5
2E
102
{ACAD_REACTORS
330
2A
102
}
330
2A
100
AcDbVisualStyle
  2
GouraudWithEdges
 70
     3
177
     2
291
     1
 71
     2
176
     1
 72
     2
176
     1
 73
     1
176
     1
 90
        2
176
     1
 40
-0.6
176
     1
 41
30.0
176
     1
 62
     5
 63
     7
421
 16777215
176
     1
 74
     1
176
     1
 91
        4
176
     1
 64
     7
176
     1
 65
   257
176
     1
 75
     1
176
     1
175
     1
176
     1
 42
1.0
176
     1
 92
        0
176
     1
 66
   257
176
     1
 43
1.0
176
     1
 76
     1
176
     1
 77
     6
176
     1
 78
     2
176
     1
 67
     7
176
     1
 79
     5
176
     1
170
     0
176
     1
171
     0
176
     1
290
     0
176
     1
 93
       13
176
     1
 44
0.0
176
     1
173
     0
176
     1
  0
VISUALSTYLE
  5
38
102
{ACAD_REACTORS
330
2A
102
}
330
2A
100
AcDbVisualStyle
  2
Linepattern
 70
    14
177
     2
291
     1
 71
     2
176
     1
 72
     2
176
     1
 73
     0
176
     1
 90
        0
176
     1
 40
-0.6
176
     1
 41
-30.0
176
     1
 62
     5
 63
     7
421
 16777215
176
     1
 74
     1
176
     1
 91
        4
176
     1
 64
     7
176
     1
 65
   257
176
     1
 75
     7
176
     1
175
     7
176
     1
 42
1.0
176
     1
 92
        8
176
     1
 66
     7
176
     1
 43
1.0
176
     1
 76
     1
176
     1
 77
     6
176
     1
 78
     2
176
     1
 67
     7
176
     1
 79
     5
176
     1
170
     0
176
     1
171
     0
176
     1
290
     0
176
     1
 93
        1
176
     1
 44
0.0
176
     1
173
     0
176
     1
  0
VISUALSTYLE
  5
33
102
{ACAD_REACTORS
330
2A
102
}
330
2A
100
AcDbVisualStyle
  2
Realistic
 70
     8
177
     2
291
     0
 71
     2
176
     1
 72
     2
176
     1
 73
     0
176
     1
 90
        0
176
     1
 40
-0.6
176
     1
 41
-30.0
176
     1
 62
     5
 63
     7
421
 16777215
176
     1
 74
     1
176
     1
 91
        0
176
     1
 64
     7
176
     1
 65
   257
176
     1
 75
     1
176
     1
175
     1
176
     1
 42
1.0
176
     1
 92
        8
176
     1
 66
     8
424
  7895160
176
     1
 43
1.0
176
     1
 76
     1
176
     1
 77
     6
176
     1
 78
     2
176
     1
 67
     7
176
     1
 79
     5
176
     1
170
     0
176
     1
171
     0
176
     1
290
     0
176
     1
 93
       13
176
     1
 44
0.0
176
     1
173
     0
176
     1
  0
VISUALSTYLE
  5
37
102
{ACAD_REACTORS
330
2A
102
}
330
2A
100
AcDbVisualStyle
  2
Thicken
 70
    13
177
     2
291
     1
 71
     2
176
     1
 72
     2
176
     1
 73
     0
176
     1
 90
        0
176
     1
 40
-0.6
176
     1
 41
-30.0
176
     1
 62
     5
 63
     7
421
 16777215
176
     1
 74
     1
176
     1
 91
        4
176
     1
 64
     7
176
     1
 65
   257
176
     1
 75
     1
176
     1
175
     1
176
     1
 42
1.0
176
     1
 92
       12
176
     1
 66
     7
176
     1
 43
1.0
176
     1
 76
     1
176
     1
 77
     6
176
     1
 78
     2
176
     1
 67
     7
176
     1
 79
     5
176
     1
170
     0
176
     1
171
     0
176
     1
290
     0
176
     1
 93
        1
176
     1
 44
0.0
176
     1
173
     0
176
     1
  0
ENDSEC
  0
EOF
