  0
SECTION
  2
HEADER
  9
$ACADVER
  1
AC1024
  9
$ACADMAINTVER
 70
     6
  9
$DWGCODEPAGE
  3
UNDEFINED
  9
$INSBASE
 10
0.0
 20
0.0
 30
0.0
  9
$EXTMIN
 10
1.000000000000000E+20
 20
1.000000000000000E+20
 30
1.000000000000000E+20
  9
$EXTMAX
 10
-1.000000000000000E+20
 20
-1.000000000000000E+20
 30
-1.000000000000000E+20
  9
$LIMMIN
 10
0.0
 20
0.0
  9
$LIMMAX
 10
12.0
 20
9.0
  9
$ORTHOMODE
 70
     0
  9
$REGENMODE
 70
     1
  9
$FILLMODE
 70
     1
  9
$QTEXTMODE
 70
     0
  9
$MIRRTEXT
 70
     1
  9
$LTSCALE
 40
1.0
  9
$ATTMODE
 70
     1
  9
$TEXTSIZE
 40
0.2
  9
$TRACEWID
 40
0.05
  9
$TEXTSTYLE
  7
Standard
  9
$CLAYER
  8
0
  9
$CELTYPE
  6
ByLayer
  9
$CECOLOR
 62
   256
  9
$CELTSCALE
 40
1.0
  9
$DISPSILH
 70
     0
  9
$DIMSCALE
 40
1.0
  9
$DIMASZ
 40
0.18
  9
$DIMEXO
 40
0.0625
  9
$DIMDLI
 40
0.38
  9
$DIMRND
 40
0.0
  9
$DIMDLE
 40
0.0
  9
$DIMEXE
 40
0.18
  9
$DIMTP
 40
0.0
  9
$DIMTM
 40
0.0
  9
$DIMTXT
 40
0.18
  9
$DIMCEN
 40
0.09
  9
$DIMTSZ
 40
0.0
  9
$DIMTOL
 70
     0
  9
$DIMLIM
 70
     0
  9
$DIMTIH
 70
     1
  9
$DIMTOH
 70
     1
  9
$DIMSE1
 70
     0
  9
$DIMSE2
 70
     0
  9
$DIMTAD
 70
     0
  9
$DIMZIN
 70
     0
  9
$DIMBLK
  1

  9
$DIMASO
 70
     1
  9
$DIMSHO
 70
     1
  9
$DIMPOST
  1

  9
$DIMAPOST
  1

  9
$DIMALT
 70
     0
  9
$DIMALTD
 70
     2
  9
$DIMALTF
 40
25.4
  9
$DIMLFAC
 40
1.0
  9
$DIMTOFL
 70
     0
  9
$DIMTVP
 40
0.0
  9
$DIMTIX
 70
     0
  9
$DIMSOXD
 70
     0
  9
$DIMSAH
 70
     0
  9
$DIMBLK1
  1

  9
$DIMBLK2
  1

  9
$DIMSTYLE
  2
Standard
  9
$DIMCLRD
 70
     0
  9
$DIMCLRE
 70
     0
  9
$DIMCLRT
 70
     0
  9
$DIMTFAC
 40
1.0
  9
$DIMGAP
 40
0.09
  9
$DIMJUST
 70
     0
  9
$DIMSD1
 70
     0
  9
$DIMSD2
 70
     0
  9
$DIMTOLJ
 70
     1
  9
$DIMTZIN
 70
     0
  9
$DIMALTZ
 70
     0
  9
$DIMALTTZ
 70
     0
  9
$DIMUPT
 70
     0
  9
$DIMDEC
 70
     4
  9
$DIMTDEC
 70
     4
  9
$DIMALTU
 70
     2
  9
$DIMALTTD
 70
     2
  9
$DIMTXSTY
  7
Standard
  9
$DIMAUNIT
 70
     0
  9
$DIMADEC
 70
     0
  9
$DIMALTRND
 40
0.0
  9
$DIMAZIN
 70
     0
  9
$DIMDSEP
 70
    46
  9
$DIMATFIT
 70
     3
  9
$DIMFRAC
 70
     0
  9
$DIMLDRBLK
  1

  9
$DIMLUNIT
 70
     2
  9
$DIMLWD
 70
    -2
  9
$DIMLWE
 70
    -2
  9
$DIMTMOVE
 70
     0
  9
$DIMFXL
 40
1.0
  9
$DIMFXLON
 70
     0
  9
$DIMJOGANG
 40
0.7853981633974483
  9
$DIMTFILL
 70
     0
  9
$DIMTFILLCLR
 70
     0
  9
$DIMARCSYM
 70
     0
  9
$DIMLTYPE
  6

  9
$DIMLTEX1
  6

  9
$DIMLTEX2
  6

  9
$DIMTXTDIRECTION
 70
     0
  9
$LUNITS
 70
     2
  9
$LUPREC
 70
     4
  9
$SKETCHINC
 40
0.1
  9
$FILLETRAD
 40
0.5
  9
$AUNITS
 70
     0
  9
$AUPREC
 70
     0
  9
$MENU
  1
.
  9
$ELEVATION
 40
0.0
  9
$PELEVATION
 40
0.0
  9
$THICKNESS
 40
0.0
  9
$LIMCHECK
 70
     0
  9
$CHAMFERA
 40
0.5
  9
$CHAMFERB
 40
0.5
  9
$CHAMFERC
 40
1.0
  9
$CHAMFERD
 40
0.0
  9
$SKPOLY
 70
     0
  9
$TDCREATE
 40
2457917.622395833
  9
$TDUCREATE
 40
2457917.247395833
  9
$TDUPDATE
 40
2457917.622395833
  9
$TDUUPDATE
 40
2457917.247395833
  9
$TDINDWG
 40
0.0000000116
  9
$TDUSRTIMER
 40
0.0000000116
  9
$USRTIMER
 70
     1
  9
$ANGBASE
 50
0.0
  9
$ANGDIR
 70
     0
  9
$PDMODE
 70
     0
  9
$PDSIZE
 40
0.0
  9
$PLINEWID
 40
0.0
  9
$SPLFRAME
 70
     0
  9
$SPLINETYPE
 70
     6
  9
$SPLINESEGS
 70
     8
  9
$HANDSEED
  5
C4
  9
$SURFTAB1
 70
     6
  9
$SURFTAB2
 70
     6
  9
$SURFTYPE
 70
     6
  9
$SURFU
 70
     6
  9
$SURFV
 70
     6
  9
$UCSBASE
  2

  9
$UCSNAME
  2

  9
$UCSORG
 10
0.0
 20
0.0
 30
0.0
  9
$UCSXDIR
 10
1.0
 20
0.0
 30
0.0
  9
$UCSYDIR
 10
0.0
 20
1.0
 30
0.0
  9
$UCSORTHOREF
  2

  9
$UCSORTHOVIEW
 70
     0
  9
$UCSORGTOP
 10
0.0
 20
0.0
 30
0.0
  9
$UCSORGBOTTOM
 10
0.0
 20
0.0
 30
0.0
  9
$UCSORGLEFT
 10
0.0
 20
0.0
 30
0.0
  9
$UCSORGRIGHT
 10
0.0
 20
0.0
 30
0.0
  9
$UCSORGFRONT
 10
0.0
 20
0.0
 30
0.0
  9
$UCSORGBACK
 10
0.0
 20
0.0
 30
0.0
  9
$PUCSBASE
  2

  9
$PUCSNAME
  2

  9
$PUCSORG
 10
0.0
 20
0.0
 30
0.0
  9
$PUCSXDIR
 10
1.0
 20
0.0
 30
0.0
  9
$PUCSYDIR
 10
0.0
 20
1.0
 30
0.0
  9
$PUCSORTHOREF
  2

  9
$PUCSORTHOVIEW
 70
     0
  9
$PUCSORGTOP
 10
0.0
 20
0.0
 30
0.0
  9
$PUCSORGBOTTOM
 10
0.0
 20
0.0
 30
0.0
  9
$PUCSORGLEFT
 10
0.0
 20
0.0
 30
0.0
  9
$PUCSORGRIGHT
 10
0.0
 20
0.0
 30
0.0
  9
$PUCSORGFRONT
 10
0.0
 20
0.0
 30
0.0
  9
$PUCSORGBACK
 10
0.0
 20
0.0
 30
0.0
  9
$USERI1
 70
     0
  9
$USERI2
 70
     0
  9
$USERI3
 70
     0
  9
$USERI4
 70
     0
  9
$USERI5
 70
     0
  9
$USERR1
 40
0.0
  9
$USERR2
 40
0.0
  9
$USERR3
 40
0.0
  9
$USERR4
 40
0.0
  9
$USERR5
 40
0.0
  9
$WORLDVIEW
 70
     1
  9
$SHADEDGE
 70
     3
  9
$SHADEDIF
 70
    70
  9
$TILEMODE
 70
     1
  9
$MAXACTVP
 70
    64
  9
$PINSBASE
 10
0.0
 20
0.0
 30
0.0
  9
$PLIMCHECK
 70
     0
  9
$PEXTMIN
 10
1.000000000000000E+20
 20
1.000000000000000E+20
 30
1.000000000000000E+20
  9
$PEXTMAX
 10
-1.000000000000000E+20
 20
-1.000000000000000E+20
 30
-1.000000000000000E+20
  9
$PLIMMIN
 10
0.0
 20
0.0
  9
$PLIMMAX
 10
12.0
 20
9.0
  9
$UNITMODE
 70
     0
  9
$VISRETAIN
 70
     1
  9
$PLINEGEN
 70
     0
  9
$PSLTSCALE
 70
     1
  9
$TREEDEPTH
 70
  3020
  9
$CMLSTYLE
  2
Standard
  9
$CMLJUST
 70
     0
  9
$CMLSCALE
 40
1.0
  9
$PROXYGRAPHICS
 70
     1
  9
$MEASUREMENT
 70
     0
  9
$CELWEIGHT
370
    -1
  9
$ENDCAPS
280
     0
  9
$JOINSTYLE
280
     0
  9
$LWDISPLAY
290
     1
  9
$INSUNITS
 70
     1
  9
$HYPERLINKBASE
  1

  9
$STYLESHEET
  1

  9
$XEDIT
290
     1
  9
$CEPSNTYPE
380
     0
  9
$PSTYLEMODE
290
     1
  9
$FINGERPRINTGUID
  2
{BE2CE309-2B6C-6BA4-8704-C3EA77173A7B}
  9
$VERSIONGUID
  2
{FAEB1C32-E019-11D5-929B-00C0DF256EC4}
  9
$EXTNAMES
290
     1
  9
$PSVPSCALE
 40
0.0
  9
$OLESTARTUP
290
     0
  9
$SORTENTS
280
   127
  9
$INDEXCTL
280
     0
  9
$HIDETEXT
280
     1
  9
$XCLIPFRAME
280
     2
  9
$HALOGAP
280
     0
  9
$OBSCOLOR
 70
   257
  9
$OBSLTYPE
280
     0
  9
$INTERSECTIONDISPLAY
280
     0
  9
$INTERSECTIONCOLOR
 70
   257
  9
$DIMASSOC
280
     2
  9
$PROJECTNAME
  1

  9
$CAMERADISPLAY
290
     0
  9
$LENSLENGTH
 40
50.0
  9
$CAMERAHEIGHT
 40
0.0
  9
$STEPSPERSEC
 40
2.0
  9
$STEPSIZE
 40
6.0
  9
$3DDWFPREC
 40
2.0
  9
$PSOLWIDTH
 40
0.25
  9
$PSOLHEIGHT
 40
4.0
  9
$LOFTANG1
 40
1.570796326794897
  9
$LOFTANG2
 40
1.570796326794897
  9
$LOFTMAG1
 40
0.0
  9
$LOFTMAG2
 40
0.0
  9
$LOFTPARAM
 70
     7
  9
$LOFTNORMALS
280
     1
  9
$LATITUDE
 40
37.795
  9
$LONGITUDE
 40
-122.394
  9
$NORTHDIRECTION
 40
0.0
  9
$TIMEZONE
 70
 -8000
  9
$LIGHTGLYPHDISPLAY
280
     1
  9
$TILEMODELIGHTSYNCH
280
     1
  9
$CMATERIAL
347
3C
  9
$SOLIDHIST
280
     1
  9
$SHOWHIST
280
     1
  9
$DWFFRAME
280
     2
  9
$DGNFRAME
280
     2
  9
$REALWORLDSCALE
290
     1
  9
$INTERFERECOLOR
 62
   256
  9
$CSHADOW
280
     0
  9
$SHADOWPLANELOCATION
 40
0.0
  0
ENDSEC
  0
SECTION
  2
CLASSES
  0
CLASS
  1
ACDBDICTIONARYWDFLT
  2
AcDbDictionaryWithDefault
  3
ObjectDBX Classes
 90
        0
 91
        4
280
     0
281
     0
  0
CLASS
  1
VISUALSTYLE
  2
AcDbVisualStyle
  3
ObjectDBX Classes
 90
     4095
 91
        4
280
     0
281
     0
  0
CLASS
  1
MATERIAL
  2
AcDbMaterial
  3
ObjectDBX Classes
 90
     1153
 91
        4
280
     0
281
     0
  0
CLASS
  1
SUN
  2
AcDbSun
  3
SCENEOE
 90
     1024
 91
        4
280
     0
281
     0
  0
ENDSEC
  0
SECTION
  2
TABLES
  0
TABLE
  2
VPORT
  5
8
330
0
100
AcDbSymbolTable
 70
     1
  0
VPORT
  5
29
330
8
100
AcDbSymbolTableRecord
100
AcDbViewportTableRecord
  2
*Active
 70
     0
 10
0.0
 20
0.0
 11
1.0
 21
1.0
 12
0.0
 22
0.0
 13
0.0
 23
0.0
 14
0.5
 24
0.5
 15
0.5
 25
0.5
 16
0.0
 26
0.0
 36
1.0
 17
91.00082462281999
 27
-128.4993055234307
 37
0.0
 40
256.9986110468615
 41
0.7081814508812795
 42
50.0
 43
0.0
 44
0.0
 50
0.0
 51
0.0
 71
     0
 72
   100
 73
     1
 74
     3
 75
     0
 76
     0
 77
     0
 78
     0
281
     0
 65
     1
110
0.0
120
0.0
130
0.0
111
1.0
121
0.0
131
0.0
112
0.0
122
1.0
132
0.0
 79
     0
146
0.0
 60
     3
 61
     5
292
     1
282
     1
141
0.0
142
0.0
 63
   250
361
3F
  0
ENDTAB
  0
TABLE
  2
LTYPE
  5
5
330
0
100
AcDbSymbolTable
 70
     1
  0
LTYPE
  5
14
330
5
100
AcDbSymbolTableRecord
100
AcDbLinetypeTableRecord
  2
ByBlock
 70
     0
  3

 72
    65
 73
     0
 40
0.0
  0
LTYPE
  5
15
330
5
100
AcDbSymbolTableRecord
100
AcDbLinetypeTableRecord
  2
ByLayer
 70
     0
  3

 72
    65
 73
     0
 40
0.0
  0
LTYPE
  5
16
330
5
100
AcDbSymbolTableRecord
100
AcDbLinetypeTableRecord
  2
Continuous
 70
     0
  3
Solid line
 72
    65
 73
     0
 40
0.0
  0
ENDTAB
  0
TABLE
  2
LAYER
  5
2
330
0
100
AcDbSymbolTable
 70
     2
  0
LAYER
  5
10
330
2
100
AcDbSymbolTableRecord
100
AcDbLayerTableRecord
  2
0
 70
     0
 62
     7
  6
Continuous
370
    -3
390
F
347
3E
  0
LAYER
  5
40
330
2
100
AcDbSymbolTableRecord
100
AcDbLayerTableRecord
  2
_U+30EC_U+30A4_U+30E4_U+30FC 1
 70
     0
 62
     7
  6
Continuous
370
    -3
390
F
347
3E
  0
ENDTAB
  0
TABLE
  2
STYLE
  5
3
330
0
100
AcDbSymbolTable
 70
     1
  0
STYLE
  5
11
330
3
100
AcDbSymbolTableRecord
100
AcDbTextStyleTableRecord
  2
Standard
 70
     0
 40
0.0
 41
1.0
 50
0.0
 71
     0
 42
0.2
  3
txt
  4

  0
ENDTAB
  0
TABLE
  2
VIEW
  5
6
330
0
100
AcDbSymbolTable
 70
     0
  0
ENDTAB
  0
TABLE
  2
UCS
  5
7
330
0
100
AcDbSymbolTable
 70
     0
  0
ENDTAB
  0
TABLE
  2
APPID
  5
9
330
0
100
AcDbSymbolTable
 70
     1
  0
APPID
  5
12
330
9
100
AcDbSymbolTableRecord
100
AcDbRegAppTableRecord
  2
ACAD
 70
     0
  0
ENDTAB
  0
TABLE
  2
DIMSTYLE
  5
A
330
0
100
AcDbSymbolTable
 70
     1
100
AcDbDimStyleTable
  0
DIMSTYLE
105
27
330
A
100
AcDbSymbolTableRecord
100
AcDbDimStyleTableRecord
  2
Standard
 70
     0
178
     0
340
11
  0
ENDTAB
  0
TABLE
  2
BLOCK_RECORD
  5
1
330
0
100
AcDbSymbolTable
 70
     6
  0
BLOCK_RECORD
  5
1F
330
1
100
AcDbSymbolTableRecord
100
AcDbBlockTableRecord
  2
*Model_Space
340
22
 70
     0
280
     1
281
     0
  0
BLOCK_RECORD
  5
1B
330
1
100
AcDbSymbolTableRecord
100
AcDbBlockTableRecord
  2
*Paper_Space
340
1E
 70
     0
280
     1
281
     0
  0
BLOCK_RECORD
  5
23
330
1
100
AcDbSymbolTableRecord
100
AcDbBlockTableRecord
  2
*Paper_Space0
340
26
 70
     0
280
     1
281
     0
  0
BLOCK_RECORD
  5
5A
330
1
100
AcDbSymbolTableRecord
100
AcDbBlockTableRecord
  2
block 2
340
0
102
{BLKREFS
331
5B
102
}
 70
     0
280
     1
281
     0
  0
BLOCK_RECORD
  5
76
330
1
100
AcDbSymbolTableRecord
100
AcDbBlockTableRecord
  2
block 3
340
0
102
{BLKREFS
331
77
102
}
 70
     0
280
     1
281
     0
  0
BLOCK_RECORD
  5
9B
330
1
100
AcDbSymbolTableRecord
100
AcDbBlockTableRecord
  2
block 4
340
0
102
{BLKREFS
331
9C
102
}
 70
     0
280
     1
281
     0
  0
BLOCK_RECORD
  5
A4
330
1
100
AcDbSymbolTableRecord
100
AcDbBlockTableRecord
  2
block 5
340
0
102
{BLKREFS
331
A5
102
}
 70
     0
280
     1
281
     0
  0
BLOCK_RECORD
  5
B9
330
1
100
AcDbSymbolTableRecord
100
AcDbBlockTableRecord
  2
block 6
340
0
102
{BLKREFS
331
BA
102
}
 70
     0
280
     1
281
     0
  0
ENDTAB
  0
ENDSEC
  0
SECTION
  2
BLOCKS
  0
BLOCK
  5
20
330
1F
100
AcDbEntity
  8
0
100
AcDbBlockBegin
  2
*Model_Space
 70
     0
 10
0.0
 20
0.0
 30
0.0
  3
*Model_Space
  1

  0
ENDBLK
  5
21
330
1F
100
AcDbEntity
  8
0
100
AcDbBlockEnd
  0
BLOCK
  5
1C
330
1B
100
AcDbEntity
 67
     1
  8
0
100
AcDbBlockBegin
  2
*Paper_Space
 70
     0
 10
0.0
 20
0.0
 30
0.0
  3
*Paper_Space
  1

  0
ENDBLK
  5
1D
330
1B
100
AcDbEntity
 67
     1
  8
0
100
AcDbBlockEnd
  0
BLOCK
  5
24
330
23
100
AcDbEntity
  8
0
100
AcDbBlockBegin
  2
*Paper_Space0
 70
     0
 10
0.0
 20
0.0
 30
0.0
  3
*Paper_Space0
  1

  0
ENDBLK
  5
25
330
23
100
AcDbEntity
  8
0
100
AcDbBlockEnd
  0
BLOCK
  5
5C
330
5A
100
AcDbEntity
  8
0
100
AcDbBlockBegin
  2
block 2
 70
     0
 10
0.0
 20
0.0
 30
0.0
  3
block 2
  1

  0
SPLINE
  5
5E
330
5A
100
AcDbEntity
  8
_U+30EC_U+30A4_U+30E4_U+30FC 1
370
     0
100
AcDbSpline
210
0.0
220
0.0
230
1.0
 70
    11
 71
     3
 72
    26
 73
    22
 74
     0
 42
0.0000000001
 43
0.0000000001
 12
1.0
 22
0.0
 32
0.0
 13
1.0
 23
0.0
 33
0.0
 40
0.0
 40
0.0
 40
0.0
 40
0.0
 40
1.0
 40
1.0
 40
1.0
 40
2.0
 40
2.0
 40
2.0
 40
3.0
 40
3.0
 40
3.0
 40
4.0
 40
4.0
 40
4.0
 40
5.0
 40
5.0
 40
5.0
 40
6.0
 40
6.0
 40
6.0
 40
7.0
 40
7.0
 40
7.0
 40
7.0
 10
69.04229734602067
 20
-144.4177137225761
 30
0.0
 10
69.04229734602067
 20
-144.4177137225761
 30
0.0
 10
69.04229734602067
 20
-143.3135606195536
 30
0.0
 10
69.04229734602067
 20
-143.3135606195536
 30
0.0
 10
69.04229734602067
 20
-143.3135606195536
 30
0.0
 10
68.71225719853375
 20
-143.3135606195536
 30
0.0
 10
68.71225719853375
 20
-143.3135606195536
 30
0.0
 10
68.71225719853375
 20
-143.3135606195536
 30
0.0
 10
68.71225719853375
 20
-143.1654215136878
 30
0.0
 10
68.71225719853375
 20
-143.1654215136878
 30
0.0
 10
69.04436440331183
 20
-143.1506076031012
 30
0.0
 10
69.09087319236271
 20
-142.9876545866489
 30
0.0
 10
69.12050101353584
 20
-142.8732774165386
 30
0.0
 10
69.12050101353584
 20
-142.8732774165386
 30
0.0
 10
69.26657306211044
 20
-142.8732774165386
 30
0.0
 10
69.26657306211044
 20
-142.8732774165386
 30
0.0
 10
69.26657306211044
 20
-142.8732774165386
 30
0.0
 10
69.26657306211044
 20
-144.4177137225761
 30
0.0
 10
69.26657306211044
 20
-144.4177137225761
 30
0.0
 10
69.26657306211044
 20
-144.4177137225761
 30
0.0
 10
69.04229734602067
 20
-144.4177137225761
 30
0.0
 10
69.04229734602067
 20
-144.4177137225761
 30
0.0
  0
HATCH
  5
5F
330
5A
100
AcDbEntity
  8
_U+30EC_U+30A4_U+30E4_U+30FC 1
 62
     7
420
 16777215
100
AcDbHatch
 10
0.0
 20
0.0
 30
0.0
210
0.0
220
0.0
230
1.0
  2
SOLID
 70
     1
 71
     0
 91
        1
 92
        1
 93
        1
 72
     4
 94
        3
 73
     0
 74
     1
 95
       26
 96
       22
 40
0.0
 40
0.0
 40
0.0
 40
0.0
 40
1.0
 40
1.0
 40
1.0
 40
2.0
 40
2.0
 40
2.0
 40
3.0
 40
3.0
 40
3.0
 40
4.0
 40
4.0
 40
4.0
 40
5.0
 40
5.0
 40
5.0
 40
6.0
 40
6.0
 40
6.0
 40
7.0
 40
7.0
 40
7.0
 40
7.0
 10
69.04229734602067
 20
-144.4177137225761
 10
69.04229734602067
 20
-144.4177137225761
 10
69.04229734602067
 20
-143.3135606195536
 10
69.04229734602067
 20
-143.3135606195536
 10
69.04229734602067
 20
-143.3135606195536
 10
68.71225719853375
 20
-143.3135606195536
 10
68.71225719853375
 20
-143.3135606195536
 10
68.71225719853375
 20
-143.3135606195536
 10
68.71225719853375
 20
-143.1654215136878
 10
68.71225719853375
 20
-143.1654215136878
 10
69.04436440331183
 20
-143.1506076031012
 10
69.09087319236271
 20
-142.9876545866489
 10
69.12050101353584
 20
-142.8732774165386
 10
69.12050101353584
 20
-142.8732774165386
 10
69.26657306211044
 20
-142.8732774165386
 10
69.26657306211044
 20
-142.8732774165386
 10
69.26657306211044
 20
-142.8732774165386
 10
69.26657306211044
 20
-144.4177137225761
 10
69.26657306211044
 20
-144.4177137225761
 10
69.26657306211044
 20
-144.4177137225761
 10
69.04229734602067
 20
-144.4177137225761
 10
69.04229734602067
 20
-144.4177137225761
 97
        0
 97
        0
 75
     2
 76
     1
 98
        0
  0
SPLINE
  5
60
330
5A
100
AcDbEntity
  8
_U+30EC_U+30A4_U+30E4_U+30FC 1
370
     0
100
AcDbSpline
210
0.0
220
0.0
230
1.0
 70
    11
 71
     3
 72
    29
 73
    25
 74
     0
 42
0.0000000001
 43
0.0000000001
 12
1.0
 22
0.0
 32
0.0
 13
1.0
 23
0.0
 33
0.0
 40
0.0
 40
0.0
 40
0.0
 40
0.0
 40
1.0
 40
1.0
 40
1.0
 40
2.0
 40
2.0
 40
2.0
 40
3.0
 40
3.0
 40
3.0
 40
4.0
 40
4.0
 40
4.0
 40
5.0
 40
5.0
 40
5.0
 40
6.0
 40
6.0
 40
6.0
 40
7.0
 40
7.0
 40
7.0
 40
8.0
 40
8.0
 40
8.0
 40
8.0
 10
70.66545408389614
 20
-144.2399467955372
 30
0.0
 10
70.55762259520782
 20
-144.4494086010404
 30
0.0
 10
70.38416203752548
 20
-144.4683566262093
 30
0.0
 10
70.26771781012404
 20
-144.4683566262093
 30
0.0
 10
70.10700410573715
 20
-144.4683566262093
 30
0.0
 10
69.96523842651911
 20
-144.4218478371584
 30
0.0
 10
69.86998153635196
 20
-144.2399467955372
 30
0.0
 10
69.7664564170202
 20
-144.0452989006206
 30
0.0
 10
69.74733613707706
 20
-143.8082763312354
 30
0.0
 10
69.74733613707706
 20
-143.6456678243316
 30
0.0
 10
69.74733613707706
 20
-143.5016628330482
 30
0.0
 10
69.76421710495478
 20
-143.2498263530764
 30
0.0
 10
69.86998153635196
 20
-143.0510443435775
 30
0.0
 10
69.97798527981453
 20
-142.8481282194963
 30
0.0
 10
70.13869898420144
 20
-142.8247015701966
 30
0.0
 10
70.26771781012404
 20
-142.8247015701966
 30
0.0
 10
70.4263644572198
 20
-142.8247015701966
 30
0.0
 10
70.57019719372899
 20
-142.8691433019563
 30
0.0
 10
70.66545408389614
 20
-143.0510443435775
 30
0.0
 10
70.7648450886456
 20
-143.243625181203
 30
0.0
 10
70.78809948317104
 20
-143.4720350118751
 30
0.0
 10
70.78809948317104
 20
-143.6456678243316
 30
0.0
 10
70.78809948317104
 20
-143.8168890699486
 30
0.0
 10
70.76708440071101
 20
-144.0473659579118
 30
0.0
 10
70.66545408389614
 20
-144.2399467955372
 30
0.0
  0
SPLINE
  5
61
330
5A
100
AcDbEntity
  8
_U+30EC_U+30A4_U+30E4_U+30FC 1
370
     0
100
AcDbSpline
210
0.0
220
0.0
230
1.0
 70
    11
 71
     3
 72
    17
 73
    13
 74
     0
 42
0.0000000001
 43
0.0000000001
 12
1.0
 22
0.0
 32
0.0
 13
1.0
 23
0.0
 33
0.0
 40
0.0
 40
0.0
 40
0.0
 40
0.0
 40
1.0
 40
1.0
 40
1.0
 40
2.0
 40
2.0
 40
2.0
 40
3.0
 40
3.0
 40
3.0
 40
4.0
 40
4.0
 40
4.0
 40
4.0
 10
70.26771781012404
 20
-143.0172824078221
 30
0.0
 10
70.0181206422177
 20
-143.0172824078221
 30
0.0
 10
69.97161185316682
 20
-143.3008137662581
 30
0.0
 10
69.97161185316682
 20
-143.6456678243316
 30
0.0
 10
69.97161185316682
 20
-143.9650281758143
 30
0.0
 10
70.00761310098768
 20
-144.2737087312927
 30
0.0
 10
70.26771781012404
 20
-144.2737087312927
 30
0.0
 10
70.51524792073924
 20
-144.2737087312927
 30
0.0
 10
70.56399602185553
 20
-143.9925889396963
 30
0.0
 10
70.56399602185553
 20
-143.6456678243316
 30
0.0
 10
70.56399602185553
 20
-143.3259629633005
 30
0.0
 10
70.52592771674352
 20
-143.0172824078221
 30
0.0
 10
70.26771781012404
 20
-143.0172824078221
 30
0.0
  0
HATCH
  5
62
330
5A
100
AcDbEntity
  8
_U+30EC_U+30A4_U+30E4_U+30FC 1
 62
     7
420
 16777215
100
AcDbHatch
 10
0.0
 20
0.0
 30
0.0
210
0.0
220
0.0
230
1.0
  2
SOLID
 70
     1
 71
     0
 91
        2
 92
        1
 93
        1
 72
     4
 94
        3
 73
     0
 74
     1
 95
       29
 96
       25
 40
0.0
 40
0.0
 40
0.0
 40
0.0
 40
1.0
 40
1.0
 40
1.0
 40
2.0
 40
2.0
 40
2.0
 40
3.0
 40
3.0
 40
3.0
 40
4.0
 40
4.0
 40
4.0
 40
5.0
 40
5.0
 40
5.0
 40
6.0
 40
6.0
 40
6.0
 40
7.0
 40
7.0
 40
7.0
 40
8.0
 40
8.0
 40
8.0
 40
8.0
 10
70.66545408389614
 20
-144.2399467955372
 10
70.55762259520782
 20
-144.4494086010404
 10
70.38416203752548
 20
-144.4683566262093
 10
70.26771781012404
 20
-144.4683566262093
 10
70.10700410573715
 20
-144.4683566262093
 10
69.96523842651911
 20
-144.4218478371584
 10
69.86998153635196
 20
-144.2399467955372
 10
69.7664564170202
 20
-144.0452989006206
 10
69.74733613707706
 20
-143.8082763312354
 10
69.74733613707706
 20
-143.6456678243316
 10
69.74733613707706
 20
-143.5016628330482
 10
69.76421710495478
 20
-143.2498263530764
 10
69.86998153635196
 20
-143.0510443435775
 10
69.97798527981453
 20
-142.8481282194963
 10
70.13869898420144
 20
-142.8247015701966
 10
70.26771781012404
 20
-142.8247015701966
 10
70.4263644572198
 20
-142.8247015701966
 10
70.57019719372899
 20
-142.8691433019563
 10
70.66545408389614
 20
-143.0510443435775
 10
70.7648450886456
 20
-143.243625181203
 10
70.78809948317104
 20
-143.4720350118751
 10
70.78809948317104
 20
-143.6456678243316
 10
70.78809948317104
 20
-143.8168890699486
 10
70.76708440071101
 20
-144.0473659579118
 10
70.66545408389614
 20
-144.2399467955372
 97
        0
 97
        0
 92
        1
 93
        1
 72
     4
 94
        3
 73
     0
 74
     1
 95
       17
 96
       13
 40
0.0
 40
0.0
 40
0.0
 40
0.0
 40
1.0
 40
1.0
 40
1.0
 40
2.0
 40
2.0
 40
2.0
 40
3.0
 40
3.0
 40
3.0
 40
4.0
 40
4.0
 40
4.0
 40
4.0
 10
70.26771781012404
 20
-143.0172824078221
 10
70.0181206422177
 20
-143.0172824078221
 10
69.97161185316682
 20
-143.3008137662581
 10
69.97161185316682
 20
-143.6456678243316
 10
69.97161185316682
 20
-143.9650281758143
 10
70.00761310098768
 20
-144.2737087312927
 10
70.26771781012404
 20
-144.2737087312927
 10
70.51524792073924
 20
-144.2737087312927
 10
70.56399602185553
 20
-143.9925889396963
 10
70.56399602185553
 20
-143.6456678243316
 10
70.56399602185553
 20
-143.3259629633005
 10
70.52592771674352
 20
-143.0172824078221
 10
70.26771781012404
 20
-143.0172824078221
 97
        0
 97
        0
 75
     2
 76
     1
 98
        0
  0
SPLINE
  5
63
330
5A
100
AcDbEntity
  8
_U+30EC_U+30A4_U+30E4_U+30FC 1
370
     0
100
AcDbSpline
210
0.0
220
0.0
230
1.0
 70
    11
 71
     3
 72
    44
 73
    40
 74
     0
 42
0.0000000001
 43
0.0000000001
 12
1.0
 22
0.0
 32
0.0
 13
1.0
 23
0.0
 33
0.0
 40
0.0
 40
0.0
 40
0.0
 40
0.0
 40
1.0
 40
1.0
 40
1.0
 40
2.0
 40
2.0
 40
2.0
 40
3.0
 40
3.0
 40
3.0
 40
4.0
 40
4.0
 40
4.0
 40
5.0
 40
5.0
 40
5.0
 40
6.0
 40
6.0
 40
6.0
 40
7.0
 40
7.0
 40
7.0
 40
8.0
 40
8.0
 40
8.0
 40
9.0
 40
9.0
 40
9.0
 40
10.0
 40
10.0
 40
10.0
 40
11.0
 40
11.0
 40
11.0
 40
12.0
 40
12.0
 40
12.0
 40
13.0
 40
13.0
 40
13.0
 40
13.0
 10
71.95874292905893
 20
-144.4177137225761
 30
0.0
 10
71.93531627975923
 20
-144.3732719908164
 30
0.0
 10
71.91430119729921
 20
-144.3205620298921
 30
0.0
 10
71.9120618852338
 20
-144.0897406323803
 30
0.0
 10
71.9079277706515
 20
-143.8465168911217
 30
0.0
 10
71.8486721283052
 20
-143.7765814527711
 30
0.0
 10
71.67090520126631
 20
-143.7765814527711
 30
0.0
 10
71.67090520126631
 20
-143.7765814527711
 30
0.0
 10
71.2626613862642
 20
-143.7765814527711
 30
0.0
 10
71.2626613862642
 20
-143.7765814527711
 30
0.0
 10
71.2626613862642
 20
-143.7765814527711
 30
0.0
 10
71.2626613862642
 20
-144.4177137225761
 30
0.0
 10
71.2626613862642
 20
-144.4177137225761
 30
0.0
 10
71.2626613862642
 20
-144.4177137225761
 30
0.0
 10
71.02787812894442
 20
-144.4177137225761
 30
0.0
 10
71.02787812894442
 20
-144.4177137225761
 30
0.0
 10
71.02787812894442
 20
-144.4177137225761
 30
0.0
 10
71.02787812894442
 20
-142.8732774165386
 30
0.0
 10
71.02787812894442
 20
-142.8732774165386
 30
0.0
 10
71.02787812894442
 20
-142.8732774165386
 30
0.0
 10
71.70277233450487
 20
-142.8732774165386
 30
0.0
 10
71.70277233450487
 20
-142.8732774165386
 30
0.0
 10
72.0093858326921
 20
-142.8732774165386
 30
0.0
 10
72.17647296372672
 20
-143.0448431717041
 30
0.0
 10
72.17647296372672
 20
-143.3008137662581
 30
0.0
 10
72.17647296372672
 20
-143.3514566698913
 30
0.0
 10
72.16803247978785
 20
-143.4341389615373
 30
0.0
 10
72.12359074802814
 20
-143.5144096863436
 30
0.0
 10
72.0645073604561
 20
-143.6181070604497
 30
0.0
 10
71.99887829146209
 20
-143.6370550856185
 30
0.0
 10
71.93755559182465
 20
-143.6539360534962
 30
0.0
 10
72.07501490168612
 20
-143.6963107279648
 30
0.0
 10
72.14271102797127
 20
-143.7448865743068
 30
0.0
 10
72.14701739732783
 20
-144.0601128112072
 30
0.0
 10
72.15115151191013
 20
-144.3308973163478
 30
0.0
 10
72.18715275973099
 20
-144.3625921948121
 30
0.0
 10
72.25484888601615
 20
-144.4177137225761
 30
0.0
 10
72.25484888601615
 20
-144.4177137225761
 30
0.0
 10
71.95874292905893
 20
-144.4177137225761
 30
0.0
 10
71.95874292905893
 20
-144.4177137225761
 30
0.0
  0
SPLINE
  5
64
330
5A
100
AcDbEntity
  8
_U+30EC_U+30A4_U+30E4_U+30FC 1
370
     0
100
AcDbSpline
210
0.0
220
0.0
230
1.0
 70
    11
 71
     3
 72
    20
 73
    16
 74
     0
 42
0.0000000001
 43
0.0000000001
 12
1.0
 22
0.0
 32
0.0
 13
1.0
 23
0.0
 33
0.0
 40
0.0
 40
0.0
 40
0.0
 40
0.0
 40
1.0
 40
1.0
 40
1.0
 40
2.0
 40
2.0
 40
2.0
 40
3.0
 40
3.0
 40
3.0
 40
4.0
 40
4.0
 40
4.0
 40
5.0
 40
5.0
 40
5.0
 40
5.0
 10
71.70690644908717
 20
-143.084806279333
 30
0.0
 10
71.70690644908717
 20
-143.084806279333
 30
0.0
 10
71.2626613862642
 20
-143.084806279333
 30
0.0
 10
71.2626613862642
 20
-143.084806279333
 30
0.0
 10
71.2626613862642
 20
-143.084806279333
 30
0.0
 10
71.2626613862642
 20
-143.5650525899768
 30
0.0
 10
71.2626613862642
 20
-143.5650525899768
 30
0.0
 10
71.2626613862642
 20
-143.5650525899768
 30
0.0
 10
71.70483939179601
 20
-143.5650525899768
 30
0.0
 10
71.70483939179601
 20
-143.5650525899768
 30
0.0
 10
71.80423039654548
 20
-143.5650525899768
 30
0.0
 10
71.93962264911579
 20
-143.4889159797528
 30
0.0
 10
71.93962264911579
 20
-143.3176947341359
 30
0.0
 10
71.93962264911579
 20
-143.2394910666207
 30
0.0
 10
71.90568845858608
 20
-143.084806279333
 30
0.0
 10
71.70690644908717
 20
-143.084806279333
 30
0.0
  0
HATCH
  5
65
330
5A
100
AcDbEntity
  8
_U+30EC_U+30A4_U+30E4_U+30FC 1
 62
     7
420
 16777215
100
AcDbHatch
 10
0.0
 20
0.0
 30
0.0
210
0.0
220
0.0
230
1.0
  2
SOLID
 70
     1
 71
     0
 91
        2
 92
        1
 93
        1
 72
     4
 94
        3
 73
     0
 74
     1
 95
       44
 96
       40
 40
0.0
 40
0.0
 40
0.0
 40
0.0
 40
1.0
 40
1.0
 40
1.0
 40
2.0
 40
2.0
 40
2.0
 40
3.0
 40
3.0
 40
3.0
 40
4.0
 40
4.0
 40
4.0
 40
5.0
 40
5.0
 40
5.0
 40
6.0
 40
6.0
 40
6.0
 40
7.0
 40
7.0
 40
7.0
 40
8.0
 40
8.0
 40
8.0
 40
9.0
 40
9.0
 40
9.0
 40
10.0
 40
10.0
 40
10.0
 40
11.0
 40
11.0
 40
11.0
 40
12.0
 40
12.0
 40
12.0
 40
13.0
 40
13.0
 40
13.0
 40
13.0
 10
71.95874292905893
 20
-144.4177137225761
 10
71.93531627975923
 20
-144.3732719908164
 10
71.91430119729921
 20
-144.3205620298921
 10
71.9120618852338
 20
-144.0897406323803
 10
71.9079277706515
 20
-143.8465168911217
 10
71.8486721283052
 20
-143.7765814527711
 10
71.67090520126631
 20
-143.7765814527711
 10
71.67090520126631
 20
-143.7765814527711
 10
71.2626613862642
 20
-143.7765814527711
 10
71.2626613862642
 20
-143.7765814527711
 10
71.2626613862642
 20
-143.7765814527711
 10
71.2626613862642
 20
-144.4177137225761
 10
71.2626613862642
 20
-144.4177137225761
 10
71.2626613862642
 20
-144.4177137225761
 10
71.02787812894442
 20
-144.4177137225761
 10
71.02787812894442
 20
-144.4177137225761
 10
71.02787812894442
 20
-144.4177137225761
 10
71.02787812894442
 20
-142.8732774165386
 10
71.02787812894442
 20
-142.8732774165386
 10
71.02787812894442
 20
-142.8732774165386
 10
71.70277233450487
 20
-142.8732774165386
 10
71.70277233450487
 20
-142.8732774165386
 10
72.0093858326921
 20
-142.8732774165386
 10
72.17647296372672
 20
-143.0448431717041
 10
72.17647296372672
 20
-143.3008137662581
 10
72.17647296372672
 20
-143.3514566698913
 10
72.16803247978785
 20
-143.4341389615373
 10
72.12359074802814
 20
-143.5144096863436
 10
72.0645073604561
 20
-143.6181070604497
 10
71.99887829146209
 20
-143.6370550856185
 10
71.93755559182465
 20
-143.6539360534962
 10
72.07501490168612
 20
-143.6963107279648
 10
72.14271102797127
 20
-143.7448865743068
 10
72.14701739732783
 20
-144.0601128112072
 10
72.15115151191013
 20
-144.3308973163478
 10
72.18715275973099
 20
-144.3625921948121
 10
72.25484888601615
 20
-144.4177137225761
 10
72.25484888601615
 20
-144.4177137225761
 10
71.95874292905893
 20
-144.4177137225761
 10
71.95874292905893
 20
-144.4177137225761
 97
        0
 97
        0
 92
        1
 93
        1
 72
     4
 94
        3
 73
     0
 74
     1
 95
       20
 96
       16
 40
0.0
 40
0.0
 40
0.0
 40
0.0
 40
1.0
 40
1.0
 40
1.0
 40
2.0
 40
2.0
 40
2.0
 40
3.0
 40
3.0
 40
3.0
 40
4.0
 40
4.0
 40
4.0
 40
5.0
 40
5.0
 40
5.0
 40
5.0
 10
71.70690644908717
 20
-143.084806279333
 10
71.70690644908717
 20
-143.084806279333
 10
71.2626613862642
 20
-143.084806279333
 10
71.2626613862642
 20
-143.084806279333
 10
71.2626613862642
 20
-143.084806279333
 10
71.2626613862642
 20
-143.5650525899768
 10
71.2626613862642
 20
-143.5650525899768
 10
71.2626613862642
 20
-143.5650525899768
 10
71.70483939179601
 20
-143.5650525899768
 10
71.70483939179601
 20
-143.5650525899768
 10
71.80423039654548
 20
-143.5650525899768
 10
71.93962264911579
 20
-143.4889159797528
 10
71.93962264911579
 20
-143.3176947341359
 10
71.93962264911579
 20
-143.2394910666207
 10
71.90568845858608
 20
-143.084806279333
 10
71.70690644908717
 20
-143.084806279333
 97
        0
 97
        0
 75
     2
 76
     1
 98
        0
  0
ENDBLK
  5
5D
330
5A
100
AcDbEntity
  8
0
100
AcDbBlockEnd
  0
BLOCK
  5
78
330
76
100
AcDbEntity
  8
0
100
AcDbBlockBegin
  2
block 3
 70
     0
 10
0.0
 20
0.0
 30
0.0
  3
block 3
  1

  0
SPLINE
  5
7A
330
76
100
AcDbEntity
  8
_U+30EC_U+30A4_U+30E4_U+30FC 1
370
     0
100
AcDbSpline
210
0.0
220
0.0
230
1.0
 70
    11
 71
     3
 72
    26
 73
    22
 74
     0
 42
0.0000000001
 43
0.0000000001
 12
1.0
 22
0.0
 32
0.0
 13
1.0
 23
0.0
 33
0.0
 40
0.0
 40
0.0
 40
0.0
 40
0.0
 40
1.0
 40
1.0
 40
1.0
 40
2.0
 40
2.0
 40
2.0
 40
3.0
 40
3.0
 40
3.0
 40
4.0
 40
4.0
 40
4.0
 40
5.0
 40
5.0
 40
5.0
 40
6.0
 40
6.0
 40
6.0
 40
7.0
 40
7.0
 40
7.0
 40
7.0
 10
112.2884087175876
 20
-137.9946776998763
 30
0.0
 10
112.2884087175876
 20
-137.9946776998763
 30
0.0
 10
111.184255614565
 20
-137.9946776998763
 30
0.0
 10
111.184255614565
 20
-137.9946776998763
 30
0.0
 10
111.184255614565
 20
-137.9946776998763
 30
0.0
 10
111.184255614565
 20
-138.3247178473633
 30
0.0
 10
111.184255614565
 20
-138.3247178473633
 30
0.0
 10
111.184255614565
 20
-138.3247178473633
 30
0.0
 10
111.0361165086993
 20
-138.3247178473633
 30
0.0
 10
111.0361165086993
 20
-138.3247178473633
 30
0.0
 10
111.0213025981127
 20
-137.9926106425852
 30
0.0
 10
110.8583495816604
 20
-137.9461018535343
 30
0.0
 10
110.7439724115501
 20
-137.9164740323612
 30
0.0
 10
110.7439724115501
 20
-137.9164740323612
 30
0.0
 10
110.7439724115501
 20
-137.7704019837866
 30
0.0
 10
110.7439724115501
 20
-137.7704019837866
 30
0.0
 10
110.7439724115501
 20
-137.7704019837866
 30
0.0
 10
112.2884087175876
 20
-137.7704019837866
 30
0.0
 10
112.2884087175876
 20
-137.7704019837866
 30
0.0
 10
112.2884087175876
 20
-137.7704019837866
 30
0.0
 10
112.2884087175876
 20
-137.9946776998763
 30
0.0
 10
112.2884087175876
 20
-137.9946776998763
 30
0.0
  0
HATCH
  5
7B
330
76
100
AcDbEntity
  8
_U+30EC_U+30A4_U+30E4_U+30FC 1
 62
     7
420
 16777215
100
AcDbHatch
 10
0.0
 20
0.0
 30
0.0
210
0.0
220
0.0
230
1.0
  2
SOLID
 70
     1
 71
     0
 91
        1
 92
        1
 93
        1
 72
     4
 94
        3
 73
     0
 74
     1
 95
       26
 96
       22
 40
0.0
 40
0.0
 40
0.0
 40
0.0
 40
1.0
 40
1.0
 40
1.0
 40
2.0
 40
2.0
 40
2.0
 40
3.0
 40
3.0
 40
3.0
 40
4.0
 40
4.0
 40
4.0
 40
5.0
 40
5.0
 40
5.0
 40
6.0
 40
6.0
 40
6.0
 40
7.0
 40
7.0
 40
7.0
 40
7.0
 10
112.2884087175876
 20
-137.9946776998763
 10
112.2884087175876
 20
-137.9946776998763
 10
111.184255614565
 20
-137.9946776998763
 10
111.184255614565
 20
-137.9946776998763
 10
111.184255614565
 20
-137.9946776998763
 10
111.184255614565
 20
-138.3247178473633
 10
111.184255614565
 20
-138.3247178473633
 10
111.184255614565
 20
-138.3247178473633
 10
111.0361165086993
 20
-138.3247178473633
 10
111.0361165086993
 20
-138.3247178473633
 10
111.0213025981127
 20
-137.9926106425852
 10
110.8583495816604
 20
-137.9461018535343
 10
110.7439724115501
 20
-137.9164740323612
 10
110.7439724115501
 20
-137.9164740323612
 10
110.7439724115501
 20
-137.7704019837866
 10
110.7439724115501
 20
-137.7704019837866
 10
110.7439724115501
 20
-137.7704019837866
 10
112.2884087175876
 20
-137.7704019837866
 10
112.2884087175876
 20
-137.7704019837866
 10
112.2884087175876
 20
-137.7704019837866
 10
112.2884087175876
 20
-137.9946776998763
 10
112.2884087175876
 20
-137.9946776998763
 97
        0
 97
        0
 75
     2
 76
     1
 98
        0
  0
POLYLINE
  5
7C
330
76
100
AcDbEntity
  8
_U+30EC_U+30A4_U+30E4_U+30FC 1
370
     0
100
AcDb2dPolyline
 66
     1
 10
0.0
 20
0.0
 30
0.0
  0
VERTEX
  5
7D
330
7C
100
AcDbEntity
  8
_U+30EC_U+30A4_U+30E4_U+30FC 1
370
     0
100
AcDbVertex
100
AcDb2dVertex
 10
112.2884087175876
 20
-137.2091959292394
 30
0.0
  0
VERTEX
  5
7E
330
7C
100
AcDbEntity
  8
_U+30EC_U+30A4_U+30E4_U+30FC 1
370
     0
100
AcDbVertex
100
AcDb2dVertex
 10
112.0365722376159
 20
-137.2091959292394
 30
0.0
  0
VERTEX
  5
7F
330
7C
100
AcDbEntity
  8
_U+30EC_U+30A4_U+30E4_U+30FC 1
370
     0
100
AcDbVertex
100
AcDb2dVertex
 10
112.0365722376159
 20
-136.9573594492676
 30
0.0
  0
VERTEX
  5
80
330
7C
100
AcDbEntity
  8
_U+30EC_U+30A4_U+30E4_U+30FC 1
370
     0
100
AcDbVertex
100
AcDb2dVertex
 10
112.2884087175876
 20
-136.9573594492676
 30
0.0
  0
VERTEX
  5
81
330
7C
100
AcDbEntity
  8
_U+30EC_U+30A4_U+30E4_U+30FC 1
370
     0
100
AcDbVertex
100
AcDb2dVertex
 10
112.2884087175876
 20
-137.2091959292394
 30
0.0
  0
SEQEND
  5
82
330
7C
100
AcDbEntity
  8
_U+30EC_U+30A4_U+30E4_U+30FC 1
370
     0
  0
HATCH
  5
83
330
76
100
AcDbEntity
  8
_U+30EC_U+30A4_U+30E4_U+30FC 1
 62
     7
420
 16777215
100
AcDbHatch
 10
0.0
 20
0.0
 30
0.0
210
0.0
220
0.0
230
1.0
  2
SOLID
 70
     1
 71
     0
 91
        1
 92
        1
 93
        4
 72
     1
 10
112.2884087175876
 20
-137.2091959292394
 11
112.0365722376159
 21
-137.2091959292394
 72
     1
 10
112.0365722376159
 20
-137.2091959292394
 11
112.0365722376159
 21
-136.9573594492676
 72
     1
 10
112.0365722376159
 20
-136.9573594492676
 11
112.2884087175876
 21
-136.9573594492676
 72
     1
 10
112.2884087175876
 20
-136.9573594492676
 11
112.2884087175876
 21
-137.2091959292394
 97
        0
 75
     2
 76
     1
 98
        0
  0
SPLINE
  5
84
330
76
100
AcDbEntity
  8
_U+30EC_U+30A4_U+30E4_U+30FC 1
370
     0
100
AcDbSpline
210
0.0
220
0.0
230
1.0
 70
    11
 71
     3
 72
    44
 73
    40
 74
     0
 42
0.0000000001
 43
0.0000000001
 12
1.0
 22
0.0
 32
0.0
 13
1.0
 23
0.0
 33
0.0
 40
0.0
 40
0.0
 40
0.0
 40
0.0
 40
1.0
 40
1.0
 40
1.0
 40
2.0
 40
2.0
 40
2.0
 40
3.0
 40
3.0
 40
3.0
 40
4.0
 40
4.0
 40
4.0
 40
5.0
 40
5.0
 40
5.0
 40
6.0
 40
6.0
 40
6.0
 40
7.0
 40
7.0
 40
7.0
 40
8.0
 40
8.0
 40
8.0
 40
9.0
 40
9.0
 40
9.0
 40
10.0
 40
10.0
 40
10.0
 40
11.0
 40
11.0
 40
11.0
 40
12.0
 40
12.0
 40
12.0
 40
13.0
 40
13.0
 40
13.0
 40
13.0
 10
111.7065320901289
 20
-136.128124965968
 30
0.0
 10
111.865350991999
 20
-136.3458550006358
 30
0.0
 10
111.9394205449318
 20
-136.4388725787375
 30
0.0
 10
112.0830810266667
 20
-136.4877929346281
 30
0.0
 10
112.0830810266667
 20
-136.4877929346281
 30
0.0
 10
112.0830810266667
 20
-135.7092013549616
 30
0.0
 10
112.0830810266667
 20
-135.7092013549616
 30
0.0
 10
112.0830810266667
 20
-135.7092013549616
 30
0.0
 10
112.2884087175876
 20
-135.7092013549616
 30
0.0
 10
112.2884087175876
 20
-135.7092013549616
 30
0.0
 10
112.2884087175876
 20
-135.7092013549616
 30
0.0
 10
112.2884087175876
 20
-136.7372178477601
 30
0.0
 10
112.2884087175876
 20
-136.7372178477601
 30
0.0
 10
111.9308078062187
 20
-136.7055229692959
 30
0.0
 10
111.8526041387035
 20
-136.6400661550761
 30
0.0
 10
111.5542588696809
 20
-136.2549044798252
 30
0.0
 10
111.355476860182
 20
-135.9989338852711
 30
0.0
 10
111.2876084791226
 20
-135.9334770710514
 30
0.0
 10
111.1501491692611
 20
-135.9334770710514
 30
0.0
 10
111.0316378845685
 20
-135.9334770710514
 30
0.0
 10
110.900724256129
 20
-136.0054795666931
 30
0.0
 10
110.900724256129
 20
-136.2021945189009
 30
0.0
 10
110.900724256129
 20
-136.4622992280372
 30
0.0
 10
111.1312011440922
 20
-136.4705674572018
 30
0.0
 10
111.2476453714936
 20
-136.4750460813326
 30
0.0
 10
111.2476453714936
 20
-136.4750460813326
 30
0.0
 10
111.2476453714936
 20
-136.6993217974224
 30
0.0
 10
111.2476453714936
 20
-136.6993217974224
 30
0.0
 10
111.1205213480879
 20
-136.6907090587093
 30
0.0
 10
111.0085557448173
 20
-136.680029262705
 30
0.0
 10
110.8900444601247
 20
-136.5997585378987
 30
0.0
 10
110.7291585009635
 20
-136.4898599919192
 30
0.0
 10
110.6953965652081
 20
-136.3034803261672
 30
0.0
 10
110.6953965652081
 20
-136.1873806083143
 30
0.0
 10
110.6953965652081
 20
-135.9100504217517
 30
0.0
 10
110.8793646641204
 20
-135.7026556735396
 30
0.0
 10
111.1522162265522
 20
-135.7026556735396
 30
0.0
 10
111.3809705667728
 20
-135.7026556735396
 30
0.0
 10
111.480189316748
 20
-135.8190999009411
 30
0.0
 10
111.7065320901289
 20
-136.128124965968
 30
0.0
  0
HATCH
  5
85
330
76
100
AcDbEntity
  8
_U+30EC_U+30A4_U+30E4_U+30FC 1
 62
     7
420
 16777215
100
AcDbHatch
 10
0.0
 20
0.0
 30
0.0
210
0.0
220
0.0
230
1.0
  2
SOLID
 70
     1
 71
     0
 91
        1
 92
        1
 93
        1
 72
     4
 94
        3
 73
     0
 74
     1
 95
       44
 96
       40
 40
0.0
 40
0.0
 40
0.0
 40
0.0
 40
1.0
 40
1.0
 40
1.0
 40
2.0
 40
2.0
 40
2.0
 40
3.0
 40
3.0
 40
3.0
 40
4.0
 40
4.0
 40
4.0
 40
5.0
 40
5.0
 40
5.0
 40
6.0
 40
6.0
 40
6.0
 40
7.0
 40
7.0
 40
7.0
 40
8.0
 40
8.0
 40
8.0
 40
9.0
 40
9.0
 40
9.0
 40
10.0
 40
10.0
 40
10.0
 40
11.0
 40
11.0
 40
11.0
 40
12.0
 40
12.0
 40
12.0
 40
13.0
 40
13.0
 40
13.0
 40
13.0
 10
111.7065320901289
 20
-136.128124965968
 10
111.865350991999
 20
-136.3458550006358
 10
111.9394205449318
 20
-136.4388725787375
 10
112.0830810266667
 20
-136.4877929346281
 10
112.0830810266667
 20
-136.4877929346281
 10
112.0830810266667
 20
-135.7092013549616
 10
112.0830810266667
 20
-135.7092013549616
 10
112.0830810266667
 20
-135.7092013549616
 10
112.2884087175876
 20
-135.7092013549616
 10
112.2884087175876
 20
-135.7092013549616
 10
112.2884087175876
 20
-135.7092013549616
 10
112.2884087175876
 20
-136.7372178477601
 10
112.2884087175876
 20
-136.7372178477601
 10
111.9308078062187
 20
-136.7055229692959
 10
111.8526041387035
 20
-136.6400661550761
 10
111.5542588696809
 20
-136.2549044798252
 10
111.355476860182
 20
-135.9989338852711
 10
111.2876084791226
 20
-135.9334770710514
 10
111.1501491692611
 20
-135.9334770710514
 10
111.0316378845685
 20
-135.9334770710514
 10
110.900724256129
 20
-136.0054795666931
 10
110.900724256129
 20
-136.2021945189009
 10
110.900724256129
 20
-136.4622992280372
 10
111.1312011440922
 20
-136.4705674572018
 10
111.2476453714936
 20
-136.4750460813326
 10
111.2476453714936
 20
-136.4750460813326
 10
111.2476453714936
 20
-136.6993217974224
 10
111.2476453714936
 20
-136.6993217974224
 10
111.1205213480879
 20
-136.6907090587093
 10
111.0085557448173
 20
-136.680029262705
 10
110.8900444601247
 20
-136.5997585378987
 10
110.7291585009635
 20
-136.4898599919192
 10
110.6953965652081
 20
-136.3034803261672
 10
110.6953965652081
 20
-136.1873806083143
 10
110.6953965652081
 20
-135.9100504217517
 10
110.8793646641204
 20
-135.7026556735396
 10
111.1522162265522
 20
-135.7026556735396
 10
111.3809705667728
 20
-135.7026556735396
 10
111.480189316748
 20
-135.8190999009411
 10
111.7065320901289
 20
-136.128124965968
 97
        0
 97
        0
 75
     2
 76
     1
 98
        0
  0
ENDBLK
  5
79
330
76
100
AcDbEntity
  8
0
100
AcDbBlockEnd
  0
BLOCK
  5
9D
330
9B
100
AcDbEntity
  8
0
100
AcDbBlockBegin
  2
block 4
 70
     0
 10
0.0
 20
0.0
 30
0.0
  3
block 4
  1

  0
SPLINE
  5
9F
330
9B
100
AcDbEntity
  8
_U+30EC_U+30A4_U+30E4_U+30FC 1
370
     0
100
AcDbSpline
210
0.0
220
0.0
230
1.0
 70
    11
 71
     3
 72
    26
 73
    22
 74
     0
 42
0.0000000001
 43
0.0000000001
 12
1.0
 22
0.0
 32
0.0
 13
1.0
 23
0.0
 33
0.0
 40
0.0
 40
0.0
 40
0.0
 40
0.0
 40
1.0
 40
1.0
 40
1.0
 40
2.0
 40
2.0
 40
2.0
 40
3.0
 40
3.0
 40
3.0
 40
4.0
 40
4.0
 40
4.0
 40
5.0
 40
5.0
 40
5.0
 40
6.0
 40
6.0
 40
6.0
 40
7.0
 40
7.0
 40
7.0
 40
7.0
 10
83.36442055207557
 20
-144.4177137225761
 30
0.0
 10
83.36442055207557
 20
-144.4177137225761
 30
0.0
 10
83.36442055207557
 20
-143.3135606195536
 30
0.0
 10
83.36442055207557
 20
-143.3135606195536
 30
0.0
 10
83.36442055207557
 20
-143.3135606195536
 30
0.0
 10
83.03438040458863
 20
-143.3135606195536
 30
0.0
 10
83.03438040458863
 20
-143.3135606195536
 30
0.0
 10
83.03438040458863
 20
-143.3135606195536
 30
0.0
 10
83.03438040458863
 20
-143.1654215136878
 30
0.0
 10
83.03438040458863
 20
-143.1654215136878
 30
0.0
 10
83.36648760936671
 20
-143.1506076031012
 30
0.0
 10
83.41299639841759
 20
-142.9876545866489
 30
0.0
 10
83.44262421959074
 20
-142.8732774165386
 30
0.0
 10
83.44262421959074
 20
-142.8732774165386
 30
0.0
 10
83.58869626816534
 20
-142.8732774165386
 30
0.0
 10
83.58869626816534
 20
-142.8732774165386
 30
0.0
 10
83.58869626816534
 20
-142.8732774165386
 30
0.0
 10
83.58869626816534
 20
-144.4177137225761
 30
0.0
 10
83.58869626816534
 20
-144.4177137225761
 30
0.0
 10
83.58869626816534
 20
-144.4177137225761
 30
0.0
 10
83.36442055207557
 20
-144.4177137225761
 30
0.0
 10
83.36442055207557
 20
-144.4177137225761
 30
0.0
  0
HATCH
  5
A0
330
9B
100
AcDbEntity
  8
_U+30EC_U+30A4_U+30E4_U+30FC 1
 62
     7
420
 16777215
100
AcDbHatch
 10
0.0
 20
0.0
 30
0.0
210
0.0
220
0.0
230
1.0
  2
SOLID
 70
     1
 71
     0
 91
        1
 92
        1
 93
        1
 72
     4
 94
        3
 73
     0
 74
     1
 95
       26
 96
       22
 40
0.0
 40
0.0
 40
0.0
 40
0.0
 40
1.0
 40
1.0
 40
1.0
 40
2.0
 40
2.0
 40
2.0
 40
3.0
 40
3.0
 40
3.0
 40
4.0
 40
4.0
 40
4.0
 40
5.0
 40
5.0
 40
5.0
 40
6.0
 40
6.0
 40
6.0
 40
7.0
 40
7.0
 40
7.0
 40
7.0
 10
83.36442055207557
 20
-144.4177137225761
 10
83.36442055207557
 20
-144.4177137225761
 10
83.36442055207557
 20
-143.3135606195536
 10
83.36442055207557
 20
-143.3135606195536
 10
83.36442055207557
 20
-143.3135606195536
 10
83.03438040458863
 20
-143.3135606195536
 10
83.03438040458863
 20
-143.3135606195536
 10
83.03438040458863
 20
-143.3135606195536
 10
83.03438040458863
 20
-143.1654215136878
 10
83.03438040458863
 20
-143.1654215136878
 10
83.36648760936671
 20
-143.1506076031012
 10
83.41299639841759
 20
-142.9876545866489
 10
83.44262421959074
 20
-142.8732774165386
 10
83.44262421959074
 20
-142.8732774165386
 10
83.58869626816534
 20
-142.8732774165386
 10
83.58869626816534
 20
-142.8732774165386
 10
83.58869626816534
 20
-142.8732774165386
 10
83.58869626816534
 20
-144.4177137225761
 10
83.58869626816534
 20
-144.4177137225761
 10
83.58869626816534
 20
-144.4177137225761
 10
83.36442055207557
 20
-144.4177137225761
 10
83.36442055207557
 20
-144.4177137225761
 97
        0
 97
        0
 75
     2
 76
     1
 98
        0
  0
SPLINE
  5
A1
330
9B
100
AcDbEntity
  8
_U+30EC_U+30A4_U+30E4_U+30FC 1
370
     0
100
AcDbSpline
210
0.0
220
0.0
230
1.0
 70
    11
 71
     3
 72
    29
 73
    25
 74
     0
 42
0.0000000001
 43
0.0000000001
 12
1.0
 22
0.0
 32
0.0
 13
1.0
 23
0.0
 33
0.0
 40
0.0
 40
0.0
 40
0.0
 40
0.0
 40
1.0
 40
1.0
 40
1.0
 40
2.0
 40
2.0
 40
2.0
 40
3.0
 40
3.0
 40
3.0
 40
4.0
 40
4.0
 40
4.0
 40
5.0
 40
5.0
 40
5.0
 40
6.0
 40
6.0
 40
6.0
 40
7.0
 40
7.0
 40
7.0
 40
8.0
 40
8.0
 40
8.0
 40
8.0
 10
84.98774954472529
 20
-144.2399467955372
 30
0.0
 10
84.87957354648844
 20
-144.4494086010404
 30
0.0
 10
84.70628524358038
 20
-144.4683566262093
 30
0.0
 10
84.58984101617894
 20
-144.4683566262093
 30
0.0
 10
84.42895505701776
 20
-144.4683566262093
 30
0.0
 10
84.28736163257399
 20
-144.4218478371584
 30
0.0
 10
84.1922769971811
 20
-144.2399467955372
 30
0.0
 10
84.08857962307508
 20
-144.0452989006206
 30
0.0
 10
84.06928708835768
 20
-143.808620840784
 30
0.0
 10
84.06928708835768
 20
-143.6456678243316
 30
0.0
 10
84.06928708835768
 20
-143.5016628330482
 30
0.0
 10
84.08651256578393
 20
-143.2498263530764
 30
0.0
 10
84.1922769971811
 20
-143.0510443435775
 30
0.0
 10
84.30010848586942
 20
-142.8481282194963
 30
0.0
 10
84.4609944450306
 20
-142.8247015701966
 30
0.0
 10
84.58984101617894
 20
-142.8247015701966
 30
0.0
 10
84.74865991804894
 20
-142.8247015701966
 30
0.0
 10
84.89232039978387
 20
-142.8691433019563
 30
0.0
 10
84.98774954472529
 20
-143.0510443435775
 30
0.0
 10
85.08696829470048
 20
-143.243625181203
 30
0.0
 10
85.11039494400018
 20
-143.4720350118751
 30
0.0
 10
85.11039494400018
 20
-143.6456678243316
 30
0.0
 10
85.11039494400018
 20
-143.8168890699486
 30
0.0
 10
85.08903535199164
 20
-144.0473659579118
 30
0.0
 10
84.98774954472529
 20
-144.2399467955372
 30
0.0
  0
SPLINE
  5
A2
330
9B
100
AcDbEntity
  8
_U+30EC_U+30A4_U+30E4_U+30FC 1
370
     0
100
AcDbSpline
210
0.0
220
0.0
230
1.0
 70
    11
 71
     3
 72
    17
 73
    13
 74
     0
 42
0.0000000001
 43
0.0000000001
 12
1.0
 22
0.0
 32
0.0
 13
1.0
 23
0.0
 33
0.0
 40
0.0
 40
0.0
 40
0.0
 40
0.0
 40
1.0
 40
1.0
 40
1.0
 40
2.0
 40
2.0
 40
2.0
 40
3.0
 40
3.0
 40
3.0
 40
4.0
 40
4.0
 40
4.0
 40
4.0
 10
84.58984101617894
 20
-143.0172824078221
 30
0.0
 10
84.34007159349832
 20
-143.0172824078221
 30
0.0
 10
84.29356280444745
 20
-143.3008137662581
 30
0.0
 10
84.29356280444745
 20
-143.6456678243316
 30
0.0
 10
84.29356280444745
 20
-143.9650281758143
 30
0.0
 10
84.32973630704257
 20
-144.2737087312927
 30
0.0
 10
84.58984101617894
 20
-144.2737087312927
 30
0.0
 10
84.8375433815684
 20
-144.2737087312927
 30
0.0
 10
84.88611922791041
 20
-143.9925889396963
 30
0.0
 10
84.88611922791041
 20
-143.6456678243316
 30
0.0
 10
84.88611922791041
 20
-143.3259629633005
 30
0.0
 10
84.84787866802415
 20
-143.0172824078221
 30
0.0
 10
84.58984101617894
 20
-143.0172824078221
 30
0.0
  0
HATCH
  5
A3
330
9B
100
AcDbEntity
  8
_U+30EC_U+30A4_U+30E4_U+30FC 1
 62
     7
420
 16777215
100
AcDbHatch
 10
0.0
 20
0.0
 30
0.0
210
0.0
220
0.0
230
1.0
  2
SOLID
 70
     1
 71
     0
 91
        2
 92
        1
 93
        1
 72
     4
 94
        3
 73
     0
 74
     1
 95
       29
 96
       25
 40
0.0
 40
0.0
 40
0.0
 40
0.0
 40
1.0
 40
1.0
 40
1.0
 40
2.0
 40
2.0
 40
2.0
 40
3.0
 40
3.0
 40
3.0
 40
4.0
 40
4.0
 40
4.0
 40
5.0
 40
5.0
 40
5.0
 40
6.0
 40
6.0
 40
6.0
 40
7.0
 40
7.0
 40
7.0
 40
8.0
 40
8.0
 40
8.0
 40
8.0
 10
84.98774954472529
 20
-144.2399467955372
 10
84.87957354648844
 20
-144.4494086010404
 10
84.70628524358038
 20
-144.4683566262093
 10
84.58984101617894
 20
-144.4683566262093
 10
84.42895505701776
 20
-144.4683566262093
 10
84.28736163257399
 20
-144.4218478371584
 10
84.1922769971811
 20
-144.2399467955372
 10
84.08857962307508
 20
-144.0452989006206
 10
84.06928708835768
 20
-143.808620840784
 10
84.06928708835768
 20
-143.6456678243316
 10
84.06928708835768
 20
-143.5016628330482
 10
84.08651256578393
 20
-143.2498263530764
 10
84.1922769971811
 20
-143.0510443435775
 10
84.30010848586942
 20
-142.8481282194963
 10
84.4609944450306
 20
-142.8247015701966
 10
84.58984101617894
 20
-142.8247015701966
 10
84.74865991804894
 20
-142.8247015701966
 10
84.89232039978387
 20
-142.8691433019563
 10
84.98774954472529
 20
-143.0510443435775
 10
85.08696829470048
 20
-143.243625181203
 10
85.11039494400018
 20
-143.4720350118751
 10
85.11039494400018
 20
-143.6456678243316
 10
85.11039494400018
 20
-143.8168890699486
 10
85.08903535199164
 20
-144.0473659579118
 10
84.98774954472529
 20
-144.2399467955372
 97
        0
 97
        0
 92
        1
 93
        1
 72
     4
 94
        3
 73
     0
 74
     1
 95
       17
 96
       13
 40
0.0
 40
0.0
 40
0.0
 40
0.0
 40
1.0
 40
1.0
 40
1.0
 40
2.0
 40
2.0
 40
2.0
 40
3.0
 40
3.0
 40
3.0
 40
4.0
 40
4.0
 40
4.0
 40
4.0
 10
84.58984101617894
 20
-143.0172824078221
 10
84.34007159349832
 20
-143.0172824078221
 10
84.29356280444745
 20
-143.3008137662581
 10
84.29356280444745
 20
-143.6456678243316
 10
84.29356280444745
 20
-143.9650281758143
 10
84.32973630704257
 20
-144.2737087312927
 10
84.58984101617894
 20
-144.2737087312927
 10
84.8375433815684
 20
-144.2737087312927
 10
84.88611922791041
 20
-143.9925889396963
 10
84.88611922791041
 20
-143.6456678243316
 10
84.88611922791041
 20
-143.3259629633005
 10
84.84787866802415
 20
-143.0172824078221
 10
84.58984101617894
 20
-143.0172824078221
 97
        0
 97
        0
 75
     2
 76
     1
 98
        0
  0
ENDBLK
  5
9E
330
9B
100
AcDbEntity
  8
0
100
AcDbBlockEnd
  0
BLOCK
  5
A6
330
A4
100
AcDbEntity
  8
0
100
AcDbBlockBegin
  2
block 5
 70
     0
 10
0.0
 20
0.0
 30
0.0
  3
block 5
  1

  0
SPLINE
  5
A8
330
A4
100
AcDbEntity
  8
_U+30EC_U+30A4_U+30E4_U+30FC 1
370
     0
100
AcDbSpline
210
0.0
220
0.0
230
1.0
 70
    11
 71
     3
 72
    44
 73
    40
 74
     0
 42
0.0000000001
 43
0.0000000001
 12
1.0
 22
0.0
 32
0.0
 13
1.0
 23
0.0
 33
0.0
 40
0.0
 40
0.0
 40
0.0
 40
0.0
 40
1.0
 40
1.0
 40
1.0
 40
2.0
 40
2.0
 40
2.0
 40
3.0
 40
3.0
 40
3.0
 40
4.0
 40
4.0
 40
4.0
 40
5.0
 40
5.0
 40
5.0
 40
6.0
 40
6.0
 40
6.0
 40
7.0
 40
7.0
 40
7.0
 40
8.0
 40
8.0
 40
8.0
 40
9.0
 40
9.0
 40
9.0
 40
10.0
 40
10.0
 40
10.0
 40
11.0
 40
11.0
 40
11.0
 40
12.0
 40
12.0
 40
12.0
 40
13.0
 40
13.0
 40
13.0
 40
13.0
 10
98.50527070020007
 20
-143.8358370951174
 30
0.0
 10
98.28754066553229
 20
-143.9946559969875
 30
0.0
 10
98.19452308743054
 20
-144.0687255499203
 30
0.0
 10
98.14560273154
 20
-144.2123860316553
 30
0.0
 10
98.14560273154
 20
-144.2123860316553
 30
0.0
 10
98.92419431120645
 20
-144.2123860316553
 30
0.0
 10
98.92419431120645
 20
-144.2123860316553
 30
0.0
 10
98.92419431120645
 20
-144.2123860316553
 30
0.0
 10
98.92419431120645
 20
-144.4177137225761
 30
0.0
 10
98.92419431120645
 20
-144.4177137225761
 30
0.0
 10
98.92419431120645
 20
-144.4177137225761
 30
0.0
 10
97.8961778184079
 20
-144.4177137225761
 30
0.0
 10
97.8961778184079
 20
-144.4177137225761
 30
0.0
 10
97.9278726968722
 20
-144.0601128112072
 30
0.0
 10
97.99332951109194
 20
-143.981909143692
 30
0.0
 10
98.37849118634288
 20
-143.6835638746694
 30
0.0
 10
98.63446178089694
 20
-143.4847818651705
 30
0.0
 10
98.69991859511669
 20
-143.4169134841111
 30
0.0
 10
98.69991859511669
 20
-143.2794541742496
 30
0.0
 10
98.69991859511669
 20
-143.160942889557
 30
0.0
 10
98.62791609947497
 20
-143.0300292611175
 30
0.0
 10
98.4312011472672
 20
-143.0300292611175
 30
0.0
 10
98.17109643813085
 20
-143.0300292611175
 30
0.0
 10
98.16248369941772
 20
-143.2605061490807
 30
0.0
 10
98.15834958483542
 20
-143.3769503764822
 30
0.0
 10
98.15834958483542
 20
-143.3769503764822
 30
0.0
 10
97.93407386874566
 20
-143.3769503764822
 30
0.0
 10
97.93407386874566
 20
-143.3769503764822
 30
0.0
 10
97.94268660745878
 20
-143.2498263530764
 30
0.0
 10
97.95336640346305
 20
-143.1378607498058
 30
0.0
 10
98.03363712826938
 20
-143.0193494651132
 30
0.0
 10
98.14353567424884
 20
-142.858463505952
 30
0.0
 10
98.32991534000085
 20
-142.8247015701966
 30
0.0
 10
98.44601505785378
 20
-142.8247015701966
 30
0.0
 10
98.7233452444164
 20
-142.8247015701966
 30
0.0
 10
98.93073999262843
 20
-143.0086696691089
 30
0.0
 10
98.93073999262843
 20
-143.2815212315408
 30
0.0
 10
98.93073999262843
 20
-143.5102755717613
 30
0.0
 10
98.81429576522699
 20
-143.6094943217365
 30
0.0
 10
98.50527070020007
 20
-143.8358370951174
 30
0.0
  0
HATCH
  5
A9
330
A4
100
AcDbEntity
  8
_U+30EC_U+30A4_U+30E4_U+30FC 1
 62
     7
420
 16777215
100
AcDbHatch
 10
0.0
 20
0.0
 30
0.0
210
0.0
220
0.0
230
1.0
  2
SOLID
 70
     1
 71
     0
 91
        1
 92
        1
 93
        1
 72
     4
 94
        3
 73
     0
 74
     1
 95
       44
 96
       40
 40
0.0
 40
0.0
 40
0.0
 40
0.0
 40
1.0
 40
1.0
 40
1.0
 40
2.0
 40
2.0
 40
2.0
 40
3.0
 40
3.0
 40
3.0
 40
4.0
 40
4.0
 40
4.0
 40
5.0
 40
5.0
 40
5.0
 40
6.0
 40
6.0
 40
6.0
 40
7.0
 40
7.0
 40
7.0
 40
8.0
 40
8.0
 40
8.0
 40
9.0
 40
9.0
 40
9.0
 40
10.0
 40
10.0
 40
10.0
 40
11.0
 40
11.0
 40
11.0
 40
12.0
 40
12.0
 40
12.0
 40
13.0
 40
13.0
 40
13.0
 40
13.0
 10
98.50527070020007
 20
-143.8358370951174
 10
98.28754066553229
 20
-143.9946559969875
 10
98.19452308743054
 20
-144.0687255499203
 10
98.14560273154
 20
-144.2123860316553
 10
98.14560273154
 20
-144.2123860316553
 10
98.92419431120645
 20
-144.2123860316553
 10
98.92419431120645
 20
-144.2123860316553
 10
98.92419431120645
 20
-144.2123860316553
 10
98.92419431120645
 20
-144.4177137225761
 10
98.92419431120645
 20
-144.4177137225761
 10
98.92419431120645
 20
-144.4177137225761
 10
97.8961778184079
 20
-144.4177137225761
 10
97.8961778184079
 20
-144.4177137225761
 10
97.9278726968722
 20
-144.0601128112072
 10
97.99332951109194
 20
-143.981909143692
 10
98.37849118634288
 20
-143.6835638746694
 10
98.63446178089694
 20
-143.4847818651705
 10
98.69991859511669
 20
-143.4169134841111
 10
98.69991859511669
 20
-143.2794541742496
 10
98.69991859511669
 20
-143.160942889557
 10
98.62791609947497
 20
-143.0300292611175
 10
98.4312011472672
 20
-143.0300292611175
 10
98.17109643813085
 20
-143.0300292611175
 10
98.16248369941772
 20
-143.2605061490807
 10
98.15834958483542
 20
-143.3769503764822
 10
98.15834958483542
 20
-143.3769503764822
 10
97.93407386874566
 20
-143.3769503764822
 10
97.93407386874566
 20
-143.3769503764822
 10
97.94268660745878
 20
-143.2498263530764
 10
97.95336640346305
 20
-143.1378607498058
 10
98.03363712826938
 20
-143.0193494651132
 10
98.14353567424884
 20
-142.858463505952
 10
98.32991534000085
 20
-142.8247015701966
 10
98.44601505785378
 20
-142.8247015701966
 10
98.7233452444164
 20
-142.8247015701966
 10
98.93073999262843
 20
-143.0086696691089
 10
98.93073999262843
 20
-143.2815212315408
 10
98.93073999262843
 20
-143.5102755717613
 10
98.81429576522699
 20
-143.6094943217365
 10
98.50527070020007
 20
-143.8358370951174
 97
        0
 97
        0
 75
     2
 76
     1
 98
        0
  0
SPLINE
  5
AA
330
A4
100
AcDbEntity
  8
_U+30EC_U+30A4_U+30E4_U+30FC 1
370
     0
100
AcDbSpline
210
0.0
220
0.0
230
1.0
 70
    11
 71
     3
 72
    29
 73
    25
 74
     0
 42
0.0000000001
 43
0.0000000001
 12
1.0
 22
0.0
 32
0.0
 13
1.0
 23
0.0
 33
0.0
 40
0.0
 40
0.0
 40
0.0
 40
0.0
 40
1.0
 40
1.0
 40
1.0
 40
2.0
 40
2.0
 40
2.0
 40
3.0
 40
3.0
 40
3.0
 40
4.0
 40
4.0
 40
4.0
 40
5.0
 40
5.0
 40
5.0
 40
6.0
 40
6.0
 40
6.0
 40
7.0
 40
7.0
 40
7.0
 40
8.0
 40
8.0
 40
8.0
 40
8.0
 10
99.98700626840603
 20
-144.2399467955372
 30
0.0
 10
99.87883027016919
 20
-144.4494086010404
 30
0.0
 10
99.70554196726111
 20
-144.4683566262093
 30
0.0
 10
99.58909773985967
 20
-144.4683566262093
 30
0.0
 10
99.4282117806985
 20
-144.4683566262093
 30
0.0
 10
99.28661835625473
 20
-144.4218478371584
 30
0.0
 10
99.19153372086184
 20
-144.2399467955372
 30
0.0
 10
99.08783634675582
 20
-144.0452989006206
 30
0.0
 10
99.06854381203843
 20
-143.808620840784
 30
0.0
 10
99.06854381203843
 20
-143.6456678243316
 30
0.0
 10
99.06854381203843
 20
-143.5016628330482
 30
0.0
 10
99.08576928946468
 20
-143.2498263530764
 30
0.0
 10
99.19153372086184
 20
-143.0510443435775
 30
0.0
 10
99.29936520955016
 20
-142.8481282194963
 30
0.0
 10
99.46025116871132
 20
-142.8247015701966
 30
0.0
 10
99.58909773985967
 20
-142.8247015701966
 30
0.0
 10
99.74791664172969
 20
-142.8247015701966
 30
0.0
 10
99.89157712346461
 20
-142.8691433019563
 30
0.0
 10
99.98700626840603
 20
-143.0510443435775
 30
0.0
 10
100.0862250183812
 20
-143.243625181203
 30
0.0
 10
100.1096516676809
 20
-143.4720350118751
 30
0.0
 10
100.1096516676809
 20
-143.6456678243316
 30
0.0
 10
100.1096516676809
 20
-143.8168890699486
 30
0.0
 10
100.0882920756724
 20
-144.0473659579118
 30
0.0
 10
99.98700626840603
 20
-144.2399467955372
 30
0.0
  0
SPLINE
  5
AB
330
A4
100
AcDbEntity
  8
_U+30EC_U+30A4_U+30E4_U+30FC 1
370
     0
100
AcDbSpline
210
0.0
220
0.0
230
1.0
 70
    11
 71
     3
 72
    17
 73
    13
 74
     0
 42
0.0000000001
 43
0.0000000001
 12
1.0
 22
0.0
 32
0.0
 13
1.0
 23
0.0
 33
0.0
 40
0.0
 40
0.0
 40
0.0
 40
0.0
 40
1.0
 40
1.0
 40
1.0
 40
2.0
 40
2.0
 40
2.0
 40
3.0
 40
3.0
 40
3.0
 40
4.0
 40
4.0
 40
4.0
 40
4.0
 10
99.58909773985967
 20
-143.0172824078221
 30
0.0
 10
99.33932831717907
 20
-143.0172824078221
 30
0.0
 10
99.29281952812819
 20
-143.3008137662581
 30
0.0
 10
99.29281952812819
 20
-143.6456678243316
 30
0.0
 10
99.29281952812819
 20
-143.9650281758143
 30
0.0
 10
99.32899303072331
 20
-144.2737087312927
 30
0.0
 10
99.58909773985967
 20
-144.2737087312927
 30
0.0
 10
99.83680010524914
 20
-144.2737087312927
 30
0.0
 10
99.88537595159116
 20
-143.9925889396963
 30
0.0
 10
99.88537595159116
 20
-143.6456678243316
 30
0.0
 10
99.88537595159116
 20
-143.3259629633005
 30
0.0
 10
99.84713539170488
 20
-143.0172824078221
 30
0.0
 10
99.58909773985967
 20
-143.0172824078221
 30
0.0
  0
HATCH
  5
AC
330
A4
100
AcDbEntity
  8
_U+30EC_U+30A4_U+30E4_U+30FC 1
 62
     7
420
 16777215
100
AcDbHatch
 10
0.0
 20
0.0
 30
0.0
210
0.0
220
0.0
230
1.0
  2
SOLID
 70
     1
 71
     0
 91
        2
 92
        1
 93
        1
 72
     4
 94
        3
 73
     0
 74
     1
 95
       29
 96
       25
 40
0.0
 40
0.0
 40
0.0
 40
0.0
 40
1.0
 40
1.0
 40
1.0
 40
2.0
 40
2.0
 40
2.0
 40
3.0
 40
3.0
 40
3.0
 40
4.0
 40
4.0
 40
4.0
 40
5.0
 40
5.0
 40
5.0
 40
6.0
 40
6.0
 40
6.0
 40
7.0
 40
7.0
 40
7.0
 40
8.0
 40
8.0
 40
8.0
 40
8.0
 10
99.98700626840603
 20
-144.2399467955372
 10
99.87883027016919
 20
-144.4494086010404
 10
99.70554196726111
 20
-144.4683566262093
 10
99.58909773985967
 20
-144.4683566262093
 10
99.4282117806985
 20
-144.4683566262093
 10
99.28661835625473
 20
-144.4218478371584
 10
99.19153372086184
 20
-144.2399467955372
 10
99.08783634675582
 20
-144.0452989006206
 10
99.06854381203843
 20
-143.808620840784
 10
99.06854381203843
 20
-143.6456678243316
 10
99.06854381203843
 20
-143.5016628330482
 10
99.08576928946468
 20
-143.2498263530764
 10
99.19153372086184
 20
-143.0510443435775
 10
99.29936520955016
 20
-142.8481282194963
 10
99.46025116871132
 20
-142.8247015701966
 10
99.58909773985967
 20
-142.8247015701966
 10
99.74791664172969
 20
-142.8247015701966
 10
99.89157712346461
 20
-142.8691433019563
 10
99.98700626840603
 20
-143.0510443435775
 10
100.0862250183812
 20
-143.243625181203
 10
100.1096516676809
 20
-143.4720350118751
 10
100.1096516676809
 20
-143.6456678243316
 10
100.1096516676809
 20
-143.8168890699486
 10
100.0882920756724
 20
-144.0473659579118
 10
99.98700626840603
 20
-144.2399467955372
 97
        0
 97
        0
 92
        1
 93
        1
 72
     4
 94
        3
 73
     0
 74
     1
 95
       17
 96
       13
 40
0.0
 40
0.0
 40
0.0
 40
0.0
 40
1.0
 40
1.0
 40
1.0
 40
2.0
 40
2.0
 40
2.0
 40
3.0
 40
3.0
 40
3.0
 40
4.0
 40
4.0
 40
4.0
 40
4.0
 10
99.58909773985967
 20
-143.0172824078221
 10
99.33932831717907
 20
-143.0172824078221
 10
99.29281952812819
 20
-143.3008137662581
 10
99.29281952812819
 20
-143.6456678243316
 10
99.29281952812819
 20
-143.9650281758143
 10
99.32899303072331
 20
-144.2737087312927
 10
99.58909773985967
 20
-144.2737087312927
 10
99.83680010524914
 20
-144.2737087312927
 10
99.88537595159116
 20
-143.9925889396963
 10
99.88537595159116
 20
-143.6456678243316
 10
99.88537595159116
 20
-143.3259629633005
 10
99.84713539170488
 20
-143.0172824078221
 10
99.58909773985967
 20
-143.0172824078221
 97
        0
 97
        0
 75
     2
 76
     1
 98
        0
  0
ENDBLK
  5
A7
330
A4
100
AcDbEntity
  8
0
100
AcDbBlockEnd
  0
BLOCK
  5
BB
330
B9
100
AcDbEntity
  8
0
100
AcDbBlockBegin
  2
block 6
 70
     0
 10
0.0
 20
0.0
 30
0.0
  3
block 6
  1

  0
SPLINE
  5
BD
330
B9
100
AcDbEntity
  8
_U+30EC_U+30A4_U+30E4_U+30FC 1
370
     0
100
AcDbSpline
210
0.0
220
0.0
230
1.0
 70
    11
 71
     3
 72
    62
 73
    58
 74
     0
 42
0.0000000001
 43
0.0000000001
 12
1.0
 22
0.0
 32
0.0
 13
1.0
 23
0.0
 33
0.0
 40
0.0
 40
0.0
 40
0.0
 40
0.0
 40
1.0
 40
1.0
 40
1.0
 40
2.0
 40
2.0
 40
2.0
 40
3.0
 40
3.0
 40
3.0
 40
4.0
 40
4.0
 40
4.0
 40
5.0
 40
5.0
 40
5.0
 40
6.0
 40
6.0
 40
6.0
 40
7.0
 40
7.0
 40
7.0
 40
8.0
 40
8.0
 40
8.0
 40
9.0
 40
9.0
 40
9.0
 40
10.0
 40
10.0
 40
10.0
 40
11.0
 40
11.0
 40
11.0
 40
12.0
 40
12.0
 40
12.0
 40
13.0
 40
13.0
 40
13.0
 40
14.0
 40
14.0
 40
14.0
 40
15.0
 40
15.0
 40
15.0
 40
16.0
 40
16.0
 40
16.0
 40
17.0
 40
17.0
 40
17.0
 40
18.0
 40
18.0
 40
18.0
 40
19.0
 40
19.0
 40
19.0
 40
19.0
 10
74.33878714504378
 20
-126.7278374249153
 30
0.0
 10
74.33878714504378
 20
-126.8232665698567
 30
0.0
 10
74.31759980780949
 20
-127.0409966045245
 30
0.0
 10
74.13139239683174
 20
-127.1660535706391
 30
0.0
 10
74.01925453878685
 20
-127.2401231235719
 30
0.0
 10
73.9198635340374
 20
-127.2442572381542
 30
0.0
 10
73.83528643987451
 20
-127.2483913527365
 30
0.0
 10
73.83528643987451
 20
-127.2483913527365
 30
0.0
 10
73.83528643987451
 20
-127.0282497512291
 30
0.0
 10
73.83528643987451
 20
-127.0282497512291
 30
0.0
 10
73.90935599280739
 20
-127.0261826939379
 30
0.0
 10
74.14413925012717
 20
-127.0158474074822
 30
0.0
 10
74.14413925012717
 20
-126.7323160490461
 30
0.0
 10
74.14413925012717
 20
-126.5948567391846
 30
0.0
 10
74.07437606655085
 20
-126.4422390091881
 30
0.0
 10
73.84579398110452
 20
-126.4422390091881
 30
0.0
 10
73.72952200847735
 20
-126.4422390091881
 30
0.0
 10
73.68077390736106
 20
-126.4804795690743
 30
0.0
 10
73.64907902889676
 20
-126.5121744475386
 30
0.0
 10
73.5750094759639
 20
-126.5862440004715
 30
0.0
 10
73.56243487744273
 20
-126.7026882278729
 30
0.0
 10
73.56243487744273
 20
-126.7574652460884
 30
0.0
 10
73.56243487744273
 20
-126.7767577808058
 30
0.0
 10
73.56450193473388
 20
-126.8125867738524
 30
0.0
 10
73.56863604931618
 20
-126.8401475377344
 30
0.0
 10
73.56863604931618
 20
-126.8401475377344
 30
0.0
 10
73.37398815439956
 20
-126.8401475377344
 30
0.0
 10
73.37398815439956
 20
-126.8401475377344
 30
0.0
 10
73.38036158104727
 20
-126.8019069778481
 30
0.0
 10
73.38260089311268
 20
-126.7598768129281
 30
0.0
 10
73.38260089311268
 20
-126.7533311315061
 30
0.0
 10
73.38260089311268
 20
-126.6878743172864
 30
0.0
 10
73.3614135558784
 20
-126.4890923077875
 30
0.0
 10
73.12439098649321
 20
-126.4890923077875
 30
0.0
 10
72.94679631422858
 20
-126.4890923077875
 30
0.0
 10
72.89167478646459
 20
-126.6200059362269
 30
0.0
 10
72.89167478646459
 20
-126.7302489917549
 30
0.0
 10
72.89167478646459
 20
-126.9944878154736
 30
0.0
 10
73.12439098649321
 20
-127.0031005541867
 30
0.0
 10
73.19639348213494
 20
-127.007234668769
 30
0.0
 10
73.19639348213494
 20
-127.007234668769
 30
0.0
 10
73.19639348213494
 20
-127.2104953023988
 30
0.0
 10
73.19639348213494
 20
-127.2104953023988
 30
0.0
 10
73.07150877079462
 20
-127.2018825636856
 30
0.0
 10
72.69495983425682
 20
-127.1743217998036
 30
0.0
 10
72.69495983425682
 20
-126.7175021384595
 30
0.0
 10
72.69495983425682
 20
-126.4932264223698
 30
0.0
 10
72.82191160288828
 20
-126.2520697384023
 30
0.0
 10
73.1180175598455
 20
-126.2520697384023
 30
0.0
 10
73.30422497082326
 20
-126.2520697384023
 30
0.0
 10
73.38673500769498
 20
-126.3471543737952
 30
0.0
 10
73.44805770733244
 20
-126.4467176333189
 30
0.0
 10
73.47561847121443
 20
-126.3853949336814
 30
0.0
 10
73.55606145079501
 20
-126.2034938920602
 30
0.0
 10
73.83321938258337
 20
-126.2034938920602
 30
0.0
 10
74.17170001400916
 20
-126.2034938920602
 30
0.0
 10
74.33878714504378
 20
-126.4508517479012
 30
0.0
 10
74.33878714504378
 20
-126.7278374249153
 30
0.0
  0
HATCH
  5
BE
330
B9
100
AcDbEntity
  8
_U+30EC_U+30A4_U+30E4_U+30FC 1
 62
     7
420
 16777215
100
AcDbHatch
 10
0.0
 20
0.0
 30
0.0
210
0.0
220
0.0
230
1.0
  2
SOLID
 70
     1
 71
     0
 91
        1
 92
        1
 93
        1
 72
     4
 94
        3
 73
     0
 74
     1
 95
       62
 96
       58
 40
0.0
 40
0.0
 40
0.0
 40
0.0
 40
1.0
 40
1.0
 40
1.0
 40
2.0
 40
2.0
 40
2.0
 40
3.0
 40
3.0
 40
3.0
 40
4.0
 40
4.0
 40
4.0
 40
5.0
 40
5.0
 40
5.0
 40
6.0
 40
6.0
 40
6.0
 40
7.0
 40
7.0
 40
7.0
 40
8.0
 40
8.0
 40
8.0
 40
9.0
 40
9.0
 40
9.0
 40
10.0
 40
10.0
 40
10.0
 40
11.0
 40
11.0
 40
11.0
 40
12.0
 40
12.0
 40
12.0
 40
13.0
 40
13.0
 40
13.0
 40
14.0
 40
14.0
 40
14.0
 40
15.0
 40
15.0
 40
15.0
 40
16.0
 40
16.0
 40
16.0
 40
17.0
 40
17.0
 40
17.0
 40
18.0
 40
18.0
 40
18.0
 40
19.0
 40
19.0
 40
19.0
 40
19.0
 10
74.33878714504378
 20
-126.7278374249153
 10
74.33878714504378
 20
-126.8232665698567
 10
74.31759980780949
 20
-127.0409966045245
 10
74.13139239683174
 20
-127.1660535706391
 10
74.01925453878685
 20
-127.2401231235719
 10
73.9198635340374
 20
-127.2442572381542
 10
73.83528643987451
 20
-127.2483913527365
 10
73.83528643987451
 20
-127.2483913527365
 10
73.83528643987451
 20
-127.0282497512291
 10
73.83528643987451
 20
-127.0282497512291
 10
73.90935599280739
 20
-127.0261826939379
 10
74.14413925012717
 20
-127.0158474074822
 10
74.14413925012717
 20
-126.7323160490461
 10
74.14413925012717
 20
-126.5948567391846
 10
74.07437606655085
 20
-126.4422390091881
 10
73.84579398110452
 20
-126.4422390091881
 10
73.72952200847735
 20
-126.4422390091881
 10
73.68077390736106
 20
-126.4804795690743
 10
73.64907902889676
 20
-126.5121744475386
 10
73.5750094759639
 20
-126.5862440004715
 10
73.56243487744273
 20
-126.7026882278729
 10
73.56243487744273
 20
-126.7574652460884
 10
73.56243487744273
 20
-126.7767577808058
 10
73.56450193473388
 20
-126.8125867738524
 10
73.56863604931618
 20
-126.8401475377344
 10
73.56863604931618
 20
-126.8401475377344
 10
73.37398815439956
 20
-126.8401475377344
 10
73.37398815439956
 20
-126.8401475377344
 10
73.38036158104727
 20
-126.8019069778481
 10
73.38260089311268
 20
-126.7598768129281
 10
73.38260089311268
 20
-126.7533311315061
 10
73.38260089311268
 20
-126.6878743172864
 10
73.3614135558784
 20
-126.4890923077875
 10
73.12439098649321
 20
-126.4890923077875
 10
72.94679631422858
 20
-126.4890923077875
 10
72.89167478646459
 20
-126.6200059362269
 10
72.89167478646459
 20
-126.7302489917549
 10
72.89167478646459
 20
-126.9944878154736
 10
73.12439098649321
 20
-127.0031005541867
 10
73.19639348213494
 20
-127.007234668769
 10
73.19639348213494
 20
-127.007234668769
 10
73.19639348213494
 20
-127.2104953023988
 10
73.19639348213494
 20
-127.2104953023988
 10
73.07150877079462
 20
-127.2018825636856
 10
72.69495983425682
 20
-127.1743217998036
 10
72.69495983425682
 20
-126.7175021384595
 10
72.69495983425682
 20
-126.4932264223698
 10
72.82191160288828
 20
-126.2520697384023
 10
73.1180175598455
 20
-126.2520697384023
 10
73.30422497082326
 20
-126.2520697384023
 10
73.38673500769498
 20
-126.3471543737952
 10
73.44805770733244
 20
-126.4467176333189
 10
73.47561847121443
 20
-126.3853949336814
 10
73.55606145079501
 20
-126.2034938920602
 10
73.83321938258337
 20
-126.2034938920602
 10
74.17170001400916
 20
-126.2034938920602
 10
74.33878714504378
 20
-126.4508517479012
 10
74.33878714504378
 20
-126.7278374249153
 97
        0
 97
        0
 75
     2
 76
     1
 98
        0
  0
SPLINE
  5
BF
330
B9
100
AcDbEntity
  8
_U+30EC_U+30A4_U+30E4_U+30FC 1
370
     0
100
AcDbSpline
210
0.0
220
0.0
230
1.0
 70
    11
 71
     3
 72
    29
 73
    25
 74
     0
 42
0.0000000001
 43
0.0000000001
 12
1.0
 22
0.0
 32
0.0
 13
1.0
 23
0.0
 33
0.0
 40
0.0
 40
0.0
 40
0.0
 40
0.0
 40
1.0
 40
1.0
 40
1.0
 40
2.0
 40
2.0
 40
2.0
 40
3.0
 40
3.0
 40
3.0
 40
4.0
 40
4.0
 40
4.0
 40
5.0
 40
5.0
 40
5.0
 40
6.0
 40
6.0
 40
6.0
 40
7.0
 40
7.0
 40
7.0
 40
8.0
 40
8.0
 40
8.0
 40
8.0
 10
74.11020505959745
 20
-125.144816049443
 30
0.0
 10
74.31966686510064
 20
-125.2529920476798
 30
0.0
 10
74.33878714504378
 20
-125.4262803505879
 30
0.0
 10
74.33878714504378
 20
-125.5427245779893
 30
0.0
 10
74.33878714504378
 20
-125.7036105371505
 30
0.0
 10
74.2922783559929
 20
-125.8452039615943
 30
0.0
 10
74.11020505959745
 20
-125.9402885969872
 30
0.0
 10
73.91555716468083
 20
-126.0439859710932
 30
0.0
 10
73.67870685006991
 20
-126.0632785058106
 30
0.0
 10
73.5157538336176
 20
-126.0632785058106
 30
0.0
 10
73.37192109710841
 20
-126.0632785058106
 30
0.0
 10
73.12025687191091
 20
-126.0460530283843
 30
0.0
 10
72.92130260763773
 20
-125.9402885969872
 30
0.0
 10
72.71821422878226
 20
-125.8324571082988
 30
0.0
 10
72.69495983425682
 20
-125.6715711491377
 30
0.0
 10
72.69495983425682
 20
-125.5427245779893
 30
0.0
 10
72.69495983425682
 20
-125.3839056761193
 30
0.0
 10
72.73940156601654
 20
-125.2402451943844
 30
0.0
 10
72.92130260763773
 20
-125.144816049443
 30
0.0
 10
73.1138834452632
 20
-125.0455972994678
 30
0.0
 10
73.34229327593526
 20
-125.0221706501681
 30
0.0
 10
73.5157538336176
 20
-125.0221706501681
 30
0.0
 10
73.68714733400877
 20
-125.0221706501681
 30
0.0
 10
73.91779647674625
 20
-125.0435302421766
 30
0.0
 10
74.11020505959745
 20
-125.144816049443
 30
0.0
  0
SPLINE
  5
C0
330
B9
100
AcDbEntity
  8
_U+30EC_U+30A4_U+30E4_U+30FC 1
370
     0
100
AcDbSpline
210
0.0
220
0.0
230
1.0
 70
    11
 71
     3
 72
    17
 73
    13
 74
     0
 42
0.0000000001
 43
0.0000000001
 12
1.0
 22
0.0
 32
0.0
 13
1.0
 23
0.0
 33
0.0
 40
0.0
 40
0.0
 40
0.0
 40
0.0
 40
1.0
 40
1.0
 40
1.0
 40
2.0
 40
2.0
 40
2.0
 40
3.0
 40
3.0
 40
3.0
 40
4.0
 40
4.0
 40
4.0
 40
4.0
 10
72.88754067188229
 20
-125.5427245779893
 30
0.0
 10
72.88754067188229
 20
-125.7924940006699
 30
0.0
 10
73.17107203031834
 20
-125.8390027897208
 30
0.0
 10
73.5157538336176
 20
-125.8390027897208
 30
0.0
 10
73.83528643987451
 20
-125.8390027897208
 30
0.0
 10
74.14413925012717
 20
-125.8028292871257
 30
0.0
 10
74.14413925012717
 20
-125.5427245779893
 30
0.0
 10
74.14413925012717
 20
-125.2950222125999
 30
0.0
 10
73.86267494898225
 20
-125.2464463662578
 30
0.0
 10
73.5157538336176
 20
-125.2464463662578
 30
0.0
 10
73.19639348213494
 20
-125.2464463662578
 30
0.0
 10
72.88754067188229
 20
-125.2846869261441
 30
0.0
 10
72.88754067188229
 20
-125.5427245779893
 30
0.0
  0
HATCH
  5
C1
330
B9
100
AcDbEntity
  8
_U+30EC_U+30A4_U+30E4_U+30FC 1
 62
     7
420
 16777215
100
AcDbHatch
 10
0.0
 20
0.0
 30
0.0
210
0.0
220
0.0
230
1.0
  2
SOLID
 70
     1
 71
     0
 91
        2
 92
        1
 93
        1
 72
     4
 94
        3
 73
     0
 74
     1
 95
       29
 96
       25
 40
0.0
 40
0.0
 40
0.0
 40
0.0
 40
1.0
 40
1.0
 40
1.0
 40
2.0
 40
2.0
 40
2.0
 40
3.0
 40
3.0
 40
3.0
 40
4.0
 40
4.0
 40
4.0
 40
5.0
 40
5.0
 40
5.0
 40
6.0
 40
6.0
 40
6.0
 40
7.0
 40
7.0
 40
7.0
 40
8.0
 40
8.0
 40
8.0
 40
8.0
 10
74.11020505959745
 20
-125.144816049443
 10
74.31966686510064
 20
-125.2529920476798
 10
74.33878714504378
 20
-125.4262803505879
 10
74.33878714504378
 20
-125.5427245779893
 10
74.33878714504378
 20
-125.7036105371505
 10
74.2922783559929
 20
-125.8452039615943
 10
74.11020505959745
 20
-125.9402885969872
 10
73.91555716468083
 20
-126.0439859710932
 10
73.67870685006991
 20
-126.0632785058106
 10
73.5157538336176
 20
-126.0632785058106
 10
73.37192109710841
 20
-126.0632785058106
 10
73.12025687191091
 20
-126.0460530283843
 10
72.92130260763773
 20
-125.9402885969872
 10
72.71821422878226
 20
-125.8324571082988
 10
72.69495983425682
 20
-125.6715711491377
 10
72.69495983425682
 20
-125.5427245779893
 10
72.69495983425682
 20
-125.3839056761193
 10
72.73940156601654
 20
-125.2402451943844
 10
72.92130260763773
 20
-125.144816049443
 10
73.1138834452632
 20
-125.0455972994678
 10
73.34229327593526
 20
-125.0221706501681
 10
73.5157538336176
 20
-125.0221706501681
 10
73.68714733400877
 20
-125.0221706501681
 10
73.91779647674625
 20
-125.0435302421766
 10
74.11020505959745
 20
-125.144816049443
 97
        0
 97
        0
 92
        1
 93
        1
 72
     4
 94
        3
 73
     0
 74
     1
 95
       17
 96
       13
 40
0.0
 40
0.0
 40
0.0
 40
0.0
 40
1.0
 40
1.0
 40
1.0
 40
2.0
 40
2.0
 40
2.0
 40
3.0
 40
3.0
 40
3.0
 40
4.0
 40
4.0
 40
4.0
 40
4.0
 10
72.88754067188229
 20
-125.5427245779893
 10
72.88754067188229
 20
-125.7924940006699
 10
73.17107203031834
 20
-125.8390027897208
 10
73.5157538336176
 20
-125.8390027897208
 10
73.83528643987451
 20
-125.8390027897208
 10
74.14413925012717
 20
-125.8028292871257
 10
74.14413925012717
 20
-125.5427245779893
 10
74.14413925012717
 20
-125.2950222125999
 10
73.86267494898225
 20
-125.2464463662578
 10
73.5157538336176
 20
-125.2464463662578
 10
73.19639348213494
 20
-125.2464463662578
 10
72.88754067188229
 20
-125.2846869261441
 10
72.88754067188229
 20
-125.5427245779893
 97
        0
 97
        0
 75
     2
 76
     1
 98
        0
  0
ENDBLK
  5
BC
330
B9
100
AcDbEntity
  8
0
100
AcDbBlockEnd
  0
ENDSEC
  0
SECTION
  2
ENTITIES
  0
SPLINE
  5
41
330
1F
100
AcDbEntity
  8
_U+30EC_U+30A4_U+30E4_U+30FC 1
370
     0
100
AcDbSpline
210
0.0
220
0.0
230
1.0
 70
    11
 71
     3
 72
    35
 73
    31
 74
     0
 42
0.0000000001
 43
0.0000000001
 12
1.0
 22
0.0
 32
0.0
 13
1.0
 23
0.0
 33
0.0
 40
0.0
 40
0.0
 40
0.0
 40
0.0
 40
1.0
 40
1.0
 40
1.0
 40
2.0
 40
2.0
 40
2.0
 40
3.0
 40
3.0
 40
3.0
 40
4.0
 40
4.0
 40
4.0
 40
5.0
 40
5.0
 40
5.0
 40
6.0
 40
6.0
 40
6.0
 40
7.0
 40
7.0
 40
7.0
 40
8.0
 40
8.0
 40
8.0
 40
9.0
 40
9.0
 40
9.0
 40
10.0
 40
10.0
 40
10.0
 40
10.0
 10
79.00137104006266
 20
-111.1308560833284
 30
0.0
 10
79.00137104006266
 20
-111.1308560833284
 30
0.0
 10
80.20130934278302
 20
-111.1308560833284
 30
0.0
 10
80.20130934278302
 20
-111.1308560833284
 30
0.0
 10
80.20130934278302
 20
-111.1308560833284
 30
0.0
 10
80.20130934278302
 20
-131.1310277449947
 30
0.0
 10
80.20130934278302
 20
-131.1310277449947
 30
0.0
 10
80.23126017535225
 20
-135.3429827439421
 30
0.0
 10
84.03053563398021
 20
-139.9311752427951
 30
0.0
 10
89.00110384050379
 20
-139.9311752427951
 30
0.0
 10
89.00110384050379
 20
-139.9311752427951
 30
0.0
 10
109.001451385808
 20
-139.9311752427951
 30
0.0
 10
109.001451385808
 20
-139.9311752427951
 30
0.0
 10
109.001451385808
 20
-139.9311752427951
 30
0.0
 10
109.001451385808
 20
-141.1307607980509
 30
0.0
 10
109.001451385808
 20
-141.1307607980509
 30
0.0
 10
109.001451385808
 20
-141.1307607980509
 30
0.0
 10
89.33733633192578
 20
-141.1252221869412
 30
0.0
 10
89.33733633192578
 20
-141.1252221869412
 30
0.0
 10
89.11343053327705
 20
-141.1328069091612
 30
0.0
 10
88.88881467670186
 20
-141.1328069091612
 30
0.0
 10
88.66487134908179
 20
-141.1252221869412
 30
0.0
 10
83.1451360903248
 20
-140.939202464765
 30
0.0
 10
78.82120743354791
 20
-136.3144974659214
 30
0.0
 10
79.0068743732556
 20
-130.794759967301
 30
0.0
 10
79.0068743732556
 20
-130.794759967301
 30
0.0
 10
79.0068743732556
 20
-130.7572244117553
 30
0.0
 10
79.0068743732556
 20
-130.7572244117553
 30
0.0
 10
79.0068743732556
 20
-130.7572244117553
 30
0.0
 10
79.00137104006266
 20
-111.1308560833284
 30
0.0
 10
79.00137104006266
 20
-111.1308560833284
 30
0.0
  0
HATCH
  5
42
330
1F
100
AcDbEntity
  8
_U+30EC_U+30A4_U+30E4_U+30FC 1
 62
   253
420
 11711154
100
AcDbHatch
 10
0.0
 20
0.0
 30
0.0
210
0.0
220
0.0
230
1.0
  2
SOLID
 70
     1
 71
     0
 91
        1
 92
        1
 93
        1
 72
     4
 94
        3
 73
     0
 74
     1
 95
       35
 96
       31
 40
0.0
 40
0.0
 40
0.0
 40
0.0
 40
1.0
 40
1.0
 40
1.0
 40
2.0
 40
2.0
 40
2.0
 40
3.0
 40
3.0
 40
3.0
 40
4.0
 40
4.0
 40
4.0
 40
5.0
 40
5.0
 40
5.0
 40
6.0
 40
6.0
 40
6.0
 40
7.0
 40
7.0
 40
7.0
 40
8.0
 40
8.0
 40
8.0
 40
9.0
 40
9.0
 40
9.0
 40
10.0
 40
10.0
 40
10.0
 40
10.0
 10
79.00137104006266
 20
-111.1308560833284
 10
79.00137104006266
 20
-111.1308560833284
 10
80.20130934278302
 20
-111.1308560833284
 10
80.20130934278302
 20
-111.1308560833284
 10
80.20130934278302
 20
-111.1308560833284
 10
80.20130934278302
 20
-131.1310277449947
 10
80.20130934278302
 20
-131.1310277449947
 10
80.23126017535225
 20
-135.3429827439421
 10
84.03053563398021
 20
-139.9311752427951
 10
89.00110384050379
 20
-139.9311752427951
 10
89.00110384050379
 20
-139.9311752427951
 10
109.001451385808
 20
-139.9311752427951
 10
109.001451385808
 20
-139.9311752427951
 10
109.001451385808
 20
-139.9311752427951
 10
109.001451385808
 20
-141.1307607980509
 10
109.001451385808
 20
-141.1307607980509
 10
109.001451385808
 20
-141.1307607980509
 10
89.33733633192578
 20
-141.1252221869412
 10
89.33733633192578
 20
-141.1252221869412
 10
89.11343053327705
 20
-141.1328069091612
 10
88.88881467670186
 20
-141.1328069091612
 10
88.66487134908179
 20
-141.1252221869412
 10
83.1451360903248
 20
-140.939202464765
 10
78.82120743354791
 20
-136.3144974659214
 10
79.0068743732556
 20
-130.794759967301
 10
79.0068743732556
 20
-130.794759967301
 10
79.0068743732556
 20
-130.7572244117553
 10
79.0068743732556
 20
-130.7572244117553
 10
79.0068743732556
 20
-130.7572244117553
 10
79.00137104006266
 20
-111.1308560833284
 10
79.00137104006266
 20
-111.1308560833284
 97
        0
 97
        0
 75
     2
 76
     1
 98
        0
  0
POLYLINE
  5
43
330
1F
100
AcDbEntity
  8
_U+30EC_U+30A4_U+30E4_U+30FC 1
 62
     7
420
 16777215
370
     9
100
AcDb2dPolyline
 66
     1
 10
0.0
 20
0.0
 30
0.0
  0
VERTEX
  5
44
330
43
100
AcDbEntity
  8
_U+30EC_U+30A4_U+30E4_U+30FC 1
 62
     7
420
 16777215
370
     9
100
AcDbVertex
100
AcDb2dVertex
 10
81.43017542254314
 20
-139.0678221874555
 30
0.0
  0
VERTEX
  5
45
330
43
100
AcDbEntity
  8
_U+30EC_U+30A4_U+30E4_U+30FC 1
 62
     7
420
 16777215
370
     9
100
AcDbVertex
100
AcDb2dVertex
 10
81.93041429866989
 20
-138.2017174654494
 30
0.0
  0
SEQEND
  5
46
330
43
100
AcDbEntity
  8
_U+30EC_U+30A4_U+30E4_U+30FC 1
 62
     7
420
 16777215
370
     9
  0
POLYLINE
  5
47
330
1F
100
AcDbEntity
  8
_U+30EC_U+30A4_U+30E4_U+30FC 1
 62
     7
420
 16777215
370
     9
100
AcDb2dPolyline
 66
     1
 10
0.0
 20
0.0
 30
0.0
  0
VERTEX
  5
48
330
47
100
AcDbEntity
  8
_U+30EC_U+30A4_U+30E4_U+30FC 1
 62
     7
420
 16777215
370
     9
100
AcDbVertex
100
AcDb2dVertex
 10
81.06430959854383
 20
-138.7019563542131
 30
0.0
  0
VERTEX
  5
49
330
47
100
AcDbEntity
  8
_U+30EC_U+30A4_U+30E4_U+30FC 1
 62
     7
420
 16777215
370
     9
100
AcDbVertex
100
AcDb2dVertex
 10
81.93041429866989
 20
-138.2017174654494
 30
0.0
  0
SEQEND
  5
4A
330
47
100
AcDbEntity
  8
_U+30EC_U+30A4_U+30E4_U+30FC 1
 62
     7
420
 16777215
370
     9
  0
POLYLINE
  5
4B
330
1F
100
AcDbEntity
  8
_U+30EC_U+30A4_U+30E4_U+30FC 1
 62
     7
420
 16777215
370
     9
100
AcDb2dPolyline
 66
     1
 10
0.0
 20
0.0
 30
0.0
  0
VERTEX
  5
4C
330
4B
100
AcDbEntity
  8
_U+30EC_U+30A4_U+30E4_U+30FC 1
 62
     7
420
 16777215
370
     9
100
AcDbVertex
100
AcDb2dVertex
 10
75.00129447544646
 20
-145.1311902414952
 30
0.0
  0
VERTEX
  5
4D
330
4B
100
AcDbEntity
  8
_U+30EC_U+30A4_U+30E4_U+30FC 1
 62
     7
420
 16777215
370
     9
100
AcDbVertex
100
AcDb2dVertex
 10
81.93041429866989
 20
-138.2017174654494
 30
0.0
  0
SEQEND
  5
4E
330
4B
100
AcDbEntity
  8
_U+30EC_U+30A4_U+30E4_U+30FC 1
 62
     7
420
 16777215
370
     9
  0
POLYLINE
  5
4F
330
1F
100
AcDbEntity
  8
_U+30EC_U+30A4_U+30E4_U+30FC 1
 62
     7
420
 16777215
370
     9
100
AcDb2dPolyline
 66
     1
 10
0.0
 20
0.0
 30
0.0
  0
VERTEX
  5
50
330
4F
100
AcDbEntity
  8
_U+30EC_U+30A4_U+30E4_U+30FC 1
 62
     7
420
 16777215
370
     9
100
AcDbVertex
100
AcDb2dVertex
 10
69.83535794057381
 20
-145.1311902414952
 30
0.0
  0
VERTEX
  5
51
330
4F
100
AcDbEntity
  8
_U+30EC_U+30A4_U+30E4_U+30FC 1
 62
     7
420
 16777215
370
     9
100
AcDbVertex
100
AcDb2dVertex
 10
75.00129447544646
 20
-145.1311902414952
 30
0.0
  0
SEQEND
  5
52
330
4F
100
AcDbEntity
  8
_U+30EC_U+30A4_U+30E4_U+30FC 1
 62
     7
420
 16777215
370
     9
  0
SPLINE
  5
53
330
1F
100
AcDbEntity
  8
_U+30EC_U+30A4_U+30E4_U+30FC 1
 62
     7
420
 16777215
370
     9
100
AcDbSpline
210
0.0
220
0.0
230
1.0
 70
    11
 71
     3
 72
    17
 73
    13
 74
     0
 42
0.0000000001
 43
0.0000000001
 12
1.0
 22
0.0
 32
0.0
 13
1.0
 23
0.0
 33
0.0
 40
0.0
 40
0.0
 40
0.0
 40
0.0
 40
1.0
 40
1.0
 40
1.0
 40
2.0
 40
2.0
 40
2.0
 40
3.0
 40
3.0
 40
3.0
 40
4.0
 40
4.0
 40
4.0
 40
4.0
 10
113.1017873923108
 20
-139.9311752427951
 30
0.0
 10
113.1017873923108
 20
-139.8756832983643
 30
0.0
 10
113.0570198934529
 20
-139.8309157983757
 30
0.0
 10
113.001880728193
 20
-139.8309157983757
 30
0.0
 10
112.9467768407099
 20
-139.8309157983757
 30
0.0
 10
112.9019740640751
 20
-139.8756832983643
 30
0.0
 10
112.9019740640751
 20
-139.9311752427951
 30
0.0
 10
112.9019740640751
 20
-139.98627913167
 30
0.0
 10
112.9467768407099
 20
-140.0310819094368
 30
0.0
 10
113.001880728193
 20
-140.0310819094368
 30
0.0
 10
113.0570198934529
 20
-140.0310819094368
 30
0.0
 10
113.1017873923108
 20
-139.98627913167
 30
0.0
 10
113.1017873923108
 20
-139.9311752427951
 30
0.0
  0
SPLINE
  5
54
330
1F
100
AcDbEntity
  8
_U+30EC_U+30A4_U+30E4_U+30FC 1
 62
     7
420
 16777215
370
     9
100
AcDbSpline
210
0.0
220
0.0
230
1.0
 70
    11
 71
     3
 72
    17
 73
    13
 74
     0
 42
0.0000000001
 43
0.0000000001
 12
1.0
 22
0.0
 32
0.0
 13
1.0
 23
0.0
 33
0.0
 40
0.0
 40
0.0
 40
0.0
 40
0.0
 40
1.0
 40
1.0
 40
1.0
 40
2.0
 40
2.0
 40
2.0
 40
3.0
 40
3.0
 40
3.0
 40
4.0
 40
4.0
 40
4.0
 40
4.0
 10
113.1017873923108
 20
-141.1286794091625
 30
0.0
 10
113.1017873923108
 20
-141.073575520287
 30
0.0
 10
113.0570198934529
 20
-141.0287727425209
 30
0.0
 10
113.001880728193
 20
-141.0287727425209
 30
0.0
 10
112.9467768407099
 20
-141.0287727425209
 30
0.0
 10
112.9019740640751
 20
-141.073575520287
 30
0.0
 10
112.9019740640751
 20
-141.1286794091625
 30
0.0
 10
112.9019740640751
 20
-141.184488853593
 30
0.0
 10
112.9467768407099
 20
-141.229291631359
 30
0.0
 10
113.001880728193
 20
-141.229291631359
 30
0.0
 10
113.0570198934529
 20
-141.229291631359
 30
0.0
 10
113.1017873923108
 20
-141.184488853593
 30
0.0
 10
113.1017873923108
 20
-141.1286794091625
 30
0.0
  0
SPLINE
  5
55
330
1F
100
AcDbEntity
  8
_U+30EC_U+30A4_U+30E4_U+30FC 1
 62
     7
420
 16777215
370
     9
100
AcDbSpline
210
0.0
220
0.0
230
1.0
 70
    11
 71
     3
 72
    17
 73
    13
 74
     0
 42
0.0000000001
 43
0.0000000001
 12
1.0
 22
0.0
 32
0.0
 13
1.0
 23
0.0
 33
0.0
 40
0.0
 40
0.0
 40
0.0
 40
0.0
 40
1.0
 40
1.0
 40
1.0
 40
2.0
 40
2.0
 40
2.0
 40
3.0
 40
3.0
 40
3.0
 40
4.0
 40
4.0
 40
4.0
 40
4.0
 10
109.1013580499258
 20
-145.1311902414952
 30
0.0
 10
109.1013580499258
 20
-145.0753807970647
 30
0.0
 10
109.056555273291
 20
-145.0306132970755
 30
0.0
 10
109.001451385808
 20
-145.0306132970755
 30
0.0
 10
108.946312220548
 20
-145.0306132970755
 30
0.0
 10
108.9015447216901
 20
-145.0753807970647
 30
0.0
 10
108.9015447216901
 20
-145.1311902414952
 30
0.0
 10
108.9015447216901
 20
-145.1863294081476
 30
0.0
 10
108.946312220548
 20
-145.2310969081368
 30
0.0
 10
109.001451385808
 20
-145.2310969081368
 30
0.0
 10
109.056555273291
 20
-145.2310969081368
 30
0.0
 10
109.1013580499258
 20
-145.1863294081476
 30
0.0
 10
109.1013580499258
 20
-145.1311902414952
 30
0.0
  0
SPLINE
  5
56
330
1F
100
AcDbEntity
  8
_U+30EC_U+30A4_U+30E4_U+30FC 1
 62
     7
420
 16777215
370
     9
100
AcDbSpline
210
0.0
220
0.0
230
1.0
 70
    11
 71
     3
 72
    17
 73
    13
 74
     0
 42
0.0000000001
 43
0.0000000001
 12
1.0
 22
0.0
 32
0.0
 13
1.0
 23
0.0
 33
0.0
 40
0.0
 40
0.0
 40
0.0
 40
0.0
 40
1.0
 40
1.0
 40
1.0
 40
2.0
 40
2.0
 40
2.0
 40
3.0
 40
3.0
 40
3.0
 40
4.0
 40
4.0
 40
4.0
 40
4.0
 10
79.1012777041805
 20
-145.1311902414952
 30
0.0
 10
79.1012777041805
 20
-145.0753807970647
 30
0.0
 10
79.05651020532262
 20
-145.0306132970755
 30
0.0
 10
79.00137104006266
 20
-145.0306132970755
 30
0.0
 10
78.9462671525796
 20
-145.0306132970755
 30
0.0
 10
78.90146437594483
 20
-145.0753807970647
 30
0.0
 10
78.90146437594483
 20
-145.1311902414952
 30
0.0
 10
78.90146437594483
 20
-145.1863294081476
 30
0.0
 10
78.9462671525796
 20
-145.2310969081368
 30
0.0
 10
79.00137104006266
 20
-145.2310969081368
 30
0.0
 10
79.05651020532262
 20
-145.2310969081368
 30
0.0
 10
79.1012777041805
 20
-145.1863294081476
 30
0.0
 10
79.1012777041805
 20
-145.1311902414952
 30
0.0
  0
SPLINE
  5
57
330
1F
100
AcDbEntity
  8
_U+30EC_U+30A4_U+30E4_U+30FC 1
 62
     7
420
 16777215
370
     9
100
AcDbSpline
210
0.0
220
0.0
230
1.0
 70
    11
 71
     3
 72
    17
 73
    13
 74
     0
 42
0.0000000001
 43
0.0000000001
 12
1.0
 22
0.0
 32
0.0
 13
1.0
 23
0.0
 33
0.0
 40
0.0
 40
0.0
 40
0.0
 40
0.0
 40
1.0
 40
1.0
 40
1.0
 40
2.0
 40
2.0
 40
2.0
 40
3.0
 40
3.0
 40
3.0
 40
4.0
 40
4.0
 40
4.0
 40
4.0
 10
75.1012011395643
 20
-111.1308560833284
 30
0.0
 10
75.1012011395643
 20
-111.0757521944531
 30
0.0
 10
75.05675114069831
 20
-111.0309494166867
 30
0.0
 10
75.00129447544646
 20
-111.0309494166867
 30
0.0
 10
74.94580253241773
 20
-111.0309494166867
 30
0.0
 10
74.90103503355985
 20
-111.0757521944531
 30
0.0
 10
74.90103503355985
 20
-111.1308560833284
 30
0.0
 10
74.90103503355985
 20
-111.1859952499811
 30
0.0
 10
74.94580253241773
 20
-111.23076274997
 30
0.0
 10
75.00129447544646
 20
-111.23076274997
 30
0.0
 10
75.05675114069831
 20
-111.23076274997
 30
0.0
 10
75.1012011395643
 20
-111.1859952499811
 30
0.0
 10
75.1012011395643
 20
-111.1308560833284
 30
0.0
  0
SPLINE
  5
58
330
1F
100
AcDbEntity
  8
_U+30EC_U+30A4_U+30E4_U+30FC 1
 62
     7
420
 16777215
370
     9
100
AcDbSpline
210
0.0
220
0.0
230
1.0
 70
    11
 71
     3
 72
    17
 73
    13
 74
     0
 42
0.0000000001
 43
0.0000000001
 12
1.0
 22
0.0
 32
0.0
 13
1.0
 23
0.0
 33
0.0
 40
0.0
 40
0.0
 40
0.0
 40
0.0
 40
1.0
 40
1.0
 40
1.0
 40
2.0
 40
2.0
 40
2.0
 40
3.0
 40
3.0
 40
3.0
 40
4.0
 40
4.0
 40
4.0
 40
4.0
 10
75.1012011395643
 20
-141.1307607980509
 30
0.0
 10
75.1012011395643
 20
-141.0756216313979
 30
0.0
 10
75.05675114069831
 20
-141.0308541314087
 30
0.0
 10
75.00129447544646
 20
-141.0308541314087
 30
0.0
 10
74.94580253241773
 20
-141.0308541314087
 30
0.0
 10
74.90103503355985
 20
-141.0756216313979
 30
0.0
 10
74.90103503355985
 20
-141.1307607980509
 30
0.0
 10
74.90103503355985
 20
-141.1858646869258
 30
0.0
 10
74.94580253241773
 20
-141.2306674646926
 30
0.0
 10
75.00129447544646
 20
-141.2306674646926
 30
0.0
 10
75.05675114069831
 20
-141.2306674646926
 30
0.0
 10
75.1012011395643
 20
-141.1858646869258
 30
0.0
 10
75.1012011395643
 20
-141.1307607980509
 30
0.0
  0
SPLINE
  5
59
330
1F
100
AcDbEntity
  8
_U+30EC_U+30A4_U+30E4_U+30FC 1
 62
     7
420
 16777215
370
    25
100
AcDbSpline
210
0.0
220
0.0
230
1.0
 70
    11
 71
     3
 72
    35
 73
    31
 74
     0
 42
0.0000000001
 43
0.0000000001
 12
1.0
 22
0.0
 32
0.0
 13
1.0
 23
0.0
 33
0.0
 40
0.0
 40
0.0
 40
0.0
 40
0.0
 40
1.0
 40
1.0
 40
1.0
 40
2.0
 40
2.0
 40
2.0
 40
3.0
 40
3.0
 40
3.0
 40
4.0
 40
4.0
 40
4.0
 40
5.0
 40
5.0
 40
5.0
 40
6.0
 40
6.0
 40
6.0
 40
7.0
 40
7.0
 40
7.0
 40
8.0
 40
8.0
 40
8.0
 40
9.0
 40
9.0
 40
9.0
 40
10.0
 40
10.0
 40
10.0
 40
10.0
 10
79.00137104006266
 20
-111.1308560833284
 30
0.0
 10
79.00137104006266
 20
-111.1308560833284
 30
0.0
 10
80.20130934278302
 20
-111.1308560833284
 30
0.0
 10
80.20130934278302
 20
-111.1308560833284
 30
0.0
 10
80.20130934278302
 20
-111.1308560833284
 30
0.0
 10
80.20130934278302
 20
-131.1310277449947
 30
0.0
 10
80.20130934278302
 20
-131.1310277449947
 30
0.0
 10
80.23126017535225
 20
-135.3429827439421
 30
0.0
 10
84.03053563398021
 20
-139.9311752427951
 30
0.0
 10
89.00110384050379
 20
-139.9311752427951
 30
0.0
 10
89.00110384050379
 20
-139.9311752427951
 30
0.0
 10
109.001451385808
 20
-139.9311752427951
 30
0.0
 10
109.001451385808
 20
-139.9311752427951
 30
0.0
 10
109.001451385808
 20
-139.9311752427951
 30
0.0
 10
109.001451385808
 20
-141.1307607980509
 30
0.0
 10
109.001451385808
 20
-141.1307607980509
 30
0.0
 10
109.001451385808
 20
-141.1307607980509
 30
0.0
 10
89.33733633192578
 20
-141.1252221869412
 30
0.0
 10
89.33733633192578
 20
-141.1252221869412
 30
0.0
 10
89.11343053327705
 20
-141.1328069091612
 30
0.0
 10
88.88881467670186
 20
-141.1328069091612
 30
0.0
 10
88.66487134908179
 20
-141.1252221869412
 30
0.0
 10
83.1451360903248
 20
-140.939202464765
 30
0.0
 10
78.82120743354791
 20
-136.3144974659214
 30
0.0
 10
79.0068743732556
 20
-130.794759967301
 30
0.0
 10
79.0068743732556
 20
-130.794759967301
 30
0.0
 10
79.0068743732556
 20
-130.7572244117553
 30
0.0
 10
79.0068743732556
 20
-130.7572244117553
 30
0.0
 10
79.0068743732556
 20
-130.7572244117553
 30
0.0
 10
79.00137104006266
 20
-111.1308560833284
 30
0.0
 10
79.00137104006266
 20
-111.1308560833284
 30
0.0
  0
INSERT
  5
5B
330
1F
100
AcDbEntity
  8
_U+30EC_U+30A4_U+30E4_U+30FC 1
100
AcDbBlockReference
  2
block 2
 10
0.0
 20
0.0
 30
0.0
  0
POLYLINE
  5
66
330
1F
100
AcDbEntity
  8
_U+30EC_U+30A4_U+30E4_U+30FC 1
 62
     7
420
 16777215
370
     9
100
AcDb2dPolyline
 66
     1
 10
0.0
 20
0.0
 30
0.0
  0
VERTEX
  5
67
330
66
100
AcDbEntity
  8
_U+30EC_U+30A4_U+30E4_U+30FC 1
 62
     7
420
 16777215
370
     9
100
AcDbVertex
100
AcDb2dVertex
 10
113.001880728193
 20
-139.9311752427951
 30
0.0
  0
VERTEX
  5
68
330
66
100
AcDbEntity
  8
_U+30EC_U+30A4_U+30E4_U+30FC 1
 62
     7
420
 16777215
370
     9
100
AcDbVertex
100
AcDb2dVertex
 10
113.001880728193
 20
-134.8730827440595
 30
0.0
  0
SEQEND
  5
69
330
66
100
AcDbEntity
  8
_U+30EC_U+30A4_U+30E4_U+30FC 1
 62
     7
420
 16777215
370
     9
  0
POLYLINE
  5
6A
330
1F
100
AcDbEntity
  8
_U+30EC_U+30A4_U+30E4_U+30FC 1
 62
     7
420
 16777215
370
     9
100
AcDb2dPolyline
 66
     1
 10
0.0
 20
0.0
 30
0.0
  0
VERTEX
  5
6B
330
6A
100
AcDbEntity
  8
_U+30EC_U+30A4_U+30E4_U+30FC 1
 62
     7
420
 16777215
370
     9
100
AcDbVertex
100
AcDb2dVertex
 10
113.001880728193
 20
-139.9311752427951
 30
0.0
  0
VERTEX
  5
6C
330
6A
100
AcDbEntity
  8
_U+30EC_U+30A4_U+30E4_U+30FC 1
 62
     7
420
 16777215
370
     9
100
AcDbVertex
100
AcDb2dVertex
 10
113.001880728193
 20
-142.1291219089124
 30
0.0
  0
SEQEND
  5
6D
330
6A
100
AcDbEntity
  8
_U+30EC_U+30A4_U+30E4_U+30FC 1
 62
     7
420
 16777215
370
     9
  0
POLYLINE
  5
6E
330
1F
100
AcDbEntity
  8
_U+30EC_U+30A4_U+30E4_U+30FC 1
 62
     7
420
 16777215
370
     9
100
AcDb2dPolyline
 66
     1
 10
0.0
 20
0.0
 30
0.0
  0
VERTEX
  5
6F
330
6E
100
AcDbEntity
  8
_U+30EC_U+30A4_U+30E4_U+30FC 1
 62
     7
420
 16777215
370
     9
100
AcDbVertex
100
AcDb2dVertex
 10
111.5418393765528
 20
-139.9311752427951
 30
0.0
  0
VERTEX
  5
70
330
6E
100
AcDbEntity
  8
_U+30EC_U+30A4_U+30E4_U+30FC 1
 62
     7
420
 16777215
370
     9
100
AcDbVertex
100
AcDb2dVertex
 10
114.0016529249089
 20
-139.9311752427951
 30
0.0
  0
SEQEND
  5
71
330
6E
100
AcDbEntity
  8
_U+30EC_U+30A4_U+30E4_U+30FC 1
 62
     7
420
 16777215
370
     9
  0
POLYLINE
  5
72
330
1F
100
AcDbEntity
  8
_U+30EC_U+30A4_U+30E4_U+30FC 1
 62
     7
420
 16777215
370
     9
100
AcDb2dPolyline
 66
     1
 10
0.0
 20
0.0
 30
0.0
  0
VERTEX
  5
73
330
72
100
AcDbEntity
  8
_U+30EC_U+30A4_U+30E4_U+30FC 1
 62
     7
420
 16777215
370
     9
100
AcDbVertex
100
AcDb2dVertex
 10
111.5418393765528
 20
-141.1286794091625
 30
0.0
  0
VERTEX
  5
74
330
72
100
AcDbEntity
  8
_U+30EC_U+30A4_U+30E4_U+30FC 1
 62
     7
420
 16777215
370
     9
100
AcDbVertex
100
AcDb2dVertex
 10
114.0016529249089
 20
-141.1286794091625
 30
0.0
  0
SEQEND
  5
75
330
72
100
AcDbEntity
  8
_U+30EC_U+30A4_U+30E4_U+30FC 1
 62
     7
420
 16777215
370
     9
  0
INSERT
  5
77
330
1F
100
AcDbEntity
  8
_U+30EC_U+30A4_U+30E4_U+30FC 1
100
AcDbBlockReference
  2
block 3
 10
0.0
 20
0.0
 30
0.0
  0
POLYLINE
  5
86
330
1F
100
AcDbEntity
  8
_U+30EC_U+30A4_U+30E4_U+30FC 1
 62
     7
420
 16777215
370
     9
100
AcDb2dPolyline
 66
     1
 10
0.0
 20
0.0
 30
0.0
  0
VERTEX
  5
87
330
86
100
AcDbEntity
  8
_U+30EC_U+30A4_U+30E4_U+30FC 1
 62
     7
420
 16777215
370
     9
100
AcDbVertex
100
AcDb2dVertex
 10
109.001451385808
 20
-145.1311902414952
 30
0.0
  0
VERTEX
  5
88
330
86
100
AcDbEntity
  8
_U+30EC_U+30A4_U+30E4_U+30FC 1
 62
     7
420
 16777215
370
     9
100
AcDbVertex
100
AcDb2dVertex
 10
89.00128022938817
 20
-145.1311902414952
 30
0.0
  0
SEQEND
  5
89
330
86
100
AcDbEntity
  8
_U+30EC_U+30A4_U+30E4_U+30FC 1
 62
     7
420
 16777215
370
     9
  0
POLYLINE
  5
8A
330
1F
100
AcDbEntity
  8
_U+30EC_U+30A4_U+30E4_U+30FC 1
 62
     7
420
 16777215
370
     9
100
AcDb2dPolyline
 66
     1
 10
0.0
 20
0.0
 30
0.0
  0
VERTEX
  5
8B
330
8A
100
AcDbEntity
  8
_U+30EC_U+30A4_U+30E4_U+30FC 1
 62
     7
420
 16777215
370
     9
100
AcDbVertex
100
AcDb2dVertex
 10
89.00145661827257
 20
-145.1311902414952
 30
0.0
  0
VERTEX
  5
8C
330
8A
100
AcDbEntity
  8
_U+30EC_U+30A4_U+30E4_U+30FC 1
 62
     7
420
 16777215
370
     9
100
AcDbVertex
100
AcDb2dVertex
 10
79.00137104006266
 20
-145.1311902414952
 30
0.0
  0
SEQEND
  5
8D
330
8A
100
AcDbEntity
  8
_U+30EC_U+30A4_U+30E4_U+30FC 1
 62
     7
420
 16777215
370
     9
  0
POLYLINE
  5
8E
330
1F
100
AcDbEntity
  8
_U+30EC_U+30A4_U+30E4_U+30FC 1
 62
     7
420
 16777215
370
     9
100
AcDb2dPolyline
 66
     1
 10
0.0
 20
0.0
 30
0.0
  0
VERTEX
  5
8F
330
8E
100
AcDbEntity
  8
_U+30EC_U+30A4_U+30E4_U+30FC 1
 62
     7
420
 16777215
370
     9
100
AcDbVertex
100
AcDb2dVertex
 10
109.001451385808
 20
-143.0710385753436
 30
0.0
  0
VERTEX
  5
90
330
8E
100
AcDbEntity
  8
_U+30EC_U+30A4_U+30E4_U+30FC 1
 62
     7
420
 16777215
370
     9
100
AcDbVertex
100
AcDb2dVertex
 10
109.001451385808
 20
-146.1309624634671
 30
0.0
  0
SEQEND
  5
91
330
8E
100
AcDbEntity
  8
_U+30EC_U+30A4_U+30E4_U+30FC 1
 62
     7
420
 16777215
370
     9
  0
SPLINE
  5
92
330
1F
100
AcDbEntity
  8
_U+30EC_U+30A4_U+30E4_U+30FC 1
 62
     7
420
 16777215
370
     9
100
AcDbSpline
210
0.0
220
0.0
230
1.0
 70
    11
 71
     3
 72
    17
 73
    13
 74
     0
 42
0.0000000001
 43
0.0000000001
 12
1.0
 22
0.0
 32
0.0
 13
1.0
 23
0.0
 33
0.0
 40
0.0
 40
0.0
 40
0.0
 40
0.0
 40
1.0
 40
1.0
 40
1.0
 40
2.0
 40
2.0
 40
2.0
 40
3.0
 40
3.0
 40
3.0
 40
4.0
 40
4.0
 40
4.0
 40
4.0
 10
89.10118689350601
 20
-145.1311902414952
 30
0.0
 10
89.10118689350601
 20
-145.0753807970647
 30
0.0
 10
89.05641939464813
 20
-145.0306132970755
 30
0.0
 10
89.00128022938817
 20
-145.0306132970755
 30
0.0
 10
88.9461763419051
 20
-145.0306132970755
 30
0.0
 10
88.90137356527033
 20
-145.0753807970647
 30
0.0
 10
88.90137356527033
 20
-145.1311902414952
 30
0.0
 10
88.90137356527033
 20
-145.1863294081476
 30
0.0
 10
88.9461763419051
 20
-145.2310969081368
 30
0.0
 10
89.00128022938817
 20
-145.2310969081368
 30
0.0
 10
89.05641939464813
 20
-145.2310969081368
 30
0.0
 10
89.10118689350601
 20
-145.1863294081476
 30
0.0
 10
89.10118689350601
 20
-145.1311902414952
 30
0.0
  0
POLYLINE
  5
93
330
1F
100
AcDbEntity
  8
_U+30EC_U+30A4_U+30E4_U+30FC 1
 62
     7
420
 16777215
370
     9
100
AcDb2dPolyline
 66
     1
 10
0.0
 20
0.0
 30
0.0
  0
VERTEX
  5
94
330
93
100
AcDbEntity
  8
_U+30EC_U+30A4_U+30E4_U+30FC 1
 62
     7
420
 16777215
370
     9
100
AcDbVertex
100
AcDb2dVertex
 10
89.00128022938817
 20
-143.0710385753436
 30
0.0
  0
VERTEX
  5
95
330
93
100
AcDbEntity
  8
_U+30EC_U+30A4_U+30E4_U+30FC 1
 62
     7
420
 16777215
370
     9
100
AcDbVertex
100
AcDb2dVertex
 10
89.00128022938817
 20
-146.1309624634671
 30
0.0
  0
SEQEND
  5
96
330
93
100
AcDbEntity
  8
_U+30EC_U+30A4_U+30E4_U+30FC 1
 62
     7
420
 16777215
370
     9
  0
POLYLINE
  5
97
330
1F
100
AcDbEntity
  8
_U+30EC_U+30A4_U+30E4_U+30FC 1
 62
     7
420
 16777215
370
     9
100
AcDb2dPolyline
 66
     1
 10
0.0
 20
0.0
 30
0.0
  0
VERTEX
  5
98
330
97
100
AcDbEntity
  8
_U+30EC_U+30A4_U+30E4_U+30FC 1
 62
     7
420
 16777215
370
     9
100
AcDbVertex
100
AcDb2dVertex
 10
79.00137104006266
 20
-133.6707455221379
 30
0.0
  0
VERTEX
  5
99
330
97
100
AcDbEntity
  8
_U+30EC_U+30A4_U+30E4_U+30FC 1
 62
     7
420
 16777215
370
     9
100
AcDbVertex
100
AcDb2dVertex
 10
79.00137104006266
 20
-146.1309624634671
 30
0.0
  0
SEQEND
  5
9A
330
97
100
AcDbEntity
  8
_U+30EC_U+30A4_U+30E4_U+30FC 1
 62
     7
420
 16777215
370
     9
  0
INSERT
  5
9C
330
1F
100
AcDbEntity
  8
_U+30EC_U+30A4_U+30E4_U+30FC 1
100
AcDbBlockReference
  2
block 4
 10
0.0
 20
0.0
 30
0.0
  0
INSERT
  5
A5
330
1F
100
AcDbEntity
  8
_U+30EC_U+30A4_U+30E4_U+30FC 1
100
AcDbBlockReference
  2
block 5
 10
0.0
 20
0.0
 30
0.0
  0
POLYLINE
  5
AD
330
1F
100
AcDbEntity
  8
_U+30EC_U+30A4_U+30E4_U+30FC 1
 62
     7
420
 16777215
370
     9
100
AcDb2dPolyline
 66
     1
 10
0.0
 20
0.0
 30
0.0
  0
VERTEX
  5
AE
330
AD
100
AcDbEntity
  8
_U+30EC_U+30A4_U+30E4_U+30FC 1
 62
     7
420
 16777215
370
     9
100
AcDbVertex
100
AcDb2dVertex
 10
75.00129447544646
 20
-111.1308560833284
 30
0.0
  0
VERTEX
  5
AF
330
AD
100
AcDbEntity
  8
_U+30EC_U+30A4_U+30E4_U+30FC 1
 62
     7
420
 16777215
370
     9
100
AcDbVertex
100
AcDb2dVertex
 10
75.00129447544646
 20
-141.1307607980509
 30
0.0
  0
SEQEND
  5
B0
330
AD
100
AcDbEntity
  8
_U+30EC_U+30A4_U+30E4_U+30FC 1
 62
     7
420
 16777215
370
     9
  0
POLYLINE
  5
B1
330
1F
100
AcDbEntity
  8
_U+30EC_U+30A4_U+30E4_U+30FC 1
 62
     7
420
 16777215
370
     9
100
AcDb2dPolyline
 66
     1
 10
0.0
 20
0.0
 30
0.0
  0
VERTEX
  5
B2
330
B1
100
AcDbEntity
  8
_U+30EC_U+30A4_U+30E4_U+30FC 1
 62
     7
420
 16777215
370
     9
100
AcDbVertex
100
AcDb2dVertex
 10
77.0610933117855
 20
-111.1308560833284
 30
0.0
  0
VERTEX
  5
B3
330
B1
100
AcDbEntity
  8
_U+30EC_U+30A4_U+30E4_U+30FC 1
 62
     7
420
 16777215
370
     9
100
AcDbVertex
100
AcDb2dVertex
 10
74.00116950096177
 20
-111.1308560833284
 30
0.0
  0
SEQEND
  5
B4
330
B1
100
AcDbEntity
  8
_U+30EC_U+30A4_U+30E4_U+30FC 1
 62
     7
420
 16777215
370
     9
  0
POLYLINE
  5
B5
330
1F
100
AcDbEntity
  8
_U+30EC_U+30A4_U+30E4_U+30FC 1
 62
     7
420
 16777215
370
     9
100
AcDb2dPolyline
 66
     1
 10
0.0
 20
0.0
 30
0.0
  0
VERTEX
  5
B6
330
B5
100
AcDbEntity
  8
_U+30EC_U+30A4_U+30E4_U+30FC 1
 62
     7
420
 16777215
370
     9
100
AcDbVertex
100
AcDb2dVertex
 10
86.4613861275196
 20
-141.1307607980509
 30
0.0
  0
VERTEX
  5
B7
330
B5
100
AcDbEntity
  8
_U+30EC_U+30A4_U+30E4_U+30FC 1
 62
     7
420
 16777215
370
     9
100
AcDbVertex
100
AcDb2dVertex
 10
74.00116950096177
 20
-141.1307607980509
 30
0.0
  0
SEQEND
  5
B8
330
B5
100
AcDbEntity
  8
_U+30EC_U+30A4_U+30E4_U+30FC 1
 62
     7
420
 16777215
370
     9
  0
INSERT
  5
BA
330
1F
100
AcDbEntity
  8
_U+30EC_U+30A4_U+30E4_U+30FC 1
100
AcDbBlockReference
  2
block 6
 10
0.0
 20
0.0
 30
0.0
  0
ENDSEC
  0
SECTION
  2
OBJECTS
  0
DICTIONARY
  5
C
330
0
100
AcDbDictionary
281
     1
  3
ACAD_GROUP
350
D
  3
ACAD_LAYOUT
350
1A
  3
ACAD_MATERIAL
350
3B
  3
ACAD_MLEADERSTYLE
350
C3
  3
ACAD_MLINESTYLE
350
17
  3
ACAD_PLOTSETTINGS
350
19
  3
ACAD_PLOTSTYLENAME
350
E
  3
ACAD_TABLESTYLE
350
C2
  3
ACAD_VISUALSTYLE
350
2A
  0
SUN
  5
3F
330
29
100
AcDbSun
 90
        1
290
     0
 63
     7
421
 16777215
 40
1.0
291
     1
 91
  2455826
 92
 54000000
292
     0
 70
     2
 71
   256
280
     1
  0
DICTIONARY
  5
D
102
{ACAD_REACTORS
330
C
102
}
330
C
100
AcDbDictionary
281
     1
  0
DICTIONARY
  5
1A
102
{ACAD_REACTORS
330
C
102
}
330
C
100
AcDbDictionary
281
     1
  3
Layout1
350
1E
  3
Layout2
350
26
  3
Model
350
22
  0
DICTIONARY
  5
3B
102
{ACAD_REACTORS
330
C
102
}
330
C
100
AcDbDictionary
281
     1
  3
ByBlock
350
3D
  3
ByLayer
350
3C
  3
Global
350
3E
  0
DICTIONARY
  5
C3
102
{ACAD_REACTORS
330
C
102
}
330
C
100
AcDbDictionary
281
     1
  0
DICTIONARY
  5
17
102
{ACAD_REACTORS
330
C
102
}
330
C
100
AcDbDictionary
281
     1
  3
Standard
350
18
  0
DICTIONARY
  5
19
102
{ACAD_REACTORS
330
C
102
}
330
C
100
AcDbDictionary
281
     1
  0
ACDBDICTIONARYWDFLT
  5
E
102
{ACAD_REACTORS
330
C
102
}
330
C
100
AcDbDictionary
281
     1
  3
Normal
350
F
100
AcDbDictionaryWithDefault
340
F
  0
DICTIONARY
  5
C2
102
{ACAD_REACTORS
330
C
102
}
330
C
100
AcDbDictionary
281
     1
  0
DICTIONARY
  5
2A
102
{ACAD_REACTORS
330
C
102
}
330
C
100
AcDbDictionary
281
     1
  3
2dWireframe
350
2F
  3
3D Hidden
350
31
  3
3dWireframe
350
30
  3
Basic
350
32
  3
Brighten
350
36
  3
ColorChange
350
3A
  3
Conceptual
350
34
  3
Dim
350
35
  3
Facepattern
350
39
  3
Flat
350
2B
  3
FlatWithEdges
350
2C
  3
Gouraud
350
2D
  3
GouraudWithEdges
350
2E
  3
Linepattern
350
38
  3
Realistic
350
33
  3
Thicken
350
37
  0
LAYOUT
  5
1E
102
{ACAD_REACTORS
330
1A
102
}
330
1A
100
AcDbPlotSettings
  1

  2
none_device
  4

  6

 40
0.0
 41
0.0
 42
0.0
 43
0.0
 44
0.0
 45
0.0
 46
0.0
 47
0.0
 48
0.0
 49
0.0
140
0.0
141
0.0
142
1.0
143
1.0
 70
   688
 72
     0
 73
     0
 74
     5
  7

 75
    16
 76
     0
 77
     2
 78
   300
147
1.0
148
0.0
149
0.0
100
AcDbLayout
  1
Layout1
 70
     1
 71
     1
 10
0.0
 20
0.0
 11
12.0
 21
9.0
 12
0.0
 22
0.0
 32
0.0
 14
1.000000000000000E+20
 24
1.000000000000000E+20
 34
1.000000000000000E+20
 15
-1.000000000000000E+20
 25
-1.000000000000000E+20
 35
-1.000000000000000E+20
146
0.0
 13
0.0
 23
0.0
 33
0.0
 16
1.0
 26
0.0
 36
0.0
 17
0.0
 27
1.0
 37
0.0
 76
     0
330
1B
  0
LAYOUT
  5
26
102
{ACAD_REACTORS
330
1A
102
}
330
1A
100
AcDbPlotSettings
  1

  2
none_device
  4

  6

 40
0.0
 41
0.0
 42
0.0
 43
0.0
 44
0.0
 45
0.0
 46
0.0
 47
0.0
 48
0.0
 49
0.0
140
0.0
141
0.0
142
1.0
143
1.0
 70
   688
 72
     0
 73
     0
 74
     5
  7

 75
    16
 76
     0
 77
     2
 78
   300
147
1.0
148
0.0
149
0.0
100
AcDbLayout
  1
Layout2
 70
     1
 71
     2
 10
0.0
 20
0.0
 11
0.0
 21
0.0
 12
0.0
 22
0.0
 32
0.0
 14
0.0
 24
0.0
 34
0.0
 15
0.0
 25
0.0
 35
0.0
146
0.0
 13
0.0
 23
0.0
 33
0.0
 16
1.0
 26
0.0
 36
0.0
 17
0.0
 27
1.0
 37
0.0
 76
     0
330
23
  0
LAYOUT
  5
22
102
{ACAD_REACTORS
330
1A
102
}
330
1A
100
AcDbPlotSettings
  1

  2
none_device
  4

  6

 40
0.0
 41
0.0
 42
0.0
 43
0.0
 44
0.0
 45
0.0
 46
0.0
 47
0.0
 48
0.0
 49
0.0
140
0.0
141
0.0
142
1.0
143
1.0
 70
  1712
 72
     0
 73
     0
 74
     0
  7

 75
     0
 76
     0
 77
     2
 78
   300
147
1.0
148
0.0
149
0.0
100
AcDbLayout
  1
Model
 70
     1
 71
     0
 10
0.0
 20
0.0
 11
12.0
 21
9.0
 12
0.0
 22
0.0
 32
0.0
 14
1.000000000000000E+20
 24
1.000000000000000E+20
 34
1.000000000000000E+20
 15
-1.000000000000000E+20
 25
-1.000000000000000E+20
 35
-1.000000000000000E+20
146
0.0
 13
0.0
 23
0.0
 33
0.0
 16
1.0
 26
0.0
 36
0.0
 17
0.0
 27
1.0
 37
0.0
 76
     0
330
1F
331
29
  0
MATERIAL
  5
3D
102
{ACAD_REACTORS
330
3B
102
}
330
3B
100
AcDbMaterial
  1
ByBlock
 72
     1
 94
      127
  0
MATERIAL
  5
3C
102
{ACAD_REACTORS
330
3B
102
}
330
3B
100
AcDbMaterial
  1
ByLayer
 72
     1
 94
      127
  0
MATERIAL
  5
3E
102
{ACAD_REACTORS
330
3B
102
}
330
3B
100
AcDbMaterial
  1
Global
 72
     1
 94
      127
  0
MLINESTYLE
  5
18
102
{ACAD_REACTORS
330
17
102
}
330
17
100
AcDbMlineStyle
  2
Standard
 70
     0
  3

 62
   256
 51
90.0
 52
90.0
 71
     2
 49
0.5
 62
   256
  6
BYLAYER
 49
-0.5
 62
   256
  6
BYLAYER
  0
ACDBPLACEHOLDER
  5
F
102
{ACAD_REACTORS
330
E
102
}
330
E
  0
VISUALSTYLE
  5
2F
102
{ACAD_REACTORS
330
2A
102
}
330
2A
100
AcDbVisualStyle
  2
2dWireframe
 70
     4
177
     2
291
     0
 71
     0
176
     1
 72
     2
176
     1
 73
     0
176
     1
 90
        0
176
     1
 40
-0.6
176
     1
 41
-30.0
176
     1
 62
     5
 63
     7
421
 16777215
176
     1
 74
     1
176
     1
 91
        4
176
     1
 64
     7
176
     1
 65
   257
176
     1
 75
     1
176
     1
175
     1
176
     1
 42
1.0
176
     1
 92
        0
176
     1
 66
   257
176
     1
 43
1.0
176
     1
 76
     1
176
     1
 77
     6
176
     1
 78
     2
176
     1
 67
     7
176
     1
 79
     5
176
     1
170
     0
176
     1
171
     0
176
     1
290
     0
176
     1
 93
        1
176
     1
 44
0.0
176
     1
173
     0
176
     1
  0
VISUALSTYLE
  5
31
102
{ACAD_REACTORS
330
2A
102
}
330
2A
100
AcDbVisualStyle
  2
3D Hidden
 70
     6
177
     2
291
     0
 71
     1
176
     1
 72
     2
176
     1
 73
     2
176
     1
 90
        0
176
     1
 40
-0.6
176
     1
 41
-30.0
176
     1
 62
     5
 63
     7
421
 16777215
176
     1
 74
     2
176
     1
 91
        2
176
     1
 64
     7
176
     1
 65
   257
176
     1
 75
     2
176
     1
175
     1
176
     1
 42
40.0
176
     1
 92
        0
176
     1
 66
   257
176
     1
 43
1.0
176
     1
 76
     1
176
     1
 77
     6
176
     1
 78
     2
176
     1
 67
     7
176
     1
 79
     3
176
     1
170
     0
176
     1
171
     0
176
     1
290
     0
176
     1
 93
        1
176
     1
 44
0.0
176
     1
173
     0
176
     1
  0
VISUALSTYLE
  5
30
102
{ACAD_REACTORS
330
2A
102
}
330
2A
100
AcDbVisualStyle
  2
3dWireframe
 70
     5
177
     2
291
     0
 71
     0
176
     1
 72
     2
176
     1
 73
     0
176
     1
 90
        0
176
     1
 40
-0.6
176
     1
 41
-30.0
176
     1
 62
     5
 63
     7
421
 16777215
176
     1
 74
     1
176
     1
 91
        4
176
     1
 64
     7
176
     1
 65
   257
176
     1
 75
     1
176
     1
175
     1
176
     1
 42
1.0
176
     1
 92
        0
176
     1
 66
   257
176
     1
 43
1.0
176
     1
 76
     1
176
     1
 77
     6
176
     1
 78
     2
176
     1
 67
     7
176
     1
 79
     5
176
     1
170
     0
176
     1
171
     0
176
     1
290
     0
176
     1
 93
        1
176
     1
 44
0.0
176
     1
173
     0
176
     1
  0
VISUALSTYLE
  5
32
102
{ACAD_REACTORS
330
2A
102
}
330
2A
100
AcDbVisualStyle
  2
Basic
 70
     7
177
     2
291
     1
 71
     1
176
     1
 72
     0
176
     1
 73
     1
176
     1
 90
        0
176
     1
 40
-0.6
176
     1
 41
-30.0
176
     1
 62
     5
 63
     7
421
 16777215
176
     1
 74
     0
176
     1
 91
        4
176
     1
 64
     7
176
     1
 65
   257
176
     1
 75
     1
176
     1
175
     1
176
     1
 42
1.0
176
     1
 92
        8
176
     1
 66
     7
176
     1
 43
1.0
176
     1
 76
     1
176
     1
 77
     6
176
     1
 78
     2
176
     1
 67
     7
176
     1
 79
     5
176
     1
170
     0
176
     1
171
     0
176
     1
290
     0
176
     1
 93
        1
176
     1
 44
0.0
176
     1
173
     0
176
     1
  0
VISUALSTYLE
  5
36
102
{ACAD_REACTORS
330
2A
102
}
330
2A
100
AcDbVisualStyle
  2
Brighten
 70
    12
177
     2
291
     1
 71
     2
176
     1
 72
     2
176
     1
 73
     0
176
     1
 90
        0
176
     1
 40
-0.6
176
     1
 41
-30.0
176
     1
 62
     5
 63
     7
421
 16777215
176
     1
 74
     1
176
     1
 91
        4
176
     1
 64
     7
176
     1
 65
   257
176
     1
 75
     1
176
     1
175
     1
176
     1
 42
1.0
176
     1
 92
        8
176
     1
 66
     7
176
     1
 43
1.0
176
     1
 76
     1
176
     1
 77
     6
176
     1
 78
     2
176
     1
 67
     7
176
     1
 79
     5
176
     1
170
     0
176
     1
171
     0
176
     1
290
     0
176
     1
 93
        1
176
     1
 44
50.0
176
     1
173
     0
176
     1
  0
VISUALSTYLE
  5
3A
102
{ACAD_REACTORS
330
2A
102
}
330
2A
100
AcDbVisualStyle
  2
ColorChange
 70
    16
177
     2
291
     1
 71
     2
176
     1
 72
     2
176
     1
 73
     3
176
     1
 90
        0
176
     1
 40
-0.6
176
     1
 41
-30.0
176
     1
 62
     5
 63
     8
421
  8421504
176
     1
 74
     1
176
     1
 91
        4
176
     1
 64
     7
176
     1
 65
   257
176
     1
 75
     1
176
     1
175
     1
176
     1
 42
1.0
176
     1
 92
        8
176
     1
 66
     8
424
  8421504
176
     1
 43
1.0
176
     1
 76
     1
176
     1
 77
     6
176
     1
 78
     2
176
     1
 67
     7
176
     1
 79
     5
176
     1
170
     0
176
     1
171
     0
176
     1
290
     0
176
     1
 93
        1
176
     1
 44
0.0
176
     1
173
     0
176
     1
  0
VISUALSTYLE
  5
34
102
{ACAD_REACTORS
330
2A
102
}
330
2A
100
AcDbVisualStyle
  2
Conceptual
 70
     9
177
     2
291
     0
 71
     3
176
     1
 72
     2
176
     1
 73
     0
176
     1
 90
        0
176
     1
 40
-0.6
176
     1
 41
-30.0
176
     1
 62
     5
 63
     7
421
 16777215
176
     1
 74
     2
176
     1
 91
        2
176
     1
 64
     7
176
     1
 65
   257
176
     1
 75
     1
176
     1
175
     1
176
     1
 42
40.0
176
     1
 92
        8
176
     1
 66
     7
176
     1
 43
1.0
176
     1
 76
     1
176
     1
 77
     6
176
     1
 78
     2
176
     1
 67
     7
176
     1
 79
     3
176
     1
170
     0
176
     1
171
     0
176
     1
290
     0
176
     1
 93
        1
176
     1
 44
0.0
176
     1
173
     0
176
     1
  0
VISUALSTYLE
  5
35
102
{ACAD_REACTORS
330
2A
102
}
330
2A
100
AcDbVisualStyle
  2
Dim
 70
    11
177
     2
291
     1
 71
     2
176
     1
 72
     2
176
     1
 73
     0
176
     1
 90
        0
176
     1
 40
-0.6
176
     1
 41
-30.0
176
     1
 62
     5
 63
     7
421
 16777215
176
     1
 74
     1
176
     1
 91
        4
176
     1
 64
     7
176
     1
 65
   257
176
     1
 75
     1
176
     1
175
     1
176
     1
 42
1.0
176
     1
 92
        8
176
     1
 66
     7
176
     1
 43
1.0
176
     1
 76
     1
176
     1
 77
     6
176
     1
 78
     2
176
     1
 67
     7
176
     1
 79
     5
176
     1
170
     0
176
     1
171
     0
176
     1
290
     0
176
     1
 93
        1
176
     1
 44
-50.0
176
     1
173
     0
176
     1
  0
VISUALSTYLE
  5
39
102
{ACAD_REACTORS
330
2A
102
}
330
2A
100
AcDbVisualStyle
  2
Facepattern
 70
    15
177
     2
291
     1
 71
     2
176
     1
 72
     2
176
     1
 73
     0
176
     1
 90
        0
176
     1
 40
-0.6
176
     1
 41
-30.0
176
     1
 62
     5
 63
     7
421
 16777215
176
     1
 74
     1
176
     1
 91
        4
176
     1
 64
     7
176
     1
 65
   257
176
     1
 75
     1
176
     1
175
     1
176
     1
 42
1.0
176
     1
 92
        8
176
     1
 66
     7
176
     1
 43
1.0
176
     1
 76
     1
176
     1
 77
     6
176
     1
 78
     2
176
     1
 67
     7
176
     1
 79
     5
176
     1
170
     0
176
     1
171
     0
176
     1
290
     0
176
     1
 93
        1
176
     1
 44
0.0
176
     1
173
     0
176
     1
  0
VISUALSTYLE
  5
2B
102
{ACAD_REACTORS
330
2A
102
}
330
2A
100
AcDbVisualStyle
  2
Flat
 70
     0
177
     2
291
     1
 71
     2
176
     1
 72
     1
176
     1
 73
     1
176
     1
 90
        2
176
     1
 40
-0.6
176
     1
 41
30.0
176
     1
 62
     5
 63
     7
421
 16777215
176
     1
 74
     0
176
     1
 91
        4
176
     1
 64
     7
176
     1
 65
   257
176
     1
 75
     1
176
     1
175
     1
176
     1
 42
1.0
176
     1
 92
        8
176
     1
 66
     7
176
     1
 43
1.0
176
     1
 76
     1
176
     1
 77
     6
176
     1
 78
     2
176
     1
 67
     7
176
     1
 79
     5
176
     1
170
     0
176
     1
171
     0
176
     1
290
     0
176
     1
 93
       13
176
     1
 44
0.0
176
     1
173
     0
176
     1
  0
VISUALSTYLE
  5
2C
102
{ACAD_REACTORS
330
2A
102
}
330
2A
100
AcDbVisualStyle
  2
FlatWithEdges
 70
     1
177
     2
291
     1
 71
     2
176
     1
 72
     1
176
     1
 73
     1
176
     1
 90
        2
176
     1
 40
-0.6
176
     1
 41
30.0
176
     1
 62
     5
 63
     7
421
 16777215
176
     1
 74
     1
176
     1
 91
        4
176
     1
 64
     7
176
     1
 65
   257
176
     1
 75
     1
176
     1
175
     1
176
     1
 42
1.0
176
     1
 92
        0
176
     1
 66
   257
176
     1
 43
1.0
176
     1
 76
     1
176
     1
 77
     6
176
     1
 78
     2
176
     1
 67
     7
176
     1
 79
     5
176
     1
170
     0
176
     1
171
     0
176
     1
290
     0
176
     1
 93
       13
176
     1
 44
0.0
176
     1
173
     0
176
     1
  0
VISUALSTYLE
  5
2D
102
{ACAD_REACTORS
330
2A
102
}
330
2A
100
AcDbVisualStyle
  2
Gouraud
 70
     2
177
     2
291
     1
 71
     2
176
     1
 72
     2
176
     1
 73
     1
176
     1
 90
        2
176
     1
 40
-0.6
176
     1
 41
30.0
176
     1
 62
     5
 63
     7
421
 16777215
176
     1
 74
     0
176
     1
 91
        4
176
     1
 64
     7
176
     1
 65
   257
176
     1
 75
     1
176
     1
175
     1
176
     1
 42
1.0
176
     1
 92
        0
176
     1
 66
     7
176
     1
 43
1.0
176
     1
 76
     1
176
     1
 77
     6
176
     1
 78
     2
176
     1
 67
     7
176
     1
 79
     5
176
     1
170
     0
176
     1
171
     0
176
     1
290
     0
176
     1
 93
       13
176
     1
 44
0.0
176
     1
173
     0
176
     1
  0
VISUALSTYLE
  5
2E
102
{ACAD_REACTORS
330
2A
102
}
330
2A
100
AcDbVisualStyle
  2
GouraudWithEdges
 70
     3
177
     2
291
     1
 71
     2
176
     1
 72
     2
176
     1
 73
     1
176
     1
 90
        2
176
     1
 40
-0.6
176
     1
 41
30.0
176
     1
 62
     5
 63
     7
421
 16777215
176
     1
 74
     1
176
     1
 91
        4
176
     1
 64
     7
176
     1
 65
   257
176
     1
 75
     1
176
     1
175
     1
176
     1
 42
1.0
176
     1
 92
        0
176
     1
 66
   257
176
     1
 43
1.0
176
     1
 76
     1
176
     1
 77
     6
176
     1
 78
     2
176
     1
 67
     7
176
     1
 79
     5
176
     1
170
     0
176
     1
171
     0
176
     1
290
     0
176
     1
 93
       13
176
     1
 44
0.0
176
     1
173
     0
176
     1
  0
VISUALSTYLE
  5
38
102
{ACAD_REACTORS
330
2A
102
}
330
2A
100
AcDbVisualStyle
  2
Linepattern
 70
    14
177
     2
291
     1
 71
     2
176
     1
 72
     2
176
     1
 73
     0
176
     1
 90
        0
176
     1
 40
-0.6
176
     1
 41
-30.0
176
     1
 62
     5
 63
     7
421
 16777215
176
     1
 74
     1
176
     1
 91
        4
176
     1
 64
     7
176
     1
 65
   257
176
     1
 75
     7
176
     1
175
     7
176
     1
 42
1.0
176
     1
 92
        8
176
     1
 66
     7
176
     1
 43
1.0
176
     1
 76
     1
176
     1
 77
     6
176
     1
 78
     2
176
     1
 67
     7
176
     1
 79
     5
176
     1
170
     0
176
     1
171
     0
176
     1
290
     0
176
     1
 93
        1
176
     1
 44
0.0
176
     1
173
     0
176
     1
  0
VISUALSTYLE
  5
33
102
{ACAD_REACTORS
330
2A
102
}
330
2A
100
AcDbVisualStyle
  2
Realistic
 70
     8
177
     2
291
     0
 71
     2
176
     1
 72
     2
176
     1
 73
     0
176
     1
 90
        0
176
     1
 40
-0.6
176
     1
 41
-30.0
176
     1
 62
     5
 63
     7
421
 16777215
176
     1
 74
     1
176
     1
 91
        0
176
     1
 64
     7
176
     1
 65
   257
176
     1
 75
     1
176
     1
175
     1
176
     1
 42
1.0
176
     1
 92
        8
176
     1
 66
     8
424
  7895160
176
     1
 43
1.0
176
     1
 76
     1
176
     1
 77
     6
176
     1
 78
     2
176
     1
 67
     7
176
     1
 79
     5
176
     1
170
     0
176
     1
171
     0
176
     1
290
     0
176
     1
 93
       13
176
     1
 44
0.0
176
     1
173
     0
176
     1
  0
VISUALSTYLE
  5
37
102
{ACAD_REACTORS
330
2A
102
}
330
2A
100
AcDbVisualStyle
  2
Thicken
 70
    13
177
     2
291
     1
 71
     2
176
     1
 72
     2
176
     1
 73
     0
176
     1
 90
        0
176
     1
 40
-0.6
176
     1
 41
-30.0
176
     1
 62
     5
 63
     7
421
 16777215
176
     1
 74
     1
176
     1
 91
        4
176
     1
 64
     7
176
     1
 65
   257
176
     1
 75
     1
176
     1
175
     1
176
     1
 42
1.0
176
     1
 92
       12
176
     1
 66
     7
176
     1
 43
1.0
176
     1
 76
     1
176
     1
 77
     6
176
     1
 78
     2
176
     1
 67
     7
176
     1
 79
     5
176
     1
170
     0
176
     1
171
     0
176
     1
290
     0
176
     1
 93
        1
176
     1
 44
0.0
176
     1
173
     0
176
     1
  0
ENDSEC
  0
EOF
