  0
SECTION
  2
HEADER
  9
$ACADVER
  1
AC1024
  9
$ACADMAINTVER
 70
     6
  9
$DWGCODEPAGE
  3
UNDEFINED
  9
$INSBASE
 10
0.0
 20
0.0
 30
0.0
  9
$EXTMIN
 10
1.000000000000000E+20
 20
1.000000000000000E+20
 30
1.000000000000000E+20
  9
$EXTMAX
 10
-1.000000000000000E+20
 20
-1.000000000000000E+20
 30
-1.000000000000000E+20
  9
$LIMMIN
 10
0.0
 20
0.0
  9
$LIMMAX
 10
12.0
 20
9.0
  9
$ORTHOMODE
 70
     0
  9
$REGENMODE
 70
     1
  9
$FILLMODE
 70
     1
  9
$QTEXTMODE
 70
     0
  9
$MIRRTEXT
 70
     1
  9
$LTSCALE
 40
1.0
  9
$ATTMODE
 70
     1
  9
$TEXTSIZE
 40
0.2
  9
$TRACEWID
 40
0.05
  9
$TEXTSTYLE
  7
Standard
  9
$CLAYER
  8
0
  9
$CELTYPE
  6
ByLayer
  9
$CECOLOR
 62
   256
  9
$CELTSCALE
 40
1.0
  9
$DISPSILH
 70
     0
  9
$DIMSCALE
 40
1.0
  9
$DIMASZ
 40
0.18
  9
$DIMEXO
 40
0.0625
  9
$DIMDLI
 40
0.38
  9
$DIMRND
 40
0.0
  9
$DIMDLE
 40
0.0
  9
$DIMEXE
 40
0.18
  9
$DIMTP
 40
0.0
  9
$DIMTM
 40
0.0
  9
$DIMTXT
 40
0.18
  9
$DIMCEN
 40
0.09
  9
$DIMTSZ
 40
0.0
  9
$DIMTOL
 70
     0
  9
$DIMLIM
 70
     0
  9
$DIMTIH
 70
     1
  9
$DIMTOH
 70
     1
  9
$DIMSE1
 70
     0
  9
$DIMSE2
 70
     0
  9
$DIMTAD
 70
     0
  9
$DIMZIN
 70
     0
  9
$DIMBLK
  1

  9
$DIMASO
 70
     1
  9
$DIMSHO
 70
     1
  9
$DIMPOST
  1

  9
$DIMAPOST
  1

  9
$DIMALT
 70
     0
  9
$DIMALTD
 70
     2
  9
$DIMALTF
 40
25.4
  9
$DIMLFAC
 40
1.0
  9
$DIMTOFL
 70
     0
  9
$DIMTVP
 40
0.0
  9
$DIMTIX
 70
     0
  9
$DIMSOXD
 70
     0
  9
$DIMSAH
 70
     0
  9
$DIMBLK1
  1

  9
$DIMBLK2
  1

  9
$DIMSTYLE
  2
Standard
  9
$DIMCLRD
 70
     0
  9
$DIMCLRE
 70
     0
  9
$DIMCLRT
 70
     0
  9
$DIMTFAC
 40
1.0
  9
$DIMGAP
 40
0.09
  9
$DIMJUST
 70
     0
  9
$DIMSD1
 70
     0
  9
$DIMSD2
 70
     0
  9
$DIMTOLJ
 70
     1
  9
$DIMTZIN
 70
     0
  9
$DIMALTZ
 70
     0
  9
$DIMALTTZ
 70
     0
  9
$DIMUPT
 70
     0
  9
$DIMDEC
 70
     4
  9
$DIMTDEC
 70
     4
  9
$DIMALTU
 70
     2
  9
$DIMALTTD
 70
     2
  9
$DIMTXSTY
  7
Standard
  9
$DIMAUNIT
 70
     0
  9
$DIMADEC
 70
     0
  9
$DIMALTRND
 40
0.0
  9
$DIMAZIN
 70
     0
  9
$DIMDSEP
 70
    46
  9
$DIMATFIT
 70
     3
  9
$DIMFRAC
 70
     0
  9
$DIMLDRBLK
  1

  9
$DIMLUNIT
 70
     2
  9
$DIMLWD
 70
    -2
  9
$DIMLWE
 70
    -2
  9
$DIMTMOVE
 70
     0
  9
$DIMFXL
 40
1.0
  9
$DIMFXLON
 70
     0
  9
$DIMJOGANG
 40
0.7853981633974483
  9
$DIMTFILL
 70
     0
  9
$DIMTFILLCLR
 70
     0
  9
$DIMARCSYM
 70
     0
  9
$DIMLTYPE
  6

  9
$DIMLTEX1
  6

  9
$DIMLTEX2
  6

  9
$DIMTXTDIRECTION
 70
     0
  9
$LUNITS
 70
     2
  9
$LUPREC
 70
     4
  9
$SKETCHINC
 40
0.1
  9
$FILLETRAD
 40
0.5
  9
$AUNITS
 70
     0
  9
$AUPREC
 70
     0
  9
$MENU
  1
.
  9
$ELEVATION
 40
0.0
  9
$PELEVATION
 40
0.0
  9
$THICKNESS
 40
0.0
  9
$LIMCHECK
 70
     0
  9
$CHAMFERA
 40
0.5
  9
$CHAMFERB
 40
0.5
  9
$CHAMFERC
 40
1.0
  9
$CHAMFERD
 40
0.0
  9
$SKPOLY
 70
     0
  9
$TDCREATE
 40
2457917.622256933
  9
$TDUCREATE
 40
2457917.247256944
  9
$TDUPDATE
 40
2457917.622256933
  9
$TDUUPDATE
 40
2457917.247256944
  9
$TDINDWG
 40
0.0000000116
  9
$TDUSRTIMER
 40
0.0000000116
  9
$USRTIMER
 70
     1
  9
$ANGBASE
 50
0.0
  9
$ANGDIR
 70
     0
  9
$PDMODE
 70
     0
  9
$PDSIZE
 40
0.0
  9
$PLINEWID
 40
0.0
  9
$SPLFRAME
 70
     0
  9
$SPLINETYPE
 70
     6
  9
$SPLINESEGS
 70
     8
  9
$HANDSEED
  5
D2
  9
$SURFTAB1
 70
     6
  9
$SURFTAB2
 70
     6
  9
$SURFTYPE
 70
     6
  9
$SURFU
 70
     6
  9
$SURFV
 70
     6
  9
$UCSBASE
  2

  9
$UCSNAME
  2

  9
$UCSORG
 10
0.0
 20
0.0
 30
0.0
  9
$UCSXDIR
 10
1.0
 20
0.0
 30
0.0
  9
$UCSYDIR
 10
0.0
 20
1.0
 30
0.0
  9
$UCSORTHOREF
  2

  9
$UCSORTHOVIEW
 70
     0
  9
$UCSORGTOP
 10
0.0
 20
0.0
 30
0.0
  9
$UCSORGBOTTOM
 10
0.0
 20
0.0
 30
0.0
  9
$UCSORGLEFT
 10
0.0
 20
0.0
 30
0.0
  9
$UCSORGRIGHT
 10
0.0
 20
0.0
 30
0.0
  9
$UCSORGFRONT
 10
0.0
 20
0.0
 30
0.0
  9
$UCSORGBACK
 10
0.0
 20
0.0
 30
0.0
  9
$PUCSBASE
  2

  9
$PUCSNAME
  2

  9
$PUCSORG
 10
0.0
 20
0.0
 30
0.0
  9
$PUCSXDIR
 10
1.0
 20
0.0
 30
0.0
  9
$PUCSYDIR
 10
0.0
 20
1.0
 30
0.0
  9
$PUCSORTHOREF
  2

  9
$PUCSORTHOVIEW
 70
     0
  9
$PUCSORGTOP
 10
0.0
 20
0.0
 30
0.0
  9
$PUCSORGBOTTOM
 10
0.0
 20
0.0
 30
0.0
  9
$PUCSORGLEFT
 10
0.0
 20
0.0
 30
0.0
  9
$PUCSORGRIGHT
 10
0.0
 20
0.0
 30
0.0
  9
$PUCSORGFRONT
 10
0.0
 20
0.0
 30
0.0
  9
$PUCSORGBACK
 10
0.0
 20
0.0
 30
0.0
  9
$USERI1
 70
     0
  9
$USERI2
 70
     0
  9
$USERI3
 70
     0
  9
$USERI4
 70
     0
  9
$USERI5
 70
     0
  9
$USERR1
 40
0.0
  9
$USERR2
 40
0.0
  9
$USERR3
 40
0.0
  9
$USERR4
 40
0.0
  9
$USERR5
 40
0.0
  9
$WORLDVIEW
 70
     1
  9
$SHADEDGE
 70
     3
  9
$SHADEDIF
 70
    70
  9
$TILEMODE
 70
     1
  9
$MAXACTVP
 70
    64
  9
$PINSBASE
 10
0.0
 20
0.0
 30
0.0
  9
$PLIMCHECK
 70
     0
  9
$PEXTMIN
 10
1.000000000000000E+20
 20
1.000000000000000E+20
 30
1.000000000000000E+20
  9
$PEXTMAX
 10
-1.000000000000000E+20
 20
-1.000000000000000E+20
 30
-1.000000000000000E+20
  9
$PLIMMIN
 10
0.0
 20
0.0
  9
$PLIMMAX
 10
12.0
 20
9.0
  9
$UNITMODE
 70
     0
  9
$VISRETAIN
 70
     1
  9
$PLINEGEN
 70
     0
  9
$PSLTSCALE
 70
     1
  9
$TREEDEPTH
 70
  3020
  9
$CMLSTYLE
  2
Standard
  9
$CMLJUST
 70
     0
  9
$CMLSCALE
 40
1.0
  9
$PROXYGRAPHICS
 70
     1
  9
$MEASUREMENT
 70
     0
  9
$CELWEIGHT
370
    -1
  9
$ENDCAPS
280
     0
  9
$JOINSTYLE
280
     0
  9
$LWDISPLAY
290
     1
  9
$INSUNITS
 70
     1
  9
$HYPERLINKBASE
  1

  9
$STYLESHEET
  1

  9
$XEDIT
290
     1
  9
$CEPSNTYPE
380
     0
  9
$PSTYLEMODE
290
     1
  9
$FINGERPRINTGUID
  2
{4FFD6E1D-3B0B-E5A2-10DF-A1CAECB10286}
  9
$VERSIONGUID
  2
{FAEB1C32-E019-11D5-929B-00C0DF256EC4}
  9
$EXTNAMES
290
     1
  9
$PSVPSCALE
 40
0.0
  9
$OLESTARTUP
290
     0
  9
$SORTENTS
280
   127
  9
$INDEXCTL
280
     0
  9
$HIDETEXT
280
     1
  9
$XCLIPFRAME
280
     2
  9
$HALOGAP
280
     0
  9
$OBSCOLOR
 70
   257
  9
$OBSLTYPE
280
     0
  9
$INTERSECTIONDISPLAY
280
     0
  9
$INTERSECTIONCOLOR
 70
   257
  9
$DIMASSOC
280
     2
  9
$PROJECTNAME
  1

  9
$CAMERADISPLAY
290
     0
  9
$LENSLENGTH
 40
50.0
  9
$CAMERAHEIGHT
 40
0.0
  9
$STEPSPERSEC
 40
2.0
  9
$STEPSIZE
 40
6.0
  9
$3DDWFPREC
 40
2.0
  9
$PSOLWIDTH
 40
0.25
  9
$PSOLHEIGHT
 40
4.0
  9
$LOFTANG1
 40
1.570796326794897
  9
$LOFTANG2
 40
1.570796326794897
  9
$LOFTMAG1
 40
0.0
  9
$LOFTMAG2
 40
0.0
  9
$LOFTPARAM
 70
     7
  9
$LOFTNORMALS
280
     1
  9
$LATITUDE
 40
37.795
  9
$LONGITUDE
 40
-122.394
  9
$NORTHDIRECTION
 40
0.0
  9
$TIMEZONE
 70
 -8000
  9
$LIGHTGLYPHDISPLAY
280
     1
  9
$TILEMODELIGHTSYNCH
280
     1
  9
$CMATERIAL
347
3C
  9
$SOLIDHIST
280
     1
  9
$SHOWHIST
280
     1
  9
$DWFFRAME
280
     2
  9
$DGNFRAME
280
     2
  9
$REALWORLDSCALE
290
     1
  9
$INTERFERECOLOR
 62
   256
  9
$CSHADOW
280
     0
  9
$SHADOWPLANELOCATION
 40
0.0
  0
ENDSEC
  0
SECTION
  2
CLASSES
  0
CLASS
  1
ACDBDICTIONARYWDFLT
  2
AcDbDictionaryWithDefault
  3
ObjectDBX Classes
 90
        0
 91
        4
280
     0
281
     0
  0
CLASS
  1
VISUALSTYLE
  2
AcDbVisualStyle
  3
ObjectDBX Classes
 90
     4095
 91
        4
280
     0
281
     0
  0
CLASS
  1
MATERIAL
  2
AcDbMaterial
  3
ObjectDBX Classes
 90
     1153
 91
        4
280
     0
281
     0
  0
CLASS
  1
SUN
  2
AcDbSun
  3
SCENEOE
 90
     1024
 91
        4
280
     0
281
     0
  0
ENDSEC
  0
SECTION
  2
TABLES
  0
TABLE
  2
VPORT
  5
8
330
0
100
AcDbSymbolTable
 70
     1
  0
VPORT
  5
29
330
8
100
AcDbSymbolTableRecord
100
AcDbViewportTableRecord
  2
*Active
 70
     0
 10
0.0
 20
0.0
 11
1.0
 21
1.0
 12
0.0
 22
0.0
 13
0.0
 23
0.0
 14
0.5
 24
0.5
 15
0.5
 25
0.5
 16
0.0
 26
0.0
 36
1.0
 17
91.00082462281999
 27
-128.4993055234307
 37
0.0
 40
256.9986110468615
 41
0.7081814508812795
 42
50.0
 43
0.0
 44
0.0
 50
0.0
 51
0.0
 71
     0
 72
   100
 73
     1
 74
     3
 75
     0
 76
     0
 77
     0
 78
     0
281
     0
 65
     1
110
0.0
120
0.0
130
0.0
111
1.0
121
0.0
131
0.0
112
0.0
122
1.0
132
0.0
 79
     0
146
0.0
 60
     3
 61
     5
292
     1
282
     1
141
0.0
142
0.0
 63
   250
361
3F
  0
ENDTAB
  0
TABLE
  2
LTYPE
  5
5
330
0
100
AcDbSymbolTable
 70
     2
  0
LTYPE
  5
14
330
5
100
AcDbSymbolTableRecord
100
AcDbLinetypeTableRecord
  2
ByBlock
 70
     0
  3

 72
    65
 73
     0
 40
0.0
  0
LTYPE
  5
15
330
5
100
AcDbSymbolTableRecord
100
AcDbLinetypeTableRecord
  2
ByLayer
 70
     0
  3

 72
    65
 73
     0
 40
0.0
  0
LTYPE
  5
16
330
5
100
AcDbSymbolTableRecord
100
AcDbLinetypeTableRecord
  2
Continuous
 70
     0
  3
Solid line
 72
    65
 73
     0
 40
0.0
  0
LTYPE
  5
CE
330
5
100
AcDbSymbolTableRecord
100
AcDbLinetypeTableRecord
  2
AI-Linetype-1
 70
     0
  3
Adobe Illustrator Linetype No. 1
 72
    65
 73
     2
 40
1.411111110758333
 49
0.7055555553791667
 74
     0
 49
-0.7055555553791667
 74
     0
  0
ENDTAB
  0
TABLE
  2
LAYER
  5
2
330
0
100
AcDbSymbolTable
 70
     2
  0
LAYER
  5
10
330
2
100
AcDbSymbolTableRecord
100
AcDbLayerTableRecord
  2
0
 70
     0
 62
     7
  6
Continuous
370
    -3
390
F
347
3E
  0
LAYER
  5
40
330
2
100
AcDbSymbolTableRecord
100
AcDbLayerTableRecord
  2
_U+30EC_U+30A4_U+30E4_U+30FC 1
 70
     0
 62
     7
  6
Continuous
370
    -3
390
F
347
3E
  0
ENDTAB
  0
TABLE
  2
STYLE
  5
3
330
0
100
AcDbSymbolTable
 70
     1
  0
STYLE
  5
11
330
3
100
AcDbSymbolTableRecord
100
AcDbTextStyleTableRecord
  2
Standard
 70
     0
 40
0.0
 41
1.0
 50
0.0
 71
     0
 42
0.2
  3
txt
  4

  0
ENDTAB
  0
TABLE
  2
VIEW
  5
6
330
0
100
AcDbSymbolTable
 70
     0
  0
ENDTAB
  0
TABLE
  2
UCS
  5
7
330
0
100
AcDbSymbolTable
 70
     0
  0
ENDTAB
  0
TABLE
  2
APPID
  5
9
330
0
100
AcDbSymbolTable
 70
     1
  0
APPID
  5
12
330
9
100
AcDbSymbolTableRecord
100
AcDbRegAppTableRecord
  2
ACAD
 70
     0
  0
ENDTAB
  0
TABLE
  2
DIMSTYLE
  5
A
330
0
100
AcDbSymbolTable
 70
     1
100
AcDbDimStyleTable
  0
DIMSTYLE
105
27
330
A
100
AcDbSymbolTableRecord
100
AcDbDimStyleTableRecord
  2
Standard
 70
     0
178
     0
340
11
  0
ENDTAB
  0
TABLE
  2
BLOCK_RECORD
  5
1
330
0
100
AcDbSymbolTable
 70
     7
  0
BLOCK_RECORD
  5
1F
330
1
100
AcDbSymbolTableRecord
100
AcDbBlockTableRecord
  2
*Model_Space
340
22
 70
     0
280
     1
281
     0
  0
BLOCK_RECORD
  5
1B
330
1
100
AcDbSymbolTableRecord
100
AcDbBlockTableRecord
  2
*Paper_Space
340
1E
 70
     0
280
     1
281
     0
  0
BLOCK_RECORD
  5
23
330
1
100
AcDbSymbolTableRecord
100
AcDbBlockTableRecord
  2
*Paper_Space0
340
26
 70
     0
280
     1
281
     0
  0
BLOCK_RECORD
  5
5D
330
1
100
AcDbSymbolTableRecord
100
AcDbBlockTableRecord
  2
block 2
340
0
102
{BLKREFS
331
5E
102
}
 70
     0
280
     1
281
     0
  0
BLOCK_RECORD
  5
72
330
1
100
AcDbSymbolTableRecord
100
AcDbBlockTableRecord
  2
block 3
340
0
102
{BLKREFS
331
73
102
}
 70
     0
280
     1
281
     0
  0
BLOCK_RECORD
  5
82
330
1
100
AcDbSymbolTableRecord
100
AcDbBlockTableRecord
  2
block 4
340
0
102
{BLKREFS
331
83
102
}
 70
     0
280
     1
281
     0
  0
BLOCK_RECORD
  5
94
330
1
100
AcDbSymbolTableRecord
100
AcDbBlockTableRecord
  2
block 5
340
0
102
{BLKREFS
331
95
102
}
 70
     0
280
     1
281
     0
  0
BLOCK_RECORD
  5
A9
330
1
100
AcDbSymbolTableRecord
100
AcDbBlockTableRecord
  2
block 6
340
0
102
{BLKREFS
331
AA
102
}
 70
     0
280
     1
281
     0
  0
BLOCK_RECORD
  5
BE
330
1
100
AcDbSymbolTableRecord
100
AcDbBlockTableRecord
  2
block 7
340
0
102
{BLKREFS
331
BF
102
}
 70
     0
280
     1
281
     0
  0
ENDTAB
  0
ENDSEC
  0
SECTION
  2
BLOCKS
  0
BLOCK
  5
20
330
1F
100
AcDbEntity
  8
0
100
AcDbBlockBegin
  2
*Model_Space
 70
     0
 10
0.0
 20
0.0
 30
0.0
  3
*Model_Space
  1

  0
ENDBLK
  5
21
330
1F
100
AcDbEntity
  8
0
100
AcDbBlockEnd
  0
BLOCK
  5
1C
330
1B
100
AcDbEntity
 67
     1
  8
0
100
AcDbBlockBegin
  2
*Paper_Space
 70
     0
 10
0.0
 20
0.0
 30
0.0
  3
*Paper_Space
  1

  0
ENDBLK
  5
1D
330
1B
100
AcDbEntity
 67
     1
  8
0
100
AcDbBlockEnd
  0
BLOCK
  5
24
330
23
100
AcDbEntity
  8
0
100
AcDbBlockBegin
  2
*Paper_Space0
 70
     0
 10
0.0
 20
0.0
 30
0.0
  3
*Paper_Space0
  1

  0
ENDBLK
  5
25
330
23
100
AcDbEntity
  8
0
100
AcDbBlockEnd
  0
BLOCK
  5
5F
330
5D
100
AcDbEntity
  8
0
100
AcDbBlockBegin
  2
block 2
 70
     0
 10
0.0
 20
0.0
 30
0.0
  3
block 2
  1

  0
SPLINE
  5
61
330
5D
100
AcDbEntity
  8
_U+30EC_U+30A4_U+30E4_U+30FC 1
370
     0
100
AcDbSpline
210
0.0
220
0.0
230
1.0
 70
    11
 71
     3
 72
    26
 73
    22
 74
     0
 42
0.0000000001
 43
0.0000000001
 12
1.0
 22
0.0
 32
0.0
 13
1.0
 23
0.0
 33
0.0
 40
0.0
 40
0.0
 40
0.0
 40
0.0
 40
1.0
 40
1.0
 40
1.0
 40
2.0
 40
2.0
 40
2.0
 40
3.0
 40
3.0
 40
3.0
 40
4.0
 40
4.0
 40
4.0
 40
5.0
 40
5.0
 40
5.0
 40
6.0
 40
6.0
 40
6.0
 40
7.0
 40
7.0
 40
7.0
 40
7.0
 10
76.51488170830184
 20
-139.5704643748296
 30
0.0
 10
76.51488170830184
 20
-139.5704643748296
 30
0.0
 10
76.51488170830184
 20
-138.466311271807
 30
0.0
 10
76.51488170830184
 20
-138.466311271807
 30
0.0
 10
76.51488170830184
 20
-138.466311271807
 30
0.0
 10
76.1848415608149
 20
-138.466311271807
 30
0.0
 10
76.1848415608149
 20
-138.466311271807
 30
0.0
 10
76.1848415608149
 20
-138.466311271807
 30
0.0
 10
76.1848415608149
 20
-138.3181721659413
 30
0.0
 10
76.1848415608149
 20
-138.3181721659413
 30
0.0
 10
76.51694876559299
 20
-138.3033582553547
 30
0.0
 10
76.56345755464386
 20
-138.1404052389024
 30
0.0
 10
76.59308537581701
 20
-138.0260280687921
 30
0.0
 10
76.59308537581701
 20
-138.0260280687921
 30
0.0
 10
76.7391574243916
 20
-138.0260280687921
 30
0.0
 10
76.7391574243916
 20
-138.0260280687921
 30
0.0
 10
76.7391574243916
 20
-138.0260280687921
 30
0.0
 10
76.7391574243916
 20
-139.5704643748296
 30
0.0
 10
76.7391574243916
 20
-139.5704643748296
 30
0.0
 10
76.7391574243916
 20
-139.5704643748296
 30
0.0
 10
76.51488170830184
 20
-139.5704643748296
 30
0.0
 10
76.51488170830184
 20
-139.5704643748296
 30
0.0
  0
HATCH
  5
62
330
5D
100
AcDbEntity
  8
_U+30EC_U+30A4_U+30E4_U+30FC 1
 62
     7
420
 16777215
100
AcDbHatch
 10
0.0
 20
0.0
 30
0.0
210
0.0
220
0.0
230
1.0
  2
SOLID
 70
     1
 71
     0
 91
        1
 92
        1
 93
        1
 72
     4
 94
        3
 73
     0
 74
     1
 95
       26
 96
       22
 40
0.0
 40
0.0
 40
0.0
 40
0.0
 40
1.0
 40
1.0
 40
1.0
 40
2.0
 40
2.0
 40
2.0
 40
3.0
 40
3.0
 40
3.0
 40
4.0
 40
4.0
 40
4.0
 40
5.0
 40
5.0
 40
5.0
 40
6.0
 40
6.0
 40
6.0
 40
7.0
 40
7.0
 40
7.0
 40
7.0
 10
76.51488170830184
 20
-139.5704643748296
 10
76.51488170830184
 20
-139.5704643748296
 10
76.51488170830184
 20
-138.466311271807
 10
76.51488170830184
 20
-138.466311271807
 10
76.51488170830184
 20
-138.466311271807
 10
76.1848415608149
 20
-138.466311271807
 10
76.1848415608149
 20
-138.466311271807
 10
76.1848415608149
 20
-138.466311271807
 10
76.1848415608149
 20
-138.3181721659413
 10
76.1848415608149
 20
-138.3181721659413
 10
76.51694876559299
 20
-138.3033582553547
 10
76.56345755464386
 20
-138.1404052389024
 10
76.59308537581701
 20
-138.0260280687921
 10
76.59308537581701
 20
-138.0260280687921
 10
76.7391574243916
 20
-138.0260280687921
 10
76.7391574243916
 20
-138.0260280687921
 10
76.7391574243916
 20
-138.0260280687921
 10
76.7391574243916
 20
-139.5704643748296
 10
76.7391574243916
 20
-139.5704643748296
 10
76.7391574243916
 20
-139.5704643748296
 10
76.51488170830184
 20
-139.5704643748296
 10
76.51488170830184
 20
-139.5704643748296
 97
        0
 97
        0
 75
     2
 76
     1
 98
        0
  0
SPLINE
  5
63
330
5D
100
AcDbEntity
  8
_U+30EC_U+30A4_U+30E4_U+30FC 1
370
     0
100
AcDbSpline
210
0.0
220
0.0
230
1.0
 70
    11
 71
     3
 72
    44
 73
    40
 74
     0
 42
0.0000000001
 43
0.0000000001
 12
1.0
 22
0.0
 32
0.0
 13
1.0
 23
0.0
 33
0.0
 40
0.0
 40
0.0
 40
0.0
 40
0.0
 40
1.0
 40
1.0
 40
1.0
 40
2.0
 40
2.0
 40
2.0
 40
3.0
 40
3.0
 40
3.0
 40
4.0
 40
4.0
 40
4.0
 40
5.0
 40
5.0
 40
5.0
 40
6.0
 40
6.0
 40
6.0
 40
7.0
 40
7.0
 40
7.0
 40
8.0
 40
8.0
 40
8.0
 40
9.0
 40
9.0
 40
9.0
 40
10.0
 40
10.0
 40
10.0
 40
11.0
 40
11.0
 40
11.0
 40
12.0
 40
12.0
 40
12.0
 40
13.0
 40
13.0
 40
13.0
 40
13.0
 10
78.25448267357875
 20
-139.5704643748296
 30
0.0
 10
78.23105602427904
 20
-139.5260226430699
 30
0.0
 10
78.21004094181902
 20
-139.4733126821456
 30
0.0
 10
78.2078016297536
 20
-139.2424912846338
 30
0.0
 10
78.2036675151713
 20
-138.9992675433752
 30
0.0
 10
78.14441187282502
 20
-138.9293321050246
 30
0.0
 10
77.96664494578611
 20
-138.9293321050246
 30
0.0
 10
77.96664494578611
 20
-138.9293321050246
 30
0.0
 10
77.55840113078402
 20
-138.9293321050246
 30
0.0
 10
77.55840113078402
 20
-138.9293321050246
 30
0.0
 10
77.55840113078402
 20
-138.9293321050246
 30
0.0
 10
77.55840113078402
 20
-139.5704643748296
 30
0.0
 10
77.55840113078402
 20
-139.5704643748296
 30
0.0
 10
77.55840113078402
 20
-139.5704643748296
 30
0.0
 10
77.32361787346424
 20
-139.5704643748296
 30
0.0
 10
77.32361787346424
 20
-139.5704643748296
 30
0.0
 10
77.32361787346424
 20
-139.5704643748296
 30
0.0
 10
77.32361787346424
 20
-138.0260280687921
 30
0.0
 10
77.32361787346424
 20
-138.0260280687921
 30
0.0
 10
77.32361787346424
 20
-138.0260280687921
 30
0.0
 10
77.99833982425042
 20
-138.0260280687921
 30
0.0
 10
77.99833982425042
 20
-138.0260280687921
 30
0.0
 10
78.30512557721191
 20
-138.0260280687921
 30
0.0
 10
78.4723849630208
 20
-138.1975938239576
 30
0.0
 10
78.4723849630208
 20
-138.4535644185116
 30
0.0
 10
78.4723849630208
 20
-138.5042073221448
 30
0.0
 10
78.46377222430768
 20
-138.5868896137908
 30
0.0
 10
78.41933049254794
 20
-138.6671603385971
 30
0.0
 10
78.36024710497591
 20
-138.7708577127031
 30
0.0
 10
78.2946180359819
 20
-138.789805737872
 30
0.0
 10
78.23329533634445
 20
-138.8066867057497
 30
0.0
 10
78.37075464620592
 20
-138.8490613802183
 30
0.0
 10
78.43845077249108
 20
-138.8976372265603
 30
0.0
 10
78.44275714184765
 20
-139.2128634634607
 30
0.0
 10
78.44689125642995
 20
-139.4836479686013
 30
0.0
 10
78.48289250425081
 20
-139.5153428470656
 30
0.0
 10
78.55058863053597
 20
-139.5704643748296
 30
0.0
 10
78.55058863053597
 20
-139.5704643748296
 30
0.0
 10
78.25448267357875
 20
-139.5704643748296
 30
0.0
 10
78.25448267357875
 20
-139.5704643748296
 30
0.0
  0
SPLINE
  5
64
330
5D
100
AcDbEntity
  8
_U+30EC_U+30A4_U+30E4_U+30FC 1
370
     0
100
AcDbSpline
210
0.0
220
0.0
230
1.0
 70
    11
 71
     3
 72
    20
 73
    16
 74
     0
 42
0.0000000001
 43
0.0000000001
 12
1.0
 22
0.0
 32
0.0
 13
1.0
 23
0.0
 33
0.0
 40
0.0
 40
0.0
 40
0.0
 40
0.0
 40
1.0
 40
1.0
 40
1.0
 40
2.0
 40
2.0
 40
2.0
 40
3.0
 40
3.0
 40
3.0
 40
4.0
 40
4.0
 40
4.0
 40
5.0
 40
5.0
 40
5.0
 40
5.0
 10
78.00264619360698
 20
-138.2375569315865
 30
0.0
 10
78.00264619360698
 20
-138.2375569315865
 30
0.0
 10
77.55840113078402
 20
-138.2375569315865
 30
0.0
 10
77.55840113078402
 20
-138.2375569315865
 30
0.0
 10
77.55840113078402
 20
-138.2375569315865
 30
0.0
 10
77.55840113078402
 20
-138.7178032422303
 30
0.0
 10
77.55840113078402
 20
-138.7178032422303
 30
0.0
 10
77.55840113078402
 20
-138.7178032422303
 30
0.0
 10
78.00057913631584
 20
-138.7178032422303
 30
0.0
 10
78.00057913631584
 20
-138.7178032422303
 30
0.0
 10
78.09997014106528
 20
-138.7178032422303
 30
0.0
 10
78.23536239363561
 20
-138.6416666320063
 30
0.0
 10
78.23536239363561
 20
-138.4704453863893
 30
0.0
 10
78.23536239363561
 20
-138.3922417188742
 30
0.0
 10
78.20160045788016
 20
-138.2375569315865
 30
0.0
 10
78.00264619360698
 20
-138.2375569315865
 30
0.0
  0
HATCH
  5
65
330
5D
100
AcDbEntity
  8
_U+30EC_U+30A4_U+30E4_U+30FC 1
 62
     7
420
 16777215
100
AcDbHatch
 10
0.0
 20
0.0
 30
0.0
210
0.0
220
0.0
230
1.0
  2
SOLID
 70
     1
 71
     0
 91
        2
 92
        1
 93
        1
 72
     4
 94
        3
 73
     0
 74
     1
 95
       44
 96
       40
 40
0.0
 40
0.0
 40
0.0
 40
0.0
 40
1.0
 40
1.0
 40
1.0
 40
2.0
 40
2.0
 40
2.0
 40
3.0
 40
3.0
 40
3.0
 40
4.0
 40
4.0
 40
4.0
 40
5.0
 40
5.0
 40
5.0
 40
6.0
 40
6.0
 40
6.0
 40
7.0
 40
7.0
 40
7.0
 40
8.0
 40
8.0
 40
8.0
 40
9.0
 40
9.0
 40
9.0
 40
10.0
 40
10.0
 40
10.0
 40
11.0
 40
11.0
 40
11.0
 40
12.0
 40
12.0
 40
12.0
 40
13.0
 40
13.0
 40
13.0
 40
13.0
 10
78.25448267357875
 20
-139.5704643748296
 10
78.23105602427904
 20
-139.5260226430699
 10
78.21004094181902
 20
-139.4733126821456
 10
78.2078016297536
 20
-139.2424912846338
 10
78.2036675151713
 20
-138.9992675433752
 10
78.14441187282502
 20
-138.9293321050246
 10
77.96664494578611
 20
-138.9293321050246
 10
77.96664494578611
 20
-138.9293321050246
 10
77.55840113078402
 20
-138.9293321050246
 10
77.55840113078402
 20
-138.9293321050246
 10
77.55840113078402
 20
-138.9293321050246
 10
77.55840113078402
 20
-139.5704643748296
 10
77.55840113078402
 20
-139.5704643748296
 10
77.55840113078402
 20
-139.5704643748296
 10
77.32361787346424
 20
-139.5704643748296
 10
77.32361787346424
 20
-139.5704643748296
 10
77.32361787346424
 20
-139.5704643748296
 10
77.32361787346424
 20
-138.0260280687921
 10
77.32361787346424
 20
-138.0260280687921
 10
77.32361787346424
 20
-138.0260280687921
 10
77.99833982425042
 20
-138.0260280687921
 10
77.99833982425042
 20
-138.0260280687921
 10
78.30512557721191
 20
-138.0260280687921
 10
78.4723849630208
 20
-138.1975938239576
 10
78.4723849630208
 20
-138.4535644185116
 10
78.4723849630208
 20
-138.5042073221448
 10
78.46377222430768
 20
-138.5868896137908
 10
78.41933049254794
 20
-138.6671603385971
 10
78.36024710497591
 20
-138.7708577127031
 10
78.2946180359819
 20
-138.789805737872
 10
78.23329533634445
 20
-138.8066867057497
 10
78.37075464620592
 20
-138.8490613802183
 10
78.43845077249108
 20
-138.8976372265603
 10
78.44275714184765
 20
-139.2128634634607
 10
78.44689125642995
 20
-139.4836479686013
 10
78.48289250425081
 20
-139.5153428470656
 10
78.55058863053597
 20
-139.5704643748296
 10
78.55058863053597
 20
-139.5704643748296
 10
78.25448267357875
 20
-139.5704643748296
 10
78.25448267357875
 20
-139.5704643748296
 97
        0
 97
        0
 92
        1
 93
        1
 72
     4
 94
        3
 73
     0
 74
     1
 95
       20
 96
       16
 40
0.0
 40
0.0
 40
0.0
 40
0.0
 40
1.0
 40
1.0
 40
1.0
 40
2.0
 40
2.0
 40
2.0
 40
3.0
 40
3.0
 40
3.0
 40
4.0
 40
4.0
 40
4.0
 40
5.0
 40
5.0
 40
5.0
 40
5.0
 10
78.00264619360698
 20
-138.2375569315865
 10
78.00264619360698
 20
-138.2375569315865
 10
77.55840113078402
 20
-138.2375569315865
 10
77.55840113078402
 20
-138.2375569315865
 10
77.55840113078402
 20
-138.2375569315865
 10
77.55840113078402
 20
-138.7178032422303
 10
77.55840113078402
 20
-138.7178032422303
 10
77.55840113078402
 20
-138.7178032422303
 10
78.00057913631584
 20
-138.7178032422303
 10
78.00057913631584
 20
-138.7178032422303
 10
78.09997014106528
 20
-138.7178032422303
 10
78.23536239363561
 20
-138.6416666320063
 10
78.23536239363561
 20
-138.4704453863893
 10
78.23536239363561
 20
-138.3922417188742
 10
78.20160045788016
 20
-138.2375569315865
 10
78.00264619360698
 20
-138.2375569315865
 97
        0
 97
        0
 75
     2
 76
     1
 98
        0
  0
ENDBLK
  5
60
330
5D
100
AcDbEntity
  8
0
100
AcDbBlockEnd
  0
BLOCK
  5
74
330
72
100
AcDbEntity
  8
0
100
AcDbBlockBegin
  2
block 3
 70
     0
 10
0.0
 20
0.0
 30
0.0
  3
block 3
  1

  0
SPLINE
  5
76
330
72
100
AcDbEntity
  8
_U+30EC_U+30A4_U+30E4_U+30FC 1
370
     0
100
AcDbSpline
210
0.0
220
0.0
230
1.0
 70
    11
 71
     3
 72
    44
 73
    40
 74
     0
 42
0.0000000001
 43
0.0000000001
 12
1.0
 22
0.0
 32
0.0
 13
1.0
 23
0.0
 33
0.0
 40
0.0
 40
0.0
 40
0.0
 40
0.0
 40
1.0
 40
1.0
 40
1.0
 40
2.0
 40
2.0
 40
2.0
 40
3.0
 40
3.0
 40
3.0
 40
4.0
 40
4.0
 40
4.0
 40
5.0
 40
5.0
 40
5.0
 40
6.0
 40
6.0
 40
6.0
 40
7.0
 40
7.0
 40
7.0
 40
8.0
 40
8.0
 40
8.0
 40
9.0
 40
9.0
 40
9.0
 40
10.0
 40
10.0
 40
10.0
 40
11.0
 40
11.0
 40
11.0
 40
12.0
 40
12.0
 40
12.0
 40
13.0
 40
13.0
 40
13.0
 40
13.0
 10
94.96888018459111
 20
-116.5394842916117
 30
0.0
 10
94.75115014992333
 20
-116.6981309387074
 30
0.0
 10
94.65813257182158
 20
-116.7722004916403
 30
0.0
 10
94.60921221593104
 20
-116.9158609733752
 30
0.0
 10
94.60921221593104
 20
-116.9158609733752
 30
0.0
 10
95.38780379559749
 20
-116.9158609733752
 30
0.0
 10
95.38780379559749
 20
-116.9158609733752
 30
0.0
 10
95.38780379559749
 20
-116.9158609733752
 30
0.0
 10
95.38780379559749
 20
-117.1211886642961
 30
0.0
 10
95.38780379559749
 20
-117.1211886642961
 30
0.0
 10
95.38780379559749
 20
-117.1211886642961
 30
0.0
 10
94.35978730279895
 20
-117.1211886642961
 30
0.0
 10
94.35978730279895
 20
-117.1211886642961
 30
0.0
 10
94.39148218126324
 20
-116.7635877529272
 30
0.0
 10
94.45693899548299
 20
-116.685384085412
 30
0.0
 10
94.84210067073393
 20
-116.3870388163894
 30
0.0
 10
95.09807126528798
 20
-116.1882568068904
 30
0.0
 10
95.16352807950773
 20
-116.1205606806053
 30
0.0
 10
95.16352807950773
 20
-115.9831013707438
 30
0.0
 10
95.16352807950773
 20
-115.8645900860512
 30
0.0
 10
95.09152558386602
 20
-115.7335042028375
 30
0.0
 10
94.89481063165825
 20
-115.7335042028375
 30
0.0
 10
94.63470592252189
 20
-115.7335042028375
 30
0.0
 10
94.62609318380876
 20
-115.9639810908007
 30
0.0
 10
94.62195906922646
 20
-116.0804253182021
 30
0.0
 10
94.62195906922646
 20
-116.0804253182021
 30
0.0
 10
94.3976833531367
 20
-116.0804253182021
 30
0.0
 10
94.3976833531367
 20
-116.0804253182021
 30
0.0
 10
94.40629609184982
 20
-115.9534735495707
 30
0.0
 10
94.4169758878541
 20
-115.8413356915258
 30
0.0
 10
94.49724661266042
 20
-115.7228244068332
 30
0.0
 10
94.60714515863988
 20
-115.5621107024463
 30
0.0
 10
94.7935248243919
 20
-115.5281765119166
 30
0.0
 10
94.90962454224481
 20
-115.5281765119166
 30
0.0
 10
95.18695472880744
 20
-115.5281765119166
 30
0.0
 10
95.39434947701947
 20
-115.7123168656032
 30
0.0
 10
95.39434947701947
 20
-115.985168428035
 30
0.0
 10
95.39434947701947
 20
-116.213578258707
 30
0.0
 10
95.27790524961803
 20
-116.3131415182308
 30
0.0
 10
94.96888018459111
 20
-116.5394842916117
 30
0.0
  0
HATCH
  5
77
330
72
100
AcDbEntity
  8
_U+30EC_U+30A4_U+30E4_U+30FC 1
 62
     7
420
 16777215
100
AcDbHatch
 10
0.0
 20
0.0
 30
0.0
210
0.0
220
0.0
230
1.0
  2
SOLID
 70
     1
 71
     0
 91
        1
 92
        1
 93
        1
 72
     4
 94
        3
 73
     0
 74
     1
 95
       44
 96
       40
 40
0.0
 40
0.0
 40
0.0
 40
0.0
 40
1.0
 40
1.0
 40
1.0
 40
2.0
 40
2.0
 40
2.0
 40
3.0
 40
3.0
 40
3.0
 40
4.0
 40
4.0
 40
4.0
 40
5.0
 40
5.0
 40
5.0
 40
6.0
 40
6.0
 40
6.0
 40
7.0
 40
7.0
 40
7.0
 40
8.0
 40
8.0
 40
8.0
 40
9.0
 40
9.0
 40
9.0
 40
10.0
 40
10.0
 40
10.0
 40
11.0
 40
11.0
 40
11.0
 40
12.0
 40
12.0
 40
12.0
 40
13.0
 40
13.0
 40
13.0
 40
13.0
 10
94.96888018459111
 20
-116.5394842916117
 10
94.75115014992333
 20
-116.6981309387074
 10
94.65813257182158
 20
-116.7722004916403
 10
94.60921221593104
 20
-116.9158609733752
 10
94.60921221593104
 20
-116.9158609733752
 10
95.38780379559749
 20
-116.9158609733752
 10
95.38780379559749
 20
-116.9158609733752
 10
95.38780379559749
 20
-116.9158609733752
 10
95.38780379559749
 20
-117.1211886642961
 10
95.38780379559749
 20
-117.1211886642961
 10
95.38780379559749
 20
-117.1211886642961
 10
94.35978730279895
 20
-117.1211886642961
 10
94.35978730279895
 20
-117.1211886642961
 10
94.39148218126324
 20
-116.7635877529272
 10
94.45693899548299
 20
-116.685384085412
 10
94.84210067073393
 20
-116.3870388163894
 10
95.09807126528798
 20
-116.1882568068904
 10
95.16352807950773
 20
-116.1205606806053
 10
95.16352807950773
 20
-115.9831013707438
 10
95.16352807950773
 20
-115.8645900860512
 10
95.09152558386602
 20
-115.7335042028375
 10
94.89481063165825
 20
-115.7335042028375
 10
94.63470592252189
 20
-115.7335042028375
 10
94.62609318380876
 20
-115.9639810908007
 10
94.62195906922646
 20
-116.0804253182021
 10
94.62195906922646
 20
-116.0804253182021
 10
94.3976833531367
 20
-116.0804253182021
 10
94.3976833531367
 20
-116.0804253182021
 10
94.40629609184982
 20
-115.9534735495707
 10
94.4169758878541
 20
-115.8413356915258
 10
94.49724661266042
 20
-115.7228244068332
 10
94.60714515863988
 20
-115.5621107024463
 10
94.7935248243919
 20
-115.5281765119166
 10
94.90962454224481
 20
-115.5281765119166
 10
95.18695472880744
 20
-115.5281765119166
 10
95.39434947701947
 20
-115.7123168656032
 10
95.39434947701947
 20
-115.985168428035
 10
95.39434947701947
 20
-116.213578258707
 10
95.27790524961803
 20
-116.3131415182308
 10
94.96888018459111
 20
-116.5394842916117
 97
        0
 97
        0
 75
     2
 76
     1
 98
        0
  0
SPLINE
  5
78
330
72
100
AcDbEntity
  8
_U+30EC_U+30A4_U+30E4_U+30FC 1
370
     0
100
AcDbSpline
210
0.0
220
0.0
230
1.0
 70
    11
 71
     3
 72
    26
 73
    22
 74
     0
 42
0.0000000001
 43
0.0000000001
 12
1.0
 22
0.0
 32
0.0
 13
1.0
 23
0.0
 33
0.0
 40
0.0
 40
0.0
 40
0.0
 40
0.0
 40
1.0
 40
1.0
 40
1.0
 40
2.0
 40
2.0
 40
2.0
 40
3.0
 40
3.0
 40
3.0
 40
4.0
 40
4.0
 40
4.0
 40
5.0
 40
5.0
 40
5.0
 40
6.0
 40
6.0
 40
6.0
 40
7.0
 40
7.0
 40
7.0
 40
7.0
 10
96.00413137790869
 20
-117.1211886642961
 30
0.0
 10
96.00413137790869
 20
-117.1211886642961
 30
0.0
 10
96.00413137790869
 20
-116.0168633064993
 30
0.0
 10
96.00413137790869
 20
-116.0168633064993
 30
0.0
 10
96.00413137790869
 20
-116.0168633064993
 30
0.0
 10
95.67409123042177
 20
-116.0168633064993
 30
0.0
 10
95.67409123042177
 20
-116.0168633064993
 30
0.0
 10
95.67409123042177
 20
-116.0168633064993
 30
0.0
 10
95.67409123042177
 20
-115.8688964554078
 30
0.0
 10
95.67409123042177
 20
-115.8688964554078
 30
0.0
 10
96.00619843519985
 20
-115.8540825448212
 30
0.0
 10
96.05270722425071
 20
-115.6911295283689
 30
0.0
 10
96.08233504542386
 20
-115.5769246130329
 30
0.0
 10
96.08233504542386
 20
-115.5769246130329
 30
0.0
 10
96.22840709399846
 20
-115.5769246130329
 30
0.0
 10
96.22840709399846
 20
-115.5769246130329
 30
0.0
 10
96.22840709399846
 20
-115.5769246130329
 30
0.0
 10
96.22840709399846
 20
-117.1211886642961
 30
0.0
 10
96.22840709399846
 20
-117.1211886642961
 30
0.0
 10
96.22840709399846
 20
-117.1211886642961
 30
0.0
 10
96.00413137790869
 20
-117.1211886642961
 30
0.0
 10
96.00413137790869
 20
-117.1211886642961
 30
0.0
  0
HATCH
  5
79
330
72
100
AcDbEntity
  8
_U+30EC_U+30A4_U+30E4_U+30FC 1
 62
     7
420
 16777215
100
AcDbHatch
 10
0.0
 20
0.0
 30
0.0
210
0.0
220
0.0
230
1.0
  2
SOLID
 70
     1
 71
     0
 91
        1
 92
        1
 93
        1
 72
     4
 94
        3
 73
     0
 74
     1
 95
       26
 96
       22
 40
0.0
 40
0.0
 40
0.0
 40
0.0
 40
1.0
 40
1.0
 40
1.0
 40
2.0
 40
2.0
 40
2.0
 40
3.0
 40
3.0
 40
3.0
 40
4.0
 40
4.0
 40
4.0
 40
5.0
 40
5.0
 40
5.0
 40
6.0
 40
6.0
 40
6.0
 40
7.0
 40
7.0
 40
7.0
 40
7.0
 10
96.00413137790869
 20
-117.1211886642961
 10
96.00413137790869
 20
-117.1211886642961
 10
96.00413137790869
 20
-116.0168633064993
 10
96.00413137790869
 20
-116.0168633064993
 10
96.00413137790869
 20
-116.0168633064993
 10
95.67409123042177
 20
-116.0168633064993
 10
95.67409123042177
 20
-116.0168633064993
 10
95.67409123042177
 20
-116.0168633064993
 10
95.67409123042177
 20
-115.8688964554078
 10
95.67409123042177
 20
-115.8688964554078
 10
96.00619843519985
 20
-115.8540825448212
 10
96.05270722425071
 20
-115.6911295283689
 10
96.08233504542386
 20
-115.5769246130329
 10
96.08233504542386
 20
-115.5769246130329
 10
96.22840709399846
 20
-115.5769246130329
 10
96.22840709399846
 20
-115.5769246130329
 10
96.22840709399846
 20
-115.5769246130329
 10
96.22840709399846
 20
-117.1211886642961
 10
96.22840709399846
 20
-117.1211886642961
 10
96.22840709399846
 20
-117.1211886642961
 10
96.00413137790869
 20
-117.1211886642961
 10
96.00413137790869
 20
-117.1211886642961
 97
        0
 97
        0
 75
     2
 76
     1
 98
        0
  0
ENDBLK
  5
75
330
72
100
AcDbEntity
  8
0
100
AcDbBlockEnd
  0
BLOCK
  5
84
330
82
100
AcDbEntity
  8
0
100
AcDbBlockBegin
  2
block 4
 70
     0
 10
0.0
 20
0.0
 30
0.0
  3
block 4
  1

  0
SPLINE
  5
86
330
82
100
AcDbEntity
  8
_U+30EC_U+30A4_U+30E4_U+30FC 1
370
     0
100
AcDbSpline
210
0.0
220
0.0
230
1.0
 70
    11
 71
     3
 72
    26
 73
    22
 74
     0
 42
0.0000000001
 43
0.0000000001
 12
1.0
 22
0.0
 32
0.0
 13
1.0
 23
0.0
 33
0.0
 40
0.0
 40
0.0
 40
0.0
 40
0.0
 40
1.0
 40
1.0
 40
1.0
 40
2.0
 40
2.0
 40
2.0
 40
3.0
 40
3.0
 40
3.0
 40
4.0
 40
4.0
 40
4.0
 40
5.0
 40
5.0
 40
5.0
 40
6.0
 40
6.0
 40
6.0
 40
7.0
 40
7.0
 40
7.0
 40
7.0
 10
86.23487411038573
 20
-122.3050238409515
 30
0.0
 10
86.23487411038573
 20
-122.3050238409515
 30
0.0
 10
86.23487411038573
 20
-121.2006984831547
 30
0.0
 10
86.23487411038573
 20
-121.2006984831547
 30
0.0
 10
86.23487411038573
 20
-121.2006984831547
 30
0.0
 10
85.90483396289879
 20
-121.2006984831547
 30
0.0
 10
85.90483396289879
 20
-121.2006984831547
 30
0.0
 10
85.90483396289879
 20
-121.2006984831547
 30
0.0
 10
85.90483396289879
 20
-121.0527316320632
 30
0.0
 10
85.90483396289879
 20
-121.0527316320632
 30
0.0
 10
86.23694116767687
 20
-121.0379177214766
 30
0.0
 10
86.28344995672775
 20
-120.8749647050243
 30
0.0
 10
86.3130777779009
 20
-120.7607597896883
 30
0.0
 10
86.3130777779009
 20
-120.7607597896883
 30
0.0
 10
86.4591498264755
 20
-120.7607597896883
 30
0.0
 10
86.4591498264755
 20
-120.7607597896883
 30
0.0
 10
86.4591498264755
 20
-120.7607597896883
 30
0.0
 10
86.4591498264755
 20
-122.3050238409515
 30
0.0
 10
86.4591498264755
 20
-122.3050238409515
 30
0.0
 10
86.4591498264755
 20
-122.3050238409515
 30
0.0
 10
86.23487411038573
 20
-122.3050238409515
 30
0.0
 10
86.23487411038573
 20
-122.3050238409515
 30
0.0
  0
HATCH
  5
87
330
82
100
AcDbEntity
  8
_U+30EC_U+30A4_U+30E4_U+30FC 1
 62
     7
420
 16777215
100
AcDbHatch
 10
0.0
 20
0.0
 30
0.0
210
0.0
220
0.0
230
1.0
  2
SOLID
 70
     1
 71
     0
 91
        1
 92
        1
 93
        1
 72
     4
 94
        3
 73
     0
 74
     1
 95
       26
 96
       22
 40
0.0
 40
0.0
 40
0.0
 40
0.0
 40
1.0
 40
1.0
 40
1.0
 40
2.0
 40
2.0
 40
2.0
 40
3.0
 40
3.0
 40
3.0
 40
4.0
 40
4.0
 40
4.0
 40
5.0
 40
5.0
 40
5.0
 40
6.0
 40
6.0
 40
6.0
 40
7.0
 40
7.0
 40
7.0
 40
7.0
 10
86.23487411038573
 20
-122.3050238409515
 10
86.23487411038573
 20
-122.3050238409515
 10
86.23487411038573
 20
-121.2006984831547
 10
86.23487411038573
 20
-121.2006984831547
 10
86.23487411038573
 20
-121.2006984831547
 10
85.90483396289879
 20
-121.2006984831547
 10
85.90483396289879
 20
-121.2006984831547
 10
85.90483396289879
 20
-121.2006984831547
 10
85.90483396289879
 20
-121.0527316320632
 10
85.90483396289879
 20
-121.0527316320632
 10
86.23694116767687
 20
-121.0379177214766
 10
86.28344995672775
 20
-120.8749647050243
 10
86.3130777779009
 20
-120.7607597896883
 10
86.3130777779009
 20
-120.7607597896883
 10
86.4591498264755
 20
-120.7607597896883
 10
86.4591498264755
 20
-120.7607597896883
 10
86.4591498264755
 20
-120.7607597896883
 10
86.4591498264755
 20
-122.3050238409515
 10
86.4591498264755
 20
-122.3050238409515
 10
86.4591498264755
 20
-122.3050238409515
 10
86.23487411038573
 20
-122.3050238409515
 10
86.23487411038573
 20
-122.3050238409515
 97
        0
 97
        0
 75
     2
 76
     1
 98
        0
  0
ENDBLK
  5
85
330
82
100
AcDbEntity
  8
0
100
AcDbBlockEnd
  0
BLOCK
  5
96
330
94
100
AcDbEntity
  8
0
100
AcDbBlockBegin
  2
block 5
 70
     0
 10
0.0
 20
0.0
 30
0.0
  3
block 5
  1

  0
SPLINE
  5
98
330
94
100
AcDbEntity
  8
_U+30EC_U+30A4_U+30E4_U+30FC 1
370
     0
100
AcDbSpline
210
0.0
220
0.0
230
1.0
 70
    11
 71
     3
 72
    26
 73
    22
 74
     0
 42
0.0000000001
 43
0.0000000001
 12
1.0
 22
0.0
 32
0.0
 13
1.0
 23
0.0
 33
0.0
 40
0.0
 40
0.0
 40
0.0
 40
0.0
 40
1.0
 40
1.0
 40
1.0
 40
2.0
 40
2.0
 40
2.0
 40
3.0
 40
3.0
 40
3.0
 40
4.0
 40
4.0
 40
4.0
 40
5.0
 40
5.0
 40
5.0
 40
6.0
 40
6.0
 40
6.0
 40
7.0
 40
7.0
 40
7.0
 40
7.0
 10
91.32689749235925
 20
-140.120646123824
 30
0.0
 10
91.32689749235925
 20
-140.120646123824
 30
0.0
 10
91.32689749235925
 20
-139.0164930208014
 30
0.0
 10
91.32689749235925
 20
-139.0164930208014
 30
0.0
 10
91.32689749235925
 20
-139.0164930208014
 30
0.0
 10
90.99685734487231
 20
-139.0164930208014
 30
0.0
 10
90.99685734487231
 20
-139.0164930208014
 30
0.0
 10
90.99685734487231
 20
-139.0164930208014
 30
0.0
 10
90.99685734487231
 20
-138.8683539149357
 30
0.0
 10
90.99685734487231
 20
-138.8683539149357
 30
0.0
 10
91.32896454965041
 20
-138.8535400043491
 30
0.0
 10
91.37530108392701
 20
-138.6905869878968
 30
0.0
 10
91.40492890510016
 20
-138.5762098177865
 30
0.0
 10
91.40492890510016
 20
-138.5762098177865
 30
0.0
 10
91.55100095367476
 20
-138.5762098177865
 30
0.0
 10
91.55100095367476
 20
-138.5762098177865
 30
0.0
 10
91.55100095367476
 20
-138.5762098177865
 30
0.0
 10
91.55100095367476
 20
-140.120646123824
 30
0.0
 10
91.55100095367476
 20
-140.120646123824
 30
0.0
 10
91.55100095367476
 20
-140.120646123824
 30
0.0
 10
91.32689749235925
 20
-140.120646123824
 30
0.0
 10
91.32689749235925
 20
-140.120646123824
 30
0.0
  0
HATCH
  5
99
330
94
100
AcDbEntity
  8
_U+30EC_U+30A4_U+30E4_U+30FC 1
 62
     7
420
 16777215
100
AcDbHatch
 10
0.0
 20
0.0
 30
0.0
210
0.0
220
0.0
230
1.0
  2
SOLID
 70
     1
 71
     0
 91
        1
 92
        1
 93
        1
 72
     4
 94
        3
 73
     0
 74
     1
 95
       26
 96
       22
 40
0.0
 40
0.0
 40
0.0
 40
0.0
 40
1.0
 40
1.0
 40
1.0
 40
2.0
 40
2.0
 40
2.0
 40
3.0
 40
3.0
 40
3.0
 40
4.0
 40
4.0
 40
4.0
 40
5.0
 40
5.0
 40
5.0
 40
6.0
 40
6.0
 40
6.0
 40
7.0
 40
7.0
 40
7.0
 40
7.0
 10
91.32689749235925
 20
-140.120646123824
 10
91.32689749235925
 20
-140.120646123824
 10
91.32689749235925
 20
-139.0164930208014
 10
91.32689749235925
 20
-139.0164930208014
 10
91.32689749235925
 20
-139.0164930208014
 10
90.99685734487231
 20
-139.0164930208014
 10
90.99685734487231
 20
-139.0164930208014
 10
90.99685734487231
 20
-139.0164930208014
 10
90.99685734487231
 20
-138.8683539149357
 10
90.99685734487231
 20
-138.8683539149357
 10
91.32896454965041
 20
-138.8535400043491
 10
91.37530108392701
 20
-138.6905869878968
 10
91.40492890510016
 20
-138.5762098177865
 10
91.40492890510016
 20
-138.5762098177865
 10
91.55100095367476
 20
-138.5762098177865
 10
91.55100095367476
 20
-138.5762098177865
 10
91.55100095367476
 20
-138.5762098177865
 10
91.55100095367476
 20
-140.120646123824
 10
91.55100095367476
 20
-140.120646123824
 10
91.55100095367476
 20
-140.120646123824
 10
91.32689749235925
 20
-140.120646123824
 10
91.32689749235925
 20
-140.120646123824
 97
        0
 97
        0
 75
     2
 76
     1
 98
        0
  0
SPLINE
  5
9A
330
94
100
AcDbEntity
  8
_U+30EC_U+30A4_U+30E4_U+30FC 1
370
     0
100
AcDbSpline
210
0.0
220
0.0
230
1.0
 70
    11
 71
     3
 72
    32
 73
    28
 74
     0
 42
0.0000000001
 43
0.0000000001
 12
1.0
 22
0.0
 32
0.0
 13
1.0
 23
0.0
 33
0.0
 40
0.0
 40
0.0
 40
0.0
 40
0.0
 40
1.0
 40
1.0
 40
1.0
 40
2.0
 40
2.0
 40
2.0
 40
3.0
 40
3.0
 40
3.0
 40
4.0
 40
4.0
 40
4.0
 40
5.0
 40
5.0
 40
5.0
 40
6.0
 40
6.0
 40
6.0
 40
7.0
 40
7.0
 40
7.0
 40
8.0
 40
8.0
 40
8.0
 40
9.0
 40
9.0
 40
9.0
 40
9.0
 10
92.55627981627066
 20
-140.1712890274572
 30
0.0
 10
92.04020451258023
 20
-140.1712890274572
 30
0.0
 10
92.03193628341563
 20
-139.617317673429
 30
0.0
 10
92.03193628341563
 20
-139.403377243795
 30
0.0
 10
92.03193628341563
 20
-139.1729003558318
 30
0.0
 10
92.0508843085845
 20
-138.5255669141533
 30
0.0
 10
92.59452037615694
 20
-138.5255669141533
 30
0.0
 10
92.767808679065
 20
-138.5255669141533
 30
0.0
 10
93.01344398716331
 20
-138.5955023525039
 30
0.0
 10
93.05134003750106
 20
-138.927609557282
 30
0.0
 10
93.05134003750106
 20
-138.927609557282
 30
0.0
 10
92.83774411741557
 20
-138.927609557282
 30
0.0
 10
92.83774411741557
 20
-138.927609557282
 30
0.0
 10
92.8270643214113
 20
-138.8704209722268
 30
0.0
 10
92.79536944294699
 20
-138.7222818663611
 30
0.0
 10
92.59245331886578
 20
-138.7222818663611
 30
0.0
 10
92.30030922171659
 20
-138.7222818663611
 30
0.0
 10
92.2603461140877
 20
-139.0502549565569
 30
0.0
 10
92.24759926079227
 20
-139.2552381379292
 30
0.0
 10
92.34061683889402
 20
-139.1770344704141
 30
0.0
 10
92.40848521995343
 20
-139.1177788280678
 30
0.0
 10
92.59038626157464
 20
-139.1177788280678
 30
0.0
 10
92.77022024590467
 20
-139.1177788280678
 30
0.0
 10
93.0726996295096
 20
-139.2259548263046
 30
0.0
 10
93.0726996295096
 20
-139.6321315840156
 30
0.0
 10
93.0726996295096
 20
-139.9514919354982
 30
0.0
 10
92.87357311046216
 20
-140.1712890274572
 30
0.0
 10
92.55627981627066
 20
-140.1712890274572
 30
0.0
  0
SPLINE
  5
9B
330
94
100
AcDbEntity
  8
_U+30EC_U+30A4_U+30E4_U+30FC 1
370
     0
100
AcDbSpline
210
0.0
220
0.0
230
1.0
 70
    11
 71
     3
 72
    17
 73
    13
 74
     0
 42
0.0000000001
 43
0.0000000001
 12
1.0
 22
0.0
 32
0.0
 13
1.0
 23
0.0
 33
0.0
 40
0.0
 40
0.0
 40
0.0
 40
0.0
 40
1.0
 40
1.0
 40
1.0
 40
2.0
 40
2.0
 40
2.0
 40
3.0
 40
3.0
 40
3.0
 40
4.0
 40
4.0
 40
4.0
 40
4.0
 10
92.57350529369691
 20
-139.3124267229844
 30
0.0
 10
92.31098901772087
 20
-139.3124267229844
 30
0.0
 10
92.27309296738312
 20
-139.5239555857787
 30
0.0
 10
92.27309296738312
 20
-139.6403998131802
 30
0.0
 10
92.27309296738312
 20
-139.8160996829279
 30
0.0
 10
92.36817760277602
 20
-139.9790526993802
 30
0.0
 10
92.55214570168836
 20
-139.9790526993802
 30
0.0
 10
92.6727240436721
 20
-139.9790526993802
 30
0.0
 10
92.84842391341984
 20
-139.9197970570339
 30
0.0
 10
92.84842391341984
 20
-139.6341986413067
 30
0.0
 10
92.84842391341984
 20
-139.409922925217
 30
0.0
 10
92.7085530367187
 20
-139.3124267229844
 30
0.0
 10
92.57350529369691
 20
-139.3124267229844
 30
0.0
  0
HATCH
  5
9C
330
94
100
AcDbEntity
  8
_U+30EC_U+30A4_U+30E4_U+30FC 1
 62
     7
420
 16777215
100
AcDbHatch
 10
0.0
 20
0.0
 30
0.0
210
0.0
220
0.0
230
1.0
  2
SOLID
 70
     1
 71
     0
 91
        2
 92
        1
 93
        1
 72
     4
 94
        3
 73
     0
 74
     1
 95
       32
 96
       28
 40
0.0
 40
0.0
 40
0.0
 40
0.0
 40
1.0
 40
1.0
 40
1.0
 40
2.0
 40
2.0
 40
2.0
 40
3.0
 40
3.0
 40
3.0
 40
4.0
 40
4.0
 40
4.0
 40
5.0
 40
5.0
 40
5.0
 40
6.0
 40
6.0
 40
6.0
 40
7.0
 40
7.0
 40
7.0
 40
8.0
 40
8.0
 40
8.0
 40
9.0
 40
9.0
 40
9.0
 40
9.0
 10
92.55627981627066
 20
-140.1712890274572
 10
92.04020451258023
 20
-140.1712890274572
 10
92.03193628341563
 20
-139.617317673429
 10
92.03193628341563
 20
-139.403377243795
 10
92.03193628341563
 20
-139.1729003558318
 10
92.0508843085845
 20
-138.5255669141533
 10
92.59452037615694
 20
-138.5255669141533
 10
92.767808679065
 20
-138.5255669141533
 10
93.01344398716331
 20
-138.5955023525039
 10
93.05134003750106
 20
-138.927609557282
 10
93.05134003750106
 20
-138.927609557282
 10
92.83774411741557
 20
-138.927609557282
 10
92.83774411741557
 20
-138.927609557282
 10
92.8270643214113
 20
-138.8704209722268
 10
92.79536944294699
 20
-138.7222818663611
 10
92.59245331886578
 20
-138.7222818663611
 10
92.30030922171659
 20
-138.7222818663611
 10
92.2603461140877
 20
-139.0502549565569
 10
92.24759926079227
 20
-139.2552381379292
 10
92.34061683889402
 20
-139.1770344704141
 10
92.40848521995343
 20
-139.1177788280678
 10
92.59038626157464
 20
-139.1177788280678
 10
92.77022024590467
 20
-139.1177788280678
 10
93.0726996295096
 20
-139.2259548263046
 10
93.0726996295096
 20
-139.6321315840156
 10
93.0726996295096
 20
-139.9514919354982
 10
92.87357311046216
 20
-140.1712890274572
 10
92.55627981627066
 20
-140.1712890274572
 97
        0
 97
        0
 92
        1
 93
        1
 72
     4
 94
        3
 73
     0
 74
     1
 95
       17
 96
       13
 40
0.0
 40
0.0
 40
0.0
 40
0.0
 40
1.0
 40
1.0
 40
1.0
 40
2.0
 40
2.0
 40
2.0
 40
3.0
 40
3.0
 40
3.0
 40
4.0
 40
4.0
 40
4.0
 40
4.0
 10
92.57350529369691
 20
-139.3124267229844
 10
92.31098901772087
 20
-139.3124267229844
 10
92.27309296738312
 20
-139.5239555857787
 10
92.27309296738312
 20
-139.6403998131802
 10
92.27309296738312
 20
-139.8160996829279
 10
92.36817760277602
 20
-139.9790526993802
 10
92.55214570168836
 20
-139.9790526993802
 10
92.6727240436721
 20
-139.9790526993802
 10
92.84842391341984
 20
-139.9197970570339
 10
92.84842391341984
 20
-139.6341986413067
 10
92.84842391341984
 20
-139.409922925217
 10
92.7085530367187
 20
-139.3124267229844
 10
92.57350529369691
 20
-139.3124267229844
 97
        0
 97
        0
 75
     2
 76
     1
 98
        0
  0
ENDBLK
  5
97
330
94
100
AcDbEntity
  8
0
100
AcDbBlockEnd
  0
BLOCK
  5
AB
330
A9
100
AcDbEntity
  8
0
100
AcDbBlockBegin
  2
block 6
 70
     0
 10
0.0
 20
0.0
 30
0.0
  3
block 6
  1

  0
SPLINE
  5
AD
330
A9
100
AcDbEntity
  8
_U+30EC_U+30A4_U+30E4_U+30FC 1
370
     0
100
AcDbSpline
210
0.0
220
0.0
230
1.0
 70
    11
 71
     3
 72
    26
 73
    22
 74
     0
 42
0.0000000001
 43
0.0000000001
 12
1.0
 22
0.0
 32
0.0
 13
1.0
 23
0.0
 33
0.0
 40
0.0
 40
0.0
 40
0.0
 40
0.0
 40
1.0
 40
1.0
 40
1.0
 40
2.0
 40
2.0
 40
2.0
 40
3.0
 40
3.0
 40
3.0
 40
4.0
 40
4.0
 40
4.0
 40
5.0
 40
5.0
 40
5.0
 40
6.0
 40
6.0
 40
6.0
 40
7.0
 40
7.0
 40
7.0
 40
7.0
 10
103.4486382119851
 20
-131.4689778317161
 30
0.0
 10
103.4486382119851
 20
-131.4689778317161
 30
0.0
 10
102.344829618511
 20
-131.4689778317161
 30
0.0
 10
102.344829618511
 20
-131.4689778317161
 30
0.0
 10
102.344829618511
 20
-131.4689778317161
 30
0.0
 10
102.344829618511
 20
-131.799017979203
 30
0.0
 10
102.344829618511
 20
-131.799017979203
 30
0.0
 10
102.344829618511
 20
-131.799017979203
 30
0.0
 10
102.1966905126453
 20
-131.799017979203
 30
0.0
 10
102.1966905126453
 20
-131.799017979203
 30
0.0
 10
102.1815320925102
 20
-131.4669107744249
 30
0.0
 10
102.0189235856064
 20
-131.4204019853741
 30
0.0
 10
101.9045464154961
 20
-131.3907741642009
 30
0.0
 10
101.9045464154961
 20
-131.3907741642009
 30
0.0
 10
101.9045464154961
 20
-131.2447021156263
 30
0.0
 10
101.9045464154961
 20
-131.2447021156263
 30
0.0
 10
101.9045464154961
 20
-131.2447021156263
 30
0.0
 10
103.4486382119851
 20
-131.2447021156263
 30
0.0
 10
103.4486382119851
 20
-131.2447021156263
 30
0.0
 10
103.4486382119851
 20
-131.2447021156263
 30
0.0
 10
103.4486382119851
 20
-131.4689778317161
 30
0.0
 10
103.4486382119851
 20
-131.4689778317161
 30
0.0
  0
HATCH
  5
AE
330
A9
100
AcDbEntity
  8
_U+30EC_U+30A4_U+30E4_U+30FC 1
 62
     7
420
 16777215
100
AcDbHatch
 10
0.0
 20
0.0
 30
0.0
210
0.0
220
0.0
230
1.0
  2
SOLID
 70
     1
 71
     0
 91
        1
 92
        1
 93
        1
 72
     4
 94
        3
 73
     0
 74
     1
 95
       26
 96
       22
 40
0.0
 40
0.0
 40
0.0
 40
0.0
 40
1.0
 40
1.0
 40
1.0
 40
2.0
 40
2.0
 40
2.0
 40
3.0
 40
3.0
 40
3.0
 40
4.0
 40
4.0
 40
4.0
 40
5.0
 40
5.0
 40
5.0
 40
6.0
 40
6.0
 40
6.0
 40
7.0
 40
7.0
 40
7.0
 40
7.0
 10
103.4486382119851
 20
-131.4689778317161
 10
103.4486382119851
 20
-131.4689778317161
 10
102.344829618511
 20
-131.4689778317161
 10
102.344829618511
 20
-131.4689778317161
 10
102.344829618511
 20
-131.4689778317161
 10
102.344829618511
 20
-131.799017979203
 10
102.344829618511
 20
-131.799017979203
 10
102.344829618511
 20
-131.799017979203
 10
102.1966905126453
 20
-131.799017979203
 10
102.1966905126453
 20
-131.799017979203
 10
102.1815320925102
 20
-131.4669107744249
 10
102.0189235856064
 20
-131.4204019853741
 10
101.9045464154961
 20
-131.3907741642009
 10
101.9045464154961
 20
-131.3907741642009
 10
101.9045464154961
 20
-131.2447021156263
 10
101.9045464154961
 20
-131.2447021156263
 10
101.9045464154961
 20
-131.2447021156263
 10
103.4486382119851
 20
-131.2447021156263
 10
103.4486382119851
 20
-131.2447021156263
 10
103.4486382119851
 20
-131.2447021156263
 10
103.4486382119851
 20
-131.4689778317161
 10
103.4486382119851
 20
-131.4689778317161
 97
        0
 97
        0
 75
     2
 76
     1
 98
        0
  0
SPLINE
  5
AF
330
A9
100
AcDbEntity
  8
_U+30EC_U+30A4_U+30E4_U+30FC 1
370
     0
100
AcDbSpline
210
0.0
220
0.0
230
1.0
 70
    11
 71
     3
 72
    29
 73
    25
 74
     0
 42
0.0000000001
 43
0.0000000001
 12
1.0
 22
0.0
 32
0.0
 13
1.0
 23
0.0
 33
0.0
 40
0.0
 40
0.0
 40
0.0
 40
0.0
 40
1.0
 40
1.0
 40
1.0
 40
2.0
 40
2.0
 40
2.0
 40
3.0
 40
3.0
 40
3.0
 40
4.0
 40
4.0
 40
4.0
 40
5.0
 40
5.0
 40
5.0
 40
6.0
 40
6.0
 40
6.0
 40
7.0
 40
7.0
 40
7.0
 40
8.0
 40
8.0
 40
8.0
 40
8.0
 10
103.2708712849462
 20
-129.8456488390664
 30
0.0
 10
103.4803330904494
 20
-129.9538248373032
 30
0.0
 10
103.4996256251668
 20
-130.1271131402113
 30
0.0
 10
103.4996256251668
 20
-130.2435573676127
 30
0.0
 10
103.4996256251668
 20
-130.4044433267739
 30
0.0
 10
103.4527723265674
 20
-130.5460367512177
 30
0.0
 10
103.2708712849462
 20
-130.6411213866106
 30
0.0
 10
103.0765678995781
 20
-130.7448187607166
 30
0.0
 10
102.8395453301929
 20
-130.764111295434
 30
0.0
 10
102.6769368232891
 20
-130.764111295434
 30
0.0
 10
102.5329318320057
 20
-130.764111295434
 30
0.0
 10
102.2807508424854
 20
-130.7468858180077
 30
0.0
 10
102.082313342535
 20
-130.6411213866106
 30
0.0
 10
101.8790527089052
 20
-130.5332898979222
 30
0.0
 10
101.8556260596055
 20
-130.3724039387611
 30
0.0
 10
101.8556260596055
 20
-130.2435573676127
 30
0.0
 10
101.8556260596055
 20
-130.0847384657427
 30
0.0
 10
101.9004123009138
 20
-129.9410779840078
 30
0.0
 10
102.082313342535
 20
-129.8456488390664
 30
0.0
 10
102.2745496706119
 20
-129.7464300890912
 30
0.0
 10
102.5033040108325
 20
-129.7230034397915
 30
0.0
 10
102.6769368232891
 20
-129.7230034397915
 30
0.0
 10
102.8478135593575
 20
-129.7230034397915
 30
0.0
 10
103.0786349568692
 20
-129.7443630318
 30
0.0
 10
103.2708712849462
 20
-129.8456488390664
 30
0.0
  0
SPLINE
  5
B0
330
A9
100
AcDbEntity
  8
_U+30EC_U+30A4_U+30E4_U+30FC 1
370
     0
100
AcDbSpline
210
0.0
220
0.0
230
1.0
 70
    11
 71
     3
 72
    17
 73
    13
 74
     0
 42
0.0000000001
 43
0.0000000001
 12
1.0
 22
0.0
 32
0.0
 13
1.0
 23
0.0
 33
0.0
 40
0.0
 40
0.0
 40
0.0
 40
0.0
 40
1.0
 40
1.0
 40
1.0
 40
2.0
 40
2.0
 40
2.0
 40
3.0
 40
3.0
 40
3.0
 40
4.0
 40
4.0
 40
4.0
 40
4.0
 10
102.0485514067795
 20
-130.2435573676127
 30
0.0
 10
102.0485514067795
 20
-130.4933267902933
 30
0.0
 10
102.3317382556671
 20
-130.5398355793442
 30
0.0
 10
102.6769368232891
 20
-130.5398355793442
 30
0.0
 10
102.9959526652232
 20
-130.5398355793442
 30
0.0
 10
103.3046332207016
 20
-130.5036620767491
 30
0.0
 10
103.3046332207016
 20
-130.2435573676127
 30
0.0
 10
103.3046332207016
 20
-129.9958550022233
 30
0.0
 10
103.0235134291052
 20
-129.9472791558812
 30
0.0
 10
102.6769368232891
 20
-129.9472791558812
 30
0.0
 10
102.3572319622579
 20
-129.9472791558812
 30
0.0
 10
102.0485514067795
 20
-129.9855197157675
 30
0.0
 10
102.0485514067795
 20
-130.2435573676127
 30
0.0
  0
HATCH
  5
B1
330
A9
100
AcDbEntity
  8
_U+30EC_U+30A4_U+30E4_U+30FC 1
 62
     7
420
 16777215
100
AcDbHatch
 10
0.0
 20
0.0
 30
0.0
210
0.0
220
0.0
230
1.0
  2
SOLID
 70
     1
 71
     0
 91
        2
 92
        1
 93
        1
 72
     4
 94
        3
 73
     0
 74
     1
 95
       29
 96
       25
 40
0.0
 40
0.0
 40
0.0
 40
0.0
 40
1.0
 40
1.0
 40
1.0
 40
2.0
 40
2.0
 40
2.0
 40
3.0
 40
3.0
 40
3.0
 40
4.0
 40
4.0
 40
4.0
 40
5.0
 40
5.0
 40
5.0
 40
6.0
 40
6.0
 40
6.0
 40
7.0
 40
7.0
 40
7.0
 40
8.0
 40
8.0
 40
8.0
 40
8.0
 10
103.2708712849462
 20
-129.8456488390664
 10
103.4803330904494
 20
-129.9538248373032
 10
103.4996256251668
 20
-130.1271131402113
 10
103.4996256251668
 20
-130.2435573676127
 10
103.4996256251668
 20
-130.4044433267739
 10
103.4527723265674
 20
-130.5460367512177
 10
103.2708712849462
 20
-130.6411213866106
 10
103.0765678995781
 20
-130.7448187607166
 10
102.8395453301929
 20
-130.764111295434
 10
102.6769368232891
 20
-130.764111295434
 10
102.5329318320057
 20
-130.764111295434
 10
102.2807508424854
 20
-130.7468858180077
 10
102.082313342535
 20
-130.6411213866106
 10
101.8790527089052
 20
-130.5332898979222
 10
101.8556260596055
 20
-130.3724039387611
 10
101.8556260596055
 20
-130.2435573676127
 10
101.8556260596055
 20
-130.0847384657427
 10
101.9004123009138
 20
-129.9410779840078
 10
102.082313342535
 20
-129.8456488390664
 10
102.2745496706119
 20
-129.7464300890912
 10
102.5033040108325
 20
-129.7230034397915
 10
102.6769368232891
 20
-129.7230034397915
 10
102.8478135593575
 20
-129.7230034397915
 10
103.0786349568692
 20
-129.7443630318
 10
103.2708712849462
 20
-129.8456488390664
 97
        0
 97
        0
 92
        1
 93
        1
 72
     4
 94
        3
 73
     0
 74
     1
 95
       17
 96
       13
 40
0.0
 40
0.0
 40
0.0
 40
0.0
 40
1.0
 40
1.0
 40
1.0
 40
2.0
 40
2.0
 40
2.0
 40
3.0
 40
3.0
 40
3.0
 40
4.0
 40
4.0
 40
4.0
 40
4.0
 10
102.0485514067795
 20
-130.2435573676127
 10
102.0485514067795
 20
-130.4933267902933
 10
102.3317382556671
 20
-130.5398355793442
 10
102.6769368232891
 20
-130.5398355793442
 10
102.9959526652232
 20
-130.5398355793442
 10
103.3046332207016
 20
-130.5036620767491
 10
103.3046332207016
 20
-130.2435573676127
 10
103.3046332207016
 20
-129.9958550022233
 10
103.0235134291052
 20
-129.9472791558812
 10
102.6769368232891
 20
-129.9472791558812
 10
102.3572319622579
 20
-129.9472791558812
 10
102.0485514067795
 20
-129.9855197157675
 10
102.0485514067795
 20
-130.2435573676127
 97
        0
 97
        0
 75
     2
 76
     1
 98
        0
  0
ENDBLK
  5
AC
330
A9
100
AcDbEntity
  8
0
100
AcDbBlockEnd
  0
BLOCK
  5
C0
330
BE
100
AcDbEntity
  8
0
100
AcDbBlockBegin
  2
block 7
 70
     0
 10
0.0
 20
0.0
 30
0.0
  3
block 7
  1

  0
SPLINE
  5
C2
330
BE
100
AcDbEntity
  8
_U+30EC_U+30A4_U+30E4_U+30FC 1
370
     0
100
AcDbSpline
210
0.0
220
0.0
230
1.0
 70
    11
 71
     3
 72
    26
 73
    22
 74
     0
 42
0.0000000001
 43
0.0000000001
 12
1.0
 22
0.0
 32
0.0
 13
1.0
 23
0.0
 33
0.0
 40
0.0
 40
0.0
 40
0.0
 40
0.0
 40
1.0
 40
1.0
 40
1.0
 40
2.0
 40
2.0
 40
2.0
 40
3.0
 40
3.0
 40
3.0
 40
4.0
 40
4.0
 40
4.0
 40
5.0
 40
5.0
 40
5.0
 40
6.0
 40
6.0
 40
6.0
 40
7.0
 40
7.0
 40
7.0
 40
7.0
 10
79.44838051399208
 20
-129.3908962350134
 30
0.0
 10
79.44838051399208
 20
-129.3908962350134
 30
0.0
 10
78.34405515619524
 20
-129.3908962350134
 30
0.0
 10
78.34405515619524
 20
-129.3908962350134
 30
0.0
 10
78.34405515619524
 20
-129.3908962350134
 30
0.0
 10
78.34405515619524
 20
-129.7209363825003
 30
0.0
 10
78.34405515619524
 20
-129.7209363825003
 30
0.0
 10
78.34405515619524
 20
-129.7209363825003
 30
0.0
 10
78.1959160503295
 20
-129.7209363825003
 30
0.0
 10
78.1959160503295
 20
-129.7209363825003
 30
0.0
 10
78.18127439451719
 20
-129.3888291777222
 30
0.0
 10
78.01832137806487
 20
-129.3423203886714
 30
0.0
 10
77.90411646272884
 20
-129.3126925674982
 30
0.0
 10
77.90411646272884
 20
-129.3126925674982
 30
0.0
 10
77.90411646272884
 20
-129.1666205189236
 30
0.0
 10
77.90411646272884
 20
-129.1666205189236
 30
0.0
 10
77.90411646272884
 20
-129.1666205189236
 30
0.0
 10
79.44838051399208
 20
-129.1666205189236
 30
0.0
 10
79.44838051399208
 20
-129.1666205189236
 30
0.0
 10
79.44838051399208
 20
-129.1666205189236
 30
0.0
 10
79.44838051399208
 20
-129.3908962350134
 30
0.0
 10
79.44838051399208
 20
-129.3908962350134
 30
0.0
  0
HATCH
  5
C3
330
BE
100
AcDbEntity
  8
_U+30EC_U+30A4_U+30E4_U+30FC 1
 62
     7
420
 16777215
100
AcDbHatch
 10
0.0
 20
0.0
 30
0.0
210
0.0
220
0.0
230
1.0
  2
SOLID
 70
     1
 71
     0
 91
        1
 92
        1
 93
        1
 72
     4
 94
        3
 73
     0
 74
     1
 95
       26
 96
       22
 40
0.0
 40
0.0
 40
0.0
 40
0.0
 40
1.0
 40
1.0
 40
1.0
 40
2.0
 40
2.0
 40
2.0
 40
3.0
 40
3.0
 40
3.0
 40
4.0
 40
4.0
 40
4.0
 40
5.0
 40
5.0
 40
5.0
 40
6.0
 40
6.0
 40
6.0
 40
7.0
 40
7.0
 40
7.0
 40
7.0
 10
79.44838051399208
 20
-129.3908962350134
 10
79.44838051399208
 20
-129.3908962350134
 10
78.34405515619524
 20
-129.3908962350134
 10
78.34405515619524
 20
-129.3908962350134
 10
78.34405515619524
 20
-129.3908962350134
 10
78.34405515619524
 20
-129.7209363825003
 10
78.34405515619524
 20
-129.7209363825003
 10
78.34405515619524
 20
-129.7209363825003
 10
78.1959160503295
 20
-129.7209363825003
 10
78.1959160503295
 20
-129.7209363825003
 10
78.18127439451719
 20
-129.3888291777222
 10
78.01832137806487
 20
-129.3423203886714
 10
77.90411646272884
 20
-129.3126925674982
 10
77.90411646272884
 20
-129.3126925674982
 10
77.90411646272884
 20
-129.1666205189236
 10
77.90411646272884
 20
-129.1666205189236
 10
77.90411646272884
 20
-129.1666205189236
 10
79.44838051399208
 20
-129.1666205189236
 10
79.44838051399208
 20
-129.1666205189236
 10
79.44838051399208
 20
-129.1666205189236
 10
79.44838051399208
 20
-129.3908962350134
 10
79.44838051399208
 20
-129.3908962350134
 97
        0
 97
        0
 75
     2
 76
     1
 98
        0
  0
SPLINE
  5
C4
330
BE
100
AcDbEntity
  8
_U+30EC_U+30A4_U+30E4_U+30FC 1
370
     0
100
AcDbSpline
210
0.0
220
0.0
230
1.0
 70
    11
 71
     3
 72
    32
 73
    28
 74
     0
 42
0.0000000001
 43
0.0000000001
 12
1.0
 22
0.0
 32
0.0
 13
1.0
 23
0.0
 33
0.0
 40
0.0
 40
0.0
 40
0.0
 40
0.0
 40
1.0
 40
1.0
 40
1.0
 40
2.0
 40
2.0
 40
2.0
 40
3.0
 40
3.0
 40
3.0
 40
4.0
 40
4.0
 40
4.0
 40
5.0
 40
5.0
 40
5.0
 40
6.0
 40
6.0
 40
6.0
 40
7.0
 40
7.0
 40
7.0
 40
8.0
 40
8.0
 40
8.0
 40
9.0
 40
9.0
 40
9.0
 40
9.0
 10
79.49919567239951
 20
-128.1613416563277
 30
0.0
 10
79.49919567239951
 20
-128.6774169600181
 30
0.0
 10
78.9448798088228
 20
-128.6860296987313
 30
0.0
 10
78.73128388873732
 20
-128.6860296987313
 30
0.0
 10
78.50063474599985
 20
-128.6860296987313
 30
0.0
 10
77.8533013043214
 20
-128.6667371640139
 30
0.0
 10
77.8533013043214
 20
-128.1231010964414
 30
0.0
 10
77.8533013043214
 20
-127.9498127935334
 30
0.0
 10
77.9230644878977
 20
-127.7041774854351
 30
0.0
 10
78.25517169267579
 20
-127.6662814350973
 30
0.0
 10
78.25517169267579
 20
-127.6662814350973
 30
0.0
 10
78.25517169267579
 20
-127.8798773551828
 30
0.0
 10
78.25517169267579
 20
-127.8798773551828
 30
0.0
 10
78.19815536239491
 20
-127.8905571511871
 30
0.0
 10
78.05001625652916
 20
-127.9222520296514
 30
0.0
 10
78.05001625652916
 20
-128.1251681537326
 30
0.0
 10
78.05001625652916
 20
-128.4173122508818
 30
0.0
 10
78.37798934672495
 20
-128.4572753585107
 30
0.0
 10
78.58314478287159
 20
-128.4700222118061
 30
0.0
 10
78.5049411153564
 20
-128.3770046337044
 30
0.0
 10
78.44568547301012
 20
-128.3091362526449
 30
0.0
 10
78.44568547301012
 20
-128.1272352110238
 30
0.0
 10
78.44568547301012
 20
-127.9474012266937
 30
0.0
 10
78.55351696169843
 20
-127.6449218430888
 30
0.0
 10
78.95969371940939
 20
-127.6449218430888
 30
0.0
 10
79.27905407089204
 20
-127.6449218430888
 30
0.0
 10
79.49919567239951
 20
-127.8440483621362
 30
0.0
 10
79.49919567239951
 20
-128.1613416563277
 30
0.0
  0
SPLINE
  5
C5
330
BE
100
AcDbEntity
  8
_U+30EC_U+30A4_U+30E4_U+30FC 1
370
     0
100
AcDbSpline
210
0.0
220
0.0
230
1.0
 70
    11
 71
     3
 72
    17
 73
    13
 74
     0
 42
0.0000000001
 43
0.0000000001
 12
1.0
 22
0.0
 32
0.0
 13
1.0
 23
0.0
 33
0.0
 40
0.0
 40
0.0
 40
0.0
 40
0.0
 40
1.0
 40
1.0
 40
1.0
 40
2.0
 40
2.0
 40
2.0
 40
3.0
 40
3.0
 40
3.0
 40
4.0
 40
4.0
 40
4.0
 40
4.0
 10
78.64033336792673
 20
-128.14446068845
 30
0.0
 10
78.64033336792673
 20
-128.4066324548775
 30
0.0
 10
78.85186223072107
 20
-128.4445285052153
 30
0.0
 10
78.96813420334824
 20
-128.4445285052153
 30
0.0
 10
79.14366181832173
 20
-128.4445285052153
 30
0.0
 10
79.30661483477404
 20
-128.3494438698224
 30
0.0
 10
79.30661483477404
 20
-128.16547577091
 30
0.0
 10
79.30661483477404
 20
-128.0448974289263
 30
0.0
 10
79.24735919242775
 20
-127.8691975591785
 30
0.0
 10
78.96176077670053
 20
-127.8691975591785
 30
0.0
 10
78.73748506061077
 20
-127.8691975591785
 30
0.0
 10
78.64033336792673
 20
-128.0087239263312
 30
0.0
 10
78.64033336792673
 20
-128.14446068845
 30
0.0
  0
HATCH
  5
C6
330
BE
100
AcDbEntity
  8
_U+30EC_U+30A4_U+30E4_U+30FC 1
 62
     7
420
 16777215
100
AcDbHatch
 10
0.0
 20
0.0
 30
0.0
210
0.0
220
0.0
230
1.0
  2
SOLID
 70
     1
 71
     0
 91
        2
 92
        1
 93
        1
 72
     4
 94
        3
 73
     0
 74
     1
 95
       32
 96
       28
 40
0.0
 40
0.0
 40
0.0
 40
0.0
 40
1.0
 40
1.0
 40
1.0
 40
2.0
 40
2.0
 40
2.0
 40
3.0
 40
3.0
 40
3.0
 40
4.0
 40
4.0
 40
4.0
 40
5.0
 40
5.0
 40
5.0
 40
6.0
 40
6.0
 40
6.0
 40
7.0
 40
7.0
 40
7.0
 40
8.0
 40
8.0
 40
8.0
 40
9.0
 40
9.0
 40
9.0
 40
9.0
 10
79.49919567239951
 20
-128.1613416563277
 10
79.49919567239951
 20
-128.6774169600181
 10
78.9448798088228
 20
-128.6860296987313
 10
78.73128388873732
 20
-128.6860296987313
 10
78.50063474599985
 20
-128.6860296987313
 10
77.8533013043214
 20
-128.6667371640139
 10
77.8533013043214
 20
-128.1231010964414
 10
77.8533013043214
 20
-127.9498127935334
 10
77.9230644878977
 20
-127.7041774854351
 10
78.25517169267579
 20
-127.6662814350973
 10
78.25517169267579
 20
-127.6662814350973
 10
78.25517169267579
 20
-127.8798773551828
 10
78.25517169267579
 20
-127.8798773551828
 10
78.19815536239491
 20
-127.8905571511871
 10
78.05001625652916
 20
-127.9222520296514
 10
78.05001625652916
 20
-128.1251681537326
 10
78.05001625652916
 20
-128.4173122508818
 10
78.37798934672495
 20
-128.4572753585107
 10
78.58314478287159
 20
-128.4700222118061
 10
78.5049411153564
 20
-128.3770046337044
 10
78.44568547301012
 20
-128.3091362526449
 10
78.44568547301012
 20
-128.1272352110238
 10
78.44568547301012
 20
-127.9474012266937
 10
78.55351696169843
 20
-127.6449218430888
 10
78.95969371940939
 20
-127.6449218430888
 10
79.27905407089204
 20
-127.6449218430888
 10
79.49919567239951
 20
-127.8440483621362
 10
79.49919567239951
 20
-128.1613416563277
 97
        0
 97
        0
 92
        1
 93
        1
 72
     4
 94
        3
 73
     0
 74
     1
 95
       17
 96
       13
 40
0.0
 40
0.0
 40
0.0
 40
0.0
 40
1.0
 40
1.0
 40
1.0
 40
2.0
 40
2.0
 40
2.0
 40
3.0
 40
3.0
 40
3.0
 40
4.0
 40
4.0
 40
4.0
 40
4.0
 10
78.64033336792673
 20
-128.14446068845
 10
78.64033336792673
 20
-128.4066324548775
 10
78.85186223072107
 20
-128.4445285052153
 10
78.96813420334824
 20
-128.4445285052153
 10
79.14366181832173
 20
-128.4445285052153
 10
79.30661483477404
 20
-128.3494438698224
 10
79.30661483477404
 20
-128.16547577091
 10
79.30661483477404
 20
-128.0448974289263
 10
79.24735919242775
 20
-127.8691975591785
 10
78.96176077670053
 20
-127.8691975591785
 10
78.73748506061077
 20
-127.8691975591785
 10
78.64033336792673
 20
-128.0087239263312
 10
78.64033336792673
 20
-128.14446068845
 97
        0
 97
        0
 75
     2
 76
     1
 98
        0
  0
ENDBLK
  5
C1
330
BE
100
AcDbEntity
  8
0
100
AcDbBlockEnd
  0
ENDSEC
  0
SECTION
  2
ENTITIES
  0
SPLINE
  5
41
330
1F
100
AcDbEntity
  8
_U+30EC_U+30A4_U+30E4_U+30FC 1
 62
   253
420
 11711154
370
     9
100
AcDbSpline
210
0.0
220
0.0
230
1.0
 70
    11
 71
     3
 72
    74
 73
    70
 74
     0
 42
0.0000000001
 43
0.0000000001
 12
1.0
 22
0.0
 32
0.0
 13
1.0
 23
0.0
 33
0.0
 40
0.0
 40
0.0
 40
0.0
 40
0.0
 40
1.0
 40
1.0
 40
1.0
 40
2.0
 40
2.0
 40
2.0
 40
3.0
 40
3.0
 40
3.0
 40
4.0
 40
4.0
 40
4.0
 40
5.0
 40
5.0
 40
5.0
 40
6.0
 40
6.0
 40
6.0
 40
7.0
 40
7.0
 40
7.0
 40
8.0
 40
8.0
 40
8.0
 40
9.0
 40
9.0
 40
9.0
 40
10.0
 40
10.0
 40
10.0
 40
11.0
 40
11.0
 40
11.0
 40
12.0
 40
12.0
 40
12.0
 40
13.0
 40
13.0
 40
13.0
 40
14.0
 40
14.0
 40
14.0
 40
15.0
 40
15.0
 40
15.0
 40
16.0
 40
16.0
 40
16.0
 40
17.0
 40
17.0
 40
17.0
 40
18.0
 40
18.0
 40
18.0
 40
19.0
 40
19.0
 40
19.0
 40
20.0
 40
20.0
 40
20.0
 40
21.0
 40
21.0
 40
21.0
 40
22.0
 40
22.0
 40
22.0
 40
23.0
 40
23.0
 40
23.0
 40
23.0
 10
87.04103527939819
 20
-124.7849788576926
 30
0.0
 10
87.04103527939819
 20
-124.7849788576926
 30
0.0
 10
86.83399000690258
 20
-124.9854977465314
 30
0.0
 10
86.83399000690258
 20
-124.9854977465314
 30
0.0
 10
86.83399000690258
 20
-124.9854977465314
 30
0.0
 10
86.63382390089812
 20
-124.7856491354703
 30
0.0
 10
86.63382390089812
 20
-124.7856491354703
 30
0.0
 10
86.63382390089812
 20
-124.7856491354703
 30
0.0
 10
86.43401057266246
 20
-124.9854977465314
 30
0.0
 10
86.43401057266246
 20
-124.9854977465314
 30
0.0
 10
86.43401057266246
 20
-124.9854977465314
 30
0.0
 10
86.23384446665801
 20
-124.7856491354703
 30
0.0
 10
86.23384446665801
 20
-124.7856491354703
 30
0.0
 10
86.23384446665801
 20
-124.7856491354703
 30
0.0
 10
86.0340333118249
 20
-124.9854977465314
 30
0.0
 10
86.0340333118249
 20
-124.9854977465314
 30
0.0
 10
86.0340333118249
 20
-124.9854977465314
 30
0.0
 10
85.83386503241789
 20
-124.7849788576926
 30
0.0
 10
85.83386503241789
 20
-124.7849788576926
 30
0.0
 10
85.83386503241789
 20
-124.7849788576926
 30
0.0
 10
85.0449481081004
 20
-124.7849788576926
 30
0.0
 10
85.0449481081004
 20
-124.7849788576926
 30
0.0
 10
85.0449481081004
 20
-124.7849788576926
 30
0.0
 10
85.0449481081004
 20
-120.7169924698209
 30
0.0
 10
85.0449481081004
 20
-120.7169924698209
 30
0.0
 10
84.49302728884773
 20
-120.7169924698209
 30
0.0
 10
84.04517591138449
 20
-121.1648791363754
 30
0.0
 10
84.04517591138449
 20
-121.7171174695709
 30
0.0
 10
84.04517591138449
 20
-121.7171174695709
 30
0.0
 10
84.04517591138449
 20
-135.7167860771822
 30
0.0
 10
84.04517591138449
 20
-135.7167860771822
 30
0.0
 10
84.04517591138449
 20
-136.269377188155
 30
0.0
 10
84.49302728884773
 20
-136.7172285769321
 30
0.0
 10
85.0449481081004
 20
-136.7172285769321
 30
0.0
 10
85.0449481081004
 20
-136.7172285769321
 30
0.0
 10
99.00066025206051
 20
-136.7172285769321
 30
0.0
 10
99.00066025206051
 20
-136.7172285769321
 30
0.0
 10
99.55325134907385
 20
-136.7172285769321
 30
0.0
 10
100.0452352254112
 20
-136.3376044103603
 30
0.0
 10
100.0452352254112
 20
-135.7849780216092
 30
0.0
 10
100.0452352254112
 20
-135.7849780216092
 30
0.0
 10
85.0449481081004
 20
-135.7849780216092
 30
0.0
 10
85.0449481081004
 20
-135.7849780216092
 30
0.0
 10
85.0449481081004
 20
-135.7849780216092
 30
0.0
 10
85.0449481081004
 20
-125.7847510796649
 30
0.0
 10
85.0449481081004
 20
-125.7847510796649
 30
0.0
 10
85.0449481081004
 20
-125.7847510796649
 30
0.0
 10
100.0452352254112
 20
-125.7847510796649
 30
0.0
 10
100.0452352254112
 20
-125.7847510796649
 30
0.0
 10
100.0452352254112
 20
-125.7847510796649
 30
0.0
 10
100.5647357677132
 20
-125.4850310797399
 30
0.0
 10
100.5647357677132
 20
-125.4850310797399
 30
0.0
 10
100.5647357677132
 20
-125.4850310797399
 30
0.0
 10
105.3455095346344
 20
-125.4850310797399
 30
0.0
 10
105.3455095346344
 20
-125.4850310797399
 30
0.0
 10
105.7320481358841
 20
-125.4850310797399
 30
0.0
 10
106.0455617389968
 20
-125.1715174687071
 30
0.0
 10
106.0455617389968
 20
-124.7849788576926
 30
0.0
 10
106.0455617389968
 20
-124.7849788576926
 30
0.0
 10
100.2450485536469
 20
-124.7849788576926
 30
0.0
 10
100.2450485536469
 20
-124.7849788576926
 30
0.0
 10
100.2450485536469
 20
-124.7849788576926
 30
0.0
 10
100.0452352254112
 20
-124.9854977465314
 30
0.0
 10
100.0452352254112
 20
-124.9854977465314
 30
0.0
 10
100.0452352254112
 20
-124.9854977465314
 30
0.0
 10
99.84506911940674
 20
-124.7849788576926
 30
0.0
 10
99.84506911940674
 20
-124.7849788576926
 30
0.0
 10
99.84506911940674
 20
-124.7849788576926
 30
0.0
 10
87.04103527939819
 20
-124.7849788576926
 30
0.0
 10
87.04103527939819
 20
-124.7849788576926
 30
0.0
  0
HATCH
  5
42
330
1F
100
AcDbEntity
  8
_U+30EC_U+30A4_U+30E4_U+30FC 1
 62
   253
420
 11711154
100
AcDbHatch
 10
0.0
 20
0.0
 30
0.0
210
0.0
220
0.0
230
1.0
  2
SOLID
 70
     1
 71
     0
 91
        1
 92
        1
 93
        1
 72
     4
 94
        3
 73
     0
 74
     1
 95
       74
 96
       70
 40
0.0
 40
0.0
 40
0.0
 40
0.0
 40
1.0
 40
1.0
 40
1.0
 40
2.0
 40
2.0
 40
2.0
 40
3.0
 40
3.0
 40
3.0
 40
4.0
 40
4.0
 40
4.0
 40
5.0
 40
5.0
 40
5.0
 40
6.0
 40
6.0
 40
6.0
 40
7.0
 40
7.0
 40
7.0
 40
8.0
 40
8.0
 40
8.0
 40
9.0
 40
9.0
 40
9.0
 40
10.0
 40
10.0
 40
10.0
 40
11.0
 40
11.0
 40
11.0
 40
12.0
 40
12.0
 40
12.0
 40
13.0
 40
13.0
 40
13.0
 40
14.0
 40
14.0
 40
14.0
 40
15.0
 40
15.0
 40
15.0
 40
16.0
 40
16.0
 40
16.0
 40
17.0
 40
17.0
 40
17.0
 40
18.0
 40
18.0
 40
18.0
 40
19.0
 40
19.0
 40
19.0
 40
20.0
 40
20.0
 40
20.0
 40
21.0
 40
21.0
 40
21.0
 40
22.0
 40
22.0
 40
22.0
 40
23.0
 40
23.0
 40
23.0
 40
23.0
 10
87.04103527939819
 20
-124.7849788576926
 10
87.04103527939819
 20
-124.7849788576926
 10
86.83399000690258
 20
-124.9854977465314
 10
86.83399000690258
 20
-124.9854977465314
 10
86.83399000690258
 20
-124.9854977465314
 10
86.63382390089812
 20
-124.7856491354703
 10
86.63382390089812
 20
-124.7856491354703
 10
86.63382390089812
 20
-124.7856491354703
 10
86.43401057266246
 20
-124.9854977465314
 10
86.43401057266246
 20
-124.9854977465314
 10
86.43401057266246
 20
-124.9854977465314
 10
86.23384446665801
 20
-124.7856491354703
 10
86.23384446665801
 20
-124.7856491354703
 10
86.23384446665801
 20
-124.7856491354703
 10
86.0340333118249
 20
-124.9854977465314
 10
86.0340333118249
 20
-124.9854977465314
 10
86.0340333118249
 20
-124.9854977465314
 10
85.83386503241789
 20
-124.7849788576926
 10
85.83386503241789
 20
-124.7849788576926
 10
85.83386503241789
 20
-124.7849788576926
 10
85.0449481081004
 20
-124.7849788576926
 10
85.0449481081004
 20
-124.7849788576926
 10
85.0449481081004
 20
-124.7849788576926
 10
85.0449481081004
 20
-120.7169924698209
 10
85.0449481081004
 20
-120.7169924698209
 10
84.49302728884773
 20
-120.7169924698209
 10
84.04517591138449
 20
-121.1648791363754
 10
84.04517591138449
 20
-121.7171174695709
 10
84.04517591138449
 20
-121.7171174695709
 10
84.04517591138449
 20
-135.7167860771822
 10
84.04517591138449
 20
-135.7167860771822
 10
84.04517591138449
 20
-136.269377188155
 10
84.49302728884773
 20
-136.7172285769321
 10
85.0449481081004
 20
-136.7172285769321
 10
85.0449481081004
 20
-136.7172285769321
 10
99.00066025206051
 20
-136.7172285769321
 10
99.00066025206051
 20
-136.7172285769321
 10
99.55325134907385
 20
-136.7172285769321
 10
100.0452352254112
 20
-136.3376044103603
 10
100.0452352254112
 20
-135.7849780216092
 10
100.0452352254112
 20
-135.7849780216092
 10
85.0449481081004
 20
-135.7849780216092
 10
85.0449481081004
 20
-135.7849780216092
 10
85.0449481081004
 20
-135.7849780216092
 10
85.0449481081004
 20
-125.7847510796649
 10
85.0449481081004
 20
-125.7847510796649
 10
85.0449481081004
 20
-125.7847510796649
 10
100.0452352254112
 20
-125.7847510796649
 10
100.0452352254112
 20
-125.7847510796649
 10
100.0452352254112
 20
-125.7847510796649
 10
100.5647357677132
 20
-125.4850310797399
 10
100.5647357677132
 20
-125.4850310797399
 10
100.5647357677132
 20
-125.4850310797399
 10
105.3455095346344
 20
-125.4850310797399
 10
105.3455095346344
 20
-125.4850310797399
 10
105.7320481358841
 20
-125.4850310797399
 10
106.0455617389968
 20
-125.1715174687071
 10
106.0455617389968
 20
-124.7849788576926
 10
106.0455617389968
 20
-124.7849788576926
 10
100.2450485536469
 20
-124.7849788576926
 10
100.2450485536469
 20
-124.7849788576926
 10
100.2450485536469
 20
-124.7849788576926
 10
100.0452352254112
 20
-124.9854977465314
 10
100.0452352254112
 20
-124.9854977465314
 10
100.0452352254112
 20
-124.9854977465314
 10
99.84506911940674
 20
-124.7849788576926
 10
99.84506911940674
 20
-124.7849788576926
 10
99.84506911940674
 20
-124.7849788576926
 10
87.04103527939819
 20
-124.7849788576926
 10
87.04103527939819
 20
-124.7849788576926
 97
        0
 97
        0
 75
     2
 76
     1
 98
        0
  0
POLYLINE
  5
43
330
1F
100
AcDbEntity
  8
_U+30EC_U+30A4_U+30E4_U+30FC 1
 62
     7
420
 16777215
370
     9
100
AcDb2dPolyline
 66
     1
 10
0.0
 20
0.0
 30
0.0
  0
VERTEX
  5
44
330
43
100
AcDbEntity
  8
_U+30EC_U+30A4_U+30E4_U+30FC 1
 62
     7
420
 16777215
370
     9
100
AcDbVertex
100
AcDb2dVertex
 10
84.33801673724683
 20
-136.4237174658942
 30
0.0
  0
VERTEX
  5
45
330
43
100
AcDbEntity
  8
_U+30EC_U+30A4_U+30E4_U+30FC 1
 62
     7
420
 16777215
370
     9
100
AcDbVertex
100
AcDb2dVertex
 10
80.04541684676018
 20
-140.7169877425983
 30
0.0
  0
SEQEND
  5
46
330
43
100
AcDbEntity
  8
_U+30EC_U+30A4_U+30E4_U+30FC 1
 62
     7
420
 16777215
370
     9
  0
POLYLINE
  5
47
330
1F
100
AcDbEntity
  8
_U+30EC_U+30A4_U+30E4_U+30FC 1
 62
     7
420
 16777215
370
     9
100
AcDb2dPolyline
 66
     1
 10
0.0
 20
0.0
 30
0.0
  0
VERTEX
  5
48
330
47
100
AcDbEntity
  8
_U+30EC_U+30A4_U+30E4_U+30FC 1
 62
     7
420
 16777215
370
     9
100
AcDbVertex
100
AcDb2dVertex
 10
75.83275831437508
 20
-140.7169877425983
 30
0.0
  0
VERTEX
  5
49
330
47
100
AcDbEntity
  8
_U+30EC_U+30A4_U+30E4_U+30FC 1
 62
     7
420
 16777215
370
     9
100
AcDbVertex
100
AcDb2dVertex
 10
80.04541684676018
 20
-140.7169877425983
 30
0.0
  0
SEQEND
  5
4A
330
47
100
AcDbEntity
  8
_U+30EC_U+30A4_U+30E4_U+30FC 1
 62
     7
420
 16777215
370
     9
  0
POLYLINE
  5
4B
330
1F
100
AcDbEntity
  8
_U+30EC_U+30A4_U+30E4_U+30FC 1
 62
     7
420
 16777215
370
     9
100
AcDb2dPolyline
 66
     1
 10
0.0
 20
0.0
 30
0.0
  0
VERTEX
  5
4C
330
4B
100
AcDbEntity
  8
_U+30EC_U+30A4_U+30E4_U+30FC 1
 62
     7
420
 16777215
370
     9
100
AcDbVertex
100
AcDb2dVertex
 10
84.33801673724683
 20
-136.4237174658942
 30
0.0
  0
VERTEX
  5
4D
330
4B
100
AcDbEntity
  8
_U+30EC_U+30A4_U+30E4_U+30FC 1
 62
     7
420
 16777215
370
     9
100
AcDbVertex
100
AcDb2dVertex
 10
83.0391948259381
 20
-137.174040521262
 30
0.0
  0
SEQEND
  5
4E
330
4B
100
AcDbEntity
  8
_U+30EC_U+30A4_U+30E4_U+30FC 1
 62
     7
420
 16777215
370
     9
  0
POLYLINE
  5
4F
330
1F
100
AcDbEntity
  8
_U+30EC_U+30A4_U+30E4_U+30FC 1
 62
     7
420
 16777215
370
     9
100
AcDb2dPolyline
 66
     1
 10
0.0
 20
0.0
 30
0.0
  0
VERTEX
  5
50
330
4F
100
AcDbEntity
  8
_U+30EC_U+30A4_U+30E4_U+30FC 1
 62
     7
420
 16777215
370
     9
100
AcDbVertex
100
AcDb2dVertex
 10
84.33801673724683
 20
-136.4237174658942
 30
0.0
  0
VERTEX
  5
51
330
4F
100
AcDbEntity
  8
_U+30EC_U+30A4_U+30E4_U+30FC 1
 62
     7
420
 16777215
370
     9
100
AcDbVertex
100
AcDb2dVertex
 10
83.58836397859429
 20
-137.7232096877917
 30
0.0
  0
SEQEND
  5
52
330
4F
100
AcDbEntity
  8
_U+30EC_U+30A4_U+30E4_U+30FC 1
 62
     7
420
 16777215
370
     9
  0
SPLINE
  5
53
330
1F
100
AcDbEntity
  8
_U+30EC_U+30A4_U+30E4_U+30FC 1
 62
     7
420
 16777215
370
     9
100
AcDbSpline
210
0.0
220
0.0
230
1.0
 70
    11
 71
     3
 72
    17
 73
    13
 74
     0
 42
0.0000000001
 43
0.0000000001
 12
1.0
 22
0.0
 32
0.0
 13
1.0
 23
0.0
 33
0.0
 40
0.0
 40
0.0
 40
0.0
 40
0.0
 40
1.0
 40
1.0
 40
1.0
 40
2.0
 40
2.0
 40
2.0
 40
3.0
 40
3.0
 40
3.0
 40
4.0
 40
4.0
 40
4.0
 40
4.0
 10
106.1454684031146
 20
-117.717358303904
 30
0.0
 10
106.1454684031146
 20
-117.662254415029
 30
0.0
 10
106.1006656264798
 20
-117.6174516372623
 30
0.0
 10
106.0455617389968
 20
-117.6174516372623
 30
0.0
 10
105.9904225737368
 20
-117.6174516372623
 30
0.0
 10
105.9456550748789
 20
-117.662254415029
 30
0.0
 10
105.9456550748789
 20
-117.717358303904
 30
0.0
 10
105.9456550748789
 20
-117.772497470557
 30
0.0
 10
105.9904225737368
 20
-117.8172649705456
 30
0.0
 10
106.0455617389968
 20
-117.8172649705456
 30
0.0
 10
106.1006656264798
 20
-117.8172649705456
 30
0.0
 10
106.1454684031146
 20
-117.772497470557
 30
0.0
 10
106.1454684031146
 20
-117.717358303904
 30
0.0
  0
SPLINE
  5
54
330
1F
100
AcDbEntity
  8
_U+30EC_U+30A4_U+30E4_U+30FC 1
 62
     7
420
 16777215
370
     9
100
AcDbSpline
210
0.0
220
0.0
230
1.0
 70
    11
 71
     3
 72
    17
 73
    13
 74
     0
 42
0.0000000001
 43
0.0000000001
 12
1.0
 22
0.0
 32
0.0
 13
1.0
 23
0.0
 33
0.0
 40
0.0
 40
0.0
 40
0.0
 40
0.0
 40
1.0
 40
1.0
 40
1.0
 40
2.0
 40
2.0
 40
2.0
 40
3.0
 40
3.0
 40
3.0
 40
4.0
 40
4.0
 40
4.0
 40
4.0
 10
85.14485477221822
 20
-117.717358303904
 30
0.0
 10
85.14485477221822
 20
-117.662254415029
 30
0.0
 10
85.10005199558347
 20
-117.6174516372623
 30
0.0
 10
85.0449481081004
 20
-117.6174516372623
 30
0.0
 10
84.98981108986372
 20
-117.6174516372623
 30
0.0
 10
84.94504144398256
 20
-117.662254415029
 30
0.0
 10
84.94504144398256
 20
-117.717358303904
 30
0.0
 10
84.94504144398256
 20
-117.772497470557
 30
0.0
 10
84.98981108986372
 20
-117.8172649705456
 30
0.0
 10
85.0449481081004
 20
-117.8172649705456
 30
0.0
 10
85.10005199558347
 20
-117.8172649705456
 30
0.0
 10
85.14485477221822
 20
-117.772497470557
 30
0.0
 10
85.14485477221822
 20
-117.717358303904
 30
0.0
  0
SPLINE
  5
55
330
1F
100
AcDbEntity
  8
_U+30EC_U+30A4_U+30E4_U+30FC 1
 62
     7
420
 16777215
370
     9
100
AcDbSpline
210
0.0
220
0.0
230
1.0
 70
    11
 71
     3
 72
    17
 73
    13
 74
     0
 42
0.0000000001
 43
0.0000000001
 12
1.0
 22
0.0
 32
0.0
 13
1.0
 23
0.0
 33
0.0
 40
0.0
 40
0.0
 40
0.0
 40
0.0
 40
1.0
 40
1.0
 40
1.0
 40
2.0
 40
2.0
 40
2.0
 40
3.0
 40
3.0
 40
3.0
 40
4.0
 40
4.0
 40
4.0
 40
4.0
 10
84.14508257550231
 20
-122.9011808026081
 30
0.0
 10
84.14508257550231
 20
-122.8460769137328
 30
0.0
 10
84.10027979886756
 20
-122.8012741359664
 30
0.0
 10
84.04517591138449
 20
-122.8012741359664
 30
0.0
 10
83.9900388678915
 20
-122.8012741359664
 30
0.0
 10
83.94526924726665
 20
-122.8460769137328
 30
0.0
 10
83.94526924726665
 20
-122.9011808026081
 30
0.0
 10
83.94526924726665
 20
-122.9563199692608
 30
0.0
 10
83.9900388678915
 20
-123.0011227470275
 30
0.0
 10
84.04517591138449
 20
-123.0011227470275
 30
0.0
 10
84.10027979886756
 20
-123.0011227470275
 30
0.0
 10
84.14508257550231
 20
-122.9563199692608
 30
0.0
 10
84.14508257550231
 20
-122.9011808026081
 30
0.0
  0
SPLINE
  5
56
330
1F
100
AcDbEntity
  8
_U+30EC_U+30A4_U+30E4_U+30FC 1
 62
     7
420
 16777215
370
     9
100
AcDbSpline
210
0.0
220
0.0
230
1.0
 70
    11
 71
     3
 72
    17
 73
    13
 74
     0
 42
0.0000000001
 43
0.0000000001
 12
1.0
 22
0.0
 32
0.0
 13
1.0
 23
0.0
 33
0.0
 40
0.0
 40
0.0
 40
0.0
 40
0.0
 40
1.0
 40
1.0
 40
1.0
 40
2.0
 40
2.0
 40
2.0
 40
3.0
 40
3.0
 40
3.0
 40
4.0
 40
4.0
 40
4.0
 40
4.0
 10
85.14485477221822
 20
-122.9011808026081
 30
0.0
 10
85.14485477221822
 20
-122.8460769137328
 30
0.0
 10
85.10005199558347
 20
-122.8012741359664
 30
0.0
 10
85.0449481081004
 20
-122.8012741359664
 30
0.0
 10
84.98981108986372
 20
-122.8012741359664
 30
0.0
 10
84.94504144398256
 20
-122.8460769137328
 30
0.0
 10
84.94504144398256
 20
-122.9011808026081
 30
0.0
 10
84.94504144398256
 20
-122.9563199692608
 30
0.0
 10
84.98981108986372
 20
-123.0011227470275
 30
0.0
 10
85.0449481081004
 20
-123.0011227470275
 30
0.0
 10
85.10005199558347
 20
-123.0011227470275
 30
0.0
 10
85.14485477221822
 20
-122.9563199692608
 30
0.0
 10
85.14485477221822
 20
-122.9011808026081
 30
0.0
  0
SPLINE
  5
57
330
1F
100
AcDbEntity
  8
_U+30EC_U+30A4_U+30E4_U+30FC 1
 62
     7
420
 16777215
370
     9
100
AcDbSpline
210
0.0
220
0.0
230
1.0
 70
    11
 71
     3
 72
    17
 73
    13
 74
     0
 42
0.0000000001
 43
0.0000000001
 12
1.0
 22
0.0
 32
0.0
 13
1.0
 23
0.0
 33
0.0
 40
0.0
 40
0.0
 40
0.0
 40
0.0
 40
1.0
 40
1.0
 40
1.0
 40
2.0
 40
2.0
 40
2.0
 40
3.0
 40
3.0
 40
3.0
 40
4.0
 40
4.0
 40
4.0
 40
4.0
 10
80.14532351087801
 20
-136.7172285769321
 30
0.0
 10
80.14532351087801
 20
-136.661419132501
 30
0.0
 10
80.10052073424325
 20
-136.6166516325125
 30
0.0
 10
80.04541684676018
 20
-136.6166516325125
 30
0.0
 10
79.98960740373954
 20
-136.6166516325125
 30
0.0
 10
79.94480462710479
 20
-136.661419132501
 30
0.0
 10
79.94480462710479
 20
-136.7172285769321
 30
0.0
 10
79.94480462710479
 20
-136.7723677435845
 30
0.0
 10
79.98960740373954
 20
-136.8171352435737
 30
0.0
 10
80.04541684676018
 20
-136.8171352435737
 30
0.0
 10
80.10052073424325
 20
-136.8171352435737
 30
0.0
 10
80.14532351087801
 20
-136.7723677435845
 30
0.0
 10
80.14532351087801
 20
-136.7172285769321
 30
0.0
  0
SPLINE
  5
58
330
1F
100
AcDbEntity
  8
_U+30EC_U+30A4_U+30E4_U+30FC 1
 62
     7
420
 16777215
370
     9
100
AcDbSpline
210
0.0
220
0.0
230
1.0
 70
    11
 71
     3
 72
    17
 73
    13
 74
     0
 42
0.0000000001
 43
0.0000000001
 12
1.0
 22
0.0
 32
0.0
 13
1.0
 23
0.0
 33
0.0
 40
0.0
 40
0.0
 40
0.0
 40
0.0
 40
1.0
 40
1.0
 40
1.0
 40
2.0
 40
2.0
 40
2.0
 40
3.0
 40
3.0
 40
3.0
 40
4.0
 40
4.0
 40
4.0
 40
4.0
 10
80.14532351087801
 20
-120.7169924698209
 30
0.0
 10
80.14532351087801
 20
-120.6618885809456
 30
0.0
 10
80.10052073424325
 20
-120.6170858031789
 30
0.0
 10
80.04541684676018
 20
-120.6170858031789
 30
0.0
 10
79.98960740373954
 20
-120.6170858031789
 30
0.0
 10
79.94480462710479
 20
-120.6618885809456
 30
0.0
 10
79.94480462710479
 20
-120.7169924698209
 30
0.0
 10
79.94480462710479
 20
-120.7724844142514
 30
0.0
 10
79.98960740373954
 20
-120.8172519142403
 30
0.0
 10
80.04541684676018
 20
-120.8172519142403
 30
0.0
 10
80.10052073424325
 20
-120.8172519142403
 30
0.0
 10
80.14532351087801
 20
-120.7724844142514
 30
0.0
 10
80.14532351087801
 20
-120.7169924698209
 30
0.0
  0
SPLINE
  5
59
330
1F
100
AcDbEntity
  8
_U+30EC_U+30A4_U+30E4_U+30FC 1
 62
     7
420
 16777215
370
     9
100
AcDbSpline
210
0.0
220
0.0
230
1.0
 70
    11
 71
     3
 72
    17
 73
    13
 74
     0
 42
0.0000000001
 43
0.0000000001
 12
1.0
 22
0.0
 32
0.0
 13
1.0
 23
0.0
 33
0.0
 40
0.0
 40
0.0
 40
0.0
 40
0.0
 40
1.0
 40
1.0
 40
1.0
 40
2.0
 40
2.0
 40
2.0
 40
3.0
 40
3.0
 40
3.0
 40
4.0
 40
4.0
 40
4.0
 40
4.0
 10
100.1451444194082
 20
-140.7169877425983
 30
0.0
 10
100.1451444194082
 20
-140.6618838537234
 30
0.0
 10
100.1003416416415
 20
-140.6170810759567
 30
0.0
 10
100.0452352254112
 20
-140.6170810759567
 30
0.0
 10
99.99009606015125
 20
-140.6170810759567
 30
0.0
 10
99.94532856129335
 20
-140.6618838537234
 30
0.0
 10
99.94532856129335
 20
-140.7169877425983
 30
0.0
 10
99.94532856129335
 20
-140.7721269092514
 30
0.0
 10
99.99009606015125
 20
-140.81689440924
 30
0.0
 10
100.0452352254112
 20
-140.81689440924
 30
0.0
 10
100.1003416416415
 20
-140.81689440924
 30
0.0
 10
100.1451444194082
 20
-140.7721269092514
 30
0.0
 10
100.1451444194082
 20
-140.7169877425983
 30
0.0
  0
SPLINE
  5
5A
330
1F
100
AcDbEntity
  8
_U+30EC_U+30A4_U+30E4_U+30FC 1
 62
     7
420
 16777215
370
     9
100
AcDbSpline
210
0.0
220
0.0
230
1.0
 70
    11
 71
     3
 72
    17
 73
    13
 74
     0
 42
0.0000000001
 43
0.0000000001
 12
1.0
 22
0.0
 32
0.0
 13
1.0
 23
0.0
 33
0.0
 40
0.0
 40
0.0
 40
0.0
 40
0.0
 40
1.0
 40
1.0
 40
1.0
 40
2.0
 40
2.0
 40
2.0
 40
3.0
 40
3.0
 40
3.0
 40
4.0
 40
4.0
 40
4.0
 40
4.0
 10
84.14508257550231
 20
-140.7169877425983
 30
0.0
 10
84.14508257550231
 20
-140.6618838537234
 30
0.0
 10
84.10027979886756
 20
-140.6170810759567
 30
0.0
 10
84.04517591138449
 20
-140.6170810759567
 30
0.0
 10
83.9900388678915
 20
-140.6170810759567
 30
0.0
 10
83.94526924726665
 20
-140.6618838537234
 30
0.0
 10
83.94526924726665
 20
-140.7169877425983
 30
0.0
 10
83.94526924726665
 20
-140.7721269092514
 30
0.0
 10
83.9900388678915
 20
-140.81689440924
 30
0.0
 10
84.04517591138449
 20
-140.81689440924
 30
0.0
 10
84.10027979886756
 20
-140.81689440924
 30
0.0
 10
84.14508257550231
 20
-140.7721269092514
 30
0.0
 10
84.14508257550231
 20
-140.7169877425983
 30
0.0
  0
SPLINE
  5
5B
330
1F
100
AcDbEntity
  8
_U+30EC_U+30A4_U+30E4_U+30FC 1
 62
     7
420
 16777215
370
     9
100
AcDbSpline
210
0.0
220
0.0
230
1.0
 70
    11
 71
     3
 72
    17
 73
    13
 74
     0
 42
0.0000000001
 43
0.0000000001
 12
1.0
 22
0.0
 32
0.0
 13
1.0
 23
0.0
 33
0.0
 40
0.0
 40
0.0
 40
0.0
 40
0.0
 40
1.0
 40
1.0
 40
1.0
 40
2.0
 40
2.0
 40
2.0
 40
3.0
 40
3.0
 40
3.0
 40
4.0
 40
4.0
 40
4.0
 40
4.0
 10
104.1459240096828
 20
-125.7847510796649
 30
0.0
 10
104.1459240096828
 20
-125.7296119130121
 30
0.0
 10
104.101121233048
 20
-125.6848444130232
 30
0.0
 10
104.0460173455649
 20
-125.6848444130232
 30
0.0
 10
103.990878180305
 20
-125.6848444130232
 30
0.0
 10
103.9461106814471
 20
-125.7296119130121
 30
0.0
 10
103.9461106814471
 20
-125.7847510796649
 30
0.0
 10
103.9461106814471
 20
-125.8405605240953
 30
0.0
 10
103.990878180305
 20
-125.8853280240842
 30
0.0
 10
104.0460173455649
 20
-125.8853280240842
 30
0.0
 10
104.101121233048
 20
-125.8853280240842
 30
0.0
 10
104.1459240096828
 20
-125.8405605240953
 30
0.0
 10
104.1459240096828
 20
-125.7847510796649
 30
0.0
  0
SPLINE
  5
5C
330
1F
100
AcDbEntity
  8
_U+30EC_U+30A4_U+30E4_U+30FC 1
 62
     7
420
 16777215
370
     9
100
AcDbSpline
210
0.0
220
0.0
230
1.0
 70
    11
 71
     3
 72
    17
 73
    13
 74
     0
 42
0.0000000001
 43
0.0000000001
 12
1.0
 22
0.0
 32
0.0
 13
1.0
 23
0.0
 33
0.0
 40
0.0
 40
0.0
 40
0.0
 40
0.0
 40
1.0
 40
1.0
 40
1.0
 40
2.0
 40
2.0
 40
2.0
 40
3.0
 40
3.0
 40
3.0
 40
4.0
 40
4.0
 40
4.0
 40
4.0
 10
104.1459240096828
 20
-135.7167860771822
 30
0.0
 10
104.1459240096828
 20
-135.6616469105291
 30
0.0
 10
104.101121233048
 20
-135.6168794105405
 30
0.0
 10
104.0460173455649
 20
-135.6168794105405
 30
0.0
 10
103.990878180305
 20
-135.6168794105405
 30
0.0
 10
103.9461106814471
 20
-135.6616469105291
 30
0.0
 10
103.9461106814471
 20
-135.7167860771822
 30
0.0
 10
103.9461106814471
 20
-135.7725955216126
 30
0.0
 10
103.990878180305
 20
-135.8173630216012
 30
0.0
 10
104.0460173455649
 20
-135.8173630216012
 30
0.0
 10
104.101121233048
 20
-135.8173630216012
 30
0.0
 10
104.1459240096828
 20
-135.7725955216126
 30
0.0
 10
104.1459240096828
 20
-135.7167860771822
 30
0.0
  0
INSERT
  5
5E
330
1F
100
AcDbEntity
  8
_U+30EC_U+30A4_U+30E4_U+30FC 1
100
AcDbBlockReference
  2
block 2
 10
0.0
 20
0.0
 30
0.0
  0
POLYLINE
  5
66
330
1F
100
AcDbEntity
  8
_U+30EC_U+30A4_U+30E4_U+30FC 1
 62
     7
420
 16777215
370
     9
100
AcDb2dPolyline
 66
     1
 10
0.0
 20
0.0
 30
0.0
  0
VERTEX
  5
67
330
66
100
AcDbEntity
  8
_U+30EC_U+30A4_U+30E4_U+30FC 1
 62
     7
420
 16777215
370
     9
100
AcDbVertex
100
AcDb2dVertex
 10
85.0449481081004
 20
-117.717358303904
 30
0.0
  0
VERTEX
  5
68
330
66
100
AcDbEntity
  8
_U+30EC_U+30A4_U+30E4_U+30FC 1
 62
     7
420
 16777215
370
     9
100
AcDbVertex
100
AcDb2dVertex
 10
106.0455617389968
 20
-117.717358303904
 30
0.0
  0
SEQEND
  5
69
330
66
100
AcDbEntity
  8
_U+30EC_U+30A4_U+30E4_U+30FC 1
 62
     7
420
 16777215
370
     9
  0
POLYLINE
  5
6A
330
1F
100
AcDbEntity
  8
_U+30EC_U+30A4_U+30E4_U+30FC 1
 62
     7
420
 16777215
370
     9
100
AcDb2dPolyline
 66
     1
 10
0.0
 20
0.0
 30
0.0
  0
VERTEX
  5
6B
330
6A
100
AcDbEntity
  8
_U+30EC_U+30A4_U+30E4_U+30FC 1
 62
     7
420
 16777215
370
     9
100
AcDbVertex
100
AcDb2dVertex
 10
85.0449481081004
 20
-120.2171063588346
 30
0.0
  0
VERTEX
  5
6C
330
6A
100
AcDbEntity
  8
_U+30EC_U+30A4_U+30E4_U+30FC 1
 62
     7
420
 16777215
370
     9
100
AcDbVertex
100
AcDb2dVertex
 10
85.0449481081004
 20
-116.7172685819318
 30
0.0
  0
SEQEND
  5
6D
330
6A
100
AcDbEntity
  8
_U+30EC_U+30A4_U+30E4_U+30FC 1
 62
     7
420
 16777215
370
     9
  0
POLYLINE
  5
6E
330
1F
100
AcDbEntity
  8
_U+30EC_U+30A4_U+30E4_U+30FC 1
 62
     7
420
 16777215
370
     9
100
AcDb2dPolyline
 66
     1
 10
0.0
 20
0.0
 30
0.0
  0
VERTEX
  5
6F
330
6E
100
AcDbEntity
  8
_U+30EC_U+30A4_U+30E4_U+30FC 1
 62
     7
420
 16777215
370
     9
100
AcDbVertex
100
AcDb2dVertex
 10
106.0503595166522
 20
-123.2853205247341
 30
0.0
  0
VERTEX
  5
70
330
6E
100
AcDbEntity
  8
_U+30EC_U+30A4_U+30E4_U+30FC 1
 62
     7
420
 16777215
370
     9
100
AcDbVertex
100
AcDb2dVertex
 10
106.0503595166522
 20
-116.7172685819318
 30
0.0
  0
SEQEND
  5
71
330
6E
100
AcDbEntity
  8
_U+30EC_U+30A4_U+30E4_U+30FC 1
 62
     7
420
 16777215
370
     9
  0
INSERT
  5
73
330
1F
100
AcDbEntity
  8
_U+30EC_U+30A4_U+30E4_U+30FC 1
100
AcDbBlockReference
  2
block 3
 10
0.0
 20
0.0
 30
0.0
  0
POLYLINE
  5
7A
330
1F
100
AcDbEntity
  8
_U+30EC_U+30A4_U+30E4_U+30FC 1
 62
     7
420
 16777215
370
     9
100
AcDb2dPolyline
 66
     1
 10
0.0
 20
0.0
 30
0.0
  0
VERTEX
  5
7B
330
7A
100
AcDbEntity
  8
_U+30EC_U+30A4_U+30E4_U+30FC 1
 62
     7
420
 16777215
370
     9
100
AcDbVertex
100
AcDb2dVertex
 10
85.0449481081004
 20
-122.9011808026081
 30
0.0
  0
VERTEX
  5
7C
330
7A
100
AcDbEntity
  8
_U+30EC_U+30A4_U+30E4_U+30FC 1
 62
     7
420
 16777215
370
     9
100
AcDbVertex
100
AcDb2dVertex
 10
88.81526051191172
 20
-122.9011808026081
 30
0.0
  0
SEQEND
  5
7D
330
7A
100
AcDbEntity
  8
_U+30EC_U+30A4_U+30E4_U+30FC 1
 62
     7
420
 16777215
370
     9
  0
POLYLINE
  5
7E
330
1F
100
AcDbEntity
  8
_U+30EC_U+30A4_U+30E4_U+30FC 1
 62
     7
420
 16777215
370
     9
100
AcDb2dPolyline
 66
     1
 10
0.0
 20
0.0
 30
0.0
  0
VERTEX
  5
7F
330
7E
100
AcDbEntity
  8
_U+30EC_U+30A4_U+30E4_U+30FC 1
 62
     7
420
 16777215
370
     9
100
AcDbVertex
100
AcDb2dVertex
 10
83.04540371466858
 20
-122.9011808026081
 30
0.0
  0
VERTEX
  5
80
330
7E
100
AcDbEntity
  8
_U+30EC_U+30A4_U+30E4_U+30FC 1
 62
     7
420
 16777215
370
     9
100
AcDbVertex
100
AcDb2dVertex
 10
85.0449481081004
 20
-122.9011808026081
 30
0.0
  0
SEQEND
  5
81
330
7E
100
AcDbEntity
  8
_U+30EC_U+30A4_U+30E4_U+30FC 1
 62
     7
420
 16777215
370
     9
  0
INSERT
  5
83
330
1F
100
AcDbEntity
  8
_U+30EC_U+30A4_U+30E4_U+30FC 1
100
AcDbBlockReference
  2
block 4
 10
0.0
 20
0.0
 30
0.0
  0
POLYLINE
  5
88
330
1F
100
AcDbEntity
  8
_U+30EC_U+30A4_U+30E4_U+30FC 1
 62
     7
420
 16777215
370
     9
100
AcDb2dPolyline
 66
     1
 10
0.0
 20
0.0
 30
0.0
  0
VERTEX
  5
89
330
88
100
AcDbEntity
  8
_U+30EC_U+30A4_U+30E4_U+30FC 1
 62
     7
420
 16777215
370
     9
100
AcDbVertex
100
AcDb2dVertex
 10
84.04517591138449
 20
-140.7169877425983
 30
0.0
  0
VERTEX
  5
8A
330
88
100
AcDbEntity
  8
_U+30EC_U+30A4_U+30E4_U+30FC 1
 62
     7
420
 16777215
370
     9
100
AcDbVertex
100
AcDb2dVertex
 10
100.0452352254112
 20
-140.7169877425983
 30
0.0
  0
SEQEND
  5
8B
330
88
100
AcDbEntity
  8
_U+30EC_U+30A4_U+30E4_U+30FC 1
 62
     7
420
 16777215
370
     9
  0
POLYLINE
  5
8C
330
1F
100
AcDbEntity
  8
_U+30EC_U+30A4_U+30E4_U+30FC 1
 62
     7
420
 16777215
370
     9
100
AcDb2dPolyline
 66
     1
 10
0.0
 20
0.0
 30
0.0
  0
VERTEX
  5
8D
330
8C
100
AcDbEntity
  8
_U+30EC_U+30A4_U+30E4_U+30FC 1
 62
     7
420
 16777215
370
     9
100
AcDbVertex
100
AcDb2dVertex
 10
84.04517591138449
 20
-138.2572094098802
 30
0.0
  0
VERTEX
  5
8E
330
8C
100
AcDbEntity
  8
_U+30EC_U+30A4_U+30E4_U+30FC 1
 62
     7
420
 16777215
370
     9
100
AcDbVertex
100
AcDb2dVertex
 10
84.04517591138449
 20
-141.7167599645709
 30
0.0
  0
SEQEND
  5
8F
330
8C
100
AcDbEntity
  8
_U+30EC_U+30A4_U+30E4_U+30FC 1
 62
     7
420
 16777215
370
     9
  0
POLYLINE
  5
90
330
1F
100
AcDbEntity
  8
_U+30EC_U+30A4_U+30E4_U+30FC 1
 62
     7
420
 16777215
370
     9
100
AcDb2dPolyline
 66
     1
 10
0.0
 20
0.0
 30
0.0
  0
VERTEX
  5
91
330
90
100
AcDbEntity
  8
_U+30EC_U+30A4_U+30E4_U+30FC 1
 62
     7
420
 16777215
370
     9
100
AcDbVertex
100
AcDb2dVertex
 10
100.0452352254112
 20
-138.2572094098802
 30
0.0
  0
VERTEX
  5
92
330
90
100
AcDbEntity
  8
_U+30EC_U+30A4_U+30E4_U+30FC 1
 62
     7
420
 16777215
370
     9
100
AcDbVertex
100
AcDb2dVertex
 10
100.0452352254112
 20
-141.7167599645709
 30
0.0
  0
SEQEND
  5
93
330
90
100
AcDbEntity
  8
_U+30EC_U+30A4_U+30E4_U+30FC 1
 62
     7
420
 16777215
370
     9
  0
INSERT
  5
95
330
1F
100
AcDbEntity
  8
_U+30EC_U+30A4_U+30E4_U+30FC 1
100
AcDbBlockReference
  2
block 5
 10
0.0
 20
0.0
 30
0.0
  0
POLYLINE
  5
9D
330
1F
100
AcDbEntity
  8
_U+30EC_U+30A4_U+30E4_U+30FC 1
 62
     7
420
 16777215
370
     9
100
AcDb2dPolyline
 66
     1
 10
0.0
 20
0.0
 30
0.0
  0
VERTEX
  5
9E
330
9D
100
AcDbEntity
  8
_U+30EC_U+30A4_U+30E4_U+30FC 1
 62
     7
420
 16777215
370
     9
100
AcDbVertex
100
AcDb2dVertex
 10
104.0460173455649
 20
-135.7167860771822
 30
0.0
  0
VERTEX
  5
9F
330
9D
100
AcDbEntity
  8
_U+30EC_U+30A4_U+30E4_U+30FC 1
 62
     7
420
 16777215
370
     9
100
AcDbVertex
100
AcDb2dVertex
 10
104.0460173455649
 20
-125.7847510796649
 30
0.0
  0
SEQEND
  5
A0
330
9D
100
AcDbEntity
  8
_U+30EC_U+30A4_U+30E4_U+30FC 1
 62
     7
420
 16777215
370
     9
  0
POLYLINE
  5
A1
330
1F
100
AcDbEntity
  8
_U+30EC_U+30A4_U+30E4_U+30FC 1
 62
     7
420
 16777215
370
     9
100
AcDb2dPolyline
 66
     1
 10
0.0
 20
0.0
 30
0.0
  0
VERTEX
  5
A2
330
A1
100
AcDbEntity
  8
_U+30EC_U+30A4_U+30E4_U+30FC 1
 62
     7
420
 16777215
370
     9
100
AcDbVertex
100
AcDb2dVertex
 10
102.5859759939248
 20
-135.7167860771822
 30
0.0
  0
VERTEX
  5
A3
330
A1
100
AcDbEntity
  8
_U+30EC_U+30A4_U+30E4_U+30FC 1
 62
     7
420
 16777215
370
     9
100
AcDbVertex
100
AcDb2dVertex
 10
105.0457895422809
 20
-135.7167860771822
 30
0.0
  0
SEQEND
  5
A4
330
A1
100
AcDbEntity
  8
_U+30EC_U+30A4_U+30E4_U+30FC 1
 62
     7
420
 16777215
370
     9
  0
POLYLINE
  5
A5
330
1F
100
AcDbEntity
  8
_U+30EC_U+30A4_U+30E4_U+30FC 1
 62
     7
420
 16777215
370
     9
100
AcDb2dPolyline
 66
     1
 10
0.0
 20
0.0
 30
0.0
  0
VERTEX
  5
A6
330
A5
100
AcDbEntity
  8
_U+30EC_U+30A4_U+30E4_U+30FC 1
 62
     7
420
 16777215
370
     9
100
AcDbVertex
100
AcDb2dVertex
 10
102.5859759939248
 20
-125.7847510796649
 30
0.0
  0
VERTEX
  5
A7
330
A5
100
AcDbEntity
  8
_U+30EC_U+30A4_U+30E4_U+30FC 1
 62
     7
420
 16777215
370
     9
100
AcDbVertex
100
AcDb2dVertex
 10
105.0457895422809
 20
-125.7847510796649
 30
0.0
  0
SEQEND
  5
A8
330
A5
100
AcDbEntity
  8
_U+30EC_U+30A4_U+30E4_U+30FC 1
 62
     7
420
 16777215
370
     9
  0
INSERT
  5
AA
330
1F
100
AcDbEntity
  8
_U+30EC_U+30A4_U+30E4_U+30FC 1
100
AcDbBlockReference
  2
block 6
 10
0.0
 20
0.0
 30
0.0
  0
POLYLINE
  5
B2
330
1F
100
AcDbEntity
  8
_U+30EC_U+30A4_U+30E4_U+30FC 1
 62
     7
420
 16777215
370
     9
100
AcDb2dPolyline
 66
     1
 10
0.0
 20
0.0
 30
0.0
  0
VERTEX
  5
B3
330
B2
100
AcDbEntity
  8
_U+30EC_U+30A4_U+30E4_U+30FC 1
 62
     7
420
 16777215
370
     9
100
AcDbVertex
100
AcDb2dVertex
 10
80.04541684676018
 20
-136.7165582991541
 30
0.0
  0
VERTEX
  5
B4
330
B2
100
AcDbEntity
  8
_U+30EC_U+30A4_U+30E4_U+30FC 1
 62
     7
420
 16777215
370
     9
100
AcDbVertex
100
AcDb2dVertex
 10
80.04541684676018
 20
-120.7169924698209
 30
0.0
  0
SEQEND
  5
B5
330
B2
100
AcDbEntity
  8
_U+30EC_U+30A4_U+30E4_U+30FC 1
 62
     7
420
 16777215
370
     9
  0
POLYLINE
  5
B6
330
1F
100
AcDbEntity
  8
_U+30EC_U+30A4_U+30E4_U+30FC 1
 62
     7
420
 16777215
370
     9
100
AcDb2dPolyline
 66
     1
 10
0.0
 20
0.0
 30
0.0
  0
VERTEX
  5
B7
330
B6
100
AcDbEntity
  8
_U+30EC_U+30A4_U+30E4_U+30FC 1
 62
     7
420
 16777215
370
     9
100
AcDbVertex
100
AcDb2dVertex
 10
82.50519720159578
 20
-136.7172285769321
 30
0.0
  0
VERTEX
  5
B8
330
B6
100
AcDbEntity
  8
_U+30EC_U+30A4_U+30E4_U+30FC 1
 62
     7
420
 16777215
370
     9
100
AcDbVertex
100
AcDb2dVertex
 10
79.04497437228359
 20
-136.7172285769321
 30
0.0
  0
SEQEND
  5
B9
330
B6
100
AcDbEntity
  8
_U+30EC_U+30A4_U+30E4_U+30FC 1
 62
     7
420
 16777215
370
     9
  0
POLYLINE
  5
BA
330
1F
100
AcDbEntity
  8
_U+30EC_U+30A4_U+30E4_U+30FC 1
 62
     7
420
 16777215
370
     9
100
AcDb2dPolyline
 66
     1
 10
0.0
 20
0.0
 30
0.0
  0
VERTEX
  5
BB
330
BA
100
AcDbEntity
  8
_U+30EC_U+30A4_U+30E4_U+30FC 1
 62
     7
420
 16777215
370
     9
100
AcDbVertex
100
AcDb2dVertex
 10
82.50519720159578
 20
-120.7169924698209
 30
0.0
  0
VERTEX
  5
BC
330
BA
100
AcDbEntity
  8
_U+30EC_U+30A4_U+30E4_U+30FC 1
 62
     7
420
 16777215
370
     9
100
AcDbVertex
100
AcDb2dVertex
 10
79.04497437228359
 20
-120.7169924698209
 30
0.0
  0
SEQEND
  5
BD
330
BA
100
AcDbEntity
  8
_U+30EC_U+30A4_U+30E4_U+30FC 1
 62
     7
420
 16777215
370
     9
  0
INSERT
  5
BF
330
1F
100
AcDbEntity
  8
_U+30EC_U+30A4_U+30E4_U+30FC 1
100
AcDbBlockReference
  2
block 7
 10
0.0
 20
0.0
 30
0.0
  0
SPLINE
  5
C7
330
1F
100
AcDbEntity
  8
_U+30EC_U+30A4_U+30E4_U+30FC 1
 62
     7
420
 16777215
370
    25
100
AcDbSpline
210
0.0
220
0.0
230
1.0
 70
    11
 71
     3
 72
    74
 73
    70
 74
     0
 42
0.0000000001
 43
0.0000000001
 12
1.0
 22
0.0
 32
0.0
 13
1.0
 23
0.0
 33
0.0
 40
0.0
 40
0.0
 40
0.0
 40
0.0
 40
1.0
 40
1.0
 40
1.0
 40
2.0
 40
2.0
 40
2.0
 40
3.0
 40
3.0
 40
3.0
 40
4.0
 40
4.0
 40
4.0
 40
5.0
 40
5.0
 40
5.0
 40
6.0
 40
6.0
 40
6.0
 40
7.0
 40
7.0
 40
7.0
 40
8.0
 40
8.0
 40
8.0
 40
9.0
 40
9.0
 40
9.0
 40
10.0
 40
10.0
 40
10.0
 40
11.0
 40
11.0
 40
11.0
 40
12.0
 40
12.0
 40
12.0
 40
13.0
 40
13.0
 40
13.0
 40
14.0
 40
14.0
 40
14.0
 40
15.0
 40
15.0
 40
15.0
 40
16.0
 40
16.0
 40
16.0
 40
17.0
 40
17.0
 40
17.0
 40
18.0
 40
18.0
 40
18.0
 40
19.0
 40
19.0
 40
19.0
 40
20.0
 40
20.0
 40
20.0
 40
21.0
 40
21.0
 40
21.0
 40
22.0
 40
22.0
 40
22.0
 40
23.0
 40
23.0
 40
23.0
 40
23.0
 10
87.04103527939819
 20
-124.7863546910255
 30
0.0
 10
87.04103527939819
 20
-124.7863546910255
 30
0.0
 10
86.83399000690258
 20
-124.9861680243091
 30
0.0
 10
86.83399000690258
 20
-124.9861680243091
 30
0.0
 10
86.83399000690258
 20
-124.9861680243091
 30
0.0
 10
86.63382390089812
 20
-124.7856491354703
 30
0.0
 10
86.63382390089812
 20
-124.7856491354703
 30
0.0
 10
86.63382390089812
 20
-124.7856491354703
 30
0.0
 10
86.43401057266246
 20
-124.9854977465314
 30
0.0
 10
86.43401057266246
 20
-124.9854977465314
 30
0.0
 10
86.43401057266246
 20
-124.9854977465314
 30
0.0
 10
86.23384446665801
 20
-124.7856491354703
 30
0.0
 10
86.23384446665801
 20
-124.7856491354703
 30
0.0
 10
86.23384446665801
 20
-124.7856491354703
 30
0.0
 10
86.0340333118249
 20
-124.9854977465314
 30
0.0
 10
86.0340333118249
 20
-124.9854977465314
 30
0.0
 10
86.0340333118249
 20
-124.9854977465314
 30
0.0
 10
85.83386503241789
 20
-124.7849788576926
 30
0.0
 10
85.83386503241789
 20
-124.7849788576926
 30
0.0
 10
85.83386503241789
 20
-124.7849788576926
 30
0.0
 10
85.0449481081004
 20
-124.7849788576926
 30
0.0
 10
85.0449481081004
 20
-124.7849788576926
 30
0.0
 10
85.0449481081004
 20
-124.7849788576926
 30
0.0
 10
85.0449481081004
 20
-120.7169924698209
 30
0.0
 10
85.0449481081004
 20
-120.7169924698209
 30
0.0
 10
84.49302728884773
 20
-120.7169924698209
 30
0.0
 10
84.04517591138449
 20
-121.1648791363754
 30
0.0
 10
84.04517591138449
 20
-121.7171174695709
 30
0.0
 10
84.04517591138449
 20
-121.7171174695709
 30
0.0
 10
84.04517591138449
 20
-135.7167860771822
 30
0.0
 10
84.04517591138449
 20
-135.7167860771822
 30
0.0
 10
84.04517591138449
 20
-136.269377188155
 30
0.0
 10
84.49302728884773
 20
-136.7172285769321
 30
0.0
 10
85.0449481081004
 20
-136.7172285769321
 30
0.0
 10
85.0449481081004
 20
-136.7172285769321
 30
0.0
 10
99.00066025206051
 20
-136.7172285769321
 30
0.0
 10
99.00066025206051
 20
-136.7172285769321
 30
0.0
 10
99.55325134907385
 20
-136.7172285769321
 30
0.0
 10
100.0452352254112
 20
-136.3376044103603
 30
0.0
 10
100.0452352254112
 20
-135.7849780216092
 30
0.0
 10
100.0452352254112
 20
-135.7849780216092
 30
0.0
 10
85.0449481081004
 20
-135.7849780216092
 30
0.0
 10
85.0449481081004
 20
-135.7849780216092
 30
0.0
 10
85.0449481081004
 20
-135.7849780216092
 30
0.0
 10
85.0449481081004
 20
-125.7847510796649
 30
0.0
 10
85.0449481081004
 20
-125.7847510796649
 30
0.0
 10
85.0449481081004
 20
-125.7847510796649
 30
0.0
 10
100.0452352254112
 20
-125.7847510796649
 30
0.0
 10
100.0452352254112
 20
-125.7847510796649
 30
0.0
 10
100.0452352254112
 20
-125.7847510796649
 30
0.0
 10
100.5647357677132
 20
-125.4850310797399
 30
0.0
 10
100.5647357677132
 20
-125.4850310797399
 30
0.0
 10
100.5647357677132
 20
-125.4850310797399
 30
0.0
 10
105.3455095346344
 20
-125.4850310797399
 30
0.0
 10
105.3455095346344
 20
-125.4850310797399
 30
0.0
 10
105.7320481358841
 20
-125.4850310797399
 30
0.0
 10
106.0455617389968
 20
-125.1715174687071
 30
0.0
 10
106.0455617389968
 20
-124.7849788576926
 30
0.0
 10
106.0455617389968
 20
-124.7849788576926
 30
0.0
 10
100.2450485536469
 20
-124.7849788576926
 30
0.0
 10
100.2450485536469
 20
-124.7849788576926
 30
0.0
 10
100.2450485536469
 20
-124.7849788576926
 30
0.0
 10
100.0452352254112
 20
-124.9847921909759
 30
0.0
 10
100.0452352254112
 20
-124.9847921909759
 30
0.0
 10
100.0452352254112
 20
-124.9847921909759
 30
0.0
 10
99.84506911940674
 20
-124.7849788576926
 30
0.0
 10
99.84506911940674
 20
-124.7849788576926
 30
0.0
 10
99.84506911940674
 20
-124.7849788576926
 30
0.0
 10
87.04103527939819
 20
-124.7863546910255
 30
0.0
 10
87.04103527939819
 20
-124.7863546910255
 30
0.0
  0
POLYLINE
  5
C8
330
1F
100
AcDbEntity
  8
_U+30EC_U+30A4_U+30E4_U+30FC 1
  6
AI-Linetype-1
 62
   251
420
  5855577
370
    25
100
AcDb2dPolyline
 66
     1
 10
0.0
 20
0.0
 30
0.0
  0
VERTEX
  5
C9
330
C8
100
AcDbEntity
  8
_U+30EC_U+30A4_U+30E4_U+30FC 1
  6
AI-Linetype-1
 62
   251
420
  5855577
370
    25
100
AcDbVertex
100
AcDb2dVertex
 10
85.17480560478745
 20
-119.92497108113
 30
0.0
  0
VERTEX
  5
CA
330
C8
100
AcDbEntity
  8
_U+30EC_U+30A4_U+30E4_U+30FC 1
  6
AI-Linetype-1
 62
   251
420
  5855577
370
    25
100
AcDbVertex
100
AcDb2dVertex
 10
83.25347204269364
 20
-119.92497108113
 30
0.0
  0
VERTEX
  5
CB
330
C8
100
AcDbEntity
  8
_U+30EC_U+30A4_U+30E4_U+30FC 1
  6
AI-Linetype-1
 62
   251
420
  5855577
370
    25
100
AcDbVertex
100
AcDb2dVertex
 10
83.25347204269364
 20
-137.5089324656228
 30
0.0
  0
VERTEX
  5
CC
330
C8
100
AcDbEntity
  8
_U+30EC_U+30A4_U+30E4_U+30FC 1
  6
AI-Linetype-1
 62
   251
420
  5855577
370
    25
100
AcDbVertex
100
AcDb2dVertex
 10
100.8372565940939
 20
-137.5089324656228
 30
0.0
  0
VERTEX
  5
CD
330
C8
100
AcDbEntity
  8
_U+30EC_U+30A4_U+30E4_U+30FC 1
  6
AI-Linetype-1
 62
   251
420
  5855577
370
    25
100
AcDbVertex
100
AcDb2dVertex
 10
100.8372565940939
 20
-135.6368466327577
 30
0.0
  0
SEQEND
  5
CF
330
C8
100
AcDbEntity
  8
_U+30EC_U+30A4_U+30E4_U+30FC 1
  6
AI-Linetype-1
 62
   251
420
  5855577
370
    25
  0
ENDSEC
  0
SECTION
  2
OBJECTS
  0
DICTIONARY
  5
C
330
0
100
AcDbDictionary
281
     1
  3
ACAD_GROUP
350
D
  3
ACAD_LAYOUT
350
1A
  3
ACAD_MATERIAL
350
3B
  3
ACAD_MLEADERSTYLE
350
D1
  3
ACAD_MLINESTYLE
350
17
  3
ACAD_PLOTSETTINGS
350
19
  3
ACAD_PLOTSTYLENAME
350
E
  3
ACAD_TABLESTYLE
350
D0
  3
ACAD_VISUALSTYLE
350
2A
  0
SUN
  5
3F
330
29
100
AcDbSun
 90
        1
290
     0
 63
     7
421
 16777215
 40
1.0
291
     1
 91
  2455826
 92
 54000000
292
     0
 70
     2
 71
   256
280
     1
  0
DICTIONARY
  5
D
102
{ACAD_REACTORS
330
C
102
}
330
C
100
AcDbDictionary
281
     1
  0
DICTIONARY
  5
1A
102
{ACAD_REACTORS
330
C
102
}
330
C
100
AcDbDictionary
281
     1
  3
Layout1
350
1E
  3
Layout2
350
26
  3
Model
350
22
  0
DICTIONARY
  5
3B
102
{ACAD_REACTORS
330
C
102
}
330
C
100
AcDbDictionary
281
     1
  3
ByBlock
350
3D
  3
ByLayer
350
3C
  3
Global
350
3E
  0
DICTIONARY
  5
D1
102
{ACAD_REACTORS
330
C
102
}
330
C
100
AcDbDictionary
281
     1
  0
DICTIONARY
  5
17
102
{ACAD_REACTORS
330
C
102
}
330
C
100
AcDbDictionary
281
     1
  3
Standard
350
18
  0
DICTIONARY
  5
19
102
{ACAD_REACTORS
330
C
102
}
330
C
100
AcDbDictionary
281
     1
  0
ACDBDICTIONARYWDFLT
  5
E
102
{ACAD_REACTORS
330
C
102
}
330
C
100
AcDbDictionary
281
     1
  3
Normal
350
F
100
AcDbDictionaryWithDefault
340
F
  0
DICTIONARY
  5
D0
102
{ACAD_REACTORS
330
C
102
}
330
C
100
AcDbDictionary
281
     1
  0
DICTIONARY
  5
2A
102
{ACAD_REACTORS
330
C
102
}
330
C
100
AcDbDictionary
281
     1
  3
2dWireframe
350
2F
  3
3D Hidden
350
31
  3
3dWireframe
350
30
  3
Basic
350
32
  3
Brighten
350
36
  3
ColorChange
350
3A
  3
Conceptual
350
34
  3
Dim
350
35
  3
Facepattern
350
39
  3
Flat
350
2B
  3
FlatWithEdges
350
2C
  3
Gouraud
350
2D
  3
GouraudWithEdges
350
2E
  3
Linepattern
350
38
  3
Realistic
350
33
  3
Thicken
350
37
  0
LAYOUT
  5
1E
102
{ACAD_REACTORS
330
1A
102
}
330
1A
100
AcDbPlotSettings
  1

  2
none_device
  4

  6

 40
0.0
 41
0.0
 42
0.0
 43
0.0
 44
0.0
 45
0.0
 46
0.0
 47
0.0
 48
0.0
 49
0.0
140
0.0
141
0.0
142
1.0
143
1.0
 70
   688
 72
     0
 73
     0
 74
     5
  7

 75
    16
 76
     0
 77
     2
 78
   300
147
1.0
148
0.0
149
0.0
100
AcDbLayout
  1
Layout1
 70
     1
 71
     1
 10
0.0
 20
0.0
 11
12.0
 21
9.0
 12
0.0
 22
0.0
 32
0.0
 14
1.000000000000000E+20
 24
1.000000000000000E+20
 34
1.000000000000000E+20
 15
-1.000000000000000E+20
 25
-1.000000000000000E+20
 35
-1.000000000000000E+20
146
0.0
 13
0.0
 23
0.0
 33
0.0
 16
1.0
 26
0.0
 36
0.0
 17
0.0
 27
1.0
 37
0.0
 76
     0
330
1B
  0
LAYOUT
  5
26
102
{ACAD_REACTORS
330
1A
102
}
330
1A
100
AcDbPlotSettings
  1

  2
none_device
  4

  6

 40
0.0
 41
0.0
 42
0.0
 43
0.0
 44
0.0
 45
0.0
 46
0.0
 47
0.0
 48
0.0
 49
0.0
140
0.0
141
0.0
142
1.0
143
1.0
 70
   688
 72
     0
 73
     0
 74
     5
  7

 75
    16
 76
     0
 77
     2
 78
   300
147
1.0
148
0.0
149
0.0
100
AcDbLayout
  1
Layout2
 70
     1
 71
     2
 10
0.0
 20
0.0
 11
0.0
 21
0.0
 12
0.0
 22
0.0
 32
0.0
 14
0.0
 24
0.0
 34
0.0
 15
0.0
 25
0.0
 35
0.0
146
0.0
 13
0.0
 23
0.0
 33
0.0
 16
1.0
 26
0.0
 36
0.0
 17
0.0
 27
1.0
 37
0.0
 76
     0
330
23
  0
LAYOUT
  5
22
102
{ACAD_REACTORS
330
1A
102
}
330
1A
100
AcDbPlotSettings
  1

  2
none_device
  4

  6

 40
0.0
 41
0.0
 42
0.0
 43
0.0
 44
0.0
 45
0.0
 46
0.0
 47
0.0
 48
0.0
 49
0.0
140
0.0
141
0.0
142
1.0
143
1.0
 70
  1712
 72
     0
 73
     0
 74
     0
  7

 75
     0
 76
     0
 77
     2
 78
   300
147
1.0
148
0.0
149
0.0
100
AcDbLayout
  1
Model
 70
     1
 71
     0
 10
0.0
 20
0.0
 11
12.0
 21
9.0
 12
0.0
 22
0.0
 32
0.0
 14
1.000000000000000E+20
 24
1.000000000000000E+20
 34
1.000000000000000E+20
 15
-1.000000000000000E+20
 25
-1.000000000000000E+20
 35
-1.000000000000000E+20
146
0.0
 13
0.0
 23
0.0
 33
0.0
 16
1.0
 26
0.0
 36
0.0
 17
0.0
 27
1.0
 37
0.0
 76
     0
330
1F
331
29
  0
MATERIAL
  5
3D
102
{ACAD_REACTORS
330
3B
102
}
330
3B
100
AcDbMaterial
  1
ByBlock
 72
     1
 94
      127
  0
MATERIAL
  5
3C
102
{ACAD_REACTORS
330
3B
102
}
330
3B
100
AcDbMaterial
  1
ByLayer
 72
     1
 94
      127
  0
MATERIAL
  5
3E
102
{ACAD_REACTORS
330
3B
102
}
330
3B
100
AcDbMaterial
  1
Global
 72
     1
 94
      127
  0
MLINESTYLE
  5
18
102
{ACAD_REACTORS
330
17
102
}
330
17
100
AcDbMlineStyle
  2
Standard
 70
     0
  3

 62
   256
 51
90.0
 52
90.0
 71
     2
 49
0.5
 62
   256
  6
BYLAYER
 49
-0.5
 62
   256
  6
BYLAYER
  0
ACDBPLACEHOLDER
  5
F
102
{ACAD_REACTORS
330
E
102
}
330
E
  0
VISUALSTYLE
  5
2F
102
{ACAD_REACTORS
330
2A
102
}
330
2A
100
AcDbVisualStyle
  2
2dWireframe
 70
     4
177
     2
291
     0
 71
     0
176
     1
 72
     2
176
     1
 73
     0
176
     1
 90
        0
176
     1
 40
-0.6
176
     1
 41
-30.0
176
     1
 62
     5
 63
     7
421
 16777215
176
     1
 74
     1
176
     1
 91
        4
176
     1
 64
     7
176
     1
 65
   257
176
     1
 75
     1
176
     1
175
     1
176
     1
 42
1.0
176
     1
 92
        0
176
     1
 66
   257
176
     1
 43
1.0
176
     1
 76
     1
176
     1
 77
     6
176
     1
 78
     2
176
     1
 67
     7
176
     1
 79
     5
176
     1
170
     0
176
     1
171
     0
176
     1
290
     0
176
     1
 93
        1
176
     1
 44
0.0
176
     1
173
     0
176
     1
  0
VISUALSTYLE
  5
31
102
{ACAD_REACTORS
330
2A
102
}
330
2A
100
AcDbVisualStyle
  2
3D Hidden
 70
     6
177
     2
291
     0
 71
     1
176
     1
 72
     2
176
     1
 73
     2
176
     1
 90
        0
176
     1
 40
-0.6
176
     1
 41
-30.0
176
     1
 62
     5
 63
     7
421
 16777215
176
     1
 74
     2
176
     1
 91
        2
176
     1
 64
     7
176
     1
 65
   257
176
     1
 75
     2
176
     1
175
     1
176
     1
 42
40.0
176
     1
 92
        0
176
     1
 66
   257
176
     1
 43
1.0
176
     1
 76
     1
176
     1
 77
     6
176
     1
 78
     2
176
     1
 67
     7
176
     1
 79
     3
176
     1
170
     0
176
     1
171
     0
176
     1
290
     0
176
     1
 93
        1
176
     1
 44
0.0
176
     1
173
     0
176
     1
  0
VISUALSTYLE
  5
30
102
{ACAD_REACTORS
330
2A
102
}
330
2A
100
AcDbVisualStyle
  2
3dWireframe
 70
     5
177
     2
291
     0
 71
     0
176
     1
 72
     2
176
     1
 73
     0
176
     1
 90
        0
176
     1
 40
-0.6
176
     1
 41
-30.0
176
     1
 62
     5
 63
     7
421
 16777215
176
     1
 74
     1
176
     1
 91
        4
176
     1
 64
     7
176
     1
 65
   257
176
     1
 75
     1
176
     1
175
     1
176
     1
 42
1.0
176
     1
 92
        0
176
     1
 66
   257
176
     1
 43
1.0
176
     1
 76
     1
176
     1
 77
     6
176
     1
 78
     2
176
     1
 67
     7
176
     1
 79
     5
176
     1
170
     0
176
     1
171
     0
176
     1
290
     0
176
     1
 93
        1
176
     1
 44
0.0
176
     1
173
     0
176
     1
  0
VISUALSTYLE
  5
32
102
{ACAD_REACTORS
330
2A
102
}
330
2A
100
AcDbVisualStyle
  2
Basic
 70
     7
177
     2
291
     1
 71
     1
176
     1
 72
     0
176
     1
 73
     1
176
     1
 90
        0
176
     1
 40
-0.6
176
     1
 41
-30.0
176
     1
 62
     5
 63
     7
421
 16777215
176
     1
 74
     0
176
     1
 91
        4
176
     1
 64
     7
176
     1
 65
   257
176
     1
 75
     1
176
     1
175
     1
176
     1
 42
1.0
176
     1
 92
        8
176
     1
 66
     7
176
     1
 43
1.0
176
     1
 76
     1
176
     1
 77
     6
176
     1
 78
     2
176
     1
 67
     7
176
     1
 79
     5
176
     1
170
     0
176
     1
171
     0
176
     1
290
     0
176
     1
 93
        1
176
     1
 44
0.0
176
     1
173
     0
176
     1
  0
VISUALSTYLE
  5
36
102
{ACAD_REACTORS
330
2A
102
}
330
2A
100
AcDbVisualStyle
  2
Brighten
 70
    12
177
     2
291
     1
 71
     2
176
     1
 72
     2
176
     1
 73
     0
176
     1
 90
        0
176
     1
 40
-0.6
176
     1
 41
-30.0
176
     1
 62
     5
 63
     7
421
 16777215
176
     1
 74
     1
176
     1
 91
        4
176
     1
 64
     7
176
     1
 65
   257
176
     1
 75
     1
176
     1
175
     1
176
     1
 42
1.0
176
     1
 92
        8
176
     1
 66
     7
176
     1
 43
1.0
176
     1
 76
     1
176
     1
 77
     6
176
     1
 78
     2
176
     1
 67
     7
176
     1
 79
     5
176
     1
170
     0
176
     1
171
     0
176
     1
290
     0
176
     1
 93
        1
176
     1
 44
50.0
176
     1
173
     0
176
     1
  0
VISUALSTYLE
  5
3A
102
{ACAD_REACTORS
330
2A
102
}
330
2A
100
AcDbVisualStyle
  2
ColorChange
 70
    16
177
     2
291
     1
 71
     2
176
     1
 72
     2
176
     1
 73
     3
176
     1
 90
        0
176
     1
 40
-0.6
176
     1
 41
-30.0
176
     1
 62
     5
 63
     8
421
  8421504
176
     1
 74
     1
176
     1
 91
        4
176
     1
 64
     7
176
     1
 65
   257
176
     1
 75
     1
176
     1
175
     1
176
     1
 42
1.0
176
     1
 92
        8
176
     1
 66
     8
424
  8421504
176
     1
 43
1.0
176
     1
 76
     1
176
     1
 77
     6
176
     1
 78
     2
176
     1
 67
     7
176
     1
 79
     5
176
     1
170
     0
176
     1
171
     0
176
     1
290
     0
176
     1
 93
        1
176
     1
 44
0.0
176
     1
173
     0
176
     1
  0
VISUALSTYLE
  5
34
102
{ACAD_REACTORS
330
2A
102
}
330
2A
100
AcDbVisualStyle
  2
Conceptual
 70
     9
177
     2
291
     0
 71
     3
176
     1
 72
     2
176
     1
 73
     0
176
     1
 90
        0
176
     1
 40
-0.6
176
     1
 41
-30.0
176
     1
 62
     5
 63
     7
421
 16777215
176
     1
 74
     2
176
     1
 91
        2
176
     1
 64
     7
176
     1
 65
   257
176
     1
 75
     1
176
     1
175
     1
176
     1
 42
40.0
176
     1
 92
        8
176
     1
 66
     7
176
     1
 43
1.0
176
     1
 76
     1
176
     1
 77
     6
176
     1
 78
     2
176
     1
 67
     7
176
     1
 79
     3
176
     1
170
     0
176
     1
171
     0
176
     1
290
     0
176
     1
 93
        1
176
     1
 44
0.0
176
     1
173
     0
176
     1
  0
VISUALSTYLE
  5
35
102
{ACAD_REACTORS
330
2A
102
}
330
2A
100
AcDbVisualStyle
  2
Dim
 70
    11
177
     2
291
     1
 71
     2
176
     1
 72
     2
176
     1
 73
     0
176
     1
 90
        0
176
     1
 40
-0.6
176
     1
 41
-30.0
176
     1
 62
     5
 63
     7
421
 16777215
176
     1
 74
     1
176
     1
 91
        4
176
     1
 64
     7
176
     1
 65
   257
176
     1
 75
     1
176
     1
175
     1
176
     1
 42
1.0
176
     1
 92
        8
176
     1
 66
     7
176
     1
 43
1.0
176
     1
 76
     1
176
     1
 77
     6
176
     1
 78
     2
176
     1
 67
     7
176
     1
 79
     5
176
     1
170
     0
176
     1
171
     0
176
     1
290
     0
176
     1
 93
        1
176
     1
 44
-50.0
176
     1
173
     0
176
     1
  0
VISUALSTYLE
  5
39
102
{ACAD_REACTORS
330
2A
102
}
330
2A
100
AcDbVisualStyle
  2
Facepattern
 70
    15
177
     2
291
     1
 71
     2
176
     1
 72
     2
176
     1
 73
     0
176
     1
 90
        0
176
     1
 40
-0.6
176
     1
 41
-30.0
176
     1
 62
     5
 63
     7
421
 16777215
176
     1
 74
     1
176
     1
 91
        4
176
     1
 64
     7
176
     1
 65
   257
176
     1
 75
     1
176
     1
175
     1
176
     1
 42
1.0
176
     1
 92
        8
176
     1
 66
     7
176
     1
 43
1.0
176
     1
 76
     1
176
     1
 77
     6
176
     1
 78
     2
176
     1
 67
     7
176
     1
 79
     5
176
     1
170
     0
176
     1
171
     0
176
     1
290
     0
176
     1
 93
        1
176
     1
 44
0.0
176
     1
173
     0
176
     1
  0
VISUALSTYLE
  5
2B
102
{ACAD_REACTORS
330
2A
102
}
330
2A
100
AcDbVisualStyle
  2
Flat
 70
     0
177
     2
291
     1
 71
     2
176
     1
 72
     1
176
     1
 73
     1
176
     1
 90
        2
176
     1
 40
-0.6
176
     1
 41
30.0
176
     1
 62
     5
 63
     7
421
 16777215
176
     1
 74
     0
176
     1
 91
        4
176
     1
 64
     7
176
     1
 65
   257
176
     1
 75
     1
176
     1
175
     1
176
     1
 42
1.0
176
     1
 92
        8
176
     1
 66
     7
176
     1
 43
1.0
176
     1
 76
     1
176
     1
 77
     6
176
     1
 78
     2
176
     1
 67
     7
176
     1
 79
     5
176
     1
170
     0
176
     1
171
     0
176
     1
290
     0
176
     1
 93
       13
176
     1
 44
0.0
176
     1
173
     0
176
     1
  0
VISUALSTYLE
  5
2C
102
{ACAD_REACTORS
330
2A
102
}
330
2A
100
AcDbVisualStyle
  2
FlatWithEdges
 70
     1
177
     2
291
     1
 71
     2
176
     1
 72
     1
176
     1
 73
     1
176
     1
 90
        2
176
     1
 40
-0.6
176
     1
 41
30.0
176
     1
 62
     5
 63
     7
421
 16777215
176
     1
 74
     1
176
     1
 91
        4
176
     1
 64
     7
176
     1
 65
   257
176
     1
 75
     1
176
     1
175
     1
176
     1
 42
1.0
176
     1
 92
        0
176
     1
 66
   257
176
     1
 43
1.0
176
     1
 76
     1
176
     1
 77
     6
176
     1
 78
     2
176
     1
 67
     7
176
     1
 79
     5
176
     1
170
     0
176
     1
171
     0
176
     1
290
     0
176
     1
 93
       13
176
     1
 44
0.0
176
     1
173
     0
176
     1
  0
VISUALSTYLE
  5
2D
102
{ACAD_REACTORS
330
2A
102
}
330
2A
100
AcDbVisualStyle
  2
Gouraud
 70
     2
177
     2
291
     1
 71
     2
176
     1
 72
     2
176
     1
 73
     1
176
     1
 90
        2
176
     1
 40
-0.6
176
     1
 41
30.0
176
     1
 62
     5
 63
     7
421
 16777215
176
     1
 74
     0
176
     1
 91
        4
176
     1
 64
     7
176
     1
 65
   257
176
     1
 75
     1
176
     1
175
     1
176
     1
 42
1.0
176
     1
 92
        0
176
     1
 66
     7
176
     1
 43
1.0
176
     1
 76
     1
176
     1
 77
     6
176
     1
 78
     2
176
     1
 67
     7
176
     1
 79
     5
176
     1
170
     0
176
     1
171
     0
176
     1
290
     0
176
     1
 93
       13
176
     1
 44
0.0
176
     1
173
     0
176
     1
  0
VISUALSTYLE
  5
2E
102
{ACAD_REACTORS
330
2A
102
}
330
2A
100
AcDbVisualStyle
  2
GouraudWithEdges
 70
     3
177
     2
291
     1
 71
     2
176
     1
 72
     2
176
     1
 73
     1
176
     1
 90
        2
176
     1
 40
-0.6
176
     1
 41
30.0
176
     1
 62
     5
 63
     7
421
 16777215
176
     1
 74
     1
176
     1
 91
        4
176
     1
 64
     7
176
     1
 65
   257
176
     1
 75
     1
176
     1
175
     1
176
     1
 42
1.0
176
     1
 92
        0
176
     1
 66
   257
176
     1
 43
1.0
176
     1
 76
     1
176
     1
 77
     6
176
     1
 78
     2
176
     1
 67
     7
176
     1
 79
     5
176
     1
170
     0
176
     1
171
     0
176
     1
290
     0
176
     1
 93
       13
176
     1
 44
0.0
176
     1
173
     0
176
     1
  0
VISUALSTYLE
  5
38
102
{ACAD_REACTORS
330
2A
102
}
330
2A
100
AcDbVisualStyle
  2
Linepattern
 70
    14
177
     2
291
     1
 71
     2
176
     1
 72
     2
176
     1
 73
     0
176
     1
 90
        0
176
     1
 40
-0.6
176
     1
 41
-30.0
176
     1
 62
     5
 63
     7
421
 16777215
176
     1
 74
     1
176
     1
 91
        4
176
     1
 64
     7
176
     1
 65
   257
176
     1
 75
     7
176
     1
175
     7
176
     1
 42
1.0
176
     1
 92
        8
176
     1
 66
     7
176
     1
 43
1.0
176
     1
 76
     1
176
     1
 77
     6
176
     1
 78
     2
176
     1
 67
     7
176
     1
 79
     5
176
     1
170
     0
176
     1
171
     0
176
     1
290
     0
176
     1
 93
        1
176
     1
 44
0.0
176
     1
173
     0
176
     1
  0
VISUALSTYLE
  5
33
102
{ACAD_REACTORS
330
2A
102
}
330
2A
100
AcDbVisualStyle
  2
Realistic
 70
     8
177
     2
291
     0
 71
     2
176
     1
 72
     2
176
     1
 73
     0
176
     1
 90
        0
176
     1
 40
-0.6
176
     1
 41
-30.0
176
     1
 62
     5
 63
     7
421
 16777215
176
     1
 74
     1
176
     1
 91
        0
176
     1
 64
     7
176
     1
 65
   257
176
     1
 75
     1
176
     1
175
     1
176
     1
 42
1.0
176
     1
 92
        8
176
     1
 66
     8
424
  7895160
176
     1
 43
1.0
176
     1
 76
     1
176
     1
 77
     6
176
     1
 78
     2
176
     1
 67
     7
176
     1
 79
     5
176
     1
170
     0
176
     1
171
     0
176
     1
290
     0
176
     1
 93
       13
176
     1
 44
0.0
176
     1
173
     0
176
     1
  0
VISUALSTYLE
  5
37
102
{ACAD_REACTORS
330
2A
102
}
330
2A
100
AcDbVisualStyle
  2
Thicken
 70
    13
177
     2
291
     1
 71
     2
176
     1
 72
     2
176
     1
 73
     0
176
     1
 90
        0
176
     1
 40
-0.6
176
     1
 41
-30.0
176
     1
 62
     5
 63
     7
421
 16777215
176
     1
 74
     1
176
     1
 91
        4
176
     1
 64
     7
176
     1
 65
   257
176
     1
 75
     1
176
     1
175
     1
176
     1
 42
1.0
176
     1
 92
       12
176
     1
 66
     7
176
     1
 43
1.0
176
     1
 76
     1
176
     1
 77
     6
176
     1
 78
     2
176
     1
 67
     7
176
     1
 79
     5
176
     1
170
     0
176
     1
171
     0
176
     1
290
     0
176
     1
 93
        1
176
     1
 44
0.0
176
     1
173
     0
176
     1
  0
ENDSEC
  0
EOF
