  0
SECTION
  2
HEADER
  9
$ACADVER
  1
AC1024
  9
$ACADMAINTVER
 70
     6
  9
$DWGCODEPAGE
  3
UNDEFINED
  9
$INSBASE
 10
0.0
 20
0.0
 30
0.0
  9
$EXTMIN
 10
1.000000000000000E+20
 20
1.000000000000000E+20
 30
1.000000000000000E+20
  9
$EXTMAX
 10
-1.000000000000000E+20
 20
-1.000000000000000E+20
 30
-1.000000000000000E+20
  9
$LIMMIN
 10
0.0
 20
0.0
  9
$LIMMAX
 10
12.0
 20
9.0
  9
$ORTHOMODE
 70
     0
  9
$REGENMODE
 70
     1
  9
$FILLMODE
 70
     1
  9
$QTEXTMODE
 70
     0
  9
$MIRRTEXT
 70
     1
  9
$LTSCALE
 40
1.0
  9
$ATTMODE
 70
     1
  9
$TEXTSIZE
 40
0.2
  9
$TRACEWID
 40
0.05
  9
$TEXTSTYLE
  7
Standard
  9
$CLAYER
  8
0
  9
$CELTYPE
  6
ByLayer
  9
$CECOLOR
 62
   256
  9
$CELTSCALE
 40
1.0
  9
$DISPSILH
 70
     0
  9
$DIMSCALE
 40
1.0
  9
$DIMASZ
 40
0.18
  9
$DIMEXO
 40
0.0625
  9
$DIMDLI
 40
0.38
  9
$DIMRND
 40
0.0
  9
$DIMDLE
 40
0.0
  9
$DIMEXE
 40
0.18
  9
$DIMTP
 40
0.0
  9
$DIMTM
 40
0.0
  9
$DIMTXT
 40
0.18
  9
$DIMCEN
 40
0.09
  9
$DIMTSZ
 40
0.0
  9
$DIMTOL
 70
     0
  9
$DIMLIM
 70
     0
  9
$DIMTIH
 70
     1
  9
$DIMTOH
 70
     1
  9
$DIMSE1
 70
     0
  9
$DIMSE2
 70
     0
  9
$DIMTAD
 70
     0
  9
$DIMZIN
 70
     0
  9
$DIMBLK
  1

  9
$DIMASO
 70
     1
  9
$DIMSHO
 70
     1
  9
$DIMPOST
  1

  9
$DIMAPOST
  1

  9
$DIMALT
 70
     0
  9
$DIMALTD
 70
     2
  9
$DIMALTF
 40
25.4
  9
$DIMLFAC
 40
1.0
  9
$DIMTOFL
 70
     0
  9
$DIMTVP
 40
0.0
  9
$DIMTIX
 70
     0
  9
$DIMSOXD
 70
     0
  9
$DIMSAH
 70
     0
  9
$DIMBLK1
  1

  9
$DIMBLK2
  1

  9
$DIMSTYLE
  2
Standard
  9
$DIMCLRD
 70
     0
  9
$DIMCLRE
 70
     0
  9
$DIMCLRT
 70
     0
  9
$DIMTFAC
 40
1.0
  9
$DIMGAP
 40
0.09
  9
$DIMJUST
 70
     0
  9
$DIMSD1
 70
     0
  9
$DIMSD2
 70
     0
  9
$DIMTOLJ
 70
     1
  9
$DIMTZIN
 70
     0
  9
$DIMALTZ
 70
     0
  9
$DIMALTTZ
 70
     0
  9
$DIMUPT
 70
     0
  9
$DIMDEC
 70
     4
  9
$DIMTDEC
 70
     4
  9
$DIMALTU
 70
     2
  9
$DIMALTTD
 70
     2
  9
$DIMTXSTY
  7
Standard
  9
$DIMAUNIT
 70
     0
  9
$DIMADEC
 70
     0
  9
$DIMALTRND
 40
0.0
  9
$DIMAZIN
 70
     0
  9
$DIMDSEP
 70
    46
  9
$DIMATFIT
 70
     3
  9
$DIMFRAC
 70
     0
  9
$DIMLDRBLK
  1

  9
$DIMLUNIT
 70
     2
  9
$DIMLWD
 70
    -2
  9
$DIMLWE
 70
    -2
  9
$DIMTMOVE
 70
     0
  9
$DIMFXL
 40
1.0
  9
$DIMFXLON
 70
     0
  9
$DIMJOGANG
 40
0.7853981633974483
  9
$DIMTFILL
 70
     0
  9
$DIMTFILLCLR
 70
     0
  9
$DIMARCSYM
 70
     0
  9
$DIMLTYPE
  6

  9
$DIMLTEX1
  6

  9
$DIMLTEX2
  6

  9
$DIMTXTDIRECTION
 70
     0
  9
$LUNITS
 70
     2
  9
$LUPREC
 70
     4
  9
$SKETCHINC
 40
0.1
  9
$FILLETRAD
 40
0.5
  9
$AUNITS
 70
     0
  9
$AUPREC
 70
     0
  9
$MENU
  1
.
  9
$ELEVATION
 40
0.0
  9
$PELEVATION
 40
0.0
  9
$THICKNESS
 40
0.0
  9
$LIMCHECK
 70
     0
  9
$CHAMFERA
 40
0.5
  9
$CHAMFERB
 40
0.5
  9
$CHAMFERC
 40
1.0
  9
$CHAMFERD
 40
0.0
  9
$SKPOLY
 70
     0
  9
$TDCREATE
 40
2457917.622210648
  9
$TDUCREATE
 40
2457917.247210648
  9
$TDUPDATE
 40
2457917.622210648
  9
$TDUUPDATE
 40
2457917.247210648
  9
$TDINDWG
 40
0.0000000116
  9
$TDUSRTIMER
 40
0.0000000116
  9
$USRTIMER
 70
     1
  9
$ANGBASE
 50
0.0
  9
$ANGDIR
 70
     0
  9
$PDMODE
 70
     0
  9
$PDSIZE
 40
0.0
  9
$PLINEWID
 40
0.0
  9
$SPLFRAME
 70
     0
  9
$SPLINETYPE
 70
     6
  9
$SPLINESEGS
 70
     8
  9
$HANDSEED
  5
D9
  9
$SURFTAB1
 70
     6
  9
$SURFTAB2
 70
     6
  9
$SURFTYPE
 70
     6
  9
$SURFU
 70
     6
  9
$SURFV
 70
     6
  9
$UCSBASE
  2

  9
$UCSNAME
  2

  9
$UCSORG
 10
0.0
 20
0.0
 30
0.0
  9
$UCSXDIR
 10
1.0
 20
0.0
 30
0.0
  9
$UCSYDIR
 10
0.0
 20
1.0
 30
0.0
  9
$UCSORTHOREF
  2

  9
$UCSORTHOVIEW
 70
     0
  9
$UCSORGTOP
 10
0.0
 20
0.0
 30
0.0
  9
$UCSORGBOTTOM
 10
0.0
 20
0.0
 30
0.0
  9
$UCSORGLEFT
 10
0.0
 20
0.0
 30
0.0
  9
$UCSORGRIGHT
 10
0.0
 20
0.0
 30
0.0
  9
$UCSORGFRONT
 10
0.0
 20
0.0
 30
0.0
  9
$UCSORGBACK
 10
0.0
 20
0.0
 30
0.0
  9
$PUCSBASE
  2

  9
$PUCSNAME
  2

  9
$PUCSORG
 10
0.0
 20
0.0
 30
0.0
  9
$PUCSXDIR
 10
1.0
 20
0.0
 30
0.0
  9
$PUCSYDIR
 10
0.0
 20
1.0
 30
0.0
  9
$PUCSORTHOREF
  2

  9
$PUCSORTHOVIEW
 70
     0
  9
$PUCSORGTOP
 10
0.0
 20
0.0
 30
0.0
  9
$PUCSORGBOTTOM
 10
0.0
 20
0.0
 30
0.0
  9
$PUCSORGLEFT
 10
0.0
 20
0.0
 30
0.0
  9
$PUCSORGRIGHT
 10
0.0
 20
0.0
 30
0.0
  9
$PUCSORGFRONT
 10
0.0
 20
0.0
 30
0.0
  9
$PUCSORGBACK
 10
0.0
 20
0.0
 30
0.0
  9
$USERI1
 70
     0
  9
$USERI2
 70
     0
  9
$USERI3
 70
     0
  9
$USERI4
 70
     0
  9
$USERI5
 70
     0
  9
$USERR1
 40
0.0
  9
$USERR2
 40
0.0
  9
$USERR3
 40
0.0
  9
$USERR4
 40
0.0
  9
$USERR5
 40
0.0
  9
$WORLDVIEW
 70
     1
  9
$SHADEDGE
 70
     3
  9
$SHADEDIF
 70
    70
  9
$TILEMODE
 70
     1
  9
$MAXACTVP
 70
    64
  9
$PINSBASE
 10
0.0
 20
0.0
 30
0.0
  9
$PLIMCHECK
 70
     0
  9
$PEXTMIN
 10
1.000000000000000E+20
 20
1.000000000000000E+20
 30
1.000000000000000E+20
  9
$PEXTMAX
 10
-1.000000000000000E+20
 20
-1.000000000000000E+20
 30
-1.000000000000000E+20
  9
$PLIMMIN
 10
0.0
 20
0.0
  9
$PLIMMAX
 10
12.0
 20
9.0
  9
$UNITMODE
 70
     0
  9
$VISRETAIN
 70
     1
  9
$PLINEGEN
 70
     0
  9
$PSLTSCALE
 70
     1
  9
$TREEDEPTH
 70
  3020
  9
$CMLSTYLE
  2
Standard
  9
$CMLJUST
 70
     0
  9
$CMLSCALE
 40
1.0
  9
$PROXYGRAPHICS
 70
     1
  9
$MEASUREMENT
 70
     0
  9
$CELWEIGHT
370
    -1
  9
$ENDCAPS
280
     0
  9
$JOINSTYLE
280
     0
  9
$LWDISPLAY
290
     1
  9
$INSUNITS
 70
     1
  9
$HYPERLINKBASE
  1

  9
$STYLESHEET
  1

  9
$XEDIT
290
     1
  9
$CEPSNTYPE
380
     0
  9
$PSTYLEMODE
290
     1
  9
$FINGERPRINTGUID
  2
{DDA4991E-1995-E92A-2506-B50332C345D3}
  9
$VERSIONGUID
  2
{FAEB1C32-E019-11D5-929B-00C0DF256EC4}
  9
$EXTNAMES
290
     1
  9
$PSVPSCALE
 40
0.0
  9
$OLESTARTUP
290
     0
  9
$SORTENTS
280
   127
  9
$INDEXCTL
280
     0
  9
$HIDETEXT
280
     1
  9
$XCLIPFRAME
280
     2
  9
$HALOGAP
280
     0
  9
$OBSCOLOR
 70
   257
  9
$OBSLTYPE
280
     0
  9
$INTERSECTIONDISPLAY
280
     0
  9
$INTERSECTIONCOLOR
 70
   257
  9
$DIMASSOC
280
     2
  9
$PROJECTNAME
  1

  9
$CAMERADISPLAY
290
     0
  9
$LENSLENGTH
 40
50.0
  9
$CAMERAHEIGHT
 40
0.0
  9
$STEPSPERSEC
 40
2.0
  9
$STEPSIZE
 40
6.0
  9
$3DDWFPREC
 40
2.0
  9
$PSOLWIDTH
 40
0.25
  9
$PSOLHEIGHT
 40
4.0
  9
$LOFTANG1
 40
1.570796326794897
  9
$LOFTANG2
 40
1.570796326794897
  9
$LOFTMAG1
 40
0.0
  9
$LOFTMAG2
 40
0.0
  9
$LOFTPARAM
 70
     7
  9
$LOFTNORMALS
280
     1
  9
$LATITUDE
 40
37.795
  9
$LONGITUDE
 40
-122.394
  9
$NORTHDIRECTION
 40
0.0
  9
$TIMEZONE
 70
 -8000
  9
$LIGHTGLYPHDISPLAY
280
     1
  9
$TILEMODELIGHTSYNCH
280
     1
  9
$CMATERIAL
347
3C
  9
$SOLIDHIST
280
     1
  9
$SHOWHIST
280
     1
  9
$DWFFRAME
280
     2
  9
$DGNFRAME
280
     2
  9
$REALWORLDSCALE
290
     1
  9
$INTERFERECOLOR
 62
   256
  9
$CSHADOW
280
     0
  9
$SHADOWPLANELOCATION
 40
0.0
  0
ENDSEC
  0
SECTION
  2
CLASSES
  0
CLASS
  1
ACDBDICTIONARYWDFLT
  2
AcDbDictionaryWithDefault
  3
ObjectDBX Classes
 90
        0
 91
        4
280
     0
281
     0
  0
CLASS
  1
VISUALSTYLE
  2
AcDbVisualStyle
  3
ObjectDBX Classes
 90
     4095
 91
        4
280
     0
281
     0
  0
CLASS
  1
MATERIAL
  2
AcDbMaterial
  3
ObjectDBX Classes
 90
     1153
 91
        4
280
     0
281
     0
  0
CLASS
  1
SUN
  2
AcDbSun
  3
SCENEOE
 90
     1024
 91
        4
280
     0
281
     0
  0
ENDSEC
  0
SECTION
  2
TABLES
  0
TABLE
  2
VPORT
  5
8
330
0
100
AcDbSymbolTable
 70
     1
  0
VPORT
  5
29
330
8
100
AcDbSymbolTableRecord
100
AcDbViewportTableRecord
  2
*Active
 70
     0
 10
0.0
 20
0.0
 11
1.0
 21
1.0
 12
0.0
 22
0.0
 13
0.0
 23
0.0
 14
0.5
 24
0.5
 15
0.5
 25
0.5
 16
0.0
 26
0.0
 36
1.0
 17
91.00082462281999
 27
-128.4993055234307
 37
0.0
 40
256.9986110468615
 41
0.7081814508812795
 42
50.0
 43
0.0
 44
0.0
 50
0.0
 51
0.0
 71
     0
 72
   100
 73
     1
 74
     3
 75
     0
 76
     0
 77
     0
 78
     0
281
     0
 65
     1
110
0.0
120
0.0
130
0.0
111
1.0
121
0.0
131
0.0
112
0.0
122
1.0
132
0.0
 79
     0
146
0.0
 60
     3
 61
     5
292
     1
282
     1
141
0.0
142
0.0
 63
   250
361
3F
  0
ENDTAB
  0
TABLE
  2
LTYPE
  5
5
330
0
100
AcDbSymbolTable
 70
     2
  0
LTYPE
  5
14
330
5
100
AcDbSymbolTableRecord
100
AcDbLinetypeTableRecord
  2
ByBlock
 70
     0
  3

 72
    65
 73
     0
 40
0.0
  0
LTYPE
  5
15
330
5
100
AcDbSymbolTableRecord
100
AcDbLinetypeTableRecord
  2
ByLayer
 70
     0
  3

 72
    65
 73
     0
 40
0.0
  0
LTYPE
  5
16
330
5
100
AcDbSymbolTableRecord
100
AcDbLinetypeTableRecord
  2
Continuous
 70
     0
  3
Solid line
 72
    65
 73
     0
 40
0.0
  0
LTYPE
  5
D5
330
5
100
AcDbSymbolTableRecord
100
AcDbLinetypeTableRecord
  2
AI-Linetype-1
 70
     0
  3
Adobe Illustrator Linetype No. 1
 72
    65
 73
     2
 40
1.411111110758333
 49
0.7055555553791667
 74
     0
 49
-0.7055555553791667
 74
     0
  0
ENDTAB
  0
TABLE
  2
LAYER
  5
2
330
0
100
AcDbSymbolTable
 70
     2
  0
LAYER
  5
10
330
2
100
AcDbSymbolTableRecord
100
AcDbLayerTableRecord
  2
0
 70
     0
 62
     7
  6
Continuous
370
    -3
390
F
347
3E
  0
LAYER
  5
40
330
2
100
AcDbSymbolTableRecord
100
AcDbLayerTableRecord
  2
_U+30EC_U+30A4_U+30E4_U+30FC 1
 70
     0
 62
     7
  6
Continuous
370
    -3
390
F
347
3E
  0
ENDTAB
  0
TABLE
  2
STYLE
  5
3
330
0
100
AcDbSymbolTable
 70
     1
  0
STYLE
  5
11
330
3
100
AcDbSymbolTableRecord
100
AcDbTextStyleTableRecord
  2
Standard
 70
     0
 40
0.0
 41
1.0
 50
0.0
 71
     0
 42
0.2
  3
txt
  4

  0
ENDTAB
  0
TABLE
  2
VIEW
  5
6
330
0
100
AcDbSymbolTable
 70
     0
  0
ENDTAB
  0
TABLE
  2
UCS
  5
7
330
0
100
AcDbSymbolTable
 70
     0
  0
ENDTAB
  0
TABLE
  2
APPID
  5
9
330
0
100
AcDbSymbolTable
 70
     1
  0
APPID
  5
12
330
9
100
AcDbSymbolTableRecord
100
AcDbRegAppTableRecord
  2
ACAD
 70
     0
  0
ENDTAB
  0
TABLE
  2
DIMSTYLE
  5
A
330
0
100
AcDbSymbolTable
 70
     1
100
AcDbDimStyleTable
  0
DIMSTYLE
105
27
330
A
100
AcDbSymbolTableRecord
100
AcDbDimStyleTableRecord
  2
Standard
 70
     0
178
     0
340
11
  0
ENDTAB
  0
TABLE
  2
BLOCK_RECORD
  5
1
330
0
100
AcDbSymbolTable
 70
     7
  0
BLOCK_RECORD
  5
1F
330
1
100
AcDbSymbolTableRecord
100
AcDbBlockTableRecord
  2
*Model_Space
340
22
 70
     0
280
     1
281
     0
  0
BLOCK_RECORD
  5
1B
330
1
100
AcDbSymbolTableRecord
100
AcDbBlockTableRecord
  2
*Paper_Space
340
1E
 70
     0
280
     1
281
     0
  0
BLOCK_RECORD
  5
23
330
1
100
AcDbSymbolTableRecord
100
AcDbBlockTableRecord
  2
*Paper_Space0
340
26
 70
     0
280
     1
281
     0
  0
BLOCK_RECORD
  5
5B
330
1
100
AcDbSymbolTableRecord
100
AcDbBlockTableRecord
  2
block 2
340
0
102
{BLKREFS
331
5C
102
}
 70
     0
280
     1
281
     0
  0
BLOCK_RECORD
  5
70
330
1
100
AcDbSymbolTableRecord
100
AcDbBlockTableRecord
  2
block 3
340
0
102
{BLKREFS
331
71
102
}
 70
     0
280
     1
281
     0
  0
BLOCK_RECORD
  5
82
330
1
100
AcDbSymbolTableRecord
100
AcDbBlockTableRecord
  2
block 4
340
0
102
{BLKREFS
331
83
102
}
 70
     0
280
     1
281
     0
  0
BLOCK_RECORD
  5
94
330
1
100
AcDbSymbolTableRecord
100
AcDbBlockTableRecord
  2
block 5
340
0
102
{BLKREFS
331
95
102
}
 70
     0
280
     1
281
     0
  0
BLOCK_RECORD
  5
A8
330
1
100
AcDbSymbolTableRecord
100
AcDbBlockTableRecord
  2
block 6
340
0
102
{BLKREFS
331
A9
102
}
 70
     0
280
     1
281
     0
  0
BLOCK_RECORD
  5
C7
330
1
100
AcDbSymbolTableRecord
100
AcDbBlockTableRecord
  2
block 7
340
0
102
{BLKREFS
331
C8
102
}
 70
     0
280
     1
281
     0
  0
ENDTAB
  0
ENDSEC
  0
SECTION
  2
BLOCKS
  0
BLOCK
  5
20
330
1F
100
AcDbEntity
  8
0
100
AcDbBlockBegin
  2
*Model_Space
 70
     0
 10
0.0
 20
0.0
 30
0.0
  3
*Model_Space
  1

  0
ENDBLK
  5
21
330
1F
100
AcDbEntity
  8
0
100
AcDbBlockEnd
  0
BLOCK
  5
1C
330
1B
100
AcDbEntity
 67
     1
  8
0
100
AcDbBlockBegin
  2
*Paper_Space
 70
     0
 10
0.0
 20
0.0
 30
0.0
  3
*Paper_Space
  1

  0
ENDBLK
  5
1D
330
1B
100
AcDbEntity
 67
     1
  8
0
100
AcDbBlockEnd
  0
BLOCK
  5
24
330
23
100
AcDbEntity
  8
0
100
AcDbBlockBegin
  2
*Paper_Space0
 70
     0
 10
0.0
 20
0.0
 30
0.0
  3
*Paper_Space0
  1

  0
ENDBLK
  5
25
330
23
100
AcDbEntity
  8
0
100
AcDbBlockEnd
  0
BLOCK
  5
5D
330
5B
100
AcDbEntity
  8
0
100
AcDbBlockBegin
  2
block 2
 70
     0
 10
0.0
 20
0.0
 30
0.0
  3
block 2
  1

  0
SPLINE
  5
5F
330
5B
100
AcDbEntity
  8
_U+30EC_U+30A4_U+30E4_U+30FC 1
370
     0
100
AcDbSpline
210
0.0
220
0.0
230
1.0
 70
    11
 71
     3
 72
    26
 73
    22
 74
     0
 42
0.0000000001
 43
0.0000000001
 12
1.0
 22
0.0
 32
0.0
 13
1.0
 23
0.0
 33
0.0
 40
0.0
 40
0.0
 40
0.0
 40
0.0
 40
1.0
 40
1.0
 40
1.0
 40
2.0
 40
2.0
 40
2.0
 40
3.0
 40
3.0
 40
3.0
 40
4.0
 40
4.0
 40
4.0
 40
5.0
 40
5.0
 40
5.0
 40
6.0
 40
6.0
 40
6.0
 40
7.0
 40
7.0
 40
7.0
 40
7.0
 10
77.88981931646505
 20
-138.590334709276
 30
0.0
 10
77.88981931646505
 20
-138.590334709276
 30
0.0
 10
77.88981931646505
 20
-137.4861816062535
 30
0.0
 10
77.88981931646505
 20
-137.4861816062535
 30
0.0
 10
77.88981931646505
 20
-137.4861816062535
 30
0.0
 10
77.55977916897811
 20
-137.4861816062535
 30
0.0
 10
77.55977916897811
 20
-137.4861816062535
 30
0.0
 10
77.55977916897811
 20
-137.4861816062535
 30
0.0
 10
77.55977916897811
 20
-137.3380425003877
 30
0.0
 10
77.55977916897811
 20
-137.3380425003877
 30
0.0
 10
77.8918863737562
 20
-137.3232285898011
 30
0.0
 10
77.93839516280707
 20
-137.1602755733488
 30
0.0
 10
77.96802298398022
 20
-137.0458984032385
 30
0.0
 10
77.96802298398022
 20
-137.0458984032385
 30
0.0
 10
78.11409503255481
 20
-137.0458984032385
 30
0.0
 10
78.11409503255481
 20
-137.0458984032385
 30
0.0
 10
78.11409503255481
 20
-137.0458984032385
 30
0.0
 10
78.11409503255481
 20
-138.590334709276
 30
0.0
 10
78.11409503255481
 20
-138.590334709276
 30
0.0
 10
78.11409503255481
 20
-138.590334709276
 30
0.0
 10
77.88981931646505
 20
-138.590334709276
 30
0.0
 10
77.88981931646505
 20
-138.590334709276
 30
0.0
  0
HATCH
  5
60
330
5B
100
AcDbEntity
  8
_U+30EC_U+30A4_U+30E4_U+30FC 1
 62
   179
420
  2234388
100
AcDbHatch
 10
0.0
 20
0.0
 30
0.0
210
0.0
220
0.0
230
1.0
  2
SOLID
 70
     1
 71
     0
 91
        1
 92
        1
 93
        1
 72
     4
 94
        3
 73
     0
 74
     1
 95
       26
 96
       22
 40
0.0
 40
0.0
 40
0.0
 40
0.0
 40
1.0
 40
1.0
 40
1.0
 40
2.0
 40
2.0
 40
2.0
 40
3.0
 40
3.0
 40
3.0
 40
4.0
 40
4.0
 40
4.0
 40
5.0
 40
5.0
 40
5.0
 40
6.0
 40
6.0
 40
6.0
 40
7.0
 40
7.0
 40
7.0
 40
7.0
 10
77.88981931646505
 20
-138.590334709276
 10
77.88981931646505
 20
-138.590334709276
 10
77.88981931646505
 20
-137.4861816062535
 10
77.88981931646505
 20
-137.4861816062535
 10
77.88981931646505
 20
-137.4861816062535
 10
77.55977916897811
 20
-137.4861816062535
 10
77.55977916897811
 20
-137.4861816062535
 10
77.55977916897811
 20
-137.4861816062535
 10
77.55977916897811
 20
-137.3380425003877
 10
77.55977916897811
 20
-137.3380425003877
 10
77.8918863737562
 20
-137.3232285898011
 10
77.93839516280707
 20
-137.1602755733488
 10
77.96802298398022
 20
-137.0458984032385
 10
77.96802298398022
 20
-137.0458984032385
 10
78.11409503255481
 20
-137.0458984032385
 10
78.11409503255481
 20
-137.0458984032385
 10
78.11409503255481
 20
-137.0458984032385
 10
78.11409503255481
 20
-138.590334709276
 10
78.11409503255481
 20
-138.590334709276
 10
78.11409503255481
 20
-138.590334709276
 10
77.88981931646505
 20
-138.590334709276
 10
77.88981931646505
 20
-138.590334709276
 97
        0
 97
        0
 75
     2
 76
     1
 98
        0
  0
SPLINE
  5
61
330
5B
100
AcDbEntity
  8
_U+30EC_U+30A4_U+30E4_U+30FC 1
370
     0
100
AcDbSpline
210
0.0
220
0.0
230
1.0
 70
    11
 71
     3
 72
    44
 73
    40
 74
     0
 42
0.0000000001
 43
0.0000000001
 12
1.0
 22
0.0
 32
0.0
 13
1.0
 23
0.0
 33
0.0
 40
0.0
 40
0.0
 40
0.0
 40
0.0
 40
1.0
 40
1.0
 40
1.0
 40
2.0
 40
2.0
 40
2.0
 40
3.0
 40
3.0
 40
3.0
 40
4.0
 40
4.0
 40
4.0
 40
5.0
 40
5.0
 40
5.0
 40
6.0
 40
6.0
 40
6.0
 40
7.0
 40
7.0
 40
7.0
 40
8.0
 40
8.0
 40
8.0
 40
9.0
 40
9.0
 40
9.0
 40
10.0
 40
10.0
 40
10.0
 40
11.0
 40
11.0
 40
11.0
 40
12.0
 40
12.0
 40
12.0
 40
13.0
 40
13.0
 40
13.0
 40
13.0
 10
79.62942028174196
 20
-138.590334709276
 30
0.0
 10
79.60599363244225
 20
-138.5458929775163
 30
0.0
 10
79.58497854998222
 20
-138.493183016592
 30
0.0
 10
79.58273923791683
 20
-138.2623616190803
 30
0.0
 10
79.57860512333451
 20
-138.0191378778216
 30
0.0
 10
79.51934948098823
 20
-137.949202439471
 30
0.0
 10
79.34158255394934
 20
-137.949202439471
 30
0.0
 10
79.34158255394934
 20
-137.949202439471
 30
0.0
 10
78.93333873894723
 20
-137.949202439471
 30
0.0
 10
78.93333873894723
 20
-137.949202439471
 30
0.0
 10
78.93333873894723
 20
-137.949202439471
 30
0.0
 10
78.93333873894723
 20
-138.590334709276
 30
0.0
 10
78.93333873894723
 20
-138.590334709276
 30
0.0
 10
78.93333873894723
 20
-138.590334709276
 30
0.0
 10
78.69855548162745
 20
-138.590334709276
 30
0.0
 10
78.69855548162745
 20
-138.590334709276
 30
0.0
 10
78.69855548162745
 20
-138.590334709276
 30
0.0
 10
78.69855548162745
 20
-137.0458984032385
 30
0.0
 10
78.69855548162745
 20
-137.0458984032385
 30
0.0
 10
78.69855548162745
 20
-137.0458984032385
 30
0.0
 10
79.37327743241363
 20
-137.0458984032385
 30
0.0
 10
79.37327743241363
 20
-137.0458984032385
 30
0.0
 10
79.68006318537513
 20
-137.0458984032385
 30
0.0
 10
79.84732257118401
 20
-137.217464158404
 30
0.0
 10
79.84732257118401
 20
-137.473434752958
 30
0.0
 10
79.84732257118401
 20
-137.5240776565912
 30
0.0
 10
79.83870983247088
 20
-137.6067599482372
 30
0.0
 10
79.79426810071116
 20
-137.6870306730435
 30
0.0
 10
79.73518471313912
 20
-137.7907280471495
 30
0.0
 10
79.66955564414512
 20
-137.8096760723184
 30
0.0
 10
79.60823294450766
 20
-137.8265570401961
 30
0.0
 10
79.74569225436913
 20
-137.8689317146647
 30
0.0
 10
79.8133883806543
 20
-137.9175075610067
 30
0.0
 10
79.81769475001086
 20
-138.2327337979071
 30
0.0
 10
79.82182886459316
 20
-138.5035183030477
 30
0.0
 10
79.85783011241402
 20
-138.535213181512
 30
0.0
 10
79.92552623869918
 20
-138.590334709276
 30
0.0
 10
79.92552623869918
 20
-138.590334709276
 30
0.0
 10
79.62942028174196
 20
-138.590334709276
 30
0.0
 10
79.62942028174196
 20
-138.590334709276
 30
0.0
  0
SPLINE
  5
62
330
5B
100
AcDbEntity
  8
_U+30EC_U+30A4_U+30E4_U+30FC 1
370
     0
100
AcDbSpline
210
0.0
220
0.0
230
1.0
 70
    11
 71
     3
 72
    20
 73
    16
 74
     0
 42
0.0000000001
 43
0.0000000001
 12
1.0
 22
0.0
 32
0.0
 13
1.0
 23
0.0
 33
0.0
 40
0.0
 40
0.0
 40
0.0
 40
0.0
 40
1.0
 40
1.0
 40
1.0
 40
2.0
 40
2.0
 40
2.0
 40
3.0
 40
3.0
 40
3.0
 40
4.0
 40
4.0
 40
4.0
 40
5.0
 40
5.0
 40
5.0
 40
5.0
 10
79.37758380177019
 20
-137.2574272660329
 30
0.0
 10
79.37758380177019
 20
-137.2574272660329
 30
0.0
 10
78.93333873894723
 20
-137.2574272660329
 30
0.0
 10
78.93333873894723
 20
-137.2574272660329
 30
0.0
 10
78.93333873894723
 20
-137.2574272660329
 30
0.0
 10
78.93333873894723
 20
-137.7376735766767
 30
0.0
 10
78.93333873894723
 20
-137.7376735766767
 30
0.0
 10
78.93333873894723
 20
-137.7376735766767
 30
0.0
 10
79.37551674447904
 20
-137.7376735766767
 30
0.0
 10
79.37551674447904
 20
-137.7376735766767
 30
0.0
 10
79.47490774922849
 20
-137.7376735766767
 30
0.0
 10
79.61030000179882
 20
-137.6615369664527
 30
0.0
 10
79.61030000179882
 20
-137.4903157208358
 30
0.0
 10
79.61030000179882
 20
-137.4121120533206
 30
0.0
 10
79.57653806604337
 20
-137.2574272660329
 30
0.0
 10
79.37758380177019
 20
-137.2574272660329
 30
0.0
  0
HATCH
  5
63
330
5B
100
AcDbEntity
  8
_U+30EC_U+30A4_U+30E4_U+30FC 1
 62
   179
420
  2234388
100
AcDbHatch
 10
0.0
 20
0.0
 30
0.0
210
0.0
220
0.0
230
1.0
  2
SOLID
 70
     1
 71
     0
 91
        2
 92
        1
 93
        1
 72
     4
 94
        3
 73
     0
 74
     1
 95
       44
 96
       40
 40
0.0
 40
0.0
 40
0.0
 40
0.0
 40
1.0
 40
1.0
 40
1.0
 40
2.0
 40
2.0
 40
2.0
 40
3.0
 40
3.0
 40
3.0
 40
4.0
 40
4.0
 40
4.0
 40
5.0
 40
5.0
 40
5.0
 40
6.0
 40
6.0
 40
6.0
 40
7.0
 40
7.0
 40
7.0
 40
8.0
 40
8.0
 40
8.0
 40
9.0
 40
9.0
 40
9.0
 40
10.0
 40
10.0
 40
10.0
 40
11.0
 40
11.0
 40
11.0
 40
12.0
 40
12.0
 40
12.0
 40
13.0
 40
13.0
 40
13.0
 40
13.0
 10
79.62942028174196
 20
-138.590334709276
 10
79.60599363244225
 20
-138.5458929775163
 10
79.58497854998222
 20
-138.493183016592
 10
79.58273923791683
 20
-138.2623616190803
 10
79.57860512333451
 20
-138.0191378778216
 10
79.51934948098823
 20
-137.949202439471
 10
79.34158255394934
 20
-137.949202439471
 10
79.34158255394934
 20
-137.949202439471
 10
78.93333873894723
 20
-137.949202439471
 10
78.93333873894723
 20
-137.949202439471
 10
78.93333873894723
 20
-137.949202439471
 10
78.93333873894723
 20
-138.590334709276
 10
78.93333873894723
 20
-138.590334709276
 10
78.93333873894723
 20
-138.590334709276
 10
78.69855548162745
 20
-138.590334709276
 10
78.69855548162745
 20
-138.590334709276
 10
78.69855548162745
 20
-138.590334709276
 10
78.69855548162745
 20
-137.0458984032385
 10
78.69855548162745
 20
-137.0458984032385
 10
78.69855548162745
 20
-137.0458984032385
 10
79.37327743241363
 20
-137.0458984032385
 10
79.37327743241363
 20
-137.0458984032385
 10
79.68006318537513
 20
-137.0458984032385
 10
79.84732257118401
 20
-137.217464158404
 10
79.84732257118401
 20
-137.473434752958
 10
79.84732257118401
 20
-137.5240776565912
 10
79.83870983247088
 20
-137.6067599482372
 10
79.79426810071116
 20
-137.6870306730435
 10
79.73518471313912
 20
-137.7907280471495
 10
79.66955564414512
 20
-137.8096760723184
 10
79.60823294450766
 20
-137.8265570401961
 10
79.74569225436913
 20
-137.8689317146647
 10
79.8133883806543
 20
-137.9175075610067
 10
79.81769475001086
 20
-138.2327337979071
 10
79.82182886459316
 20
-138.5035183030477
 10
79.85783011241402
 20
-138.535213181512
 10
79.92552623869918
 20
-138.590334709276
 10
79.92552623869918
 20
-138.590334709276
 10
79.62942028174196
 20
-138.590334709276
 10
79.62942028174196
 20
-138.590334709276
 97
        0
 97
        0
 92
        1
 93
        1
 72
     4
 94
        3
 73
     0
 74
     1
 95
       20
 96
       16
 40
0.0
 40
0.0
 40
0.0
 40
0.0
 40
1.0
 40
1.0
 40
1.0
 40
2.0
 40
2.0
 40
2.0
 40
3.0
 40
3.0
 40
3.0
 40
4.0
 40
4.0
 40
4.0
 40
5.0
 40
5.0
 40
5.0
 40
5.0
 10
79.37758380177019
 20
-137.2574272660329
 10
79.37758380177019
 20
-137.2574272660329
 10
78.93333873894723
 20
-137.2574272660329
 10
78.93333873894723
 20
-137.2574272660329
 10
78.93333873894723
 20
-137.2574272660329
 10
78.93333873894723
 20
-137.7376735766767
 10
78.93333873894723
 20
-137.7376735766767
 10
78.93333873894723
 20
-137.7376735766767
 10
79.37551674447904
 20
-137.7376735766767
 10
79.37551674447904
 20
-137.7376735766767
 10
79.47490774922849
 20
-137.7376735766767
 10
79.61030000179882
 20
-137.6615369664527
 10
79.61030000179882
 20
-137.4903157208358
 10
79.61030000179882
 20
-137.4121120533206
 10
79.57653806604337
 20
-137.2574272660329
 10
79.37758380177019
 20
-137.2574272660329
 97
        0
 97
        0
 75
     2
 76
     1
 98
        0
  0
ENDBLK
  5
5E
330
5B
100
AcDbEntity
  8
0
100
AcDbBlockEnd
  0
BLOCK
  5
72
330
70
100
AcDbEntity
  8
0
100
AcDbBlockBegin
  2
block 3
 70
     0
 10
0.0
 20
0.0
 30
0.0
  3
block 3
  1

  0
SPLINE
  5
74
330
70
100
AcDbEntity
  8
_U+30EC_U+30A4_U+30E4_U+30FC 1
370
     0
100
AcDbSpline
210
0.0
220
0.0
230
1.0
 70
    11
 71
     3
 72
    26
 73
    22
 74
     0
 42
0.0000000001
 43
0.0000000001
 12
1.0
 22
0.0
 32
0.0
 13
1.0
 23
0.0
 33
0.0
 40
0.0
 40
0.0
 40
0.0
 40
0.0
 40
1.0
 40
1.0
 40
1.0
 40
2.0
 40
2.0
 40
2.0
 40
3.0
 40
3.0
 40
3.0
 40
4.0
 40
4.0
 40
4.0
 40
5.0
 40
5.0
 40
5.0
 40
6.0
 40
6.0
 40
6.0
 40
7.0
 40
7.0
 40
7.0
 40
7.0
 10
95.20693628262188
 20
-118.1405924183815
 30
0.0
 10
95.20693628262188
 20
-118.1405924183815
 30
0.0
 10
95.20693628262188
 20
-117.0362670605847
 30
0.0
 10
95.20693628262188
 20
-117.0362670605847
 30
0.0
 10
95.20693628262188
 20
-117.0362670605847
 30
0.0
 10
94.87689613513494
 20
-117.0362670605847
 30
0.0
 10
94.87689613513494
 20
-117.0362670605847
 30
0.0
 10
94.87689613513494
 20
-117.0362670605847
 30
0.0
 10
94.87689613513494
 20
-116.8883002094932
 30
0.0
 10
94.87689613513494
 20
-116.8883002094932
 30
0.0
 10
95.20900333991302
 20
-116.8734862989066
 30
0.0
 10
95.2555121289639
 20
-116.7105332824543
 30
0.0
 10
95.28513995013705
 20
-116.5963283671183
 30
0.0
 10
95.28513995013705
 20
-116.5963283671183
 30
0.0
 10
95.43121199871165
 20
-116.5963283671183
 30
0.0
 10
95.43121199871165
 20
-116.5963283671183
 30
0.0
 10
95.43121199871165
 20
-116.5963283671183
 30
0.0
 10
95.43121199871165
 20
-118.1405924183815
 30
0.0
 10
95.43121199871165
 20
-118.1405924183815
 30
0.0
 10
95.43121199871165
 20
-118.1405924183815
 30
0.0
 10
95.20693628262188
 20
-118.1405924183815
 30
0.0
 10
95.20693628262188
 20
-118.1405924183815
 30
0.0
  0
HATCH
  5
75
330
70
100
AcDbEntity
  8
_U+30EC_U+30A4_U+30E4_U+30FC 1
 62
   179
420
  2234388
100
AcDbHatch
 10
0.0
 20
0.0
 30
0.0
210
0.0
220
0.0
230
1.0
  2
SOLID
 70
     1
 71
     0
 91
        1
 92
        1
 93
        1
 72
     4
 94
        3
 73
     0
 74
     1
 95
       26
 96
       22
 40
0.0
 40
0.0
 40
0.0
 40
0.0
 40
1.0
 40
1.0
 40
1.0
 40
2.0
 40
2.0
 40
2.0
 40
3.0
 40
3.0
 40
3.0
 40
4.0
 40
4.0
 40
4.0
 40
5.0
 40
5.0
 40
5.0
 40
6.0
 40
6.0
 40
6.0
 40
7.0
 40
7.0
 40
7.0
 40
7.0
 10
95.20693628262188
 20
-118.1405924183815
 10
95.20693628262188
 20
-118.1405924183815
 10
95.20693628262188
 20
-117.0362670605847
 10
95.20693628262188
 20
-117.0362670605847
 10
95.20693628262188
 20
-117.0362670605847
 10
94.87689613513494
 20
-117.0362670605847
 10
94.87689613513494
 20
-117.0362670605847
 10
94.87689613513494
 20
-117.0362670605847
 10
94.87689613513494
 20
-116.8883002094932
 10
94.87689613513494
 20
-116.8883002094932
 10
95.20900333991302
 20
-116.8734862989066
 10
95.2555121289639
 20
-116.7105332824543
 10
95.28513995013705
 20
-116.5963283671183
 10
95.28513995013705
 20
-116.5963283671183
 10
95.43121199871165
 20
-116.5963283671183
 10
95.43121199871165
 20
-116.5963283671183
 10
95.43121199871165
 20
-116.5963283671183
 10
95.43121199871165
 20
-118.1405924183815
 10
95.43121199871165
 20
-118.1405924183815
 10
95.43121199871165
 20
-118.1405924183815
 10
95.20693628262188
 20
-118.1405924183815
 10
95.20693628262188
 20
-118.1405924183815
 97
        0
 97
        0
 75
     2
 76
     1
 98
        0
  0
SPLINE
  5
76
330
70
100
AcDbEntity
  8
_U+30EC_U+30A4_U+30E4_U+30FC 1
370
     0
100
AcDbSpline
210
0.0
220
0.0
230
1.0
 70
    11
 71
     3
 72
    29
 73
    25
 74
     0
 42
0.0000000001
 43
0.0000000001
 12
1.0
 22
0.0
 32
0.0
 13
1.0
 23
0.0
 33
0.0
 40
0.0
 40
0.0
 40
0.0
 40
0.0
 40
1.0
 40
1.0
 40
1.0
 40
2.0
 40
2.0
 40
2.0
 40
3.0
 40
3.0
 40
3.0
 40
4.0
 40
4.0
 40
4.0
 40
5.0
 40
5.0
 40
5.0
 40
6.0
 40
6.0
 40
6.0
 40
7.0
 40
7.0
 40
7.0
 40
8.0
 40
8.0
 40
8.0
 40
8.0
 10
96.43235674672525
 20
-118.1912353220147
 30
0.0
 10
96.16570635616691
 20
-118.1912353220147
 30
0.0
 10
95.911802818904
 20
-118.0537760121532
 30
0.0
 10
95.911802818904
 20
-117.7047878394974
 30
0.0
 10
95.911802818904
 20
-117.4488172449434
 30
0.0
 10
96.05374075289629
 20
-117.3535603547762
 30
0.0
 10
96.15950518429347
 20
-117.2922376551387
 30
0.0
 10
96.03479272772742
 20
-117.2329820127924
 30
0.0
 10
95.9586561175034
 20
-117.1187770974564
 30
0.0
 10
95.9586561175034
 20
-116.9580633930695
 30
0.0
 10
95.9586561175034
 20
-116.6829725185723
 30
0.0
 10
96.15743812700231
 20
-116.547580266002
 30
0.0
 10
96.43235674672525
 20
-116.547580266002
 30
0.0
 10
96.71588810516131
 20
-116.547580266002
 30
0.0
 10
96.90640188549563
 20
-116.6914130025112
 30
0.0
 10
96.90640188549563
 20
-116.9580633930695
 30
0.0
 10
96.90640188549563
 20
-117.1187770974564
 30
0.0
 10
96.82785370843193
 20
-117.2329820127924
 30
0.0
 10
96.70314125186589
 20
-117.2922376551387
 30
0.0
 10
96.79202471538534
 20
-117.3430528135462
 30
0.0
 10
96.95084361725534
 20
-117.4383097037133
 30
0.0
 10
96.95084361725534
 20
-117.7006537249151
 30
0.0
 10
96.95084361725534
 20
-118.0751356041618
 30
0.0
 10
96.6714463734016
 20
-118.1912353220147
 30
0.0
 10
96.43235674672525
 20
-118.1912353220147
 30
0.0
  0
SPLINE
  5
77
330
70
100
AcDbEntity
  8
_U+30EC_U+30A4_U+30E4_U+30FC 1
370
     0
100
AcDbSpline
210
0.0
220
0.0
230
1.0
 70
    11
 71
     3
 72
    17
 73
    13
 74
     0
 42
0.0000000001
 43
0.0000000001
 12
1.0
 22
0.0
 32
0.0
 13
1.0
 23
0.0
 33
0.0
 40
0.0
 40
0.0
 40
0.0
 40
0.0
 40
1.0
 40
1.0
 40
1.0
 40
2.0
 40
2.0
 40
2.0
 40
3.0
 40
3.0
 40
3.0
 40
4.0
 40
4.0
 40
4.0
 40
4.0
 10
96.43235674672525
 20
-117.4002413986013
 30
0.0
 10
96.28869626499034
 20
-117.4002413986013
 30
0.0
 10
96.13607853499376
 20
-117.4868855500554
 30
0.0
 10
96.13607853499376
 20
-117.6899739289108
 30
0.0
 10
96.13607853499376
 20
-117.8953016198317
 30
0.0
 10
96.26320255839948
 20
-117.9965874270981
 30
0.0
 10
96.43235674672525
 20
-117.9965874270981
 30
0.0
 10
96.61839190292874
 20
-117.9965874270981
 30
0.0
 10
96.72863495845674
 20
-117.8739420278232
 30
0.0
 10
96.72863495845674
 20
-117.6963473555586
 30
0.0
 10
96.72863495845674
 20
-117.4741386967599
 30
0.0
 10
96.56568194200442
 20
-117.4002413986013
 30
0.0
 10
96.43235674672525
 20
-117.4002413986013
 30
0.0
  0
SPLINE
  5
78
330
70
100
AcDbEntity
  8
_U+30EC_U+30A4_U+30E4_U+30FC 1
370
     0
100
AcDbSpline
210
0.0
220
0.0
230
1.0
 70
    11
 71
     3
 72
    17
 73
    13
 74
     0
 42
0.0000000001
 43
0.0000000001
 12
1.0
 22
0.0
 32
0.0
 13
1.0
 23
0.0
 33
0.0
 40
0.0
 40
0.0
 40
0.0
 40
0.0
 40
1.0
 40
1.0
 40
1.0
 40
2.0
 40
2.0
 40
2.0
 40
3.0
 40
3.0
 40
3.0
 40
4.0
 40
4.0
 40
4.0
 40
4.0
 10
96.43235674672525
 20
-116.7401611036275
 30
0.0
 10
96.26733667298178
 20
-116.7401611036275
 30
0.0
 10
96.18258732404463
 20
-116.8352457390204
 30
0.0
 10
96.18258732404463
 20
-116.9706379915907
 30
0.0
 10
96.18258732404463
 20
-117.0934556456398
 30
0.0
 10
96.25458981968636
 20
-117.2119669303324
 30
0.0
 10
96.43235674672525
 20
-117.2119669303324
 30
0.0
 10
96.61012367376414
 20
-117.2119669303324
 30
0.0
 10
96.68212616940586
 20
-117.0934556456398
 30
0.0
 10
96.68212616940586
 20
-116.9706379915907
 30
0.0
 10
96.68212616940586
 20
-116.8352457390204
 30
0.0
 10
96.59530976317757
 20
-116.7401611036275
 30
0.0
 10
96.43235674672525
 20
-116.7401611036275
 30
0.0
  0
HATCH
  5
79
330
70
100
AcDbEntity
  8
_U+30EC_U+30A4_U+30E4_U+30FC 1
 62
   179
420
  2234388
100
AcDbHatch
 10
0.0
 20
0.0
 30
0.0
210
0.0
220
0.0
230
1.0
  2
SOLID
 70
     1
 71
     0
 91
        3
 92
        1
 93
        1
 72
     4
 94
        3
 73
     0
 74
     1
 95
       29
 96
       25
 40
0.0
 40
0.0
 40
0.0
 40
0.0
 40
1.0
 40
1.0
 40
1.0
 40
2.0
 40
2.0
 40
2.0
 40
3.0
 40
3.0
 40
3.0
 40
4.0
 40
4.0
 40
4.0
 40
5.0
 40
5.0
 40
5.0
 40
6.0
 40
6.0
 40
6.0
 40
7.0
 40
7.0
 40
7.0
 40
8.0
 40
8.0
 40
8.0
 40
8.0
 10
96.43235674672525
 20
-118.1912353220147
 10
96.16570635616691
 20
-118.1912353220147
 10
95.911802818904
 20
-118.0537760121532
 10
95.911802818904
 20
-117.7047878394974
 10
95.911802818904
 20
-117.4488172449434
 10
96.05374075289629
 20
-117.3535603547762
 10
96.15950518429347
 20
-117.2922376551387
 10
96.03479272772742
 20
-117.2329820127924
 10
95.9586561175034
 20
-117.1187770974564
 10
95.9586561175034
 20
-116.9580633930695
 10
95.9586561175034
 20
-116.6829725185723
 10
96.15743812700231
 20
-116.547580266002
 10
96.43235674672525
 20
-116.547580266002
 10
96.71588810516131
 20
-116.547580266002
 10
96.90640188549563
 20
-116.6914130025112
 10
96.90640188549563
 20
-116.9580633930695
 10
96.90640188549563
 20
-117.1187770974564
 10
96.82785370843193
 20
-117.2329820127924
 10
96.70314125186589
 20
-117.2922376551387
 10
96.79202471538534
 20
-117.3430528135462
 10
96.95084361725534
 20
-117.4383097037133
 10
96.95084361725534
 20
-117.7006537249151
 10
96.95084361725534
 20
-118.0751356041618
 10
96.6714463734016
 20
-118.1912353220147
 10
96.43235674672525
 20
-118.1912353220147
 97
        0
 97
        0
 92
        1
 93
        1
 72
     4
 94
        3
 73
     0
 74
     1
 95
       17
 96
       13
 40
0.0
 40
0.0
 40
0.0
 40
0.0
 40
1.0
 40
1.0
 40
1.0
 40
2.0
 40
2.0
 40
2.0
 40
3.0
 40
3.0
 40
3.0
 40
4.0
 40
4.0
 40
4.0
 40
4.0
 10
96.43235674672525
 20
-117.4002413986013
 10
96.28869626499034
 20
-117.4002413986013
 10
96.13607853499376
 20
-117.4868855500554
 10
96.13607853499376
 20
-117.6899739289108
 10
96.13607853499376
 20
-117.8953016198317
 10
96.26320255839948
 20
-117.9965874270981
 10
96.43235674672525
 20
-117.9965874270981
 10
96.61839190292874
 20
-117.9965874270981
 10
96.72863495845674
 20
-117.8739420278232
 10
96.72863495845674
 20
-117.6963473555586
 10
96.72863495845674
 20
-117.4741386967599
 10
96.56568194200442
 20
-117.4002413986013
 10
96.43235674672525
 20
-117.4002413986013
 97
        0
 97
        0
 92
        1
 93
        1
 72
     4
 94
        3
 73
     0
 74
     1
 95
       17
 96
       13
 40
0.0
 40
0.0
 40
0.0
 40
0.0
 40
1.0
 40
1.0
 40
1.0
 40
2.0
 40
2.0
 40
2.0
 40
3.0
 40
3.0
 40
3.0
 40
4.0
 40
4.0
 40
4.0
 40
4.0
 10
96.43235674672525
 20
-116.7401611036275
 10
96.26733667298178
 20
-116.7401611036275
 10
96.18258732404463
 20
-116.8352457390204
 10
96.18258732404463
 20
-116.9706379915907
 10
96.18258732404463
 20
-117.0934556456398
 10
96.25458981968636
 20
-117.2119669303324
 10
96.43235674672525
 20
-117.2119669303324
 10
96.61012367376414
 20
-117.2119669303324
 10
96.68212616940586
 20
-117.0934556456398
 10
96.68212616940586
 20
-116.9706379915907
 10
96.68212616940586
 20
-116.8352457390204
 10
96.59530976317757
 20
-116.7401611036275
 10
96.43235674672525
 20
-116.7401611036275
 97
        0
 97
        0
 75
     2
 76
     1
 98
        0
  0
ENDBLK
  5
73
330
70
100
AcDbEntity
  8
0
100
AcDbBlockEnd
  0
BLOCK
  5
84
330
82
100
AcDbEntity
  8
0
100
AcDbBlockBegin
  2
block 4
 70
     0
 10
0.0
 20
0.0
 30
0.0
  3
block 4
  1

  0
SPLINE
  5
86
330
82
100
AcDbEntity
  8
_U+30EC_U+30A4_U+30E4_U+30FC 1
370
     0
100
AcDbSpline
210
0.0
220
0.0
230
1.0
 70
    11
 71
     3
 72
    26
 73
    22
 74
     0
 42
0.0000000001
 43
0.0000000001
 12
1.0
 22
0.0
 32
0.0
 13
1.0
 23
0.0
 33
0.0
 40
0.0
 40
0.0
 40
0.0
 40
0.0
 40
1.0
 40
1.0
 40
1.0
 40
2.0
 40
2.0
 40
2.0
 40
3.0
 40
3.0
 40
3.0
 40
4.0
 40
4.0
 40
4.0
 40
5.0
 40
5.0
 40
5.0
 40
6.0
 40
6.0
 40
6.0
 40
7.0
 40
7.0
 40
7.0
 40
7.0
 10
87.60946720900041
 20
-125.1401651705379
 30
0.0
 10
87.60946720900041
 20
-125.1401651705379
 30
0.0
 10
87.60946720900041
 20
-124.035839812741
 30
0.0
 10
87.60946720900041
 20
-124.035839812741
 30
0.0
 10
87.60946720900041
 20
-124.035839812741
 30
0.0
 10
87.27942706151347
 20
-124.035839812741
 30
0.0
 10
87.27942706151347
 20
-124.035839812741
 30
0.0
 10
87.27942706151347
 20
-124.035839812741
 30
0.0
 10
87.27942706151347
 20
-123.8877007068753
 30
0.0
 10
87.27942706151347
 20
-123.8877007068753
 30
0.0
 10
87.61153426629157
 20
-123.873059051063
 30
0.0
 10
87.65804305534243
 20
-123.7101060346107
 30
0.0
 10
87.68767087651558
 20
-123.5959011192746
 30
0.0
 10
87.68767087651558
 20
-123.5959011192746
 30
0.0
 10
87.83374292509018
 20
-123.5959011192746
 30
0.0
 10
87.83374292509018
 20
-123.5959011192746
 30
0.0
 10
87.83374292509018
 20
-123.5959011192746
 30
0.0
 10
87.83374292509018
 20
-125.1401651705379
 30
0.0
 10
87.83374292509018
 20
-125.1401651705379
 30
0.0
 10
87.83374292509018
 20
-125.1401651705379
 30
0.0
 10
87.60946720900041
 20
-125.1401651705379
 30
0.0
 10
87.60946720900041
 20
-125.1401651705379
 30
0.0
  0
HATCH
  5
87
330
82
100
AcDbEntity
  8
_U+30EC_U+30A4_U+30E4_U+30FC 1
 62
   179
420
  2234388
100
AcDbHatch
 10
0.0
 20
0.0
 30
0.0
210
0.0
220
0.0
230
1.0
  2
SOLID
 70
     1
 71
     0
 91
        1
 92
        1
 93
        1
 72
     4
 94
        3
 73
     0
 74
     1
 95
       26
 96
       22
 40
0.0
 40
0.0
 40
0.0
 40
0.0
 40
1.0
 40
1.0
 40
1.0
 40
2.0
 40
2.0
 40
2.0
 40
3.0
 40
3.0
 40
3.0
 40
4.0
 40
4.0
 40
4.0
 40
5.0
 40
5.0
 40
5.0
 40
6.0
 40
6.0
 40
6.0
 40
7.0
 40
7.0
 40
7.0
 40
7.0
 10
87.60946720900041
 20
-125.1401651705379
 10
87.60946720900041
 20
-125.1401651705379
 10
87.60946720900041
 20
-124.035839812741
 10
87.60946720900041
 20
-124.035839812741
 10
87.60946720900041
 20
-124.035839812741
 10
87.27942706151347
 20
-124.035839812741
 10
87.27942706151347
 20
-124.035839812741
 10
87.27942706151347
 20
-124.035839812741
 10
87.27942706151347
 20
-123.8877007068753
 10
87.27942706151347
 20
-123.8877007068753
 10
87.61153426629157
 20
-123.873059051063
 10
87.65804305534243
 20
-123.7101060346107
 10
87.68767087651558
 20
-123.5959011192746
 10
87.68767087651558
 20
-123.5959011192746
 10
87.83374292509018
 20
-123.5959011192746
 10
87.83374292509018
 20
-123.5959011192746
 10
87.83374292509018
 20
-123.5959011192746
 10
87.83374292509018
 20
-125.1401651705379
 10
87.83374292509018
 20
-125.1401651705379
 10
87.83374292509018
 20
-125.1401651705379
 10
87.60946720900041
 20
-125.1401651705379
 10
87.60946720900041
 20
-125.1401651705379
 97
        0
 97
        0
 75
     2
 76
     1
 98
        0
  0
ENDBLK
  5
85
330
82
100
AcDbEntity
  8
0
100
AcDbBlockEnd
  0
BLOCK
  5
96
330
94
100
AcDbEntity
  8
0
100
AcDbBlockBegin
  2
block 5
 70
     0
 10
0.0
 20
0.0
 30
0.0
  3
block 5
  1

  0
SPLINE
  5
98
330
94
100
AcDbEntity
  8
_U+30EC_U+30A4_U+30E4_U+30FC 1
370
     0
100
AcDbSpline
210
0.0
220
0.0
230
1.0
 70
    11
 71
     3
 72
    26
 73
    22
 74
     0
 42
0.0000000001
 43
0.0000000001
 12
1.0
 22
0.0
 32
0.0
 13
1.0
 23
0.0
 33
0.0
 40
0.0
 40
0.0
 40
0.0
 40
0.0
 40
1.0
 40
1.0
 40
1.0
 40
2.0
 40
2.0
 40
2.0
 40
3.0
 40
3.0
 40
3.0
 40
4.0
 40
4.0
 40
4.0
 40
5.0
 40
5.0
 40
5.0
 40
6.0
 40
6.0
 40
6.0
 40
7.0
 40
7.0
 40
7.0
 40
7.0
 10
91.20666365992403
 20
-139.1405164582704
 30
0.0
 10
91.20666365992403
 20
-139.1405164582704
 30
0.0
 10
91.20666365992403
 20
-138.0363633552479
 30
0.0
 10
91.20666365992403
 20
-138.0363633552479
 30
0.0
 10
91.20666365992403
 20
-138.0363633552479
 30
0.0
 10
90.87662351243709
 20
-138.0363633552479
 30
0.0
 10
90.87662351243709
 20
-138.0363633552479
 30
0.0
 10
90.87662351243709
 20
-138.0363633552479
 30
0.0
 10
90.87662351243709
 20
-137.8882242493821
 30
0.0
 10
90.87662351243709
 20
-137.8882242493821
 30
0.0
 10
91.20873071721519
 20
-137.8734103387955
 30
0.0
 10
91.25523950626605
 20
-137.7104573223432
 30
0.0
 10
91.2848673274392
 20
-137.5960801522329
 30
0.0
 10
91.2848673274392
 20
-137.5960801522329
 30
0.0
 10
91.43076712123954
 20
-137.5960801522329
 30
0.0
 10
91.43076712123954
 20
-137.5960801522329
 30
0.0
 10
91.43076712123954
 20
-137.5960801522329
 30
0.0
 10
91.43076712123954
 20
-139.1405164582704
 30
0.0
 10
91.43076712123954
 20
-139.1405164582704
 30
0.0
 10
91.43076712123954
 20
-139.1405164582704
 30
0.0
 10
91.20666365992403
 20
-139.1405164582704
 30
0.0
 10
91.20666365992403
 20
-139.1405164582704
 30
0.0
  0
HATCH
  5
99
330
94
100
AcDbEntity
  8
_U+30EC_U+30A4_U+30E4_U+30FC 1
 62
   179
420
  2234388
100
AcDbHatch
 10
0.0
 20
0.0
 30
0.0
210
0.0
220
0.0
230
1.0
  2
SOLID
 70
     1
 71
     0
 91
        1
 92
        1
 93
        1
 72
     4
 94
        3
 73
     0
 74
     1
 95
       26
 96
       22
 40
0.0
 40
0.0
 40
0.0
 40
0.0
 40
1.0
 40
1.0
 40
1.0
 40
2.0
 40
2.0
 40
2.0
 40
3.0
 40
3.0
 40
3.0
 40
4.0
 40
4.0
 40
4.0
 40
5.0
 40
5.0
 40
5.0
 40
6.0
 40
6.0
 40
6.0
 40
7.0
 40
7.0
 40
7.0
 40
7.0
 10
91.20666365992403
 20
-139.1405164582704
 10
91.20666365992403
 20
-139.1405164582704
 10
91.20666365992403
 20
-138.0363633552479
 10
91.20666365992403
 20
-138.0363633552479
 10
91.20666365992403
 20
-138.0363633552479
 10
90.87662351243709
 20
-138.0363633552479
 10
90.87662351243709
 20
-138.0363633552479
 10
90.87662351243709
 20
-138.0363633552479
 10
90.87662351243709
 20
-137.8882242493821
 10
90.87662351243709
 20
-137.8882242493821
 10
91.20873071721519
 20
-137.8734103387955
 10
91.25523950626605
 20
-137.7104573223432
 10
91.2848673274392
 20
-137.5960801522329
 10
91.2848673274392
 20
-137.5960801522329
 10
91.43076712123954
 20
-137.5960801522329
 10
91.43076712123954
 20
-137.5960801522329
 10
91.43076712123954
 20
-137.5960801522329
 10
91.43076712123954
 20
-139.1405164582704
 10
91.43076712123954
 20
-139.1405164582704
 10
91.43076712123954
 20
-139.1405164582704
 10
91.20666365992403
 20
-139.1405164582704
 10
91.20666365992403
 20
-139.1405164582704
 97
        0
 97
        0
 75
     2
 76
     1
 98
        0
  0
SPLINE
  5
9A
330
94
100
AcDbEntity
  8
_U+30EC_U+30A4_U+30E4_U+30FC 1
370
     0
100
AcDbSpline
210
0.0
220
0.0
230
1.0
 70
    11
 71
     3
 72
    62
 73
    58
 74
     0
 42
0.0000000001
 43
0.0000000001
 12
1.0
 22
0.0
 32
0.0
 13
1.0
 23
0.0
 33
0.0
 40
0.0
 40
0.0
 40
0.0
 40
0.0
 40
1.0
 40
1.0
 40
1.0
 40
2.0
 40
2.0
 40
2.0
 40
3.0
 40
3.0
 40
3.0
 40
4.0
 40
4.0
 40
4.0
 40
5.0
 40
5.0
 40
5.0
 40
6.0
 40
6.0
 40
6.0
 40
7.0
 40
7.0
 40
7.0
 40
8.0
 40
8.0
 40
8.0
 40
9.0
 40
9.0
 40
9.0
 40
10.0
 40
10.0
 40
10.0
 40
11.0
 40
11.0
 40
11.0
 40
12.0
 40
12.0
 40
12.0
 40
13.0
 40
13.0
 40
13.0
 40
14.0
 40
14.0
 40
14.0
 40
15.0
 40
15.0
 40
15.0
 40
16.0
 40
16.0
 40
16.0
 40
17.0
 40
17.0
 40
17.0
 40
18.0
 40
18.0
 40
18.0
 40
19.0
 40
19.0
 40
19.0
 40
19.0
 10
92.42364364008854
 20
-139.1911593619036
 30
0.0
 10
92.32821449514712
 20
-139.1911593619036
 30
0.0
 10
92.11048446047933
 20
-139.1701442794436
 30
0.0
 10
91.98542749436476
 20
-138.9841091232401
 30
0.0
 10
91.91170245098041
 20
-138.8717990104209
 30
0.0
 10
91.90722382684959
 20
-138.7725802604457
 30
0.0
 10
91.90308971226729
 20
-138.6878309115086
 30
0.0
 10
91.90308971226729
 20
-138.6878309115086
 30
0.0
 10
92.12323131377475
 20
-138.6878309115086
 30
0.0
 10
92.12323131377475
 20
-138.6878309115086
 30
0.0
 10
92.1252983710659
 20
-138.7619004644415
 30
0.0
 10
92.13563365752165
 20
-138.996511466987
 30
0.0
 10
92.41916501595772
 20
-138.996511466987
 30
0.0
 10
92.55662432581919
 20
-138.996511466987
 30
0.0
 10
92.70924205581575
 20
-138.9269205381849
 30
0.0
 10
92.70924205581575
 20
-138.6985107075129
 30
0.0
 10
92.70924205581575
 20
-138.5820664801114
 30
0.0
 10
92.67100149592947
 20
-138.5334906337694
 30
0.0
 10
92.63930661746518
 20
-138.5017957553051
 30
0.0
 10
92.56523706453231
 20
-138.4277262023722
 30
0.0
 10
92.44879283713087
 20
-138.4149793490768
 30
0.0
 10
92.39401581891539
 20
-138.4149793490768
 30
0.0
 10
92.37472328419798
 20
-138.4149793490768
 30
0.0
 10
92.33889429115139
 20
-138.417046406368
 30
0.0
 10
92.3113335272694
 20
-138.4211805209503
 30
0.0
 10
92.3113335272694
 20
-138.4211805209503
 30
0.0
 10
92.3113335272694
 20
-138.2265326260336
 30
0.0
 10
92.3113335272694
 20
-138.2265326260336
 30
0.0
 10
92.34957408715566
 20
-138.2330783074556
 30
0.0
 10
92.39160425207571
 20
-138.2351453647468
 30
0.0
 10
92.39814993349769
 20
-138.2351453647468
 30
0.0
 10
92.46360674771744
 20
-138.2351453647468
 30
0.0
 10
92.66238875721635
 20
-138.2137857727382
 30
0.0
 10
92.66238875721635
 20
-137.9771077129016
 30
0.0
 10
92.66238875721635
 20
-137.7993407858627
 30
0.0
 10
92.53147512877686
 20
-137.7442192580987
 30
0.0
 10
92.42123207324886
 20
-137.7442192580987
 30
0.0
 10
92.1569932495302
 20
-137.7442192580987
 30
0.0
 10
92.14838051081708
 20
-137.9771077129016
 30
0.0
 10
92.14424639623478
 20
-138.0487656989948
 30
0.0
 10
92.14424639623478
 20
-138.0487656989948
 30
0.0
 10
91.94098576260504
 20
-138.0487656989948
 30
0.0
 10
91.94098576260504
 20
-138.0487656989948
 30
0.0
 10
91.94959850131816
 20
-137.9240532424287
 30
0.0
 10
91.97715926520016
 20
-137.5475043058909
 30
0.0
 10
92.43397892654428
 20
-137.5475043058909
 30
0.0
 10
92.65825464263405
 20
-137.5475043058909
 30
0.0
 10
92.89941132660154
 20
-137.6746283292966
 30
0.0
 10
92.89941132660154
 20
-137.9705620314796
 30
0.0
 10
92.89941132660154
 20
-138.1569416972316
 30
0.0
 10
92.80432669120864
 20
-138.2392794793291
 30
0.0
 10
92.70476343168492
 20
-138.3006021789665
 30
0.0
 10
92.76608613132237
 20
-138.3281629428485
 30
0.0
 10
92.94798717294357
 20
-138.4084336676548
 30
0.0
 10
92.94798717294357
 20
-138.6857638542174
 30
0.0
 10
92.94798717294357
 20
-139.024072230869
 30
0.0
 10
92.70062931710262
 20
-139.1911593619036
 30
0.0
 10
92.42364364008854
 20
-139.1911593619036
 30
0.0
  0
HATCH
  5
9B
330
94
100
AcDbEntity
  8
_U+30EC_U+30A4_U+30E4_U+30FC 1
 62
   179
420
  2234388
100
AcDbHatch
 10
0.0
 20
0.0
 30
0.0
210
0.0
220
0.0
230
1.0
  2
SOLID
 70
     1
 71
     0
 91
        1
 92
        1
 93
        1
 72
     4
 94
        3
 73
     0
 74
     1
 95
       62
 96
       58
 40
0.0
 40
0.0
 40
0.0
 40
0.0
 40
1.0
 40
1.0
 40
1.0
 40
2.0
 40
2.0
 40
2.0
 40
3.0
 40
3.0
 40
3.0
 40
4.0
 40
4.0
 40
4.0
 40
5.0
 40
5.0
 40
5.0
 40
6.0
 40
6.0
 40
6.0
 40
7.0
 40
7.0
 40
7.0
 40
8.0
 40
8.0
 40
8.0
 40
9.0
 40
9.0
 40
9.0
 40
10.0
 40
10.0
 40
10.0
 40
11.0
 40
11.0
 40
11.0
 40
12.0
 40
12.0
 40
12.0
 40
13.0
 40
13.0
 40
13.0
 40
14.0
 40
14.0
 40
14.0
 40
15.0
 40
15.0
 40
15.0
 40
16.0
 40
16.0
 40
16.0
 40
17.0
 40
17.0
 40
17.0
 40
18.0
 40
18.0
 40
18.0
 40
19.0
 40
19.0
 40
19.0
 40
19.0
 10
92.42364364008854
 20
-139.1911593619036
 10
92.32821449514712
 20
-139.1911593619036
 10
92.11048446047933
 20
-139.1701442794436
 10
91.98542749436476
 20
-138.9841091232401
 10
91.91170245098041
 20
-138.8717990104209
 10
91.90722382684959
 20
-138.7725802604457
 10
91.90308971226729
 20
-138.6878309115086
 10
91.90308971226729
 20
-138.6878309115086
 10
92.12323131377475
 20
-138.6878309115086
 10
92.12323131377475
 20
-138.6878309115086
 10
92.1252983710659
 20
-138.7619004644415
 10
92.13563365752165
 20
-138.996511466987
 10
92.41916501595772
 20
-138.996511466987
 10
92.55662432581919
 20
-138.996511466987
 10
92.70924205581575
 20
-138.9269205381849
 10
92.70924205581575
 20
-138.6985107075129
 10
92.70924205581575
 20
-138.5820664801114
 10
92.67100149592947
 20
-138.5334906337694
 10
92.63930661746518
 20
-138.5017957553051
 10
92.56523706453231
 20
-138.4277262023722
 10
92.44879283713087
 20
-138.4149793490768
 10
92.39401581891539
 20
-138.4149793490768
 10
92.37472328419798
 20
-138.4149793490768
 10
92.33889429115139
 20
-138.417046406368
 10
92.3113335272694
 20
-138.4211805209503
 10
92.3113335272694
 20
-138.4211805209503
 10
92.3113335272694
 20
-138.2265326260336
 10
92.3113335272694
 20
-138.2265326260336
 10
92.34957408715566
 20
-138.2330783074556
 10
92.39160425207571
 20
-138.2351453647468
 10
92.39814993349769
 20
-138.2351453647468
 10
92.46360674771744
 20
-138.2351453647468
 10
92.66238875721635
 20
-138.2137857727382
 10
92.66238875721635
 20
-137.9771077129016
 10
92.66238875721635
 20
-137.7993407858627
 10
92.53147512877686
 20
-137.7442192580987
 10
92.42123207324886
 20
-137.7442192580987
 10
92.1569932495302
 20
-137.7442192580987
 10
92.14838051081708
 20
-137.9771077129016
 10
92.14424639623478
 20
-138.0487656989948
 10
92.14424639623478
 20
-138.0487656989948
 10
91.94098576260504
 20
-138.0487656989948
 10
91.94098576260504
 20
-138.0487656989948
 10
91.94959850131816
 20
-137.9240532424287
 10
91.97715926520016
 20
-137.5475043058909
 10
92.43397892654428
 20
-137.5475043058909
 10
92.65825464263405
 20
-137.5475043058909
 10
92.89941132660154
 20
-137.6746283292966
 10
92.89941132660154
 20
-137.9705620314796
 10
92.89941132660154
 20
-138.1569416972316
 10
92.80432669120864
 20
-138.2392794793291
 10
92.70476343168492
 20
-138.3006021789665
 10
92.76608613132237
 20
-138.3281629428485
 10
92.94798717294357
 20
-138.4084336676548
 10
92.94798717294357
 20
-138.6857638542174
 10
92.94798717294357
 20
-139.024072230869
 10
92.70062931710262
 20
-139.1911593619036
 10
92.42364364008854
 20
-139.1911593619036
 97
        0
 97
        0
 75
     2
 76
     1
 98
        0
  0
ENDBLK
  5
97
330
94
100
AcDbEntity
  8
0
100
AcDbBlockEnd
  0
BLOCK
  5
AA
330
A8
100
AcDbEntity
  8
0
100
AcDbBlockBegin
  2
block 6
 70
     0
 10
0.0
 20
0.0
 30
0.0
  3
block 6
  1

  0
SPLINE
  5
AC
330
A8
100
AcDbEntity
  8
_U+30EC_U+30A4_U+30E4_U+30FC 1
370
     0
100
AcDbSpline
210
0.0
220
0.0
230
1.0
 70
    11
 71
     3
 72
    53
 73
    49
 74
     0
 42
0.0000000001
 43
0.0000000001
 12
1.0
 22
0.0
 32
0.0
 13
1.0
 23
0.0
 33
0.0
 40
0.0
 40
0.0
 40
0.0
 40
0.0
 40
1.0
 40
1.0
 40
1.0
 40
2.0
 40
2.0
 40
2.0
 40
3.0
 40
3.0
 40
3.0
 40
4.0
 40
4.0
 40
4.0
 40
5.0
 40
5.0
 40
5.0
 40
6.0
 40
6.0
 40
6.0
 40
7.0
 40
7.0
 40
7.0
 40
8.0
 40
8.0
 40
8.0
 40
9.0
 40
9.0
 40
9.0
 40
10.0
 40
10.0
 40
10.0
 40
11.0
 40
11.0
 40
11.0
 40
12.0
 40
12.0
 40
12.0
 40
13.0
 40
13.0
 40
13.0
 40
14.0
 40
14.0
 40
14.0
 40
15.0
 40
15.0
 40
15.0
 40
16.0
 40
16.0
 40
16.0
 40
16.0
 10
101.8742295752259
 20
-133.0027343417493
 30
0.0
 10
101.8742295752259
 20
-133.0809380092645
 30
0.0
 10
101.8573486073482
 20
-133.1825683260794
 30
0.0
 10
101.7939588504196
 20
-133.2841986428942
 30
0.0
 10
101.6840603044401
 20
-133.4574869458023
 30
0.0
 10
101.5528021664521
 20
-133.4788465378109
 30
0.0
 10
101.4449706777638
 20
-133.4977945629797
 30
0.0
 10
101.4449706777638
 20
-133.4977945629797
 30
0.0
 10
101.4449706777638
 20
-133.2755859041811
 30
0.0
 10
101.4449706777638
 20
-133.2755859041811
 30
0.0
 10
101.6437526872627
 20
-133.2208088859656
 30
0.0
 10
101.6733805084358
 20
-133.0936848625599
 30
0.0
 10
101.6733805084358
 20
-133.0006672844582
 30
0.0
 10
101.6733805084358
 20
-132.8611409173056
 30
0.0
 10
101.5738172489121
 20
-132.7088676968575
 30
0.0
 10
101.3412733036577
 20
-132.7088676968575
 30
0.0
 10
101.0853027091037
 20
-132.7088676968575
 30
0.0
 10
101.0153672707531
 20
-132.8887016811875
 30
0.0
 10
101.0153672707531
 20
-133.0092800231713
 30
0.0
 10
101.0153672707531
 20
-133.0409749016356
 30
0.0
 10
101.0153672707531
 20
-133.1825683260794
 30
0.0
 10
101.14455835145
 20
-133.2714517895988
 30
0.0
 10
101.14455835145
 20
-133.2714517895988
 30
0.0
 10
101.1256103262811
 20
-133.4471516593466
 30
0.0
 10
101.1256103262811
 20
-133.4471516593466
 30
0.0
 10
101.1256103262811
 20
-133.4471516593466
 30
0.0
 10
100.2791503655552
 20
-133.3265733173628
 30
0.0
 10
100.2791503655552
 20
-133.3265733173628
 30
0.0
 10
100.2791503655552
 20
-133.3265733173628
 30
0.0
 10
100.2791503655552
 20
-132.5479817376963
 30
0.0
 10
100.2791503655552
 20
-132.5479817376963
 30
0.0
 10
100.2791503655552
 20
-132.5479817376963
 30
0.0
 10
100.4737982604718
 20
-132.5479817376963
 30
0.0
 10
100.4737982604718
 20
-132.5479817376963
 30
0.0
 10
100.4737982604718
 20
-132.5479817376963
 30
0.0
 10
100.4737982604718
 20
-133.1636203009105
 30
0.0
 10
100.4737982604718
 20
-133.1636203009105
 30
0.0
 10
100.4737982604718
 20
-133.1636203009105
 30
0.0
 10
100.8968559860605
 20
-133.2290771151302
 30
0.0
 10
100.8968559860605
 20
-133.2290771151302
 30
0.0
 10
100.8630940503051
 20
-133.1677544154928
 30
0.0
 10
100.8227864331276
 20
-133.0854166333953
 30
0.0
 10
100.8227864331276
 20
-132.9669053487027
 30
0.0
 10
100.8227864331276
 20
-132.7130018114398
 30
0.0
 10
101.0091660988797
 20
-132.4759792420546
 30
0.0
 10
101.3223252784889
 20
-132.4759792420546
 30
0.0
 10
101.6396185726804
 20
-132.4759792420546
 30
0.0
 10
101.8742295752259
 20
-132.7002549581444
 30
0.0
 10
101.8742295752259
 20
-133.0027343417493
 30
0.0
  0
HATCH
  5
AD
330
A8
100
AcDbEntity
  8
_U+30EC_U+30A4_U+30E4_U+30FC 1
 62
   179
420
  2234388
100
AcDbHatch
 10
0.0
 20
0.0
 30
0.0
210
0.0
220
0.0
230
1.0
  2
SOLID
 70
     1
 71
     0
 91
        1
 92
        1
 93
        1
 72
     4
 94
        3
 73
     0
 74
     1
 95
       53
 96
       49
 40
0.0
 40
0.0
 40
0.0
 40
0.0
 40
1.0
 40
1.0
 40
1.0
 40
2.0
 40
2.0
 40
2.0
 40
3.0
 40
3.0
 40
3.0
 40
4.0
 40
4.0
 40
4.0
 40
5.0
 40
5.0
 40
5.0
 40
6.0
 40
6.0
 40
6.0
 40
7.0
 40
7.0
 40
7.0
 40
8.0
 40
8.0
 40
8.0
 40
9.0
 40
9.0
 40
9.0
 40
10.0
 40
10.0
 40
10.0
 40
11.0
 40
11.0
 40
11.0
 40
12.0
 40
12.0
 40
12.0
 40
13.0
 40
13.0
 40
13.0
 40
14.0
 40
14.0
 40
14.0
 40
15.0
 40
15.0
 40
15.0
 40
16.0
 40
16.0
 40
16.0
 40
16.0
 10
101.8742295752259
 20
-133.0027343417493
 10
101.8742295752259
 20
-133.0809380092645
 10
101.8573486073482
 20
-133.1825683260794
 10
101.7939588504196
 20
-133.2841986428942
 10
101.6840603044401
 20
-133.4574869458023
 10
101.5528021664521
 20
-133.4788465378109
 10
101.4449706777638
 20
-133.4977945629797
 10
101.4449706777638
 20
-133.4977945629797
 10
101.4449706777638
 20
-133.2755859041811
 10
101.4449706777638
 20
-133.2755859041811
 10
101.6437526872627
 20
-133.2208088859656
 10
101.6733805084358
 20
-133.0936848625599
 10
101.6733805084358
 20
-133.0006672844582
 10
101.6733805084358
 20
-132.8611409173056
 10
101.5738172489121
 20
-132.7088676968575
 10
101.3412733036577
 20
-132.7088676968575
 10
101.0853027091037
 20
-132.7088676968575
 10
101.0153672707531
 20
-132.8887016811875
 10
101.0153672707531
 20
-133.0092800231713
 10
101.0153672707531
 20
-133.0409749016356
 10
101.0153672707531
 20
-133.1825683260794
 10
101.14455835145
 20
-133.2714517895988
 10
101.14455835145
 20
-133.2714517895988
 10
101.1256103262811
 20
-133.4471516593466
 10
101.1256103262811
 20
-133.4471516593466
 10
101.1256103262811
 20
-133.4471516593466
 10
100.2791503655552
 20
-133.3265733173628
 10
100.2791503655552
 20
-133.3265733173628
 10
100.2791503655552
 20
-133.3265733173628
 10
100.2791503655552
 20
-132.5479817376963
 10
100.2791503655552
 20
-132.5479817376963
 10
100.2791503655552
 20
-132.5479817376963
 10
100.4737982604718
 20
-132.5479817376963
 10
100.4737982604718
 20
-132.5479817376963
 10
100.4737982604718
 20
-132.5479817376963
 10
100.4737982604718
 20
-133.1636203009105
 10
100.4737982604718
 20
-133.1636203009105
 10
100.4737982604718
 20
-133.1636203009105
 10
100.8968559860605
 20
-133.2290771151302
 10
100.8968559860605
 20
-133.2290771151302
 10
100.8630940503051
 20
-133.1677544154928
 10
100.8227864331276
 20
-133.0854166333953
 10
100.8227864331276
 20
-132.9669053487027
 10
100.8227864331276
 20
-132.7130018114398
 10
101.0091660988797
 20
-132.4759792420546
 10
101.3223252784889
 20
-132.4759792420546
 10
101.6396185726804
 20
-132.4759792420546
 10
101.8742295752259
 20
-132.7002549581444
 10
101.8742295752259
 20
-133.0027343417493
 97
        0
 97
        0
 75
     2
 76
     1
 98
        0
  0
POLYLINE
  5
AE
330
A8
100
AcDbEntity
  8
_U+30EC_U+30A4_U+30E4_U+30FC 1
370
     0
100
AcDb2dPolyline
 66
     1
 10
0.0
 20
0.0
 30
0.0
  0
VERTEX
  5
AF
330
AE
100
AcDbEntity
  8
_U+30EC_U+30A4_U+30E4_U+30FC 1
370
     0
100
AcDbVertex
100
AcDb2dVertex
 10
101.8235866715927
 20
-132.2468803922855
 30
0.0
  0
VERTEX
  5
B0
330
AE
100
AcDbEntity
  8
_U+30EC_U+30A4_U+30E4_U+30FC 1
370
     0
100
AcDbVertex
100
AcDb2dVertex
 10
101.5717501916209
 20
-132.2468803922855
 30
0.0
  0
VERTEX
  5
B1
330
AE
100
AcDbEntity
  8
_U+30EC_U+30A4_U+30E4_U+30FC 1
370
     0
100
AcDbVertex
100
AcDb2dVertex
 10
101.5717501916209
 20
-131.9950439123137
 30
0.0
  0
VERTEX
  5
B2
330
AE
100
AcDbEntity
  8
_U+30EC_U+30A4_U+30E4_U+30FC 1
370
     0
100
AcDbVertex
100
AcDb2dVertex
 10
101.8235866715927
 20
-131.9950439123137
 30
0.0
  0
VERTEX
  5
B3
330
AE
100
AcDbEntity
  8
_U+30EC_U+30A4_U+30E4_U+30FC 1
370
     0
100
AcDbVertex
100
AcDb2dVertex
 10
101.8235866715927
 20
-132.2468803922855
 30
0.0
  0
SEQEND
  5
B4
330
AE
100
AcDbEntity
  8
_U+30EC_U+30A4_U+30E4_U+30FC 1
370
     0
  0
HATCH
  5
B5
330
A8
100
AcDbEntity
  8
_U+30EC_U+30A4_U+30E4_U+30FC 1
 62
   179
420
  2234388
100
AcDbHatch
 10
0.0
 20
0.0
 30
0.0
210
0.0
220
0.0
230
1.0
  2
SOLID
 70
     1
 71
     0
 91
        1
 92
        1
 93
        4
 72
     1
 10
101.8235866715927
 20
-132.2468803922855
 11
101.5717501916209
 21
-132.2468803922855
 72
     1
 10
101.5717501916209
 20
-132.2468803922855
 11
101.5717501916209
 21
-131.9950439123137
 72
     1
 10
101.5717501916209
 20
-131.9950439123137
 11
101.8235866715927
 21
-131.9950439123137
 72
     1
 10
101.8235866715927
 20
-131.9950439123137
 11
101.8235866715927
 21
-132.2468803922855
 97
        0
 75
     2
 76
     1
 98
        0
  0
SPLINE
  5
B6
330
A8
100
AcDbEntity
  8
_U+30EC_U+30A4_U+30E4_U+30FC 1
370
     0
100
AcDbSpline
210
0.0
220
0.0
230
1.0
 70
    11
 71
     3
 72
    53
 73
    49
 74
     0
 42
0.0000000001
 43
0.0000000001
 12
1.0
 22
0.0
 32
0.0
 13
1.0
 23
0.0
 33
0.0
 40
0.0
 40
0.0
 40
0.0
 40
0.0
 40
1.0
 40
1.0
 40
1.0
 40
2.0
 40
2.0
 40
2.0
 40
3.0
 40
3.0
 40
3.0
 40
4.0
 40
4.0
 40
4.0
 40
5.0
 40
5.0
 40
5.0
 40
6.0
 40
6.0
 40
6.0
 40
7.0
 40
7.0
 40
7.0
 40
8.0
 40
8.0
 40
8.0
 40
9.0
 40
9.0
 40
9.0
 40
10.0
 40
10.0
 40
10.0
 40
11.0
 40
11.0
 40
11.0
 40
12.0
 40
12.0
 40
12.0
 40
13.0
 40
13.0
 40
13.0
 40
14.0
 40
14.0
 40
14.0
 40
15.0
 40
15.0
 40
15.0
 40
16.0
 40
16.0
 40
16.0
 40
16.0
 10
101.8742295752259
 20
-131.2777750322847
 30
0.0
 10
101.8742295752259
 20
-131.3559786997999
 30
0.0
 10
101.8573486073482
 20
-131.4576090166148
 30
0.0
 10
101.7939588504196
 20
-131.5592393334296
 30
0.0
 10
101.6840603044401
 20
-131.7325276363377
 30
0.0
 10
101.5528021664521
 20
-131.7538872283463
 30
0.0
 10
101.4449706777638
 20
-131.7728352535151
 30
0.0
 10
101.4449706777638
 20
-131.7728352535151
 30
0.0
 10
101.4449706777638
 20
-131.5506265947165
 30
0.0
 10
101.4449706777638
 20
-131.5506265947165
 30
0.0
 10
101.6437526872627
 20
-131.495849576501
 30
0.0
 10
101.6733805084358
 20
-131.3687255530953
 30
0.0
 10
101.6733805084358
 20
-131.2757079749936
 30
0.0
 10
101.6733805084358
 20
-131.136181607841
 30
0.0
 10
101.5738172489121
 20
-130.9839083873929
 30
0.0
 10
101.3412733036577
 20
-130.9839083873929
 30
0.0
 10
101.0853027091037
 20
-130.9839083873929
 30
0.0
 10
101.0153672707531
 20
-131.1637423717229
 30
0.0
 10
101.0153672707531
 20
-131.2843207137067
 30
0.0
 10
101.0153672707531
 20
-131.316015592171
 30
0.0
 10
101.0153672707531
 20
-131.4576090166148
 30
0.0
 10
101.14455835145
 20
-131.5464924801342
 30
0.0
 10
101.14455835145
 20
-131.5464924801342
 30
0.0
 10
101.1256103262811
 20
-131.722192349882
 30
0.0
 10
101.1256103262811
 20
-131.722192349882
 30
0.0
 10
101.1256103262811
 20
-131.722192349882
 30
0.0
 10
100.2791503655552
 20
-131.6016140078982
 30
0.0
 10
100.2791503655552
 20
-131.6016140078982
 30
0.0
 10
100.2791503655552
 20
-131.6016140078982
 30
0.0
 10
100.2791503655552
 20
-130.8230224282318
 30
0.0
 10
100.2791503655552
 20
-130.8230224282318
 30
0.0
 10
100.2791503655552
 20
-130.8230224282318
 30
0.0
 10
100.4737982604718
 20
-130.8230224282318
 30
0.0
 10
100.4737982604718
 20
-130.8230224282318
 30
0.0
 10
100.4737982604718
 20
-130.8230224282318
 30
0.0
 10
100.4737982604718
 20
-131.4386609914459
 30
0.0
 10
100.4737982604718
 20
-131.4386609914459
 30
0.0
 10
100.4737982604718
 20
-131.4386609914459
 30
0.0
 10
100.8968559860605
 20
-131.5041178056656
 30
0.0
 10
100.8968559860605
 20
-131.5041178056656
 30
0.0
 10
100.8630940503051
 20
-131.4427951060282
 30
0.0
 10
100.8227864331276
 20
-131.3604573239307
 30
0.0
 10
100.8227864331276
 20
-131.2419460392381
 30
0.0
 10
100.8227864331276
 20
-130.9880425019752
 30
0.0
 10
101.0091660988797
 20
-130.75101993259
 30
0.0
 10
101.3223252784889
 20
-130.75101993259
 30
0.0
 10
101.6396185726804
 20
-130.75101993259
 30
0.0
 10
101.8742295752259
 20
-130.9752956486798
 30
0.0
 10
101.8742295752259
 20
-131.2777750322847
 30
0.0
  0
HATCH
  5
B7
330
A8
100
AcDbEntity
  8
_U+30EC_U+30A4_U+30E4_U+30FC 1
 62
   179
420
  2234388
100
AcDbHatch
 10
0.0
 20
0.0
 30
0.0
210
0.0
220
0.0
230
1.0
  2
SOLID
 70
     1
 71
     0
 91
        1
 92
        1
 93
        1
 72
     4
 94
        3
 73
     0
 74
     1
 95
       53
 96
       49
 40
0.0
 40
0.0
 40
0.0
 40
0.0
 40
1.0
 40
1.0
 40
1.0
 40
2.0
 40
2.0
 40
2.0
 40
3.0
 40
3.0
 40
3.0
 40
4.0
 40
4.0
 40
4.0
 40
5.0
 40
5.0
 40
5.0
 40
6.0
 40
6.0
 40
6.0
 40
7.0
 40
7.0
 40
7.0
 40
8.0
 40
8.0
 40
8.0
 40
9.0
 40
9.0
 40
9.0
 40
10.0
 40
10.0
 40
10.0
 40
11.0
 40
11.0
 40
11.0
 40
12.0
 40
12.0
 40
12.0
 40
13.0
 40
13.0
 40
13.0
 40
14.0
 40
14.0
 40
14.0
 40
15.0
 40
15.0
 40
15.0
 40
16.0
 40
16.0
 40
16.0
 40
16.0
 10
101.8742295752259
 20
-131.2777750322847
 10
101.8742295752259
 20
-131.3559786997999
 10
101.8573486073482
 20
-131.4576090166148
 10
101.7939588504196
 20
-131.5592393334296
 10
101.6840603044401
 20
-131.7325276363377
 10
101.5528021664521
 20
-131.7538872283463
 10
101.4449706777638
 20
-131.7728352535151
 10
101.4449706777638
 20
-131.7728352535151
 10
101.4449706777638
 20
-131.5506265947165
 10
101.4449706777638
 20
-131.5506265947165
 10
101.6437526872627
 20
-131.495849576501
 10
101.6733805084358
 20
-131.3687255530953
 10
101.6733805084358
 20
-131.2757079749936
 10
101.6733805084358
 20
-131.136181607841
 10
101.5738172489121
 20
-130.9839083873929
 10
101.3412733036577
 20
-130.9839083873929
 10
101.0853027091037
 20
-130.9839083873929
 10
101.0153672707531
 20
-131.1637423717229
 10
101.0153672707531
 20
-131.2843207137067
 10
101.0153672707531
 20
-131.316015592171
 10
101.0153672707531
 20
-131.4576090166148
 10
101.14455835145
 20
-131.5464924801342
 10
101.14455835145
 20
-131.5464924801342
 10
101.1256103262811
 20
-131.722192349882
 10
101.1256103262811
 20
-131.722192349882
 10
101.1256103262811
 20
-131.722192349882
 10
100.2791503655552
 20
-131.6016140078982
 10
100.2791503655552
 20
-131.6016140078982
 10
100.2791503655552
 20
-131.6016140078982
 10
100.2791503655552
 20
-130.8230224282318
 10
100.2791503655552
 20
-130.8230224282318
 10
100.2791503655552
 20
-130.8230224282318
 10
100.4737982604718
 20
-130.8230224282318
 10
100.4737982604718
 20
-130.8230224282318
 10
100.4737982604718
 20
-130.8230224282318
 10
100.4737982604718
 20
-131.4386609914459
 10
100.4737982604718
 20
-131.4386609914459
 10
100.4737982604718
 20
-131.4386609914459
 10
100.8968559860605
 20
-131.5041178056656
 10
100.8968559860605
 20
-131.5041178056656
 10
100.8630940503051
 20
-131.4427951060282
 10
100.8227864331276
 20
-131.3604573239307
 10
100.8227864331276
 20
-131.2419460392381
 10
100.8227864331276
 20
-130.9880425019752
 10
101.0091660988797
 20
-130.75101993259
 10
101.3223252784889
 20
-130.75101993259
 10
101.6396185726804
 20
-130.75101993259
 10
101.8742295752259
 20
-130.9752956486798
 10
101.8742295752259
 20
-131.2777750322847
 97
        0
 97
        0
 75
     2
 76
     1
 98
        0
  0
ENDBLK
  5
AB
330
A8
100
AcDbEntity
  8
0
100
AcDbBlockEnd
  0
BLOCK
  5
C9
330
C7
100
AcDbEntity
  8
0
100
AcDbBlockBegin
  2
block 7
 70
     0
 10
0.0
 20
0.0
 30
0.0
  3
block 7
  1

  0
SPLINE
  5
CB
330
C7
100
AcDbEntity
  8
_U+30EC_U+30A4_U+30E4_U+30FC 1
370
     0
100
AcDbSpline
210
0.0
220
0.0
230
1.0
 70
    11
 71
     3
 72
    26
 73
    22
 74
     0
 42
0.0000000001
 43
0.0000000001
 12
1.0
 22
0.0
 32
0.0
 13
1.0
 23
0.0
 33
0.0
 40
0.0
 40
0.0
 40
0.0
 40
0.0
 40
1.0
 40
1.0
 40
1.0
 40
2.0
 40
2.0
 40
2.0
 40
3.0
 40
3.0
 40
3.0
 40
4.0
 40
4.0
 40
4.0
 40
5.0
 40
5.0
 40
5.0
 40
6.0
 40
6.0
 40
6.0
 40
7.0
 40
7.0
 40
7.0
 40
7.0
 10
80.82331812215529
 20
-129.950379741818
 30
0.0
 10
80.82331812215529
 20
-129.950379741818
 30
0.0
 10
79.71916501913272
 20
-129.950379741818
 30
0.0
 10
79.71916501913272
 20
-129.950379741818
 30
0.0
 10
79.71916501913272
 20
-129.950379741818
 30
0.0
 10
79.71916501913272
 20
-130.2804198893049
 30
0.0
 10
79.71916501913272
 20
-130.2804198893049
 30
0.0
 10
79.71916501913272
 20
-130.2804198893049
 30
0.0
 10
79.57102591326696
 20
-130.2804198893049
 30
0.0
 10
79.57102591326696
 20
-130.2804198893049
 30
0.0
 10
79.5562120026804
 20
-129.9483126845268
 30
0.0
 10
79.39325898622808
 20
-129.901803895476
 30
0.0
 10
79.27888181611779
 20
-129.8721760743028
 30
0.0
 10
79.27888181611779
 20
-129.8721760743028
 30
0.0
 10
79.27888181611779
 20
-129.7261040257282
 30
0.0
 10
79.27888181611779
 20
-129.7261040257282
 30
0.0
 10
79.27888181611779
 20
-129.7261040257282
 30
0.0
 10
80.82331812215529
 20
-129.7261040257282
 30
0.0
 10
80.82331812215529
 20
-129.7261040257282
 30
0.0
 10
80.82331812215529
 20
-129.7261040257282
 30
0.0
 10
80.82331812215529
 20
-129.950379741818
 30
0.0
 10
80.82331812215529
 20
-129.950379741818
 30
0.0
  0
HATCH
  5
CC
330
C7
100
AcDbEntity
  8
_U+30EC_U+30A4_U+30E4_U+30FC 1
 62
   179
420
  2234388
100
AcDbHatch
 10
0.0
 20
0.0
 30
0.0
210
0.0
220
0.0
230
1.0
  2
SOLID
 70
     1
 71
     0
 91
        1
 92
        1
 93
        1
 72
     4
 94
        3
 73
     0
 74
     1
 95
       26
 96
       22
 40
0.0
 40
0.0
 40
0.0
 40
0.0
 40
1.0
 40
1.0
 40
1.0
 40
2.0
 40
2.0
 40
2.0
 40
3.0
 40
3.0
 40
3.0
 40
4.0
 40
4.0
 40
4.0
 40
5.0
 40
5.0
 40
5.0
 40
6.0
 40
6.0
 40
6.0
 40
7.0
 40
7.0
 40
7.0
 40
7.0
 10
80.82331812215529
 20
-129.950379741818
 10
80.82331812215529
 20
-129.950379741818
 10
79.71916501913272
 20
-129.950379741818
 10
79.71916501913272
 20
-129.950379741818
 10
79.71916501913272
 20
-129.950379741818
 10
79.71916501913272
 20
-130.2804198893049
 10
79.71916501913272
 20
-130.2804198893049
 10
79.71916501913272
 20
-130.2804198893049
 10
79.57102591326696
 20
-130.2804198893049
 10
79.57102591326696
 20
-130.2804198893049
 10
79.5562120026804
 20
-129.9483126845268
 10
79.39325898622808
 20
-129.901803895476
 10
79.27888181611779
 20
-129.8721760743028
 10
79.27888181611779
 20
-129.8721760743028
 10
79.27888181611779
 20
-129.7261040257282
 10
79.27888181611779
 20
-129.7261040257282
 10
79.27888181611779
 20
-129.7261040257282
 10
80.82331812215529
 20
-129.7261040257282
 10
80.82331812215529
 20
-129.7261040257282
 10
80.82331812215529
 20
-129.7261040257282
 10
80.82331812215529
 20
-129.950379741818
 10
80.82331812215529
 20
-129.950379741818
 97
        0
 97
        0
 75
     2
 76
     1
 98
        0
  0
SPLINE
  5
CD
330
C7
100
AcDbEntity
  8
_U+30EC_U+30A4_U+30E4_U+30FC 1
370
     0
100
AcDbSpline
210
0.0
220
0.0
230
1.0
 70
    11
 71
     3
 72
    62
 73
    58
 74
     0
 42
0.0000000001
 43
0.0000000001
 12
1.0
 22
0.0
 32
0.0
 13
1.0
 23
0.0
 33
0.0
 40
0.0
 40
0.0
 40
0.0
 40
0.0
 40
1.0
 40
1.0
 40
1.0
 40
2.0
 40
2.0
 40
2.0
 40
3.0
 40
3.0
 40
3.0
 40
4.0
 40
4.0
 40
4.0
 40
5.0
 40
5.0
 40
5.0
 40
6.0
 40
6.0
 40
6.0
 40
7.0
 40
7.0
 40
7.0
 40
8.0
 40
8.0
 40
8.0
 40
9.0
 40
9.0
 40
9.0
 40
10.0
 40
10.0
 40
10.0
 40
11.0
 40
11.0
 40
11.0
 40
12.0
 40
12.0
 40
12.0
 40
13.0
 40
13.0
 40
13.0
 40
14.0
 40
14.0
 40
14.0
 40
15.0
 40
15.0
 40
15.0
 40
16.0
 40
16.0
 40
16.0
 40
17.0
 40
17.0
 40
17.0
 40
18.0
 40
18.0
 40
18.0
 40
19.0
 40
19.0
 40
19.0
 40
19.0
 10
80.87396102578846
 20
-128.7333997616535
 30
0.0
 10
80.87396102578846
 20
-128.8286566518206
 30
0.0
 10
80.85294594332844
 20
-129.0463866864884
 30
0.0
 10
80.66691078712495
 20
-129.1710991430544
 30
0.0
 10
80.5546006743058
 20
-129.2455132055358
 30
0.0
 10
80.45538192433061
 20
-129.2496473201182
 30
0.0
 10
80.37063257539346
 20
-129.2537814347004
 30
0.0
 10
80.37063257539346
 20
-129.2537814347004
 30
0.0
 10
80.37063257539346
 20
-129.0339843427415
 30
0.0
 10
80.37063257539346
 20
-129.0339843427415
 30
0.0
 10
80.44470212832633
 20
-129.0319172854504
 30
0.0
 10
80.67931313087185
 20
-129.0208929798976
 30
0.0
 10
80.67931313087185
 20
-128.73770613101
 30
0.0
 10
80.67931313087185
 20
-128.6000745663743
 30
0.0
 10
80.60972220206979
 20
-128.4478013459263
 30
0.0
 10
80.38131237139773
 20
-128.4478013459263
 30
0.0
 10
80.26486814399628
 20
-128.4478013459263
 30
0.0
 10
80.21629229765426
 20
-128.4858696510383
 30
0.0
 10
80.18459741918997
 20
-128.5175645295026
 30
0.0
 10
80.1105278662571
 20
-128.5916340824354
 30
0.0
 10
80.09778101296168
 20
-128.7080783098369
 30
0.0
 10
80.09778101296168
 20
-128.7630275828266
 30
0.0
 10
80.09778101296168
 20
-128.7818033532212
 30
0.0
 10
80.09984807025282
 20
-128.8179768558163
 30
0.0
 10
80.10398218483512
 20
-128.8455376196983
 30
0.0
 10
80.10398218483512
 20
-128.8455376196983
 30
0.0
 10
79.9093342899185
 20
-128.8455376196983
 30
0.0
 10
79.9093342899185
 20
-128.8455376196983
 30
0.0
 10
79.91587997134047
 20
-128.8072970598121
 30
0.0
 10
79.91794702863163
 20
-128.765266894892
 30
0.0
 10
79.91794702863163
 20
-128.75872121347
 30
0.0
 10
79.91794702863163
 20
-128.6932643992503
 30
0.0
 10
79.89658743662308
 20
-128.4943101349771
 30
0.0
 10
79.65990937678642
 20
-128.4943101349771
 30
0.0
 10
79.48214244974753
 20
-128.4943101349771
 30
0.0
 10
79.42702092198353
 20
-128.6255682729652
 30
0.0
 10
79.42702092198353
 20
-128.7354668189446
 30
0.0
 10
79.42702092198353
 20
-128.9998778974375
 30
0.0
 10
79.65990937678642
 20
-129.0084906361507
 30
0.0
 10
79.73156736287962
 20
-129.012624750733
 30
0.0
 10
79.73156736287962
 20
-129.012624750733
 30
0.0
 10
79.73156736287962
 20
-129.2158853843627
 30
0.0
 10
79.73156736287962
 20
-129.2158853843627
 30
0.0
 10
79.60685490631357
 20
-129.2072726456496
 30
0.0
 10
79.23030596977576
 20
-129.1797118817676
 30
0.0
 10
79.23030596977576
 20
-128.7228922204235
 30
0.0
 10
79.23030596977576
 20
-128.4986165043337
 30
0.0
 10
79.35742999318148
 20
-128.2574598203662
 30
0.0
 10
79.65336369536445
 20
-128.2574598203662
 30
0.0
 10
79.83974336111646
 20
-128.2574598203662
 30
0.0
 10
79.92208114321393
 20
-128.3525444557591
 30
0.0
 10
79.98340384285137
 20
-128.4521077152828
 30
0.0
 10
80.01096460673337
 20
-128.3906127608711
 30
0.0
 10
80.09123533153969
 20
-128.2087117192499
 30
0.0
 10
80.3685655181023
 20
-128.2087117192499
 30
0.0
 10
80.70687389475384
 20
-128.2087117192499
 30
0.0
 10
80.87396102578846
 20
-128.4562418298651
 30
0.0
 10
80.87396102578846
 20
-128.7333997616535
 30
0.0
  0
HATCH
  5
CE
330
C7
100
AcDbEntity
  8
_U+30EC_U+30A4_U+30E4_U+30FC 1
 62
   179
420
  2234388
100
AcDbHatch
 10
0.0
 20
0.0
 30
0.0
210
0.0
220
0.0
230
1.0
  2
SOLID
 70
     1
 71
     0
 91
        1
 92
        1
 93
        1
 72
     4
 94
        3
 73
     0
 74
     1
 95
       62
 96
       58
 40
0.0
 40
0.0
 40
0.0
 40
0.0
 40
1.0
 40
1.0
 40
1.0
 40
2.0
 40
2.0
 40
2.0
 40
3.0
 40
3.0
 40
3.0
 40
4.0
 40
4.0
 40
4.0
 40
5.0
 40
5.0
 40
5.0
 40
6.0
 40
6.0
 40
6.0
 40
7.0
 40
7.0
 40
7.0
 40
8.0
 40
8.0
 40
8.0
 40
9.0
 40
9.0
 40
9.0
 40
10.0
 40
10.0
 40
10.0
 40
11.0
 40
11.0
 40
11.0
 40
12.0
 40
12.0
 40
12.0
 40
13.0
 40
13.0
 40
13.0
 40
14.0
 40
14.0
 40
14.0
 40
15.0
 40
15.0
 40
15.0
 40
16.0
 40
16.0
 40
16.0
 40
17.0
 40
17.0
 40
17.0
 40
18.0
 40
18.0
 40
18.0
 40
19.0
 40
19.0
 40
19.0
 40
19.0
 10
80.87396102578846
 20
-128.7333997616535
 10
80.87396102578846
 20
-128.8286566518206
 10
80.85294594332844
 20
-129.0463866864884
 10
80.66691078712495
 20
-129.1710991430544
 10
80.5546006743058
 20
-129.2455132055358
 10
80.45538192433061
 20
-129.2496473201182
 10
80.37063257539346
 20
-129.2537814347004
 10
80.37063257539346
 20
-129.2537814347004
 10
80.37063257539346
 20
-129.0339843427415
 10
80.37063257539346
 20
-129.0339843427415
 10
80.44470212832633
 20
-129.0319172854504
 10
80.67931313087185
 20
-129.0208929798976
 10
80.67931313087185
 20
-128.73770613101
 10
80.67931313087185
 20
-128.6000745663743
 10
80.60972220206979
 20
-128.4478013459263
 10
80.38131237139773
 20
-128.4478013459263
 10
80.26486814399628
 20
-128.4478013459263
 10
80.21629229765426
 20
-128.4858696510383
 10
80.18459741918997
 20
-128.5175645295026
 10
80.1105278662571
 20
-128.5916340824354
 10
80.09778101296168
 20
-128.7080783098369
 10
80.09778101296168
 20
-128.7630275828266
 10
80.09778101296168
 20
-128.7818033532212
 10
80.09984807025282
 20
-128.8179768558163
 10
80.10398218483512
 20
-128.8455376196983
 10
80.10398218483512
 20
-128.8455376196983
 10
79.9093342899185
 20
-128.8455376196983
 10
79.9093342899185
 20
-128.8455376196983
 10
79.91587997134047
 20
-128.8072970598121
 10
79.91794702863163
 20
-128.765266894892
 10
79.91794702863163
 20
-128.75872121347
 10
79.91794702863163
 20
-128.6932643992503
 10
79.89658743662308
 20
-128.4943101349771
 10
79.65990937678642
 20
-128.4943101349771
 10
79.48214244974753
 20
-128.4943101349771
 10
79.42702092198353
 20
-128.6255682729652
 10
79.42702092198353
 20
-128.7354668189446
 10
79.42702092198353
 20
-128.9998778974375
 10
79.65990937678642
 20
-129.0084906361507
 10
79.73156736287962
 20
-129.012624750733
 10
79.73156736287962
 20
-129.012624750733
 10
79.73156736287962
 20
-129.2158853843627
 10
79.73156736287962
 20
-129.2158853843627
 10
79.60685490631357
 20
-129.2072726456496
 10
79.23030596977576
 20
-129.1797118817676
 10
79.23030596977576
 20
-128.7228922204235
 10
79.23030596977576
 20
-128.4986165043337
 10
79.35742999318148
 20
-128.2574598203662
 10
79.65336369536445
 20
-128.2574598203662
 10
79.83974336111646
 20
-128.2574598203662
 10
79.92208114321393
 20
-128.3525444557591
 10
79.98340384285137
 20
-128.4521077152828
 10
80.01096460673337
 20
-128.3906127608711
 10
80.09123533153969
 20
-128.2087117192499
 10
80.3685655181023
 20
-128.2087117192499
 10
80.70687389475384
 20
-128.2087117192499
 10
80.87396102578846
 20
-128.4562418298651
 10
80.87396102578846
 20
-128.7333997616535
 97
        0
 97
        0
 75
     2
 76
     1
 98
        0
  0
ENDBLK
  5
CA
330
C7
100
AcDbEntity
  8
0
100
AcDbBlockEnd
  0
ENDSEC
  0
SECTION
  2
ENTITIES
  0
SPLINE
  5
41
330
1F
100
AcDbEntity
  8
_U+30EC_U+30A4_U+30E4_U+30FC 1
 62
   253
420
 11711154
370
     9
100
AcDbSpline
210
0.0
220
0.0
230
1.0
 70
    11
 71
     3
 72
    74
 73
    70
 74
     0
 42
0.0000000001
 43
0.0000000001
 12
1.0
 22
0.0
 32
0.0
 13
1.0
 23
0.0
 33
0.0
 40
0.0
 40
0.0
 40
0.0
 40
0.0
 40
1.0
 40
1.0
 40
1.0
 40
2.0
 40
2.0
 40
2.0
 40
3.0
 40
3.0
 40
3.0
 40
4.0
 40
4.0
 40
4.0
 40
5.0
 40
5.0
 40
5.0
 40
6.0
 40
6.0
 40
6.0
 40
7.0
 40
7.0
 40
7.0
 40
8.0
 40
8.0
 40
8.0
 40
9.0
 40
9.0
 40
9.0
 40
10.0
 40
10.0
 40
10.0
 40
11.0
 40
11.0
 40
11.0
 40
12.0
 40
12.0
 40
12.0
 40
13.0
 40
13.0
 40
13.0
 40
14.0
 40
14.0
 40
14.0
 40
15.0
 40
15.0
 40
15.0
 40
16.0
 40
16.0
 40
16.0
 40
17.0
 40
17.0
 40
17.0
 40
18.0
 40
18.0
 40
18.0
 40
19.0
 40
19.0
 40
19.0
 40
20.0
 40
20.0
 40
20.0
 40
21.0
 40
21.0
 40
21.0
 40
22.0
 40
22.0
 40
22.0
 40
23.0
 40
23.0
 40
23.0
 40
23.0
 10
88.41563608900735
 20
-128.3053483012571
 30
0.0
 10
88.41563608900735
 20
-128.3053483012571
 30
0.0
 10
88.21165774953312
 20
-128.5055144123181
 30
0.0
 10
88.21165774953312
 20
-128.5055144123181
 30
0.0
 10
88.21165774953312
 20
-128.5055144123181
 30
0.0
 10
88.00842247694031
 20
-128.3060185790348
 30
0.0
 10
88.00842247694031
 20
-128.3060185790348
 30
0.0
 10
88.00842247694031
 20
-128.3060185790348
 30
0.0
 10
87.80860914870463
 20
-128.5058671900959
 30
0.0
 10
87.80860914870463
 20
-128.5058671900959
 30
0.0
 10
87.80860914870463
 20
-128.5058671900959
 30
0.0
 10
87.6080902649314
 20
-128.3057010790348
 30
0.0
 10
87.6080902649314
 20
-128.3057010790348
 30
0.0
 10
87.6080902649314
 20
-128.3057010790348
 30
0.0
 10
87.40827693669574
 20
-128.5055144123181
 30
0.0
 10
87.40827693669574
 20
-128.5055144123181
 30
0.0
 10
87.40827693669574
 20
-128.5055144123181
 30
0.0
 10
87.20846360846006
 20
-128.3053483012571
 30
0.0
 10
87.20846360846006
 20
-128.3053483012571
 30
0.0
 10
87.20846360846006
 20
-128.3053483012571
 30
0.0
 10
86.41954668414257
 20
-128.3053483012571
 30
0.0
 10
86.41954668414257
 20
-128.3053483012571
 30
0.0
 10
86.41954668414257
 20
-128.3053483012571
 30
0.0
 10
86.41954668414257
 20
-122.7366805248714
 30
0.0
 10
86.41954668414257
 20
-122.7366805248714
 30
0.0
 10
85.86762586488992
 20
-122.7366805248714
 30
0.0
 10
85.41977448742666
 20
-123.1845671914259
 30
0.0
 10
85.41977448742666
 20
-123.7368055246214
 30
0.0
 10
85.41977448742666
 20
-123.7368055246214
 30
0.0
 10
85.41977448742666
 20
-134.7366635774272
 30
0.0
 10
85.41977448742666
 20
-134.7366635774272
 30
0.0
 10
85.41977448742666
 20
-135.2892546884001
 30
0.0
 10
85.86762586488992
 20
-135.7371060771771
 30
0.0
 10
86.41954668414257
 20
-135.7371060771771
 30
0.0
 10
86.41954668414257
 20
-135.7371060771771
 30
0.0
 10
97.37664779349252
 20
-135.7371060771771
 30
0.0
 10
97.37664779349252
 20
-135.7371060771771
 30
0.0
 10
97.92923889050586
 20
-135.7371060771771
 30
0.0
 10
98.4212227668432
 20
-135.3574466328271
 30
0.0
 10
98.4212227668432
 20
-134.8048555218543
 30
0.0
 10
98.4212227668432
 20
-134.8048555218543
 30
0.0
 10
86.41954668414257
 20
-134.8048555218543
 30
0.0
 10
86.41954668414257
 20
-134.8048555218543
 30
0.0
 10
86.41954668414257
 20
-134.8048555218543
 30
0.0
 10
86.41954668414257
 20
-129.3051205232293
 30
0.0
 10
86.41954668414257
 20
-129.3051205232293
 30
0.0
 10
86.41954668414257
 20
-129.3051205232293
 30
0.0
 10
98.4212227668432
 20
-129.3051205232293
 30
0.0
 10
98.4212227668432
 20
-129.3051205232293
 30
0.0
 10
98.4212227668432
 20
-129.3051205232293
 30
0.0
 10
98.94072330914518
 20
-129.0054005233044
 30
0.0
 10
98.94072330914518
 20
-129.0054005233044
 30
0.0
 10
98.94072330914518
 20
-129.0054005233044
 30
0.0
 10
103.7221673538271
 20
-129.0054005233044
 30
0.0
 10
103.7221673538271
 20
-129.0054005233044
 30
0.0
 10
104.1087059550767
 20
-129.0054005233044
 30
0.0
 10
104.4222221961167
 20
-128.6918869122715
 30
0.0
 10
104.4222221961167
 20
-128.3053483012571
 30
0.0
 10
104.4222221961167
 20
-128.3053483012571
 30
0.0
 10
98.62103609507886
 20
-128.3053483012571
 30
0.0
 10
98.62103609507886
 20
-128.3053483012571
 30
0.0
 10
98.62103609507886
 20
-128.3053483012571
 30
0.0
 10
98.4212227668432
 20
-128.5055144123181
 30
0.0
 10
98.4212227668432
 20
-128.5055144123181
 30
0.0
 10
98.4212227668432
 20
-128.5055144123181
 30
0.0
 10
98.22140943860752
 20
-128.3049955234793
 30
0.0
 10
98.22140943860752
 20
-128.3049955234793
 30
0.0
 10
98.22140943860752
 20
-128.3049955234793
 30
0.0
 10
88.41563608900735
 20
-128.3053483012571
 30
0.0
 10
88.41563608900735
 20
-128.3053483012571
 30
0.0
  0
HATCH
  5
42
330
1F
100
AcDbEntity
  8
_U+30EC_U+30A4_U+30E4_U+30FC 1
 62
   253
420
 11711154
100
AcDbHatch
 10
0.0
 20
0.0
 30
0.0
210
0.0
220
0.0
230
1.0
  2
SOLID
 70
     1
 71
     0
 91
        1
 92
        1
 93
        1
 72
     4
 94
        3
 73
     0
 74
     1
 95
       74
 96
       70
 40
0.0
 40
0.0
 40
0.0
 40
0.0
 40
1.0
 40
1.0
 40
1.0
 40
2.0
 40
2.0
 40
2.0
 40
3.0
 40
3.0
 40
3.0
 40
4.0
 40
4.0
 40
4.0
 40
5.0
 40
5.0
 40
5.0
 40
6.0
 40
6.0
 40
6.0
 40
7.0
 40
7.0
 40
7.0
 40
8.0
 40
8.0
 40
8.0
 40
9.0
 40
9.0
 40
9.0
 40
10.0
 40
10.0
 40
10.0
 40
11.0
 40
11.0
 40
11.0
 40
12.0
 40
12.0
 40
12.0
 40
13.0
 40
13.0
 40
13.0
 40
14.0
 40
14.0
 40
14.0
 40
15.0
 40
15.0
 40
15.0
 40
16.0
 40
16.0
 40
16.0
 40
17.0
 40
17.0
 40
17.0
 40
18.0
 40
18.0
 40
18.0
 40
19.0
 40
19.0
 40
19.0
 40
20.0
 40
20.0
 40
20.0
 40
21.0
 40
21.0
 40
21.0
 40
22.0
 40
22.0
 40
22.0
 40
23.0
 40
23.0
 40
23.0
 40
23.0
 10
88.41563608900735
 20
-128.3053483012571
 10
88.41563608900735
 20
-128.3053483012571
 10
88.21165774953312
 20
-128.5055144123181
 10
88.21165774953312
 20
-128.5055144123181
 10
88.21165774953312
 20
-128.5055144123181
 10
88.00842247694031
 20
-128.3060185790348
 10
88.00842247694031
 20
-128.3060185790348
 10
88.00842247694031
 20
-128.3060185790348
 10
87.80860914870463
 20
-128.5058671900959
 10
87.80860914870463
 20
-128.5058671900959
 10
87.80860914870463
 20
-128.5058671900959
 10
87.6080902649314
 20
-128.3057010790348
 10
87.6080902649314
 20
-128.3057010790348
 10
87.6080902649314
 20
-128.3057010790348
 10
87.40827693669574
 20
-128.5055144123181
 10
87.40827693669574
 20
-128.5055144123181
 10
87.40827693669574
 20
-128.5055144123181
 10
87.20846360846006
 20
-128.3053483012571
 10
87.20846360846006
 20
-128.3053483012571
 10
87.20846360846006
 20
-128.3053483012571
 10
86.41954668414257
 20
-128.3053483012571
 10
86.41954668414257
 20
-128.3053483012571
 10
86.41954668414257
 20
-128.3053483012571
 10
86.41954668414257
 20
-122.7366805248714
 10
86.41954668414257
 20
-122.7366805248714
 10
85.86762586488992
 20
-122.7366805248714
 10
85.41977448742666
 20
-123.1845671914259
 10
85.41977448742666
 20
-123.7368055246214
 10
85.41977448742666
 20
-123.7368055246214
 10
85.41977448742666
 20
-134.7366635774272
 10
85.41977448742666
 20
-134.7366635774272
 10
85.41977448742666
 20
-135.2892546884001
 10
85.86762586488992
 20
-135.7371060771771
 10
86.41954668414257
 20
-135.7371060771771
 10
86.41954668414257
 20
-135.7371060771771
 10
97.37664779349252
 20
-135.7371060771771
 10
97.37664779349252
 20
-135.7371060771771
 10
97.92923889050586
 20
-135.7371060771771
 10
98.4212227668432
 20
-135.3574466328271
 10
98.4212227668432
 20
-134.8048555218543
 10
98.4212227668432
 20
-134.8048555218543
 10
86.41954668414257
 20
-134.8048555218543
 10
86.41954668414257
 20
-134.8048555218543
 10
86.41954668414257
 20
-134.8048555218543
 10
86.41954668414257
 20
-129.3051205232293
 10
86.41954668414257
 20
-129.3051205232293
 10
86.41954668414257
 20
-129.3051205232293
 10
98.4212227668432
 20
-129.3051205232293
 10
98.4212227668432
 20
-129.3051205232293
 10
98.4212227668432
 20
-129.3051205232293
 10
98.94072330914518
 20
-129.0054005233044
 10
98.94072330914518
 20
-129.0054005233044
 10
98.94072330914518
 20
-129.0054005233044
 10
103.7221673538271
 20
-129.0054005233044
 10
103.7221673538271
 20
-129.0054005233044
 10
104.1087059550767
 20
-129.0054005233044
 10
104.4222221961167
 20
-128.6918869122715
 10
104.4222221961167
 20
-128.3053483012571
 10
104.4222221961167
 20
-128.3053483012571
 10
98.62103609507886
 20
-128.3053483012571
 10
98.62103609507886
 20
-128.3053483012571
 10
98.62103609507886
 20
-128.3053483012571
 10
98.4212227668432
 20
-128.5055144123181
 10
98.4212227668432
 20
-128.5055144123181
 10
98.4212227668432
 20
-128.5055144123181
 10
98.22140943860752
 20
-128.3049955234793
 10
98.22140943860752
 20
-128.3049955234793
 10
98.22140943860752
 20
-128.3049955234793
 10
88.41563608900735
 20
-128.3053483012571
 10
88.41563608900735
 20
-128.3053483012571
 97
        0
 97
        0
 75
     2
 76
     1
 98
        0
  0
POLYLINE
  5
43
330
1F
100
AcDbEntity
  8
_U+30EC_U+30A4_U+30E4_U+30FC 1
 62
   179
420
  2234388
370
     9
100
AcDb2dPolyline
 66
     1
 10
0.0
 20
0.0
 30
0.0
  0
VERTEX
  5
44
330
43
100
AcDbEntity
  8
_U+30EC_U+30A4_U+30E4_U+30FC 1
 62
   179
420
  2234388
370
     9
100
AcDbVertex
100
AcDb2dVertex
 10
85.71258003551213
 20
-135.4439124661389
 30
0.0
  0
VERTEX
  5
45
330
43
100
AcDbEntity
  8
_U+30EC_U+30A4_U+30E4_U+30FC 1
 62
   179
420
  2234388
370
     9
100
AcDbVertex
100
AcDb2dVertex
 10
81.42001542280235
 20
-139.7368652428434
 30
0.0
  0
SEQEND
  5
46
330
43
100
AcDbEntity
  8
_U+30EC_U+30A4_U+30E4_U+30FC 1
 62
   179
420
  2234388
370
     9
  0
POLYLINE
  5
47
330
1F
100
AcDbEntity
  8
_U+30EC_U+30A4_U+30E4_U+30FC 1
 62
   179
420
  2234388
370
     9
100
AcDb2dPolyline
 66
     1
 10
0.0
 20
0.0
 30
0.0
  0
VERTEX
  5
48
330
47
100
AcDbEntity
  8
_U+30EC_U+30A4_U+30E4_U+30FC 1
 62
   179
420
  2234388
370
     9
100
AcDbVertex
100
AcDb2dVertex
 10
77.20735497472072
 20
-139.7368652428434
 30
0.0
  0
VERTEX
  5
49
330
47
100
AcDbEntity
  8
_U+30EC_U+30A4_U+30E4_U+30FC 1
 62
   179
420
  2234388
370
     9
100
AcDbVertex
100
AcDb2dVertex
 10
81.42001542280235
 20
-139.7368652428434
 30
0.0
  0
SEQEND
  5
4A
330
47
100
AcDbEntity
  8
_U+30EC_U+30A4_U+30E4_U+30FC 1
 62
   179
420
  2234388
370
     9
  0
POLYLINE
  5
4B
330
1F
100
AcDbEntity
  8
_U+30EC_U+30A4_U+30E4_U+30FC 1
 62
   179
420
  2234388
370
     9
100
AcDb2dPolyline
 66
     1
 10
0.0
 20
0.0
 30
0.0
  0
VERTEX
  5
4C
330
4B
100
AcDbEntity
  8
_U+30EC_U+30A4_U+30E4_U+30FC 1
 62
   179
420
  2234388
370
     9
100
AcDbVertex
100
AcDb2dVertex
 10
85.71258003551213
 20
-135.4439124661389
 30
0.0
  0
VERTEX
  5
4D
330
4B
100
AcDbEntity
  8
_U+30EC_U+30A4_U+30E4_U+30FC 1
 62
   179
420
  2234388
370
     9
100
AcDbVertex
100
AcDb2dVertex
 10
84.41379340198027
 20
-136.193918021507
 30
0.0
  0
SEQEND
  5
4E
330
4B
100
AcDbEntity
  8
_U+30EC_U+30A4_U+30E4_U+30FC 1
 62
   179
420
  2234388
370
     9
  0
POLYLINE
  5
4F
330
1F
100
AcDbEntity
  8
_U+30EC_U+30A4_U+30E4_U+30FC 1
 62
   179
420
  2234388
370
     9
100
AcDb2dPolyline
 66
     1
 10
0.0
 20
0.0
 30
0.0
  0
VERTEX
  5
50
330
4F
100
AcDbEntity
  8
_U+30EC_U+30A4_U+30E4_U+30FC 1
 62
   179
420
  2234388
370
     9
100
AcDbVertex
100
AcDb2dVertex
 10
85.71258003551213
 20
-135.4439124661389
 30
0.0
  0
VERTEX
  5
51
330
4F
100
AcDbEntity
  8
_U+30EC_U+30A4_U+30E4_U+30FC 1
 62
   179
420
  2234388
370
     9
100
AcDbVertex
100
AcDb2dVertex
 10
84.96292727685959
 20
-136.7430871880367
 30
0.0
  0
SEQEND
  5
52
330
4F
100
AcDbEntity
  8
_U+30EC_U+30A4_U+30E4_U+30FC 1
 62
   179
420
  2234388
370
     9
  0
SPLINE
  5
53
330
1F
100
AcDbEntity
  8
_U+30EC_U+30A4_U+30E4_U+30FC 1
 62
   179
420
  2234388
370
     9
100
AcDbSpline
210
0.0
220
0.0
230
1.0
 70
    11
 71
     3
 72
    17
 73
    13
 74
     0
 42
0.0000000001
 43
0.0000000001
 12
1.0
 22
0.0
 32
0.0
 13
1.0
 23
0.0
 33
0.0
 40
0.0
 40
0.0
 40
0.0
 40
0.0
 40
1.0
 40
1.0
 40
1.0
 40
2.0
 40
2.0
 40
2.0
 40
3.0
 40
3.0
 40
3.0
 40
4.0
 40
4.0
 40
4.0
 40
4.0
 10
104.5221262223073
 20
-118.7369213592048
 30
0.0
 10
104.5221262223073
 20
-118.6818174703296
 30
0.0
 10
104.4773587234494
 20
-118.6370146925629
 30
0.0
 10
104.4222221961167
 20
-118.6370146925629
 30
0.0
 10
104.3671156707064
 20
-118.6370146925629
 30
0.0
 10
104.3223128940716
 20
-118.6818174703296
 30
0.0
 10
104.3223128940716
 20
-118.7369213592048
 30
0.0
 10
104.3223128940716
 20
-118.7920605258576
 30
0.0
 10
104.3671156707064
 20
-118.836863303624
 30
0.0
 10
104.4222221961167
 20
-118.836863303624
 30
0.0
 10
104.4773587234494
 20
-118.836863303624
 30
0.0
 10
104.5221262223073
 20
-118.7920605258576
 30
0.0
 10
104.5221262223073
 20
-118.7369213592048
 30
0.0
  0
SPLINE
  5
54
330
1F
100
AcDbEntity
  8
_U+30EC_U+30A4_U+30E4_U+30FC 1
 62
   179
420
  2234388
370
     9
100
AcDbSpline
210
0.0
220
0.0
230
1.0
 70
    11
 71
     3
 72
    17
 73
    13
 74
     0
 42
0.0000000001
 43
0.0000000001
 12
1.0
 22
0.0
 32
0.0
 13
1.0
 23
0.0
 33
0.0
 40
0.0
 40
0.0
 40
0.0
 40
0.0
 40
1.0
 40
1.0
 40
1.0
 40
2.0
 40
2.0
 40
2.0
 40
3.0
 40
3.0
 40
3.0
 40
4.0
 40
4.0
 40
4.0
 40
4.0
 10
86.51945553392584
 20
-118.7369213592048
 30
0.0
 10
86.51945553392584
 20
-118.6818174703296
 30
0.0
 10
86.47465275615912
 20
-118.6370146925629
 30
0.0
 10
86.41954668414257
 20
-118.6370146925629
 30
0.0
 10
86.36440751888263
 20
-118.6370146925629
 30
0.0
 10
86.31960474224786
 20
-118.6818174703296
 30
0.0
 10
86.31960474224786
 20
-118.7369213592048
 30
0.0
 10
86.31960474224786
 20
-118.7920605258576
 30
0.0
 10
86.36440751888263
 20
-118.836863303624
 30
0.0
 10
86.41954668414257
 20
-118.836863303624
 30
0.0
 10
86.47465275615912
 20
-118.836863303624
 30
0.0
 10
86.51945553392584
 20
-118.7920605258576
 30
0.0
 10
86.51945553392584
 20
-118.7369213592048
 30
0.0
  0
SPLINE
  5
55
330
1F
100
AcDbEntity
  8
_U+30EC_U+30A4_U+30E4_U+30FC 1
 62
   179
420
  2234388
370
     9
100
AcDbSpline
210
0.0
220
0.0
230
1.0
 70
    11
 71
     3
 72
    17
 73
    13
 74
     0
 42
0.0000000001
 43
0.0000000001
 12
1.0
 22
0.0
 32
0.0
 13
1.0
 23
0.0
 33
0.0
 40
0.0
 40
0.0
 40
0.0
 40
0.0
 40
1.0
 40
1.0
 40
1.0
 40
2.0
 40
2.0
 40
2.0
 40
3.0
 40
3.0
 40
3.0
 40
4.0
 40
4.0
 40
4.0
 40
4.0
 10
85.5196833119533
 20
-125.7365263574547
 30
0.0
 10
85.5196833119533
 20
-125.6813871908019
 30
0.0
 10
85.4748805341869
 20
-125.636619690813
 30
0.0
 10
85.41977448742666
 20
-125.636619690813
 30
0.0
 10
85.36463532216672
 20
-125.636619690813
 30
0.0
 10
85.31986782330883
 20
-125.6813871908019
 30
0.0
 10
85.31986782330883
 20
-125.7365263574547
 30
0.0
 10
85.31986782330883
 20
-125.7916302463299
 30
0.0
 10
85.36463532216672
 20
-125.8364330240963
 30
0.0
 10
85.41977448742666
 20
-125.8364330240963
 30
0.0
 10
85.4748805341869
 20
-125.8364330240963
 30
0.0
 10
85.5196833119533
 20
-125.7916302463299
 30
0.0
 10
85.5196833119533
 20
-125.7365263574547
 30
0.0
  0
SPLINE
  5
56
330
1F
100
AcDbEntity
  8
_U+30EC_U+30A4_U+30E4_U+30FC 1
 62
   179
420
  2234388
370
     9
100
AcDbSpline
210
0.0
220
0.0
230
1.0
 70
    11
 71
     3
 72
    17
 73
    13
 74
     0
 42
0.0000000001
 43
0.0000000001
 12
1.0
 22
0.0
 32
0.0
 13
1.0
 23
0.0
 33
0.0
 40
0.0
 40
0.0
 40
0.0
 40
0.0
 40
1.0
 40
1.0
 40
1.0
 40
2.0
 40
2.0
 40
2.0
 40
3.0
 40
3.0
 40
3.0
 40
4.0
 40
4.0
 40
4.0
 40
4.0
 10
86.51945553392584
 20
-125.7365263574547
 30
0.0
 10
86.51945553392584
 20
-125.6813871908019
 30
0.0
 10
86.47465275615912
 20
-125.636619690813
 30
0.0
 10
86.41954668414257
 20
-125.636619690813
 30
0.0
 10
86.36440751888263
 20
-125.636619690813
 30
0.0
 10
86.31960474224786
 20
-125.6813871908019
 30
0.0
 10
86.31960474224786
 20
-125.7365263574547
 30
0.0
 10
86.31960474224786
 20
-125.7916302463299
 30
0.0
 10
86.36440751888263
 20
-125.8364330240963
 30
0.0
 10
86.41954668414257
 20
-125.8364330240963
 30
0.0
 10
86.47465275615912
 20
-125.8364330240963
 30
0.0
 10
86.51945553392584
 20
-125.7916302463299
 30
0.0
 10
86.51945553392584
 20
-125.7365263574547
 30
0.0
  0
SPLINE
  5
57
330
1F
100
AcDbEntity
  8
_U+30EC_U+30A4_U+30E4_U+30FC 1
 62
   179
420
  2234388
370
     9
100
AcDbSpline
210
0.0
220
0.0
230
1.0
 70
    11
 71
     3
 72
    17
 73
    13
 74
     0
 42
0.0000000001
 43
0.0000000001
 12
1.0
 22
0.0
 32
0.0
 13
1.0
 23
0.0
 33
0.0
 40
0.0
 40
0.0
 40
0.0
 40
0.0
 40
1.0
 40
1.0
 40
1.0
 40
2.0
 40
2.0
 40
2.0
 40
3.0
 40
3.0
 40
3.0
 40
4.0
 40
4.0
 40
4.0
 40
4.0
 10
98.52112943096104
 20
-139.7368652428434
 30
0.0
 10
98.52112943096104
 20
-139.681726076191
 30
0.0
 10
98.47632665432627
 20
-139.6369585762017
 30
0.0
 10
98.4212227668432
 20
-139.6369585762017
 30
0.0
 10
98.36608608651979
 20
-139.6369585762017
 30
0.0
 10
98.32131610272536
 20
-139.681726076191
 30
0.0
 10
98.32131610272536
 20
-139.7368652428434
 30
0.0
 10
98.32131610272536
 20
-139.7919691317189
 30
0.0
 10
98.36608608651979
 20
-139.836771909485
 30
0.0
 10
98.4212227668432
 20
-139.836771909485
 30
0.0
 10
98.47632665432627
 20
-139.836771909485
 30
0.0
 10
98.52112943096104
 20
-139.7919691317189
 30
0.0
 10
98.52112943096104
 20
-139.7368652428434
 30
0.0
  0
SPLINE
  5
58
330
1F
100
AcDbEntity
  8
_U+30EC_U+30A4_U+30E4_U+30FC 1
 62
   179
420
  2234388
370
     9
100
AcDbSpline
210
0.0
220
0.0
230
1.0
 70
    11
 71
     3
 72
    17
 73
    13
 74
     0
 42
0.0000000001
 43
0.0000000001
 12
1.0
 22
0.0
 32
0.0
 13
1.0
 23
0.0
 33
0.0
 40
0.0
 40
0.0
 40
0.0
 40
0.0
 40
1.0
 40
1.0
 40
1.0
 40
2.0
 40
2.0
 40
2.0
 40
3.0
 40
3.0
 40
3.0
 40
4.0
 40
4.0
 40
4.0
 40
4.0
 10
85.5196833119533
 20
-139.7368652428434
 30
0.0
 10
85.5196833119533
 20
-139.681726076191
 30
0.0
 10
85.4748805341869
 20
-139.6369585762017
 30
0.0
 10
85.41977448742666
 20
-139.6369585762017
 30
0.0
 10
85.36463532216672
 20
-139.6369585762017
 30
0.0
 10
85.31986782330883
 20
-139.681726076191
 30
0.0
 10
85.31986782330883
 20
-139.7368652428434
 30
0.0
 10
85.31986782330883
 20
-139.7919691317189
 30
0.0
 10
85.36463532216672
 20
-139.836771909485
 30
0.0
 10
85.41977448742666
 20
-139.836771909485
 30
0.0
 10
85.4748805341869
 20
-139.836771909485
 30
0.0
 10
85.5196833119533
 20
-139.7919691317189
 30
0.0
 10
85.5196833119533
 20
-139.7368652428434
 30
0.0
  0
SPLINE
  5
59
330
1F
100
AcDbEntity
  8
_U+30EC_U+30A4_U+30E4_U+30FC 1
 62
   179
420
  2234388
370
     9
100
AcDbSpline
210
0.0
220
0.0
230
1.0
 70
    11
 71
     3
 72
    17
 73
    13
 74
     0
 42
0.0000000001
 43
0.0000000001
 12
1.0
 22
0.0
 32
0.0
 13
1.0
 23
0.0
 33
0.0
 40
0.0
 40
0.0
 40
0.0
 40
0.0
 40
1.0
 40
1.0
 40
1.0
 40
2.0
 40
2.0
 40
2.0
 40
3.0
 40
3.0
 40
3.0
 40
4.0
 40
4.0
 40
4.0
 40
4.0
 10
102.5225818288755
 20
-129.3051205232293
 30
0.0
 10
102.5225818288755
 20
-129.2499813565762
 30
0.0
 10
102.4778143300176
 20
-129.2052138565877
 30
0.0
 10
102.4226777521722
 20
-129.2052138565877
 30
0.0
 10
102.3675712772746
 20
-129.2052138565877
 30
0.0
 10
102.3227685006398
 20
-129.2499813565762
 30
0.0
 10
102.3227685006398
 20
-129.3051205232293
 30
0.0
 10
102.3227685006398
 20
-129.3609299676597
 30
0.0
 10
102.3675712772746
 20
-129.4056974676483
 30
0.0
 10
102.4226777521722
 20
-129.4056974676483
 30
0.0
 10
102.4778143300176
 20
-129.4056974676483
 30
0.0
 10
102.5225818288755
 20
-129.3609299676597
 30
0.0
 10
102.5225818288755
 20
-129.3051205232293
 30
0.0
  0
SPLINE
  5
5A
330
1F
100
AcDbEntity
  8
_U+30EC_U+30A4_U+30E4_U+30FC 1
 62
   179
420
  2234388
370
     9
100
AcDbSpline
210
0.0
220
0.0
230
1.0
 70
    11
 71
     3
 72
    17
 73
    13
 74
     0
 42
0.0000000001
 43
0.0000000001
 12
1.0
 22
0.0
 32
0.0
 13
1.0
 23
0.0
 33
0.0
 40
0.0
 40
0.0
 40
0.0
 40
0.0
 40
1.0
 40
1.0
 40
1.0
 40
2.0
 40
2.0
 40
2.0
 40
3.0
 40
3.0
 40
3.0
 40
4.0
 40
4.0
 40
4.0
 40
4.0
 10
102.5225818288755
 20
-134.7366635774272
 30
0.0
 10
102.5225818288755
 20
-134.6815244107742
 30
0.0
 10
102.4778143300176
 20
-134.636756910785
 30
0.0
 10
102.4226777521722
 20
-134.636756910785
 30
0.0
 10
102.3675712772746
 20
-134.636756910785
 30
0.0
 10
102.3227685006398
 20
-134.6815244107742
 30
0.0
 10
102.3227685006398
 20
-134.7366635774272
 30
0.0
 10
102.3227685006398
 20
-134.7924730218577
 30
0.0
 10
102.3675712772746
 20
-134.8372405218462
 30
0.0
 10
102.4226777521722
 20
-134.8372405218462
 30
0.0
 10
102.4778143300176
 20
-134.8372405218462
 30
0.0
 10
102.5225818288755
 20
-134.7924730218577
 30
0.0
 10
102.5225818288755
 20
-134.7366635774272
 30
0.0
  0
INSERT
  5
5C
330
1F
100
AcDbEntity
  8
_U+30EC_U+30A4_U+30E4_U+30FC 1
100
AcDbBlockReference
  2
block 2
 10
0.0
 20
0.0
 30
0.0
  0
POLYLINE
  5
64
330
1F
100
AcDbEntity
  8
_U+30EC_U+30A4_U+30E4_U+30FC 1
 62
   179
420
  2234388
370
     9
100
AcDb2dPolyline
 66
     1
 10
0.0
 20
0.0
 30
0.0
  0
VERTEX
  5
65
330
64
100
AcDbEntity
  8
_U+30EC_U+30A4_U+30E4_U+30FC 1
 62
   179
420
  2234388
370
     9
100
AcDbVertex
100
AcDb2dVertex
 10
86.41954668414257
 20
-118.7369213592048
 30
0.0
  0
VERTEX
  5
66
330
64
100
AcDbEntity
  8
_U+30EC_U+30A4_U+30E4_U+30FC 1
 62
   179
420
  2234388
370
     9
100
AcDbVertex
100
AcDb2dVertex
 10
104.4222221961167
 20
-118.7369213592048
 30
0.0
  0
SEQEND
  5
67
330
64
100
AcDbEntity
  8
_U+30EC_U+30A4_U+30E4_U+30FC 1
 62
   179
420
  2234388
370
     9
  0
POLYLINE
  5
68
330
1F
100
AcDbEntity
  8
_U+30EC_U+30A4_U+30E4_U+30FC 1
 62
   179
420
  2234388
370
     9
100
AcDb2dPolyline
 66
     1
 10
0.0
 20
0.0
 30
0.0
  0
VERTEX
  5
69
330
68
100
AcDbEntity
  8
_U+30EC_U+30A4_U+30E4_U+30FC 1
 62
   179
420
  2234388
370
     9
100
AcDbVertex
100
AcDb2dVertex
 10
86.41954668414257
 20
-122.2367944138851
 30
0.0
  0
VERTEX
  5
6A
330
68
100
AcDbEntity
  8
_U+30EC_U+30A4_U+30E4_U+30FC 1
 62
   179
420
  2234388
370
     9
100
AcDbVertex
100
AcDb2dVertex
 10
86.41954668414257
 20
-117.7368316372324
 30
0.0
  0
SEQEND
  5
6B
330
68
100
AcDbEntity
  8
_U+30EC_U+30A4_U+30E4_U+30FC 1
 62
   179
420
  2234388
370
     9
  0
POLYLINE
  5
6C
330
1F
100
AcDbEntity
  8
_U+30EC_U+30A4_U+30E4_U+30FC 1
 62
   179
420
  2234388
370
     9
100
AcDb2dPolyline
 66
     1
 10
0.0
 20
0.0
 30
0.0
  0
VERTEX
  5
6D
330
6C
100
AcDbEntity
  8
_U+30EC_U+30A4_U+30E4_U+30FC 1
 62
   179
420
  2234388
370
     9
100
AcDbVertex
100
AcDb2dVertex
 10
104.4222221961167
 20
-126.8053371905208
 30
0.0
  0
VERTEX
  5
6E
330
6C
100
AcDbEntity
  8
_U+30EC_U+30A4_U+30E4_U+30FC 1
 62
   179
420
  2234388
370
     9
100
AcDbVertex
100
AcDb2dVertex
 10
104.4222221961167
 20
-117.7368316372324
 30
0.0
  0
SEQEND
  5
6F
330
6C
100
AcDbEntity
  8
_U+30EC_U+30A4_U+30E4_U+30FC 1
 62
   179
420
  2234388
370
     9
  0
INSERT
  5
71
330
1F
100
AcDbEntity
  8
_U+30EC_U+30A4_U+30E4_U+30FC 1
100
AcDbBlockReference
  2
block 3
 10
0.0
 20
0.0
 30
0.0
  0
POLYLINE
  5
7A
330
1F
100
AcDbEntity
  8
_U+30EC_U+30A4_U+30E4_U+30FC 1
 62
   179
420
  2234388
370
     9
100
AcDb2dPolyline
 66
     1
 10
0.0
 20
0.0
 30
0.0
  0
VERTEX
  5
7B
330
7A
100
AcDbEntity
  8
_U+30EC_U+30A4_U+30E4_U+30FC 1
 62
   179
420
  2234388
370
     9
100
AcDbVertex
100
AcDb2dVertex
 10
86.41954668414257
 20
-125.7365263574547
 30
0.0
  0
VERTEX
  5
7C
330
7A
100
AcDbEntity
  8
_U+30EC_U+30A4_U+30E4_U+30FC 1
 62
   179
420
  2234388
370
     9
100
AcDbVertex
100
AcDb2dVertex
 10
90.19017658794579
 20
-125.7365263574547
 30
0.0
  0
SEQEND
  5
7D
330
7A
100
AcDbEntity
  8
_U+30EC_U+30A4_U+30E4_U+30FC 1
 62
   179
420
  2234388
370
     9
  0
POLYLINE
  5
7E
330
1F
100
AcDbEntity
  8
_U+30EC_U+30A4_U+30E4_U+30FC 1
 62
   179
420
  2234388
370
     9
100
AcDb2dPolyline
 66
     1
 10
0.0
 20
0.0
 30
0.0
  0
VERTEX
  5
7F
330
7E
100
AcDbEntity
  8
_U+30EC_U+30A4_U+30E4_U+30FC 1
 62
   179
420
  2234388
370
     9
100
AcDbVertex
100
AcDb2dVertex
 10
84.42000229071076
 20
-125.7365263574547
 30
0.0
  0
VERTEX
  5
80
330
7E
100
AcDbEntity
  8
_U+30EC_U+30A4_U+30E4_U+30FC 1
 62
   179
420
  2234388
370
     9
100
AcDbVertex
100
AcDb2dVertex
 10
86.41954668414257
 20
-125.7365263574547
 30
0.0
  0
SEQEND
  5
81
330
7E
100
AcDbEntity
  8
_U+30EC_U+30A4_U+30E4_U+30FC 1
 62
   179
420
  2234388
370
     9
  0
INSERT
  5
83
330
1F
100
AcDbEntity
  8
_U+30EC_U+30A4_U+30E4_U+30FC 1
100
AcDbBlockReference
  2
block 4
 10
0.0
 20
0.0
 30
0.0
  0
POLYLINE
  5
88
330
1F
100
AcDbEntity
  8
_U+30EC_U+30A4_U+30E4_U+30FC 1
 62
   179
420
  2234388
370
     9
100
AcDb2dPolyline
 66
     1
 10
0.0
 20
0.0
 30
0.0
  0
VERTEX
  5
89
330
88
100
AcDbEntity
  8
_U+30EC_U+30A4_U+30E4_U+30FC 1
 62
   179
420
  2234388
370
     9
100
AcDbVertex
100
AcDb2dVertex
 10
85.41977448742666
 20
-139.7368652428434
 30
0.0
  0
VERTEX
  5
8A
330
88
100
AcDbEntity
  8
_U+30EC_U+30A4_U+30E4_U+30FC 1
 62
   179
420
  2234388
370
     9
100
AcDbVertex
100
AcDb2dVertex
 10
98.4212227668432
 20
-139.7368652428434
 30
0.0
  0
SEQEND
  5
8B
330
88
100
AcDbEntity
  8
_U+30EC_U+30A4_U+30E4_U+30FC 1
 62
   179
420
  2234388
370
     9
  0
POLYLINE
  5
8C
330
1F
100
AcDbEntity
  8
_U+30EC_U+30A4_U+30E4_U+30FC 1
 62
   179
420
  2234388
370
     9
100
AcDb2dPolyline
 66
     1
 10
0.0
 20
0.0
 30
0.0
  0
VERTEX
  5
8D
330
8C
100
AcDbEntity
  8
_U+30EC_U+30A4_U+30E4_U+30FC 1
 62
   179
420
  2234388
370
     9
100
AcDbVertex
100
AcDb2dVertex
 10
85.41977448742666
 20
-137.2770516323471
 30
0.0
  0
VERTEX
  5
8E
330
8C
100
AcDbEntity
  8
_U+30EC_U+30A4_U+30E4_U+30FC 1
 62
   179
420
  2234388
370
     9
100
AcDbVertex
100
AcDb2dVertex
 10
85.41977448742666
 20
-140.7369902425937
 30
0.0
  0
SEQEND
  5
8F
330
8C
100
AcDbEntity
  8
_U+30EC_U+30A4_U+30E4_U+30FC 1
 62
   179
420
  2234388
370
     9
  0
POLYLINE
  5
90
330
1F
100
AcDbEntity
  8
_U+30EC_U+30A4_U+30E4_U+30FC 1
 62
   179
420
  2234388
370
     9
100
AcDb2dPolyline
 66
     1
 10
0.0
 20
0.0
 30
0.0
  0
VERTEX
  5
91
330
90
100
AcDbEntity
  8
_U+30EC_U+30A4_U+30E4_U+30FC 1
 62
   179
420
  2234388
370
     9
100
AcDbVertex
100
AcDb2dVertex
 10
98.4212227668432
 20
-137.2770516323471
 30
0.0
  0
VERTEX
  5
92
330
90
100
AcDbEntity
  8
_U+30EC_U+30A4_U+30E4_U+30FC 1
 62
   179
420
  2234388
370
     9
100
AcDbVertex
100
AcDb2dVertex
 10
98.4212227668432
 20
-140.7369902425937
 30
0.0
  0
SEQEND
  5
93
330
90
100
AcDbEntity
  8
_U+30EC_U+30A4_U+30E4_U+30FC 1
 62
   179
420
  2234388
370
     9
  0
INSERT
  5
95
330
1F
100
AcDbEntity
  8
_U+30EC_U+30A4_U+30E4_U+30FC 1
100
AcDbBlockReference
  2
block 5
 10
0.0
 20
0.0
 30
0.0
  0
POLYLINE
  5
9C
330
1F
100
AcDbEntity
  8
_U+30EC_U+30A4_U+30E4_U+30FC 1
 62
   179
420
  2234388
370
     9
100
AcDb2dPolyline
 66
     1
 10
0.0
 20
0.0
 30
0.0
  0
VERTEX
  5
9D
330
9C
100
AcDbEntity
  8
_U+30EC_U+30A4_U+30E4_U+30FC 1
 62
   179
420
  2234388
370
     9
100
AcDbVertex
100
AcDb2dVertex
 10
102.4226777521722
 20
-134.7366635774272
 30
0.0
  0
VERTEX
  5
9E
330
9C
100
AcDbEntity
  8
_U+30EC_U+30A4_U+30E4_U+30FC 1
 62
   179
420
  2234388
370
     9
100
AcDbVertex
100
AcDb2dVertex
 10
102.4226777521722
 20
-129.3051205232293
 30
0.0
  0
SEQEND
  5
9F
330
9C
100
AcDbEntity
  8
_U+30EC_U+30A4_U+30E4_U+30FC 1
 62
   179
420
  2234388
370
     9
  0
POLYLINE
  5
A0
330
1F
100
AcDbEntity
  8
_U+30EC_U+30A4_U+30E4_U+30FC 1
 62
   179
420
  2234388
370
     9
100
AcDb2dPolyline
 66
     1
 10
0.0
 20
0.0
 30
0.0
  0
VERTEX
  5
A1
330
A0
100
AcDbEntity
  8
_U+30EC_U+30A4_U+30E4_U+30FC 1
 62
   179
420
  2234388
370
     9
100
AcDbVertex
100
AcDb2dVertex
 10
100.9626690908944
 20
-134.7366635774272
 30
0.0
  0
VERTEX
  5
A2
330
A0
100
AcDbEntity
  8
_U+30EC_U+30A4_U+30E4_U+30FC 1
 62
   179
420
  2234388
370
     9
100
AcDbVertex
100
AcDb2dVertex
 10
103.4224499741441
 20
-134.7366635774272
 30
0.0
  0
SEQEND
  5
A3
330
A0
100
AcDbEntity
  8
_U+30EC_U+30A4_U+30E4_U+30FC 1
 62
   179
420
  2234388
370
     9
  0
POLYLINE
  5
A4
330
1F
100
AcDbEntity
  8
_U+30EC_U+30A4_U+30E4_U+30FC 1
 62
   179
420
  2234388
370
     9
100
AcDb2dPolyline
 66
     1
 10
0.0
 20
0.0
 30
0.0
  0
VERTEX
  5
A5
330
A4
100
AcDbEntity
  8
_U+30EC_U+30A4_U+30E4_U+30FC 1
 62
   179
420
  2234388
370
     9
100
AcDbVertex
100
AcDb2dVertex
 10
100.9626690908944
 20
-129.3051205232293
 30
0.0
  0
VERTEX
  5
A6
330
A4
100
AcDbEntity
  8
_U+30EC_U+30A4_U+30E4_U+30FC 1
 62
   179
420
  2234388
370
     9
100
AcDbVertex
100
AcDb2dVertex
 10
103.4224499741441
 20
-129.3051205232293
 30
0.0
  0
SEQEND
  5
A7
330
A4
100
AcDbEntity
  8
_U+30EC_U+30A4_U+30E4_U+30FC 1
 62
   179
420
  2234388
370
     9
  0
INSERT
  5
A9
330
1F
100
AcDbEntity
  8
_U+30EC_U+30A4_U+30E4_U+30FC 1
100
AcDbBlockReference
  2
block 6
 10
0.0
 20
0.0
 30
0.0
  0
POLYLINE
  5
B8
330
1F
100
AcDbEntity
  8
_U+30EC_U+30A4_U+30E4_U+30FC 1
 62
   179
420
  2234388
370
     9
100
AcDb2dPolyline
 66
     1
 10
0.0
 20
0.0
 30
0.0
  0
VERTEX
  5
B9
330
B8
100
AcDbEntity
  8
_U+30EC_U+30A4_U+30E4_U+30FC 1
 62
   179
420
  2234388
370
     9
100
AcDbVertex
100
AcDb2dVertex
 10
83.87979369338152
 20
-122.7366805248714
 30
0.0
  0
VERTEX
  5
BA
330
B8
100
AcDbEntity
  8
_U+30EC_U+30A4_U+30E4_U+30FC 1
 62
   179
420
  2234388
370
     9
100
AcDbVertex
100
AcDb2dVertex
 10
80.41953767054889
 20
-122.7366805248714
 30
0.0
  0
SEQEND
  5
BB
330
B8
100
AcDbEntity
  8
_U+30EC_U+30A4_U+30E4_U+30FC 1
 62
   179
420
  2234388
370
     9
  0
SPLINE
  5
BC
330
1F
100
AcDbEntity
  8
_U+30EC_U+30A4_U+30E4_U+30FC 1
 62
   179
420
  2234388
370
    25
100
AcDbSpline
210
0.0
220
0.0
230
1.0
 70
    11
 71
     3
 72
    74
 73
    70
 74
     0
 42
0.0000000001
 43
0.0000000001
 12
1.0
 22
0.0
 32
0.0
 13
1.0
 23
0.0
 33
0.0
 40
0.0
 40
0.0
 40
0.0
 40
0.0
 40
1.0
 40
1.0
 40
1.0
 40
2.0
 40
2.0
 40
2.0
 40
3.0
 40
3.0
 40
3.0
 40
4.0
 40
4.0
 40
4.0
 40
5.0
 40
5.0
 40
5.0
 40
6.0
 40
6.0
 40
6.0
 40
7.0
 40
7.0
 40
7.0
 40
8.0
 40
8.0
 40
8.0
 40
9.0
 40
9.0
 40
9.0
 40
10.0
 40
10.0
 40
10.0
 40
11.0
 40
11.0
 40
11.0
 40
12.0
 40
12.0
 40
12.0
 40
13.0
 40
13.0
 40
13.0
 40
14.0
 40
14.0
 40
14.0
 40
15.0
 40
15.0
 40
15.0
 40
16.0
 40
16.0
 40
16.0
 40
17.0
 40
17.0
 40
17.0
 40
18.0
 40
18.0
 40
18.0
 40
19.0
 40
19.0
 40
19.0
 40
20.0
 40
20.0
 40
20.0
 40
21.0
 40
21.0
 40
21.0
 40
22.0
 40
22.0
 40
22.0
 40
23.0
 40
23.0
 40
23.0
 40
23.0
 10
88.40804913341165
 20
-128.3063713568122
 30
0.0
 10
88.40804913341165
 20
-128.3063713568122
 30
0.0
 10
88.20823580517597
 20
-128.5061846900958
 30
0.0
 10
88.20823580517597
 20
-128.5061846900958
 30
0.0
 10
88.20823580517597
 20
-128.5061846900958
 30
0.0
 10
88.00842247694031
 20
-128.3060185790348
 30
0.0
 10
88.00842247694031
 20
-128.3060185790348
 30
0.0
 10
88.00842247694031
 20
-128.3060185790348
 30
0.0
 10
87.80860914870463
 20
-128.5058671900959
 30
0.0
 10
87.80860914870463
 20
-128.5058671900959
 30
0.0
 10
87.80860914870463
 20
-128.5058671900959
 30
0.0
 10
87.6080902649314
 20
-128.3057010790348
 30
0.0
 10
87.6080902649314
 20
-128.3057010790348
 30
0.0
 10
87.6080902649314
 20
-128.3057010790348
 30
0.0
 10
87.40827693669574
 20
-128.5055144123181
 30
0.0
 10
87.40827693669574
 20
-128.5055144123181
 30
0.0
 10
87.40827693669574
 20
-128.5055144123181
 30
0.0
 10
87.20846360846006
 20
-128.3053483012571
 30
0.0
 10
87.20846360846006
 20
-128.3053483012571
 30
0.0
 10
87.20846360846006
 20
-128.3053483012571
 30
0.0
 10
86.41954668414257
 20
-128.3053483012571
 30
0.0
 10
86.41954668414257
 20
-128.3053483012571
 30
0.0
 10
86.41954668414257
 20
-128.3053483012571
 30
0.0
 10
86.41954668414257
 20
-122.7366805248714
 30
0.0
 10
86.41954668414257
 20
-122.7366805248714
 30
0.0
 10
85.86762586488992
 20
-122.7366805248714
 30
0.0
 10
85.41977448742666
 20
-123.1845671914259
 30
0.0
 10
85.41977448742666
 20
-123.7368055246214
 30
0.0
 10
85.41977448742666
 20
-123.7368055246214
 30
0.0
 10
85.41977448742666
 20
-134.7366635774272
 30
0.0
 10
85.41977448742666
 20
-134.7366635774272
 30
0.0
 10
85.41977448742666
 20
-135.2892546884001
 30
0.0
 10
85.86762586488992
 20
-135.7371060771771
 30
0.0
 10
86.41954668414257
 20
-135.7371060771771
 30
0.0
 10
86.41954668414257
 20
-135.7371060771771
 30
0.0
 10
97.37664779349252
 20
-135.7371060771771
 30
0.0
 10
97.37664779349252
 20
-135.7371060771771
 30
0.0
 10
97.92923889050586
 20
-135.7371060771771
 30
0.0
 10
98.4212227668432
 20
-135.3574466328271
 30
0.0
 10
98.4212227668432
 20
-134.8048555218543
 30
0.0
 10
98.4212227668432
 20
-134.8048555218543
 30
0.0
 10
86.41954668414257
 20
-134.8048555218543
 30
0.0
 10
86.41954668414257
 20
-134.8048555218543
 30
0.0
 10
86.41954668414257
 20
-134.8048555218543
 30
0.0
 10
86.41954668414257
 20
-129.3051205232293
 30
0.0
 10
86.41954668414257
 20
-129.3051205232293
 30
0.0
 10
86.41954668414257
 20
-129.3051205232293
 30
0.0
 10
98.4212227668432
 20
-129.3051205232293
 30
0.0
 10
98.4212227668432
 20
-129.3051205232293
 30
0.0
 10
98.4212227668432
 20
-129.3051205232293
 30
0.0
 10
98.94072330914518
 20
-129.0054005233044
 30
0.0
 10
98.94072330914518
 20
-129.0054005233044
 30
0.0
 10
98.94072330914518
 20
-129.0054005233044
 30
0.0
 10
103.7221673538271
 20
-129.0054005233044
 30
0.0
 10
103.7221673538271
 20
-129.0054005233044
 30
0.0
 10
104.1087059550767
 20
-129.0054005233044
 30
0.0
 10
104.4222221961167
 20
-128.6918869122715
 30
0.0
 10
104.4222221961167
 20
-128.3053483012571
 30
0.0
 10
104.4222221961167
 20
-128.3053483012571
 30
0.0
 10
98.62103609507886
 20
-128.3053483012571
 30
0.0
 10
98.62103609507886
 20
-128.3053483012571
 30
0.0
 10
98.62103609507886
 20
-128.3053483012571
 30
0.0
 10
98.4212227668432
 20
-128.5051616345403
 30
0.0
 10
98.4212227668432
 20
-128.5051616345403
 30
0.0
 10
98.4212227668432
 20
-128.5051616345403
 30
0.0
 10
98.22140943860752
 20
-128.3049955234793
 30
0.0
 10
98.22140943860752
 20
-128.3049955234793
 30
0.0
 10
98.22140943860752
 20
-128.3049955234793
 30
0.0
 10
88.40804913341165
 20
-128.3063713568122
 30
0.0
 10
88.40804913341165
 20
-128.3063713568122
 30
0.0
  0
SPLINE
  5
BD
330
1F
100
AcDbEntity
  8
_U+30EC_U+30A4_U+30E4_U+30FC 1
 62
   179
420
  2234388
370
     9
100
AcDbSpline
210
0.0
220
0.0
230
1.0
 70
    11
 71
     3
 72
    17
 73
    13
 74
     0
 42
0.0000000001
 43
0.0000000001
 12
1.0
 22
0.0
 32
0.0
 13
1.0
 23
0.0
 33
0.0
 40
0.0
 40
0.0
 40
0.0
 40
0.0
 40
1.0
 40
1.0
 40
1.0
 40
2.0
 40
2.0
 40
2.0
 40
3.0
 40
3.0
 40
3.0
 40
4.0
 40
4.0
 40
4.0
 40
4.0
 10
81.51992208692019
 20
-135.7371060771771
 30
0.0
 10
81.51992208692019
 20
-135.6816494105238
 30
0.0
 10
81.47511931028542
 20
-135.6368466327577
 30
0.0
 10
81.42001542280235
 20
-135.6368466327577
 30
0.0
 10
81.3648762575424
 20
-135.6368466327577
 30
0.0
 10
81.32010875868451
 20
-135.6816494105238
 30
0.0
 10
81.32010875868451
 20
-135.7371060771771
 30
0.0
 10
81.32010875868451
 20
-135.7922452438296
 30
0.0
 10
81.3648762575424
 20
-135.8370127438188
 30
0.0
 10
81.42001542280235
 20
-135.8370127438188
 30
0.0
 10
81.47511931028542
 20
-135.8370127438188
 30
0.0
 10
81.51992208692019
 20
-135.7922452438296
 30
0.0
 10
81.51992208692019
 20
-135.7371060771771
 30
0.0
  0
SPLINE
  5
BE
330
1F
100
AcDbEntity
  8
_U+30EC_U+30A4_U+30E4_U+30FC 1
 62
   179
420
  2234388
370
     9
100
AcDbSpline
210
0.0
220
0.0
230
1.0
 70
    11
 71
     3
 72
    17
 73
    13
 74
     0
 42
0.0000000001
 43
0.0000000001
 12
1.0
 22
0.0
 32
0.0
 13
1.0
 23
0.0
 33
0.0
 40
0.0
 40
0.0
 40
0.0
 40
0.0
 40
1.0
 40
1.0
 40
1.0
 40
2.0
 40
2.0
 40
2.0
 40
3.0
 40
3.0
 40
3.0
 40
4.0
 40
4.0
 40
4.0
 40
4.0
 10
81.51992208692019
 20
-122.7366805248714
 30
0.0
 10
81.51992208692019
 20
-122.6815766359961
 30
0.0
 10
81.47511931028542
 20
-122.6367738582297
 30
0.0
 10
81.42001542280235
 20
-122.6367738582297
 30
0.0
 10
81.3648762575424
 20
-122.6367738582297
 30
0.0
 10
81.32010875868451
 20
-122.6815766359961
 30
0.0
 10
81.32010875868451
 20
-122.7366805248714
 30
0.0
 10
81.32010875868451
 20
-122.7921724693019
 30
0.0
 10
81.3648762575424
 20
-122.8369399692908
 30
0.0
 10
81.42001542280235
 20
-122.8369399692908
 30
0.0
 10
81.47511931028542
 20
-122.8369399692908
 30
0.0
 10
81.51992208692019
 20
-122.7921724693019
 30
0.0
 10
81.51992208692019
 20
-122.7366805248714
 30
0.0
  0
POLYLINE
  5
BF
330
1F
100
AcDbEntity
  8
_U+30EC_U+30A4_U+30E4_U+30FC 1
 62
   179
420
  2234388
370
     9
100
AcDb2dPolyline
 66
     1
 10
0.0
 20
0.0
 30
0.0
  0
VERTEX
  5
C0
330
BF
100
AcDbEntity
  8
_U+30EC_U+30A4_U+30E4_U+30FC 1
 62
   179
420
  2234388
370
     9
100
AcDbVertex
100
AcDb2dVertex
 10
81.42001542280235
 20
-135.7371060771771
 30
0.0
  0
VERTEX
  5
C1
330
BF
100
AcDbEntity
  8
_U+30EC_U+30A4_U+30E4_U+30FC 1
 62
   179
420
  2234388
370
     9
100
AcDbVertex
100
AcDb2dVertex
 10
81.42001542280235
 20
-122.7366805248714
 30
0.0
  0
SEQEND
  5
C2
330
BF
100
AcDbEntity
  8
_U+30EC_U+30A4_U+30E4_U+30FC 1
 62
   179
420
  2234388
370
     9
  0
POLYLINE
  5
C3
330
1F
100
AcDbEntity
  8
_U+30EC_U+30A4_U+30E4_U+30FC 1
 62
   179
420
  2234388
370
     9
100
AcDb2dPolyline
 66
     1
 10
0.0
 20
0.0
 30
0.0
  0
VERTEX
  5
C4
330
C3
100
AcDbEntity
  8
_U+30EC_U+30A4_U+30E4_U+30FC 1
 62
   179
420
  2234388
370
     9
100
AcDbVertex
100
AcDb2dVertex
 10
83.87979369338152
 20
-135.7371060771771
 30
0.0
  0
VERTEX
  5
C5
330
C3
100
AcDbEntity
  8
_U+30EC_U+30A4_U+30E4_U+30FC 1
 62
   179
420
  2234388
370
     9
100
AcDbVertex
100
AcDb2dVertex
 10
80.41953767054889
 20
-135.7371060771771
 30
0.0
  0
SEQEND
  5
C6
330
C3
100
AcDbEntity
  8
_U+30EC_U+30A4_U+30E4_U+30FC 1
 62
   179
420
  2234388
370
     9
  0
INSERT
  5
C8
330
1F
100
AcDbEntity
  8
_U+30EC_U+30A4_U+30E4_U+30FC 1
100
AcDbBlockReference
  2
block 7
 10
0.0
 20
0.0
 30
0.0
  0
POLYLINE
  5
CF
330
1F
100
AcDbEntity
  8
_U+30EC_U+30A4_U+30E4_U+30FC 1
  6
AI-Linetype-1
 62
   251
420
  5855577
370
    25
100
AcDb2dPolyline
 66
     1
 10
0.0
 20
0.0
 30
0.0
  0
VERTEX
  5
D0
330
CF
100
AcDbEntity
  8
_U+30EC_U+30A4_U+30E4_U+30FC 1
  6
AI-Linetype-1
 62
   251
420
  5855577
370
    25
100
AcDbVertex
100
AcDb2dVertex
 10
86.65929445580387
 20
-122.1362174694661
 30
0.0
  0
VERTEX
  5
D1
330
CF
100
AcDbEntity
  8
_U+30EC_U+30A4_U+30E4_U+30FC 1
  6
AI-Linetype-1
 62
   251
420
  5855577
370
    25
100
AcDbVertex
100
AcDb2dVertex
 10
84.73831367147885
 20
-122.1362174694661
 30
0.0
  0
VERTEX
  5
D2
330
CF
100
AcDbEntity
  8
_U+30EC_U+30A4_U+30E4_U+30FC 1
  6
AI-Linetype-1
 62
   251
420
  5855577
370
    25
100
AcDbVertex
100
AcDb2dVertex
 10
84.73831367147885
 20
-136.4375110770019
 30
0.0
  0
VERTEX
  5
D3
330
CF
100
AcDbEntity
  8
_U+30EC_U+30A4_U+30E4_U+30FC 1
  6
AI-Linetype-1
 62
   251
420
  5855577
370
    25
100
AcDbVertex
100
AcDb2dVertex
 10
99.0206627515502
 20
-136.4375110770019
 30
0.0
  0
VERTEX
  5
D4
330
CF
100
AcDbEntity
  8
_U+30EC_U+30A4_U+30E4_U+30FC 1
  6
AI-Linetype-1
 62
   251
420
  5855577
370
    25
100
AcDbVertex
100
AcDb2dVertex
 10
99.0206627515502
 20
-134.5654252441362
 30
0.0
  0
SEQEND
  5
D6
330
CF
100
AcDbEntity
  8
_U+30EC_U+30A4_U+30E4_U+30FC 1
  6
AI-Linetype-1
 62
   251
420
  5855577
370
    25
  0
ENDSEC
  0
SECTION
  2
OBJECTS
  0
DICTIONARY
  5
C
330
0
100
AcDbDictionary
281
     1
  3
ACAD_GROUP
350
D
  3
ACAD_LAYOUT
350
1A
  3
ACAD_MATERIAL
350
3B
  3
ACAD_MLEADERSTYLE
350
D8
  3
ACAD_MLINESTYLE
350
17
  3
ACAD_PLOTSETTINGS
350
19
  3
ACAD_PLOTSTYLENAME
350
E
  3
ACAD_TABLESTYLE
350
D7
  3
ACAD_VISUALSTYLE
350
2A
  0
SUN
  5
3F
330
29
100
AcDbSun
 90
        1
290
     0
 63
     7
421
 16777215
 40
1.0
291
     1
 91
  2455826
 92
 54000000
292
     0
 70
     2
 71
   256
280
     1
  0
DICTIONARY
  5
D
102
{ACAD_REACTORS
330
C
102
}
330
C
100
AcDbDictionary
281
     1
  0
DICTIONARY
  5
1A
102
{ACAD_REACTORS
330
C
102
}
330
C
100
AcDbDictionary
281
     1
  3
Layout1
350
1E
  3
Layout2
350
26
  3
Model
350
22
  0
DICTIONARY
  5
3B
102
{ACAD_REACTORS
330
C
102
}
330
C
100
AcDbDictionary
281
     1
  3
ByBlock
350
3D
  3
ByLayer
350
3C
  3
Global
350
3E
  0
DICTIONARY
  5
D8
102
{ACAD_REACTORS
330
C
102
}
330
C
100
AcDbDictionary
281
     1
  0
DICTIONARY
  5
17
102
{ACAD_REACTORS
330
C
102
}
330
C
100
AcDbDictionary
281
     1
  3
Standard
350
18
  0
DICTIONARY
  5
19
102
{ACAD_REACTORS
330
C
102
}
330
C
100
AcDbDictionary
281
     1
  0
ACDBDICTIONARYWDFLT
  5
E
102
{ACAD_REACTORS
330
C
102
}
330
C
100
AcDbDictionary
281
     1
  3
Normal
350
F
100
AcDbDictionaryWithDefault
340
F
  0
DICTIONARY
  5
D7
102
{ACAD_REACTORS
330
C
102
}
330
C
100
AcDbDictionary
281
     1
  0
DICTIONARY
  5
2A
102
{ACAD_REACTORS
330
C
102
}
330
C
100
AcDbDictionary
281
     1
  3
2dWireframe
350
2F
  3
3D Hidden
350
31
  3
3dWireframe
350
30
  3
Basic
350
32
  3
Brighten
350
36
  3
ColorChange
350
3A
  3
Conceptual
350
34
  3
Dim
350
35
  3
Facepattern
350
39
  3
Flat
350
2B
  3
FlatWithEdges
350
2C
  3
Gouraud
350
2D
  3
GouraudWithEdges
350
2E
  3
Linepattern
350
38
  3
Realistic
350
33
  3
Thicken
350
37
  0
LAYOUT
  5
1E
102
{ACAD_REACTORS
330
1A
102
}
330
1A
100
AcDbPlotSettings
  1

  2
none_device
  4

  6

 40
0.0
 41
0.0
 42
0.0
 43
0.0
 44
0.0
 45
0.0
 46
0.0
 47
0.0
 48
0.0
 49
0.0
140
0.0
141
0.0
142
1.0
143
1.0
 70
   688
 72
     0
 73
     0
 74
     5
  7

 75
    16
 76
     0
 77
     2
 78
   300
147
1.0
148
0.0
149
0.0
100
AcDbLayout
  1
Layout1
 70
     1
 71
     1
 10
0.0
 20
0.0
 11
12.0
 21
9.0
 12
0.0
 22
0.0
 32
0.0
 14
1.000000000000000E+20
 24
1.000000000000000E+20
 34
1.000000000000000E+20
 15
-1.000000000000000E+20
 25
-1.000000000000000E+20
 35
-1.000000000000000E+20
146
0.0
 13
0.0
 23
0.0
 33
0.0
 16
1.0
 26
0.0
 36
0.0
 17
0.0
 27
1.0
 37
0.0
 76
     0
330
1B
  0
LAYOUT
  5
26
102
{ACAD_REACTORS
330
1A
102
}
330
1A
100
AcDbPlotSettings
  1

  2
none_device
  4

  6

 40
0.0
 41
0.0
 42
0.0
 43
0.0
 44
0.0
 45
0.0
 46
0.0
 47
0.0
 48
0.0
 49
0.0
140
0.0
141
0.0
142
1.0
143
1.0
 70
   688
 72
     0
 73
     0
 74
     5
  7

 75
    16
 76
     0
 77
     2
 78
   300
147
1.0
148
0.0
149
0.0
100
AcDbLayout
  1
Layout2
 70
     1
 71
     2
 10
0.0
 20
0.0
 11
0.0
 21
0.0
 12
0.0
 22
0.0
 32
0.0
 14
0.0
 24
0.0
 34
0.0
 15
0.0
 25
0.0
 35
0.0
146
0.0
 13
0.0
 23
0.0
 33
0.0
 16
1.0
 26
0.0
 36
0.0
 17
0.0
 27
1.0
 37
0.0
 76
     0
330
23
  0
LAYOUT
  5
22
102
{ACAD_REACTORS
330
1A
102
}
330
1A
100
AcDbPlotSettings
  1

  2
none_device
  4

  6

 40
0.0
 41
0.0
 42
0.0
 43
0.0
 44
0.0
 45
0.0
 46
0.0
 47
0.0
 48
0.0
 49
0.0
140
0.0
141
0.0
142
1.0
143
1.0
 70
  1712
 72
     0
 73
     0
 74
     0
  7

 75
     0
 76
     0
 77
     2
 78
   300
147
1.0
148
0.0
149
0.0
100
AcDbLayout
  1
Model
 70
     1
 71
     0
 10
0.0
 20
0.0
 11
12.0
 21
9.0
 12
0.0
 22
0.0
 32
0.0
 14
1.000000000000000E+20
 24
1.000000000000000E+20
 34
1.000000000000000E+20
 15
-1.000000000000000E+20
 25
-1.000000000000000E+20
 35
-1.000000000000000E+20
146
0.0
 13
0.0
 23
0.0
 33
0.0
 16
1.0
 26
0.0
 36
0.0
 17
0.0
 27
1.0
 37
0.0
 76
     0
330
1F
331
29
  0
MATERIAL
  5
3D
102
{ACAD_REACTORS
330
3B
102
}
330
3B
100
AcDbMaterial
  1
ByBlock
 72
     1
 94
      127
  0
MATERIAL
  5
3C
102
{ACAD_REACTORS
330
3B
102
}
330
3B
100
AcDbMaterial
  1
ByLayer
 72
     1
 94
      127
  0
MATERIAL
  5
3E
102
{ACAD_REACTORS
330
3B
102
}
330
3B
100
AcDbMaterial
  1
Global
 72
     1
 94
      127
  0
MLINESTYLE
  5
18
102
{ACAD_REACTORS
330
17
102
}
330
17
100
AcDbMlineStyle
  2
Standard
 70
     0
  3

 62
   256
 51
90.0
 52
90.0
 71
     2
 49
0.5
 62
   256
  6
BYLAYER
 49
-0.5
 62
   256
  6
BYLAYER
  0
ACDBPLACEHOLDER
  5
F
102
{ACAD_REACTORS
330
E
102
}
330
E
  0
VISUALSTYLE
  5
2F
102
{ACAD_REACTORS
330
2A
102
}
330
2A
100
AcDbVisualStyle
  2
2dWireframe
 70
     4
177
     2
291
     0
 71
     0
176
     1
 72
     2
176
     1
 73
     0
176
     1
 90
        0
176
     1
 40
-0.6
176
     1
 41
-30.0
176
     1
 62
     5
 63
     7
421
 16777215
176
     1
 74
     1
176
     1
 91
        4
176
     1
 64
     7
176
     1
 65
   257
176
     1
 75
     1
176
     1
175
     1
176
     1
 42
1.0
176
     1
 92
        0
176
     1
 66
   257
176
     1
 43
1.0
176
     1
 76
     1
176
     1
 77
     6
176
     1
 78
     2
176
     1
 67
     7
176
     1
 79
     5
176
     1
170
     0
176
     1
171
     0
176
     1
290
     0
176
     1
 93
        1
176
     1
 44
0.0
176
     1
173
     0
176
     1
  0
VISUALSTYLE
  5
31
102
{ACAD_REACTORS
330
2A
102
}
330
2A
100
AcDbVisualStyle
  2
3D Hidden
 70
     6
177
     2
291
     0
 71
     1
176
     1
 72
     2
176
     1
 73
     2
176
     1
 90
        0
176
     1
 40
-0.6
176
     1
 41
-30.0
176
     1
 62
     5
 63
     7
421
 16777215
176
     1
 74
     2
176
     1
 91
        2
176
     1
 64
     7
176
     1
 65
   257
176
     1
 75
     2
176
     1
175
     1
176
     1
 42
40.0
176
     1
 92
        0
176
     1
 66
   257
176
     1
 43
1.0
176
     1
 76
     1
176
     1
 77
     6
176
     1
 78
     2
176
     1
 67
     7
176
     1
 79
     3
176
     1
170
     0
176
     1
171
     0
176
     1
290
     0
176
     1
 93
        1
176
     1
 44
0.0
176
     1
173
     0
176
     1
  0
VISUALSTYLE
  5
30
102
{ACAD_REACTORS
330
2A
102
}
330
2A
100
AcDbVisualStyle
  2
3dWireframe
 70
     5
177
     2
291
     0
 71
     0
176
     1
 72
     2
176
     1
 73
     0
176
     1
 90
        0
176
     1
 40
-0.6
176
     1
 41
-30.0
176
     1
 62
     5
 63
     7
421
 16777215
176
     1
 74
     1
176
     1
 91
        4
176
     1
 64
     7
176
     1
 65
   257
176
     1
 75
     1
176
     1
175
     1
176
     1
 42
1.0
176
     1
 92
        0
176
     1
 66
   257
176
     1
 43
1.0
176
     1
 76
     1
176
     1
 77
     6
176
     1
 78
     2
176
     1
 67
     7
176
     1
 79
     5
176
     1
170
     0
176
     1
171
     0
176
     1
290
     0
176
     1
 93
        1
176
     1
 44
0.0
176
     1
173
     0
176
     1
  0
VISUALSTYLE
  5
32
102
{ACAD_REACTORS
330
2A
102
}
330
2A
100
AcDbVisualStyle
  2
Basic
 70
     7
177
     2
291
     1
 71
     1
176
     1
 72
     0
176
     1
 73
     1
176
     1
 90
        0
176
     1
 40
-0.6
176
     1
 41
-30.0
176
     1
 62
     5
 63
     7
421
 16777215
176
     1
 74
     0
176
     1
 91
        4
176
     1
 64
     7
176
     1
 65
   257
176
     1
 75
     1
176
     1
175
     1
176
     1
 42
1.0
176
     1
 92
        8
176
     1
 66
     7
176
     1
 43
1.0
176
     1
 76
     1
176
     1
 77
     6
176
     1
 78
     2
176
     1
 67
     7
176
     1
 79
     5
176
     1
170
     0
176
     1
171
     0
176
     1
290
     0
176
     1
 93
        1
176
     1
 44
0.0
176
     1
173
     0
176
     1
  0
VISUALSTYLE
  5
36
102
{ACAD_REACTORS
330
2A
102
}
330
2A
100
AcDbVisualStyle
  2
Brighten
 70
    12
177
     2
291
     1
 71
     2
176
     1
 72
     2
176
     1
 73
     0
176
     1
 90
        0
176
     1
 40
-0.6
176
     1
 41
-30.0
176
     1
 62
     5
 63
     7
421
 16777215
176
     1
 74
     1
176
     1
 91
        4
176
     1
 64
     7
176
     1
 65
   257
176
     1
 75
     1
176
     1
175
     1
176
     1
 42
1.0
176
     1
 92
        8
176
     1
 66
     7
176
     1
 43
1.0
176
     1
 76
     1
176
     1
 77
     6
176
     1
 78
     2
176
     1
 67
     7
176
     1
 79
     5
176
     1
170
     0
176
     1
171
     0
176
     1
290
     0
176
     1
 93
        1
176
     1
 44
50.0
176
     1
173
     0
176
     1
  0
VISUALSTYLE
  5
3A
102
{ACAD_REACTORS
330
2A
102
}
330
2A
100
AcDbVisualStyle
  2
ColorChange
 70
    16
177
     2
291
     1
 71
     2
176
     1
 72
     2
176
     1
 73
     3
176
     1
 90
        0
176
     1
 40
-0.6
176
     1
 41
-30.0
176
     1
 62
     5
 63
     8
421
  8421504
176
     1
 74
     1
176
     1
 91
        4
176
     1
 64
     7
176
     1
 65
   257
176
     1
 75
     1
176
     1
175
     1
176
     1
 42
1.0
176
     1
 92
        8
176
     1
 66
     8
424
  8421504
176
     1
 43
1.0
176
     1
 76
     1
176
     1
 77
     6
176
     1
 78
     2
176
     1
 67
     7
176
     1
 79
     5
176
     1
170
     0
176
     1
171
     0
176
     1
290
     0
176
     1
 93
        1
176
     1
 44
0.0
176
     1
173
     0
176
     1
  0
VISUALSTYLE
  5
34
102
{ACAD_REACTORS
330
2A
102
}
330
2A
100
AcDbVisualStyle
  2
Conceptual
 70
     9
177
     2
291
     0
 71
     3
176
     1
 72
     2
176
     1
 73
     0
176
     1
 90
        0
176
     1
 40
-0.6
176
     1
 41
-30.0
176
     1
 62
     5
 63
     7
421
 16777215
176
     1
 74
     2
176
     1
 91
        2
176
     1
 64
     7
176
     1
 65
   257
176
     1
 75
     1
176
     1
175
     1
176
     1
 42
40.0
176
     1
 92
        8
176
     1
 66
     7
176
     1
 43
1.0
176
     1
 76
     1
176
     1
 77
     6
176
     1
 78
     2
176
     1
 67
     7
176
     1
 79
     3
176
     1
170
     0
176
     1
171
     0
176
     1
290
     0
176
     1
 93
        1
176
     1
 44
0.0
176
     1
173
     0
176
     1
  0
VISUALSTYLE
  5
35
102
{ACAD_REACTORS
330
2A
102
}
330
2A
100
AcDbVisualStyle
  2
Dim
 70
    11
177
     2
291
     1
 71
     2
176
     1
 72
     2
176
     1
 73
     0
176
     1
 90
        0
176
     1
 40
-0.6
176
     1
 41
-30.0
176
     1
 62
     5
 63
     7
421
 16777215
176
     1
 74
     1
176
     1
 91
        4
176
     1
 64
     7
176
     1
 65
   257
176
     1
 75
     1
176
     1
175
     1
176
     1
 42
1.0
176
     1
 92
        8
176
     1
 66
     7
176
     1
 43
1.0
176
     1
 76
     1
176
     1
 77
     6
176
     1
 78
     2
176
     1
 67
     7
176
     1
 79
     5
176
     1
170
     0
176
     1
171
     0
176
     1
290
     0
176
     1
 93
        1
176
     1
 44
-50.0
176
     1
173
     0
176
     1
  0
VISUALSTYLE
  5
39
102
{ACAD_REACTORS
330
2A
102
}
330
2A
100
AcDbVisualStyle
  2
Facepattern
 70
    15
177
     2
291
     1
 71
     2
176
     1
 72
     2
176
     1
 73
     0
176
     1
 90
        0
176
     1
 40
-0.6
176
     1
 41
-30.0
176
     1
 62
     5
 63
     7
421
 16777215
176
     1
 74
     1
176
     1
 91
        4
176
     1
 64
     7
176
     1
 65
   257
176
     1
 75
     1
176
     1
175
     1
176
     1
 42
1.0
176
     1
 92
        8
176
     1
 66
     7
176
     1
 43
1.0
176
     1
 76
     1
176
     1
 77
     6
176
     1
 78
     2
176
     1
 67
     7
176
     1
 79
     5
176
     1
170
     0
176
     1
171
     0
176
     1
290
     0
176
     1
 93
        1
176
     1
 44
0.0
176
     1
173
     0
176
     1
  0
VISUALSTYLE
  5
2B
102
{ACAD_REACTORS
330
2A
102
}
330
2A
100
AcDbVisualStyle
  2
Flat
 70
     0
177
     2
291
     1
 71
     2
176
     1
 72
     1
176
     1
 73
     1
176
     1
 90
        2
176
     1
 40
-0.6
176
     1
 41
30.0
176
     1
 62
     5
 63
     7
421
 16777215
176
     1
 74
     0
176
     1
 91
        4
176
     1
 64
     7
176
     1
 65
   257
176
     1
 75
     1
176
     1
175
     1
176
     1
 42
1.0
176
     1
 92
        8
176
     1
 66
     7
176
     1
 43
1.0
176
     1
 76
     1
176
     1
 77
     6
176
     1
 78
     2
176
     1
 67
     7
176
     1
 79
     5
176
     1
170
     0
176
     1
171
     0
176
     1
290
     0
176
     1
 93
       13
176
     1
 44
0.0
176
     1
173
     0
176
     1
  0
VISUALSTYLE
  5
2C
102
{ACAD_REACTORS
330
2A
102
}
330
2A
100
AcDbVisualStyle
  2
FlatWithEdges
 70
     1
177
     2
291
     1
 71
     2
176
     1
 72
     1
176
     1
 73
     1
176
     1
 90
        2
176
     1
 40
-0.6
176
     1
 41
30.0
176
     1
 62
     5
 63
     7
421
 16777215
176
     1
 74
     1
176
     1
 91
        4
176
     1
 64
     7
176
     1
 65
   257
176
     1
 75
     1
176
     1
175
     1
176
     1
 42
1.0
176
     1
 92
        0
176
     1
 66
   257
176
     1
 43
1.0
176
     1
 76
     1
176
     1
 77
     6
176
     1
 78
     2
176
     1
 67
     7
176
     1
 79
     5
176
     1
170
     0
176
     1
171
     0
176
     1
290
     0
176
     1
 93
       13
176
     1
 44
0.0
176
     1
173
     0
176
     1
  0
VISUALSTYLE
  5
2D
102
{ACAD_REACTORS
330
2A
102
}
330
2A
100
AcDbVisualStyle
  2
Gouraud
 70
     2
177
     2
291
     1
 71
     2
176
     1
 72
     2
176
     1
 73
     1
176
     1
 90
        2
176
     1
 40
-0.6
176
     1
 41
30.0
176
     1
 62
     5
 63
     7
421
 16777215
176
     1
 74
     0
176
     1
 91
        4
176
     1
 64
     7
176
     1
 65
   257
176
     1
 75
     1
176
     1
175
     1
176
     1
 42
1.0
176
     1
 92
        0
176
     1
 66
     7
176
     1
 43
1.0
176
     1
 76
     1
176
     1
 77
     6
176
     1
 78
     2
176
     1
 67
     7
176
     1
 79
     5
176
     1
170
     0
176
     1
171
     0
176
     1
290
     0
176
     1
 93
       13
176
     1
 44
0.0
176
     1
173
     0
176
     1
  0
VISUALSTYLE
  5
2E
102
{ACAD_REACTORS
330
2A
102
}
330
2A
100
AcDbVisualStyle
  2
GouraudWithEdges
 70
     3
177
     2
291
     1
 71
     2
176
     1
 72
     2
176
     1
 73
     1
176
     1
 90
        2
176
     1
 40
-0.6
176
     1
 41
30.0
176
     1
 62
     5
 63
     7
421
 16777215
176
     1
 74
     1
176
     1
 91
        4
176
     1
 64
     7
176
     1
 65
   257
176
     1
 75
     1
176
     1
175
     1
176
     1
 42
1.0
176
     1
 92
        0
176
     1
 66
   257
176
     1
 43
1.0
176
     1
 76
     1
176
     1
 77
     6
176
     1
 78
     2
176
     1
 67
     7
176
     1
 79
     5
176
     1
170
     0
176
     1
171
     0
176
     1
290
     0
176
     1
 93
       13
176
     1
 44
0.0
176
     1
173
     0
176
     1
  0
VISUALSTYLE
  5
38
102
{ACAD_REACTORS
330
2A
102
}
330
2A
100
AcDbVisualStyle
  2
Linepattern
 70
    14
177
     2
291
     1
 71
     2
176
     1
 72
     2
176
     1
 73
     0
176
     1
 90
        0
176
     1
 40
-0.6
176
     1
 41
-30.0
176
     1
 62
     5
 63
     7
421
 16777215
176
     1
 74
     1
176
     1
 91
        4
176
     1
 64
     7
176
     1
 65
   257
176
     1
 75
     7
176
     1
175
     7
176
     1
 42
1.0
176
     1
 92
        8
176
     1
 66
     7
176
     1
 43
1.0
176
     1
 76
     1
176
     1
 77
     6
176
     1
 78
     2
176
     1
 67
     7
176
     1
 79
     5
176
     1
170
     0
176
     1
171
     0
176
     1
290
     0
176
     1
 93
        1
176
     1
 44
0.0
176
     1
173
     0
176
     1
  0
VISUALSTYLE
  5
33
102
{ACAD_REACTORS
330
2A
102
}
330
2A
100
AcDbVisualStyle
  2
Realistic
 70
     8
177
     2
291
     0
 71
     2
176
     1
 72
     2
176
     1
 73
     0
176
     1
 90
        0
176
     1
 40
-0.6
176
     1
 41
-30.0
176
     1
 62
     5
 63
     7
421
 16777215
176
     1
 74
     1
176
     1
 91
        0
176
     1
 64
     7
176
     1
 65
   257
176
     1
 75
     1
176
     1
175
     1
176
     1
 42
1.0
176
     1
 92
        8
176
     1
 66
     8
424
  7895160
176
     1
 43
1.0
176
     1
 76
     1
176
     1
 77
     6
176
     1
 78
     2
176
     1
 67
     7
176
     1
 79
     5
176
     1
170
     0
176
     1
171
     0
176
     1
290
     0
176
     1
 93
       13
176
     1
 44
0.0
176
     1
173
     0
176
     1
  0
VISUALSTYLE
  5
37
102
{ACAD_REACTORS
330
2A
102
}
330
2A
100
AcDbVisualStyle
  2
Thicken
 70
    13
177
     2
291
     1
 71
     2
176
     1
 72
     2
176
     1
 73
     0
176
     1
 90
        0
176
     1
 40
-0.6
176
     1
 41
-30.0
176
     1
 62
     5
 63
     7
421
 16777215
176
     1
 74
     1
176
     1
 91
        4
176
     1
 64
     7
176
     1
 65
   257
176
     1
 75
     1
176
     1
175
     1
176
     1
 42
1.0
176
     1
 92
       12
176
     1
 66
     7
176
     1
 43
1.0
176
     1
 76
     1
176
     1
 77
     6
176
     1
 78
     2
176
     1
 67
     7
176
     1
 79
     5
176
     1
170
     0
176
     1
171
     0
176
     1
290
     0
176
     1
 93
        1
176
     1
 44
0.0
176
     1
173
     0
176
     1
  0
ENDSEC
  0
EOF
