  0
SECTION
  2
HEADER
  9
$ACADVER
  1
AC1024
  9
$ACADMAINTVER
 70
     6
  9
$DWGCODEPAGE
  3
UNDEFINED
  9
$INSBASE
 10
0.0
 20
0.0
 30
0.0
  9
$EXTMIN
 10
1.000000000000000E+20
 20
1.000000000000000E+20
 30
1.000000000000000E+20
  9
$EXTMAX
 10
-1.000000000000000E+20
 20
-1.000000000000000E+20
 30
-1.000000000000000E+20
  9
$LIMMIN
 10
0.0
 20
0.0
  9
$LIMMAX
 10
12.0
 20
9.0
  9
$ORTHOMODE
 70
     0
  9
$REGENMODE
 70
     1
  9
$FILLMODE
 70
     1
  9
$QTEXTMODE
 70
     0
  9
$MIRRTEXT
 70
     1
  9
$LTSCALE
 40
1.0
  9
$ATTMODE
 70
     1
  9
$TEXTSIZE
 40
0.2
  9
$TRACEWID
 40
0.05
  9
$TEXTSTYLE
  7
Standard
  9
$CLAYER
  8
0
  9
$CELTYPE
  6
ByLayer
  9
$CECOLOR
 62
   256
  9
$CELTSCALE
 40
1.0
  9
$DISPSILH
 70
     0
  9
$DIMSCALE
 40
1.0
  9
$DIMASZ
 40
0.18
  9
$DIMEXO
 40
0.0625
  9
$DIMDLI
 40
0.38
  9
$DIMRND
 40
0.0
  9
$DIMDLE
 40
0.0
  9
$DIMEXE
 40
0.18
  9
$DIMTP
 40
0.0
  9
$DIMTM
 40
0.0
  9
$DIMTXT
 40
0.18
  9
$DIMCEN
 40
0.09
  9
$DIMTSZ
 40
0.0
  9
$DIMTOL
 70
     0
  9
$DIMLIM
 70
     0
  9
$DIMTIH
 70
     1
  9
$DIMTOH
 70
     1
  9
$DIMSE1
 70
     0
  9
$DIMSE2
 70
     0
  9
$DIMTAD
 70
     0
  9
$DIMZIN
 70
     0
  9
$DIMBLK
  1

  9
$DIMASO
 70
     1
  9
$DIMSHO
 70
     1
  9
$DIMPOST
  1

  9
$DIMAPOST
  1

  9
$DIMALT
 70
     0
  9
$DIMALTD
 70
     2
  9
$DIMALTF
 40
25.4
  9
$DIMLFAC
 40
1.0
  9
$DIMTOFL
 70
     0
  9
$DIMTVP
 40
0.0
  9
$DIMTIX
 70
     0
  9
$DIMSOXD
 70
     0
  9
$DIMSAH
 70
     0
  9
$DIMBLK1
  1

  9
$DIMBLK2
  1

  9
$DIMSTYLE
  2
Standard
  9
$DIMCLRD
 70
     0
  9
$DIMCLRE
 70
     0
  9
$DIMCLRT
 70
     0
  9
$DIMTFAC
 40
1.0
  9
$DIMGAP
 40
0.09
  9
$DIMJUST
 70
     0
  9
$DIMSD1
 70
     0
  9
$DIMSD2
 70
     0
  9
$DIMTOLJ
 70
     1
  9
$DIMTZIN
 70
     0
  9
$DIMALTZ
 70
     0
  9
$DIMALTTZ
 70
     0
  9
$DIMUPT
 70
     0
  9
$DIMDEC
 70
     4
  9
$DIMTDEC
 70
     4
  9
$DIMALTU
 70
     2
  9
$DIMALTTD
 70
     2
  9
$DIMTXSTY
  7
Standard
  9
$DIMAUNIT
 70
     0
  9
$DIMADEC
 70
     0
  9
$DIMALTRND
 40
0.0
  9
$DIMAZIN
 70
     0
  9
$DIMDSEP
 70
    46
  9
$DIMATFIT
 70
     3
  9
$DIMFRAC
 70
     0
  9
$DIMLDRBLK
  1

  9
$DIMLUNIT
 70
     2
  9
$DIMLWD
 70
    -2
  9
$DIMLWE
 70
    -2
  9
$DIMTMOVE
 70
     0
  9
$DIMFXL
 40
1.0
  9
$DIMFXLON
 70
     0
  9
$DIMJOGANG
 40
0.7853981633974483
  9
$DIMTFILL
 70
     0
  9
$DIMTFILLCLR
 70
     0
  9
$DIMARCSYM
 70
     0
  9
$DIMLTYPE
  6

  9
$DIMLTEX1
  6

  9
$DIMLTEX2
  6

  9
$DIMTXTDIRECTION
 70
     0
  9
$LUNITS
 70
     2
  9
$LUPREC
 70
     4
  9
$SKETCHINC
 40
0.1
  9
$FILLETRAD
 40
0.5
  9
$AUNITS
 70
     0
  9
$AUPREC
 70
     0
  9
$MENU
  1
.
  9
$ELEVATION
 40
0.0
  9
$PELEVATION
 40
0.0
  9
$THICKNESS
 40
0.0
  9
$LIMCHECK
 70
     0
  9
$CHAMFERA
 40
0.5
  9
$CHAMFERB
 40
0.5
  9
$CHAMFERC
 40
1.0
  9
$CHAMFERD
 40
0.0
  9
$SKPOLY
 70
     0
  9
$TDCREATE
 40
2458263.582800915
  9
$TDUCREATE
 40
2458263.207800926
  9
$TDUPDATE
 40
2458263.582800915
  9
$TDUUPDATE
 40
2458263.207800926
  9
$TDINDWG
 40
0.0000000116
  9
$TDUSRTIMER
 40
0.0000000116
  9
$USRTIMER
 70
     1
  9
$ANGBASE
 50
0.0
  9
$ANGDIR
 70
     0
  9
$PDMODE
 70
     0
  9
$PDSIZE
 40
0.0
  9
$PLINEWID
 40
0.0
  9
$SPLFRAME
 70
     0
  9
$SPLINETYPE
 70
     6
  9
$SPLINESEGS
 70
     8
  9
$HANDSEED
  5
D6
  9
$SURFTAB1
 70
     6
  9
$SURFTAB2
 70
     6
  9
$SURFTYPE
 70
     6
  9
$SURFU
 70
     6
  9
$SURFV
 70
     6
  9
$UCSBASE
  2

  9
$UCSNAME
  2

  9
$UCSORG
 10
0.0
 20
0.0
 30
0.0
  9
$UCSXDIR
 10
1.0
 20
0.0
 30
0.0
  9
$UCSYDIR
 10
0.0
 20
1.0
 30
0.0
  9
$UCSORTHOREF
  2

  9
$UCSORTHOVIEW
 70
     0
  9
$UCSORGTOP
 10
0.0
 20
0.0
 30
0.0
  9
$UCSORGBOTTOM
 10
0.0
 20
0.0
 30
0.0
  9
$UCSORGLEFT
 10
0.0
 20
0.0
 30
0.0
  9
$UCSORGRIGHT
 10
0.0
 20
0.0
 30
0.0
  9
$UCSORGFRONT
 10
0.0
 20
0.0
 30
0.0
  9
$UCSORGBACK
 10
0.0
 20
0.0
 30
0.0
  9
$PUCSBASE
  2

  9
$PUCSNAME
  2

  9
$PUCSORG
 10
0.0
 20
0.0
 30
0.0
  9
$PUCSXDIR
 10
1.0
 20
0.0
 30
0.0
  9
$PUCSYDIR
 10
0.0
 20
1.0
 30
0.0
  9
$PUCSORTHOREF
  2

  9
$PUCSORTHOVIEW
 70
     0
  9
$PUCSORGTOP
 10
0.0
 20
0.0
 30
0.0
  9
$PUCSORGBOTTOM
 10
0.0
 20
0.0
 30
0.0
  9
$PUCSORGLEFT
 10
0.0
 20
0.0
 30
0.0
  9
$PUCSORGRIGHT
 10
0.0
 20
0.0
 30
0.0
  9
$PUCSORGFRONT
 10
0.0
 20
0.0
 30
0.0
  9
$PUCSORGBACK
 10
0.0
 20
0.0
 30
0.0
  9
$USERI1
 70
     0
  9
$USERI2
 70
     0
  9
$USERI3
 70
     0
  9
$USERI4
 70
     0
  9
$USERI5
 70
     0
  9
$USERR1
 40
0.0
  9
$USERR2
 40
0.0
  9
$USERR3
 40
0.0
  9
$USERR4
 40
0.0
  9
$USERR5
 40
0.0
  9
$WORLDVIEW
 70
     1
  9
$SHADEDGE
 70
     3
  9
$SHADEDIF
 70
    70
  9
$TILEMODE
 70
     1
  9
$MAXACTVP
 70
    64
  9
$PINSBASE
 10
0.0
 20
0.0
 30
0.0
  9
$PLIMCHECK
 70
     0
  9
$PEXTMIN
 10
1.000000000000000E+20
 20
1.000000000000000E+20
 30
1.000000000000000E+20
  9
$PEXTMAX
 10
-1.000000000000000E+20
 20
-1.000000000000000E+20
 30
-1.000000000000000E+20
  9
$PLIMMIN
 10
0.0
 20
0.0
  9
$PLIMMAX
 10
12.0
 20
9.0
  9
$UNITMODE
 70
     0
  9
$VISRETAIN
 70
     1
  9
$PLINEGEN
 70
     0
  9
$PSLTSCALE
 70
     1
  9
$TREEDEPTH
 70
  3020
  9
$CMLSTYLE
  2
Standard
  9
$CMLJUST
 70
     0
  9
$CMLSCALE
 40
1.0
  9
$PROXYGRAPHICS
 70
     1
  9
$MEASUREMENT
 70
     0
  9
$CELWEIGHT
370
    -1
  9
$ENDCAPS
280
     0
  9
$JOINSTYLE
280
     0
  9
$LWDISPLAY
290
     1
  9
$INSUNITS
 70
     1
  9
$HYPERLINKBASE
  1

  9
$STYLESHEET
  1

  9
$XEDIT
290
     1
  9
$CEPSNTYPE
380
     0
  9
$PSTYLEMODE
290
     1
  9
$FINGERPRINTGUID
  2
{F34A0D11-C306-2303-6193-FE7A28782144}
  9
$VERSIONGUID
  2
{FAEB1C32-E019-11D5-929B-00C0DF256EC4}
  9
$EXTNAMES
290
     1
  9
$PSVPSCALE
 40
0.0
  9
$OLESTARTUP
290
     0
  9
$SORTENTS
280
   127
  9
$INDEXCTL
280
     0
  9
$HIDETEXT
280
     1
  9
$XCLIPFRAME
280
     2
  9
$HALOGAP
280
     0
  9
$OBSCOLOR
 70
   257
  9
$OBSLTYPE
280
     0
  9
$INTERSECTIONDISPLAY
280
     0
  9
$INTERSECTIONCOLOR
 70
   257
  9
$DIMASSOC
280
     2
  9
$PROJECTNAME
  1

  9
$CAMERADISPLAY
290
     0
  9
$LENSLENGTH
 40
50.0
  9
$CAMERAHEIGHT
 40
0.0
  9
$STEPSPERSEC
 40
2.0
  9
$STEPSIZE
 40
6.0
  9
$3DDWFPREC
 40
2.0
  9
$PSOLWIDTH
 40
0.25
  9
$PSOLHEIGHT
 40
4.0
  9
$LOFTANG1
 40
1.570796326794897
  9
$LOFTANG2
 40
1.570796326794897
  9
$LOFTMAG1
 40
0.0
  9
$LOFTMAG2
 40
0.0
  9
$LOFTPARAM
 70
     7
  9
$LOFTNORMALS
280
     1
  9
$LATITUDE
 40
37.795
  9
$LONGITUDE
 40
-122.394
  9
$NORTHDIRECTION
 40
0.0
  9
$TIMEZONE
 70
 -8000
  9
$LIGHTGLYPHDISPLAY
280
     1
  9
$TILEMODELIGHTSYNCH
280
     1
  9
$CMATERIAL
347
3C
  9
$SOLIDHIST
280
     1
  9
$SHOWHIST
280
     1
  9
$DWFFRAME
280
     2
  9
$DGNFRAME
280
     2
  9
$REALWORLDSCALE
290
     1
  9
$INTERFERECOLOR
 62
   256
  9
$CSHADOW
280
     0
  9
$SHADOWPLANELOCATION
 40
0.0
  0
ENDSEC
  0
SECTION
  2
CLASSES
  0
CLASS
  1
ACDBDICTIONARYWDFLT
  2
AcDbDictionaryWithDefault
  3
ObjectDBX Classes
 90
        0
 91
        4
280
     0
281
     0
  0
CLASS
  1
VISUALSTYLE
  2
AcDbVisualStyle
  3
ObjectDBX Classes
 90
     4095
 91
        4
280
     0
281
     0
  0
CLASS
  1
MATERIAL
  2
AcDbMaterial
  3
ObjectDBX Classes
 90
     1153
 91
        4
280
     0
281
     0
  0
CLASS
  1
SUN
  2
AcDbSun
  3
SCENEOE
 90
     1024
 91
        4
280
     0
281
     0
  0
ENDSEC
  0
SECTION
  2
TABLES
  0
TABLE
  2
VPORT
  5
8
330
0
100
AcDbSymbolTable
 70
     1
  0
VPORT
  5
29
330
8
100
AcDbSymbolTableRecord
100
AcDbViewportTableRecord
  2
*Active
 70
     0
 10
0.0
 20
0.0
 11
1.0
 21
1.0
 12
0.0
 22
0.0
 13
0.0
 23
0.0
 14
0.5
 24
0.5
 15
0.5
 25
0.5
 16
0.0
 26
0.0
 36
1.0
 17
105.0007777515277
 27
-148.5000416295416
 37
0.0
 40
297.0000832590831
 41
0.7070757462376333
 42
50.0
 43
0.0
 44
0.0
 50
0.0
 51
0.0
 71
     0
 72
   100
 73
     1
 74
     3
 75
     0
 76
     0
 77
     0
 78
     0
281
     0
 65
     1
110
0.0
120
0.0
130
0.0
111
1.0
121
0.0
131
0.0
112
0.0
122
1.0
132
0.0
 79
     0
146
0.0
 60
     3
 61
     5
292
     1
282
     1
141
0.0
142
0.0
 63
   250
361
3F
  0
ENDTAB
  0
TABLE
  2
LTYPE
  5
5
330
0
100
AcDbSymbolTable
 70
     1
  0
LTYPE
  5
14
330
5
100
AcDbSymbolTableRecord
100
AcDbLinetypeTableRecord
  2
ByBlock
 70
     0
  3

 72
    65
 73
     0
 40
0.0
  0
LTYPE
  5
15
330
5
100
AcDbSymbolTableRecord
100
AcDbLinetypeTableRecord
  2
ByLayer
 70
     0
  3

 72
    65
 73
     0
 40
0.0
  0
LTYPE
  5
16
330
5
100
AcDbSymbolTableRecord
100
AcDbLinetypeTableRecord
  2
Continuous
 70
     0
  3
Solid line
 72
    65
 73
     0
 40
0.0
  0
ENDTAB
  0
TABLE
  2
LAYER
  5
2
330
0
100
AcDbSymbolTable
 70
     2
  0
LAYER
  5
10
330
2
100
AcDbSymbolTableRecord
100
AcDbLayerTableRecord
  2
0
 70
     0
 62
     7
  6
Continuous
370
    -3
390
F
347
3E
  0
LAYER
  5
40
330
2
100
AcDbSymbolTableRecord
100
AcDbLayerTableRecord
  2
_U+30EC_U+30A4_U+30E4_U+30FC 1
 70
     0
 62
     7
  6
Continuous
370
    -3
390
F
347
3E
  0
ENDTAB
  0
TABLE
  2
STYLE
  5
3
330
0
100
AcDbSymbolTable
 70
     1
  0
STYLE
  5
11
330
3
100
AcDbSymbolTableRecord
100
AcDbTextStyleTableRecord
  2
Standard
 70
     0
 40
0.0
 41
1.0
 50
0.0
 71
     0
 42
0.2
  3
txt
  4

  0
ENDTAB
  0
TABLE
  2
VIEW
  5
6
330
0
100
AcDbSymbolTable
 70
     0
  0
ENDTAB
  0
TABLE
  2
UCS
  5
7
330
0
100
AcDbSymbolTable
 70
     0
  0
ENDTAB
  0
TABLE
  2
APPID
  5
9
330
0
100
AcDbSymbolTable
 70
     1
  0
APPID
  5
12
330
9
100
AcDbSymbolTableRecord
100
AcDbRegAppTableRecord
  2
ACAD
 70
     0
  0
ENDTAB
  0
TABLE
  2
DIMSTYLE
  5
A
330
0
100
AcDbSymbolTable
 70
     1
100
AcDbDimStyleTable
  0
DIMSTYLE
105
27
330
A
100
AcDbSymbolTableRecord
100
AcDbDimStyleTableRecord
  2
Standard
 70
     0
178
     0
340
11
  0
ENDTAB
  0
TABLE
  2
BLOCK_RECORD
  5
1
330
0
100
AcDbSymbolTable
 70
     7
  0
BLOCK_RECORD
  5
1F
330
1
100
AcDbSymbolTableRecord
100
AcDbBlockTableRecord
  2
*Model_Space
340
22
 70
     0
280
     1
281
     0
  0
BLOCK_RECORD
  5
1B
330
1
100
AcDbSymbolTableRecord
100
AcDbBlockTableRecord
  2
*Paper_Space
340
1E
 70
     0
280
     1
281
     0
  0
BLOCK_RECORD
  5
23
330
1
100
AcDbSymbolTableRecord
100
AcDbBlockTableRecord
  2
*Paper_Space0
340
26
 70
     0
280
     1
281
     0
  0
BLOCK_RECORD
  5
63
330
1
100
AcDbSymbolTableRecord
100
AcDbBlockTableRecord
  2
block 2
340
0
102
{BLKREFS
331
64
102
}
 70
     0
280
     1
281
     0
  0
BLOCK_RECORD
  5
73
330
1
100
AcDbSymbolTableRecord
100
AcDbBlockTableRecord
  2
block 3
340
0
102
{BLKREFS
331
74
102
}
 70
     0
280
     1
281
     0
  0
BLOCK_RECORD
  5
85
330
1
100
AcDbSymbolTableRecord
100
AcDbBlockTableRecord
  2
block 4
340
0
102
{BLKREFS
331
86
102
}
 70
     0
280
     1
281
     0
  0
BLOCK_RECORD
  5
93
330
1
100
AcDbSymbolTableRecord
100
AcDbBlockTableRecord
  2
block 5
340
0
102
{BLKREFS
331
94
102
}
 70
     0
280
     1
281
     0
  0
BLOCK_RECORD
  5
99
330
1
100
AcDbSymbolTableRecord
100
AcDbBlockTableRecord
  2
block 6
340
0
102
{BLKREFS
331
9A
102
}
 70
     0
280
     1
281
     0
  0
BLOCK_RECORD
  5
B6
330
1
100
AcDbSymbolTableRecord
100
AcDbBlockTableRecord
  2
block 7
340
0
102
{BLKREFS
331
B7
102
}
 70
     0
280
     1
281
     0
  0
ENDTAB
  0
ENDSEC
  0
SECTION
  2
BLOCKS
  0
BLOCK
  5
20
330
1F
100
AcDbEntity
  8
0
100
AcDbBlockBegin
  2
*Model_Space
 70
     0
 10
0.0
 20
0.0
 30
0.0
  3
*Model_Space
  1

  0
ENDBLK
  5
21
330
1F
100
AcDbEntity
  8
0
100
AcDbBlockEnd
  0
BLOCK
  5
1C
330
1B
100
AcDbEntity
 67
     1
  8
0
100
AcDbBlockBegin
  2
*Paper_Space
 70
     0
 10
0.0
 20
0.0
 30
0.0
  3
*Paper_Space
  1

  0
ENDBLK
  5
1D
330
1B
100
AcDbEntity
 67
     1
  8
0
100
AcDbBlockEnd
  0
BLOCK
  5
24
330
23
100
AcDbEntity
  8
0
100
AcDbBlockBegin
  2
*Paper_Space0
 70
     0
 10
0.0
 20
0.0
 30
0.0
  3
*Paper_Space0
  1

  0
ENDBLK
  5
25
330
23
100
AcDbEntity
  8
0
100
AcDbBlockEnd
  0
BLOCK
  5
65
330
63
100
AcDbEntity
  8
0
100
AcDbBlockBegin
  2
block 2
 70
     0
 10
0.0
 20
0.0
 30
0.0
  3
block 2
  1

  0
SPLINE
  5
67
330
63
100
AcDbEntity
  8
_U+30EC_U+30A4_U+30E4_U+30FC 1
370
     0
100
AcDbSpline
210
0.0
220
0.0
230
1.0
 70
    11
 71
     3
 72
    26
 73
    22
 74
     0
 42
0.0000000001
 43
0.0000000001
 12
1.0
 22
0.0
 32
0.0
 13
1.0
 23
0.0
 33
0.0
 40
0.0
 40
0.0
 40
0.0
 40
0.0
 40
1.0
 40
1.0
 40
1.0
 40
2.0
 40
2.0
 40
2.0
 40
3.0
 40
3.0
 40
3.0
 40
4.0
 40
4.0
 40
4.0
 40
5.0
 40
5.0
 40
5.0
 40
6.0
 40
6.0
 40
6.0
 40
7.0
 40
7.0
 40
7.0
 40
7.0
 10
112.6415310048257
 20
-142.768546513787
 30
0.0
 10
112.6415310048257
 20
-142.768546513787
 30
0.0
 10
111.5370333922546
 20
-142.768546513787
 30
0.0
 10
111.5370333922546
 20
-142.768546513787
 30
0.0
 10
111.5370333922546
 20
-142.768546513787
 30
0.0
 10
111.5370333922546
 20
-143.098586661274
 30
0.0
 10
111.5370333922546
 20
-143.098586661274
 30
0.0
 10
111.5370333922546
 20
-143.098586661274
 30
0.0
 10
111.3888942863889
 20
-143.098586661274
 30
0.0
 10
111.3888942863889
 20
-143.098586661274
 30
0.0
 10
111.3744248853508
 20
-142.7664794564959
 30
0.0
 10
111.21112735935
 20
-142.719970667445
 30
0.0
 10
111.0970946987882
 20
-142.6903428462719
 30
0.0
 10
111.0970946987882
 20
-142.6903428462719
 30
0.0
 10
111.0970946987882
 20
-142.5442707976973
 30
0.0
 10
111.0970946987882
 20
-142.5442707976973
 30
0.0
 10
111.0970946987882
 20
-142.5442707976973
 30
0.0
 10
112.6415310048257
 20
-142.5442707976973
 30
0.0
 10
112.6415310048257
 20
-142.5442707976973
 30
0.0
 10
112.6415310048257
 20
-142.5442707976973
 30
0.0
 10
112.6415310048257
 20
-142.768546513787
 30
0.0
 10
112.6415310048257
 20
-142.768546513787
 30
0.0
  0
HATCH
  5
68
330
63
100
AcDbEntity
  8
_U+30EC_U+30A4_U+30E4_U+30FC 1
 62
   179
420
  2234388
100
AcDbHatch
 10
0.0
 20
0.0
 30
0.0
210
0.0
220
0.0
230
1.0
  2
SOLID
 70
     1
 71
     0
 91
        1
 92
        1
 93
        1
 72
     4
 94
        3
 73
     0
 74
     1
 95
       26
 96
       22
 40
0.0
 40
0.0
 40
0.0
 40
0.0
 40
1.0
 40
1.0
 40
1.0
 40
2.0
 40
2.0
 40
2.0
 40
3.0
 40
3.0
 40
3.0
 40
4.0
 40
4.0
 40
4.0
 40
5.0
 40
5.0
 40
5.0
 40
6.0
 40
6.0
 40
6.0
 40
7.0
 40
7.0
 40
7.0
 40
7.0
 10
112.6415310048257
 20
-142.768546513787
 10
112.6415310048257
 20
-142.768546513787
 10
111.5370333922546
 20
-142.768546513787
 10
111.5370333922546
 20
-142.768546513787
 10
111.5370333922546
 20
-142.768546513787
 10
111.5370333922546
 20
-143.098586661274
 10
111.5370333922546
 20
-143.098586661274
 10
111.5370333922546
 20
-143.098586661274
 10
111.3888942863889
 20
-143.098586661274
 10
111.3888942863889
 20
-143.098586661274
 10
111.3744248853508
 20
-142.7664794564959
 10
111.21112735935
 20
-142.719970667445
 10
111.0970946987882
 20
-142.6903428462719
 10
111.0970946987882
 20
-142.6903428462719
 10
111.0970946987882
 20
-142.5442707976973
 10
111.0970946987882
 20
-142.5442707976973
 10
111.0970946987882
 20
-142.5442707976973
 10
112.6415310048257
 20
-142.5442707976973
 10
112.6415310048257
 20
-142.5442707976973
 10
112.6415310048257
 20
-142.5442707976973
 10
112.6415310048257
 20
-142.768546513787
 10
112.6415310048257
 20
-142.768546513787
 97
        0
 97
        0
 75
     2
 76
     1
 98
        0
  0
POLYLINE
  5
69
330
63
100
AcDbEntity
  8
_U+30EC_U+30A4_U+30E4_U+30FC 1
370
     0
100
AcDb2dPolyline
 66
     1
 10
0.0
 20
0.0
 30
0.0
  0
VERTEX
  5
6A
330
69
100
AcDbEntity
  8
_U+30EC_U+30A4_U+30E4_U+30FC 1
370
     0
100
AcDbVertex
100
AcDb2dVertex
 10
112.6415310048257
 20
-141.9830647431501
 30
0.0
  0
VERTEX
  5
6B
330
69
100
AcDbEntity
  8
_U+30EC_U+30A4_U+30E4_U+30FC 1
370
     0
100
AcDbVertex
100
AcDb2dVertex
 10
112.389694524854
 20
-141.9830647431501
 30
0.0
  0
VERTEX
  5
6C
330
69
100
AcDbEntity
  8
_U+30EC_U+30A4_U+30E4_U+30FC 1
370
     0
100
AcDbVertex
100
AcDb2dVertex
 10
112.389694524854
 20
-141.7312282631783
 30
0.0
  0
VERTEX
  5
6D
330
69
100
AcDbEntity
  8
_U+30EC_U+30A4_U+30E4_U+30FC 1
370
     0
100
AcDbVertex
100
AcDb2dVertex
 10
112.6415310048257
 20
-141.7312282631783
 30
0.0
  0
VERTEX
  5
6E
330
69
100
AcDbEntity
  8
_U+30EC_U+30A4_U+30E4_U+30FC 1
370
     0
100
AcDbVertex
100
AcDb2dVertex
 10
112.6415310048257
 20
-141.9830647431501
 30
0.0
  0
SEQEND
  5
6F
330
69
100
AcDbEntity
  8
_U+30EC_U+30A4_U+30E4_U+30FC 1
370
     0
  0
HATCH
  5
70
330
63
100
AcDbEntity
  8
_U+30EC_U+30A4_U+30E4_U+30FC 1
 62
   179
420
  2234388
100
AcDbHatch
 10
0.0
 20
0.0
 30
0.0
210
0.0
220
0.0
230
1.0
  2
SOLID
 70
     1
 71
     0
 91
        1
 92
        1
 93
        4
 72
     1
 10
112.6415310048257
 20
-141.9830647431501
 11
112.389694524854
 21
-141.9830647431501
 72
     1
 10
112.389694524854
 20
-141.9830647431501
 11
112.389694524854
 21
-141.7312282631783
 72
     1
 10
112.389694524854
 20
-141.7312282631783
 11
112.6415310048257
 21
-141.7312282631783
 72
     1
 10
112.6415310048257
 20
-141.7312282631783
 11
112.6415310048257
 21
-141.9830647431501
 97
        0
 75
     2
 76
     1
 98
        0
  0
SPLINE
  5
71
330
63
100
AcDbEntity
  8
_U+30EC_U+30A4_U+30E4_U+30FC 1
370
     0
100
AcDbSpline
210
0.0
220
0.0
230
1.0
 70
    11
 71
     3
 72
    53
 73
    49
 74
     0
 42
0.0000000001
 43
0.0000000001
 12
1.0
 22
0.0
 32
0.0
 13
1.0
 23
0.0
 33
0.0
 40
0.0
 40
0.0
 40
0.0
 40
0.0
 40
1.0
 40
1.0
 40
1.0
 40
2.0
 40
2.0
 40
2.0
 40
3.0
 40
3.0
 40
3.0
 40
4.0
 40
4.0
 40
4.0
 40
5.0
 40
5.0
 40
5.0
 40
6.0
 40
6.0
 40
6.0
 40
7.0
 40
7.0
 40
7.0
 40
8.0
 40
8.0
 40
8.0
 40
9.0
 40
9.0
 40
9.0
 40
10.0
 40
10.0
 40
10.0
 40
11.0
 40
11.0
 40
11.0
 40
12.0
 40
12.0
 40
12.0
 40
13.0
 40
13.0
 40
13.0
 40
14.0
 40
14.0
 40
14.0
 40
15.0
 40
15.0
 40
15.0
 40
16.0
 40
16.0
 40
16.0
 40
16.0
 10
112.6921739084589
 20
-141.0139593831493
 30
0.0
 10
112.6921739084589
 20
-141.0921630506645
 30
0.0
 10
112.6752929405812
 20
-141.1937933674793
 30
0.0
 10
112.6119031836526
 20
-141.2954236842942
 30
0.0
 10
112.5016601281246
 20
-141.4687119872023
 30
0.0
 10
112.3707464996851
 20
-141.4900715792108
 30
0.0
 10
112.2625705014483
 20
-141.5090196043797
 30
0.0
 10
112.2625705014483
 20
-141.5090196043797
 30
0.0
 10
112.2625705014483
 20
-141.2868109455811
 30
0.0
 10
112.2625705014483
 20
-141.2868109455811
 30
0.0
 10
112.4616970204957
 20
-141.2320339273656
 30
0.0
 10
112.4913248416688
 20
-141.1049099039599
 30
0.0
 10
112.4913248416688
 20
-141.0118923258582
 30
0.0
 10
112.4913248416688
 20
-140.8723659587055
 30
0.0
 10
112.3917615821451
 20
-140.7200927382575
 30
0.0
 10
112.1592176368908
 20
-140.7200927382575
 30
0.0
 10
111.9029025327882
 20
-140.7200927382575
 30
0.0
 10
111.8333116039861
 20
-140.8999267225875
 30
0.0
 10
111.8333116039861
 20
-141.0205050645713
 30
0.0
 10
111.8333116039861
 20
-141.0521999430356
 30
0.0
 10
111.8333116039861
 20
-141.1937933674793
 30
0.0
 10
111.9621581751345
 20
-141.2826768309988
 30
0.0
 10
111.9621581751345
 20
-141.2826768309988
 30
0.0
 10
111.9432101499656
 20
-141.4583767007465
 30
0.0
 10
111.9432101499656
 20
-141.4583767007465
 30
0.0
 10
111.9432101499656
 20
-141.4583767007465
 30
0.0
 10
111.0970946987882
 20
-141.3377983587628
 30
0.0
 10
111.0970946987882
 20
-141.3377983587628
 30
0.0
 10
111.0970946987882
 20
-141.3377983587628
 30
0.0
 10
111.0970946987882
 20
-140.5592067790963
 30
0.0
 10
111.0970946987882
 20
-140.5592067790963
 30
0.0
 10
111.0970946987882
 20
-140.5592067790963
 30
0.0
 10
111.2917425937049
 20
-140.5592067790963
 30
0.0
 10
111.2917425937049
 20
-140.5592067790963
 30
0.0
 10
111.2917425937049
 20
-140.5592067790963
 30
0.0
 10
111.2917425937049
 20
-141.1748453423104
 30
0.0
 10
111.2917425937049
 20
-141.1748453423104
 30
0.0
 10
111.2917425937049
 20
-141.1748453423104
 30
0.0
 10
111.7148003192935
 20
-141.2403021565302
 30
0.0
 10
111.7148003192935
 20
-141.2403021565302
 30
0.0
 10
111.6810383835381
 20
-141.1789794568928
 30
0.0
 10
111.6407307663607
 20
-141.0966416747953
 30
0.0
 10
111.6407307663607
 20
-140.9781303901027
 30
0.0
 10
111.6407307663607
 20
-140.7242268528398
 30
0.0
 10
111.8271104321127
 20
-140.4872042834546
 30
0.0
 10
112.1399251021734
 20
-140.4872042834546
 30
0.0
 10
112.4575629059134
 20
-140.4872042834546
 30
0.0
 10
112.6921739084589
 20
-140.7114799995444
 30
0.0
 10
112.6921739084589
 20
-141.0139593831493
 30
0.0
  0
HATCH
  5
72
330
63
100
AcDbEntity
  8
_U+30EC_U+30A4_U+30E4_U+30FC 1
 62
   179
420
  2234388
100
AcDbHatch
 10
0.0
 20
0.0
 30
0.0
210
0.0
220
0.0
230
1.0
  2
SOLID
 70
     1
 71
     0
 91
        1
 92
        1
 93
        1
 72
     4
 94
        3
 73
     0
 74
     1
 95
       53
 96
       49
 40
0.0
 40
0.0
 40
0.0
 40
0.0
 40
1.0
 40
1.0
 40
1.0
 40
2.0
 40
2.0
 40
2.0
 40
3.0
 40
3.0
 40
3.0
 40
4.0
 40
4.0
 40
4.0
 40
5.0
 40
5.0
 40
5.0
 40
6.0
 40
6.0
 40
6.0
 40
7.0
 40
7.0
 40
7.0
 40
8.0
 40
8.0
 40
8.0
 40
9.0
 40
9.0
 40
9.0
 40
10.0
 40
10.0
 40
10.0
 40
11.0
 40
11.0
 40
11.0
 40
12.0
 40
12.0
 40
12.0
 40
13.0
 40
13.0
 40
13.0
 40
14.0
 40
14.0
 40
14.0
 40
15.0
 40
15.0
 40
15.0
 40
16.0
 40
16.0
 40
16.0
 40
16.0
 10
112.6921739084589
 20
-141.0139593831493
 10
112.6921739084589
 20
-141.0921630506645
 10
112.6752929405812
 20
-141.1937933674793
 10
112.6119031836526
 20
-141.2954236842942
 10
112.5016601281246
 20
-141.4687119872023
 10
112.3707464996851
 20
-141.4900715792108
 10
112.2625705014483
 20
-141.5090196043797
 10
112.2625705014483
 20
-141.5090196043797
 10
112.2625705014483
 20
-141.2868109455811
 10
112.2625705014483
 20
-141.2868109455811
 10
112.4616970204957
 20
-141.2320339273656
 10
112.4913248416688
 20
-141.1049099039599
 10
112.4913248416688
 20
-141.0118923258582
 10
112.4913248416688
 20
-140.8723659587055
 10
112.3917615821451
 20
-140.7200927382575
 10
112.1592176368908
 20
-140.7200927382575
 10
111.9029025327882
 20
-140.7200927382575
 10
111.8333116039861
 20
-140.8999267225875
 10
111.8333116039861
 20
-141.0205050645713
 10
111.8333116039861
 20
-141.0521999430356
 10
111.8333116039861
 20
-141.1937933674793
 10
111.9621581751345
 20
-141.2826768309988
 10
111.9621581751345
 20
-141.2826768309988
 10
111.9432101499656
 20
-141.4583767007465
 10
111.9432101499656
 20
-141.4583767007465
 10
111.9432101499656
 20
-141.4583767007465
 10
111.0970946987882
 20
-141.3377983587628
 10
111.0970946987882
 20
-141.3377983587628
 10
111.0970946987882
 20
-141.3377983587628
 10
111.0970946987882
 20
-140.5592067790963
 10
111.0970946987882
 20
-140.5592067790963
 10
111.0970946987882
 20
-140.5592067790963
 10
111.2917425937049
 20
-140.5592067790963
 10
111.2917425937049
 20
-140.5592067790963
 10
111.2917425937049
 20
-140.5592067790963
 10
111.2917425937049
 20
-141.1748453423104
 10
111.2917425937049
 20
-141.1748453423104
 10
111.2917425937049
 20
-141.1748453423104
 10
111.7148003192935
 20
-141.2403021565302
 10
111.7148003192935
 20
-141.2403021565302
 10
111.6810383835381
 20
-141.1789794568928
 10
111.6407307663607
 20
-141.0966416747953
 10
111.6407307663607
 20
-140.9781303901027
 10
111.6407307663607
 20
-140.7242268528398
 10
111.8271104321127
 20
-140.4872042834546
 10
112.1399251021734
 20
-140.4872042834546
 10
112.4575629059134
 20
-140.4872042834546
 10
112.6921739084589
 20
-140.7114799995444
 10
112.6921739084589
 20
-141.0139593831493
 97
        0
 97
        0
 75
     2
 76
     1
 98
        0
  0
ENDBLK
  5
66
330
63
100
AcDbEntity
  8
0
100
AcDbBlockEnd
  0
BLOCK
  5
75
330
73
100
AcDbEntity
  8
0
100
AcDbBlockBegin
  2
block 3
 70
     0
 10
0.0
 20
0.0
 30
0.0
  3
block 3
  1

  0
SPLINE
  5
77
330
73
100
AcDbEntity
  8
_U+30EC_U+30A4_U+30E4_U+30FC 1
370
     0
100
AcDbSpline
210
0.0
220
0.0
230
1.0
 70
    11
 71
     3
 72
    29
 73
    25
 74
     0
 42
0.0000000001
 43
0.0000000001
 12
1.0
 22
0.0
 32
0.0
 13
1.0
 23
0.0
 33
0.0
 40
0.0
 40
0.0
 40
0.0
 40
0.0
 40
1.0
 40
1.0
 40
1.0
 40
2.0
 40
2.0
 40
2.0
 40
3.0
 40
3.0
 40
3.0
 40
4.0
 40
4.0
 40
4.0
 40
5.0
 40
5.0
 40
5.0
 40
6.0
 40
6.0
 40
6.0
 40
7.0
 40
7.0
 40
7.0
 40
8.0
 40
8.0
 40
8.0
 40
8.0
 10
115.5729627532248
 20
-150.1710231829434
 30
0.0
 10
115.5729627532248
 20
-150.4376735735017
 30
0.0
 10
115.4351589338148
 20
-150.6912326012161
 30
0.0
 10
115.086170761159
 20
-150.6912326012161
 30
0.0
 10
114.830200166605
 20
-150.6912326012161
 30
0.0
 10
114.7351155312121
 20
-150.5496391767723
 30
0.0
 10
114.6737928315746
 20
-150.4438747453752
 30
0.0
 10
114.6145371892283
 20
-150.5685872019412
 30
0.0
 10
114.500160019118
 20
-150.6447238121652
 30
0.0
 10
114.3396185695054
 20
-150.6447238121652
 30
0.0
 10
114.0643554402339
 20
-150.6447238121652
 30
0.0
 10
113.9289631876636
 20
-150.4459418026663
 30
0.0
 10
113.9289631876636
 20
-150.1710231829434
 30
0.0
 10
113.9289631876636
 20
-149.8874918245073
 30
0.0
 10
114.072968178947
 20
-149.696978044173
 30
0.0
 10
114.3396185695054
 20
-149.696978044173
 30
0.0
 10
114.500160019118
 20
-149.696978044173
 30
0.0
 10
114.6145371892283
 20
-149.7755262212367
 30
0.0
 10
114.6737928315746
 20
-149.9002386778027
 30
0.0
 10
114.7244357352078
 20
-149.8113552142833
 30
0.0
 10
114.8198648801492
 20
-149.6525363124133
 30
0.0
 10
115.0820366465767
 20
-149.6525363124133
 30
0.0
 10
115.4565185258234
 20
-149.6525363124133
 30
0.0
 10
115.5729627532248
 20
-149.931933556267
 30
0.0
 10
115.5729627532248
 20
-150.1710231829434
 30
0.0
  0
SPLINE
  5
78
330
73
100
AcDbEntity
  8
_U+30EC_U+30A4_U+30E4_U+30FC 1
370
     0
100
AcDbSpline
210
0.0
220
0.0
230
1.0
 70
    11
 71
     3
 72
    17
 73
    13
 74
     0
 42
0.0000000001
 43
0.0000000001
 12
1.0
 22
0.0
 32
0.0
 13
1.0
 23
0.0
 33
0.0
 40
0.0
 40
0.0
 40
0.0
 40
0.0
 40
1.0
 40
1.0
 40
1.0
 40
2.0
 40
2.0
 40
2.0
 40
3.0
 40
3.0
 40
3.0
 40
4.0
 40
4.0
 40
4.0
 40
4.0
 10
114.1215440252891
 20
-150.1710231829434
 30
0.0
 10
114.1215440252891
 20
-150.3360432566868
 30
0.0
 10
114.216628660682
 20
-150.4204480960755
 30
0.0
 10
114.3520209132523
 20
-150.4204480960755
 30
0.0
 10
114.4750108220757
 20
-150.4204480960755
 30
0.0
 10
114.5935221067683
 20
-150.3487901099822
 30
0.0
 10
114.5935221067683
 20
-150.1710231829434
 30
0.0
 10
114.5935221067683
 20
-149.9932562559045
 30
0.0
 10
114.4750108220757
 20
-149.9212537602627
 30
0.0
 10
114.3520209132523
 20
-149.9212537602627
 30
0.0
 10
114.216628660682
 20
-149.9212537602627
 30
0.0
 10
114.1215440252891
 20
-150.0080701664911
 30
0.0
 10
114.1215440252891
 20
-150.1710231829434
 30
0.0
  0
SPLINE
  5
79
330
73
100
AcDbEntity
  8
_U+30EC_U+30A4_U+30E4_U+30FC 1
370
     0
100
AcDbSpline
210
0.0
220
0.0
230
1.0
 70
    11
 71
     3
 72
    17
 73
    13
 74
     0
 42
0.0000000001
 43
0.0000000001
 12
1.0
 22
0.0
 32
0.0
 13
1.0
 23
0.0
 33
0.0
 40
0.0
 40
0.0
 40
0.0
 40
0.0
 40
1.0
 40
1.0
 40
1.0
 40
2.0
 40
2.0
 40
2.0
 40
3.0
 40
3.0
 40
3.0
 40
4.0
 40
4.0
 40
4.0
 40
4.0
 10
114.7816243202629
 20
-150.1710231829434
 30
0.0
 10
114.7816243202629
 20
-150.3146836646783
 30
0.0
 10
114.8684407264912
 20
-150.4673013946748
 30
0.0
 10
115.0713568505724
 20
-150.4673013946748
 30
0.0
 10
115.2766845414933
 20
-150.4673013946748
 30
0.0
 10
115.3783148583082
 20
-150.3401773712691
 30
0.0
 10
115.3783148583082
 20
-150.1710231829434
 30
0.0
 10
115.3783148583082
 20
-149.9849880267399
 30
0.0
 10
115.2556694590333
 20
-149.8747449712119
 30
0.0
 10
115.0779025319944
 20
-149.8747449712119
 30
0.0
 10
114.8556938731958
 20
-149.8747449712119
 30
0.0
 10
114.7816243202629
 20
-150.0376979876642
 30
0.0
 10
114.7816243202629
 20
-150.1710231829434
 30
0.0
  0
HATCH
  5
7A
330
73
100
AcDbEntity
  8
_U+30EC_U+30A4_U+30E4_U+30FC 1
 62
   179
420
  2234388
100
AcDbHatch
 10
0.0
 20
0.0
 30
0.0
210
0.0
220
0.0
230
1.0
  2
SOLID
 70
     1
 71
     0
 91
        3
 92
        1
 93
        1
 72
     4
 94
        3
 73
     0
 74
     1
 95
       29
 96
       25
 40
0.0
 40
0.0
 40
0.0
 40
0.0
 40
1.0
 40
1.0
 40
1.0
 40
2.0
 40
2.0
 40
2.0
 40
3.0
 40
3.0
 40
3.0
 40
4.0
 40
4.0
 40
4.0
 40
5.0
 40
5.0
 40
5.0
 40
6.0
 40
6.0
 40
6.0
 40
7.0
 40
7.0
 40
7.0
 40
8.0
 40
8.0
 40
8.0
 40
8.0
 10
115.5729627532248
 20
-150.1710231829434
 10
115.5729627532248
 20
-150.4376735735017
 10
115.4351589338148
 20
-150.6912326012161
 10
115.086170761159
 20
-150.6912326012161
 10
114.830200166605
 20
-150.6912326012161
 10
114.7351155312121
 20
-150.5496391767723
 10
114.6737928315746
 20
-150.4438747453752
 10
114.6145371892283
 20
-150.5685872019412
 10
114.500160019118
 20
-150.6447238121652
 10
114.3396185695054
 20
-150.6447238121652
 10
114.0643554402339
 20
-150.6447238121652
 10
113.9289631876636
 20
-150.4459418026663
 10
113.9289631876636
 20
-150.1710231829434
 10
113.9289631876636
 20
-149.8874918245073
 10
114.072968178947
 20
-149.696978044173
 10
114.3396185695054
 20
-149.696978044173
 10
114.500160019118
 20
-149.696978044173
 10
114.6145371892283
 20
-149.7755262212367
 10
114.6737928315746
 20
-149.9002386778027
 10
114.7244357352078
 20
-149.8113552142833
 10
114.8198648801492
 20
-149.6525363124133
 10
115.0820366465767
 20
-149.6525363124133
 10
115.4565185258234
 20
-149.6525363124133
 10
115.5729627532248
 20
-149.931933556267
 10
115.5729627532248
 20
-150.1710231829434
 97
        0
 97
        0
 92
        1
 93
        1
 72
     4
 94
        3
 73
     0
 74
     1
 95
       17
 96
       13
 40
0.0
 40
0.0
 40
0.0
 40
0.0
 40
1.0
 40
1.0
 40
1.0
 40
2.0
 40
2.0
 40
2.0
 40
3.0
 40
3.0
 40
3.0
 40
4.0
 40
4.0
 40
4.0
 40
4.0
 10
114.1215440252891
 20
-150.1710231829434
 10
114.1215440252891
 20
-150.3360432566868
 10
114.216628660682
 20
-150.4204480960755
 10
114.3520209132523
 20
-150.4204480960755
 10
114.4750108220757
 20
-150.4204480960755
 10
114.5935221067683
 20
-150.3487901099822
 10
114.5935221067683
 20
-150.1710231829434
 10
114.5935221067683
 20
-149.9932562559045
 10
114.4750108220757
 20
-149.9212537602627
 10
114.3520209132523
 20
-149.9212537602627
 10
114.216628660682
 20
-149.9212537602627
 10
114.1215440252891
 20
-150.0080701664911
 10
114.1215440252891
 20
-150.1710231829434
 97
        0
 97
        0
 92
        1
 93
        1
 72
     4
 94
        3
 73
     0
 74
     1
 95
       17
 96
       13
 40
0.0
 40
0.0
 40
0.0
 40
0.0
 40
1.0
 40
1.0
 40
1.0
 40
2.0
 40
2.0
 40
2.0
 40
3.0
 40
3.0
 40
3.0
 40
4.0
 40
4.0
 40
4.0
 40
4.0
 10
114.7816243202629
 20
-150.1710231829434
 10
114.7816243202629
 20
-150.3146836646783
 10
114.8684407264912
 20
-150.4673013946748
 10
115.0713568505724
 20
-150.4673013946748
 10
115.2766845414933
 20
-150.4673013946748
 10
115.3783148583082
 20
-150.3401773712691
 10
115.3783148583082
 20
-150.1710231829434
 10
115.3783148583082
 20
-149.9849880267399
 10
115.2556694590333
 20
-149.8747449712119
 10
115.0779025319944
 20
-149.8747449712119
 10
114.8556938731958
 20
-149.8747449712119
 10
114.7816243202629
 20
-150.0376979876642
 10
114.7816243202629
 20
-150.1710231829434
 97
        0
 97
        0
 75
     2
 76
     1
 98
        0
  0
POLYLINE
  5
7B
330
73
100
AcDbEntity
  8
_U+30EC_U+30A4_U+30E4_U+30FC 1
370
     0
100
AcDb2dPolyline
 66
     1
 10
0.0
 20
0.0
 30
0.0
  0
VERTEX
  5
7C
330
7B
100
AcDbEntity
  8
_U+30EC_U+30A4_U+30E4_U+30FC 1
370
     0
100
AcDbVertex
100
AcDb2dVertex
 10
115.5219753400431
 20
-149.4341172586484
 30
0.0
  0
VERTEX
  5
7D
330
7B
100
AcDbEntity
  8
_U+30EC_U+30A4_U+30E4_U+30FC 1
370
     0
100
AcDbVertex
100
AcDb2dVertex
 10
115.2704833696199
 20
-149.4341172586484
 30
0.0
  0
VERTEX
  5
7E
330
7B
100
AcDbEntity
  8
_U+30EC_U+30A4_U+30E4_U+30FC 1
370
     0
100
AcDbVertex
100
AcDb2dVertex
 10
115.2704833696199
 20
-149.1822807786767
 30
0.0
  0
VERTEX
  5
7F
330
7B
100
AcDbEntity
  8
_U+30EC_U+30A4_U+30E4_U+30FC 1
370
     0
100
AcDbVertex
100
AcDb2dVertex
 10
115.5219753400431
 20
-149.1822807786767
 30
0.0
  0
VERTEX
  5
80
330
7B
100
AcDbEntity
  8
_U+30EC_U+30A4_U+30E4_U+30FC 1
370
     0
100
AcDbVertex
100
AcDb2dVertex
 10
115.5219753400431
 20
-149.4341172586484
 30
0.0
  0
SEQEND
  5
81
330
7B
100
AcDbEntity
  8
_U+30EC_U+30A4_U+30E4_U+30FC 1
370
     0
  0
HATCH
  5
82
330
73
100
AcDbEntity
  8
_U+30EC_U+30A4_U+30E4_U+30FC 1
 62
   179
420
  2234388
100
AcDbHatch
 10
0.0
 20
0.0
 30
0.0
210
0.0
220
0.0
230
1.0
  2
SOLID
 70
     1
 71
     0
 91
        1
 92
        1
 93
        4
 72
     1
 10
115.5219753400431
 20
-149.4341172586484
 11
115.2704833696199
 21
-149.4341172586484
 72
     1
 10
115.2704833696199
 20
-149.4341172586484
 11
115.2704833696199
 21
-149.1822807786767
 72
     1
 10
115.2704833696199
 20
-149.1822807786767
 11
115.5219753400431
 21
-149.1822807786767
 72
     1
 10
115.5219753400431
 20
-149.1822807786767
 11
115.5219753400431
 21
-149.4341172586484
 97
        0
 75
     2
 76
     1
 98
        0
  0
SPLINE
  5
83
330
73
100
AcDbEntity
  8
_U+30EC_U+30A4_U+30E4_U+30FC 1
370
     0
100
AcDbSpline
210
0.0
220
0.0
230
1.0
 70
    11
 71
     3
 72
    53
 73
    49
 74
     0
 42
0.0000000001
 43
0.0000000001
 12
1.0
 22
0.0
 32
0.0
 13
1.0
 23
0.0
 33
0.0
 40
0.0
 40
0.0
 40
0.0
 40
0.0
 40
1.0
 40
1.0
 40
1.0
 40
2.0
 40
2.0
 40
2.0
 40
3.0
 40
3.0
 40
3.0
 40
4.0
 40
4.0
 40
4.0
 40
5.0
 40
5.0
 40
5.0
 40
6.0
 40
6.0
 40
6.0
 40
7.0
 40
7.0
 40
7.0
 40
8.0
 40
8.0
 40
8.0
 40
9.0
 40
9.0
 40
9.0
 40
10.0
 40
10.0
 40
10.0
 40
11.0
 40
11.0
 40
11.0
 40
12.0
 40
12.0
 40
12.0
 40
13.0
 40
13.0
 40
13.0
 40
14.0
 40
14.0
 40
14.0
 40
15.0
 40
15.0
 40
15.0
 40
16.0
 40
16.0
 40
16.0
 40
16.0
 10
115.5729627532248
 20
-148.4650118986476
 30
0.0
 10
115.5729627532248
 20
-148.5432155661628
 30
0.0
 10
115.5557372757986
 20
-148.6448458829777
 30
0.0
 10
115.49234751887
 20
-148.7464761997926
 30
0.0
 10
115.3824489728905
 20
-148.9197645027006
 30
0.0
 10
115.2511908349025
 20
-148.9411240947092
 30
0.0
 10
115.1433593462142
 20
-148.960072119878
 30
0.0
 10
115.1433593462142
 20
-148.960072119878
 30
0.0
 10
115.1433593462142
 20
-148.7378634610794
 30
0.0
 10
115.1433593462142
 20
-148.7378634610794
 30
0.0
 10
115.3421413557131
 20
-148.683086442864
 30
0.0
 10
115.3717691768862
 20
-148.5559624194582
 30
0.0
 10
115.3717691768862
 20
-148.4629448413565
 30
0.0
 10
115.3717691768862
 20
-148.3234184742039
 30
0.0
 10
115.272550426911
 20
-148.1711452537558
 30
0.0
 10
115.0396619721081
 20
-148.1711452537558
 30
0.0
 10
114.7836913775541
 20
-148.1711452537558
 30
0.0
 10
114.714100448752
 20
-148.3509792380859
 30
0.0
 10
114.714100448752
 20
-148.4715575800696
 30
0.0
 10
114.714100448752
 20
-148.5032524585339
 30
0.0
 10
114.714100448752
 20
-148.6448458829777
 30
0.0
 10
114.8429470199004
 20
-148.7337293464971
 30
0.0
 10
114.8429470199004
 20
-148.7337293464971
 30
0.0
 10
114.8239989947315
 20
-148.9094292162449
 30
0.0
 10
114.8239989947315
 20
-148.9094292162449
 30
0.0
 10
114.8239989947315
 20
-148.9094292162449
 30
0.0
 10
113.9778835435541
 20
-148.7888508742611
 30
0.0
 10
113.9778835435541
 20
-148.7888508742611
 30
0.0
 10
113.9778835435541
 20
-148.7888508742611
 30
0.0
 10
113.9778835435541
 20
-148.0102592945947
 30
0.0
 10
113.9778835435541
 20
-148.0102592945947
 30
0.0
 10
113.9778835435541
 20
-148.0102592945947
 30
0.0
 10
114.1725314384708
 20
-148.0102592945947
 30
0.0
 10
114.1725314384708
 20
-148.0102592945947
 30
0.0
 10
114.1725314384708
 20
-148.0102592945947
 30
0.0
 10
114.1725314384708
 20
-148.6258978578088
 30
0.0
 10
114.1725314384708
 20
-148.6258978578088
 30
0.0
 10
114.1725314384708
 20
-148.6258978578088
 30
0.0
 10
114.5955891640594
 20
-148.6913546720286
 30
0.0
 10
114.5955891640594
 20
-148.6913546720286
 30
0.0
 10
114.5614827187555
 20
-148.6300319723911
 30
0.0
 10
114.5215196111266
 20
-148.5476941902936
 30
0.0
 10
114.5215196111266
 20
-148.429182905601
 30
0.0
 10
114.5215196111266
 20
-148.1752793683381
 30
0.0
 10
114.7075547673301
 20
-147.9382567989529
 30
0.0
 10
115.0207139469393
 20
-147.9382567989529
 30
0.0
 10
115.3380072411308
 20
-147.9382567989529
 30
0.0
 10
115.5729627532248
 20
-148.1625325150427
 30
0.0
 10
115.5729627532248
 20
-148.4650118986476
 30
0.0
  0
HATCH
  5
84
330
73
100
AcDbEntity
  8
_U+30EC_U+30A4_U+30E4_U+30FC 1
 62
   179
420
  2234388
100
AcDbHatch
 10
0.0
 20
0.0
 30
0.0
210
0.0
220
0.0
230
1.0
  2
SOLID
 70
     1
 71
     0
 91
        1
 92
        1
 93
        1
 72
     4
 94
        3
 73
     0
 74
     1
 95
       53
 96
       49
 40
0.0
 40
0.0
 40
0.0
 40
0.0
 40
1.0
 40
1.0
 40
1.0
 40
2.0
 40
2.0
 40
2.0
 40
3.0
 40
3.0
 40
3.0
 40
4.0
 40
4.0
 40
4.0
 40
5.0
 40
5.0
 40
5.0
 40
6.0
 40
6.0
 40
6.0
 40
7.0
 40
7.0
 40
7.0
 40
8.0
 40
8.0
 40
8.0
 40
9.0
 40
9.0
 40
9.0
 40
10.0
 40
10.0
 40
10.0
 40
11.0
 40
11.0
 40
11.0
 40
12.0
 40
12.0
 40
12.0
 40
13.0
 40
13.0
 40
13.0
 40
14.0
 40
14.0
 40
14.0
 40
15.0
 40
15.0
 40
15.0
 40
16.0
 40
16.0
 40
16.0
 40
16.0
 10
115.5729627532248
 20
-148.4650118986476
 10
115.5729627532248
 20
-148.5432155661628
 10
115.5557372757986
 20
-148.6448458829777
 10
115.49234751887
 20
-148.7464761997926
 10
115.3824489728905
 20
-148.9197645027006
 10
115.2511908349025
 20
-148.9411240947092
 10
115.1433593462142
 20
-148.960072119878
 10
115.1433593462142
 20
-148.960072119878
 10
115.1433593462142
 20
-148.7378634610794
 10
115.1433593462142
 20
-148.7378634610794
 10
115.3421413557131
 20
-148.683086442864
 10
115.3717691768862
 20
-148.5559624194582
 10
115.3717691768862
 20
-148.4629448413565
 10
115.3717691768862
 20
-148.3234184742039
 10
115.272550426911
 20
-148.1711452537558
 10
115.0396619721081
 20
-148.1711452537558
 10
114.7836913775541
 20
-148.1711452537558
 10
114.714100448752
 20
-148.3509792380859
 10
114.714100448752
 20
-148.4715575800696
 10
114.714100448752
 20
-148.5032524585339
 10
114.714100448752
 20
-148.6448458829777
 10
114.8429470199004
 20
-148.7337293464971
 10
114.8429470199004
 20
-148.7337293464971
 10
114.8239989947315
 20
-148.9094292162449
 10
114.8239989947315
 20
-148.9094292162449
 10
114.8239989947315
 20
-148.9094292162449
 10
113.9778835435541
 20
-148.7888508742611
 10
113.9778835435541
 20
-148.7888508742611
 10
113.9778835435541
 20
-148.7888508742611
 10
113.9778835435541
 20
-148.0102592945947
 10
113.9778835435541
 20
-148.0102592945947
 10
113.9778835435541
 20
-148.0102592945947
 10
114.1725314384708
 20
-148.0102592945947
 10
114.1725314384708
 20
-148.0102592945947
 10
114.1725314384708
 20
-148.0102592945947
 10
114.1725314384708
 20
-148.6258978578088
 10
114.1725314384708
 20
-148.6258978578088
 10
114.1725314384708
 20
-148.6258978578088
 10
114.5955891640594
 20
-148.6913546720286
 10
114.5955891640594
 20
-148.6913546720286
 10
114.5614827187555
 20
-148.6300319723911
 10
114.5215196111266
 20
-148.5476941902936
 10
114.5215196111266
 20
-148.429182905601
 10
114.5215196111266
 20
-148.1752793683381
 10
114.7075547673301
 20
-147.9382567989529
 10
115.0207139469393
 20
-147.9382567989529
 10
115.3380072411308
 20
-147.9382567989529
 10
115.5729627532248
 20
-148.1625325150427
 10
115.5729627532248
 20
-148.4650118986476
 97
        0
 97
        0
 75
     2
 76
     1
 98
        0
  0
ENDBLK
  5
76
330
73
100
AcDbEntity
  8
0
100
AcDbBlockEnd
  0
BLOCK
  5
87
330
85
100
AcDbEntity
  8
0
100
AcDbBlockBegin
  2
block 4
 70
     0
 10
0.0
 20
0.0
 30
0.0
  3
block 4
  1

  0
SPLINE
  5
89
330
85
100
AcDbEntity
  8
_U+30EC_U+30A4_U+30E4_U+30FC 1
370
     0
100
AcDbSpline
210
0.0
220
0.0
230
1.0
 70
    11
 71
     3
 72
    26
 73
    22
 74
     0
 42
0.0000000001
 43
0.0000000001
 12
1.0
 22
0.0
 32
0.0
 13
1.0
 23
0.0
 33
0.0
 40
0.0
 40
0.0
 40
0.0
 40
0.0
 40
1.0
 40
1.0
 40
1.0
 40
2.0
 40
2.0
 40
2.0
 40
3.0
 40
3.0
 40
3.0
 40
4.0
 40
4.0
 40
4.0
 40
5.0
 40
5.0
 40
5.0
 40
6.0
 40
6.0
 40
6.0
 40
7.0
 40
7.0
 40
7.0
 40
7.0
 10
112.8761420073712
 20
-155.6842094879887
 30
0.0
 10
112.8761420073712
 20
-155.6842094879887
 30
0.0
 10
111.7719889043487
 20
-155.6842094879887
 30
0.0
 10
111.7719889043487
 20
-155.6842094879887
 30
0.0
 10
111.7719889043487
 20
-155.6842094879887
 30
0.0
 10
111.7719889043487
 20
-156.0142496354756
 30
0.0
 10
111.7719889043487
 20
-156.0142496354756
 30
0.0
 10
111.7719889043487
 20
-156.0142496354756
 30
0.0
 10
111.6238497984829
 20
-156.0142496354756
 30
0.0
 10
111.6238497984829
 20
-156.0142496354756
 30
0.0
 10
111.6090358878964
 20
-155.6821424306975
 30
0.0
 10
111.446082871444
 20
-155.6356336416466
 30
0.0
 10
111.3320502108823
 20
-155.6060058204735
 30
0.0
 10
111.3320502108823
 20
-155.6060058204735
 30
0.0
 10
111.3320502108823
 20
-155.4599337718989
 30
0.0
 10
111.3320502108823
 20
-155.4599337718989
 30
0.0
 10
111.3320502108823
 20
-155.4599337718989
 30
0.0
 10
112.8761420073712
 20
-155.4599337718989
 30
0.0
 10
112.8761420073712
 20
-155.4599337718989
 30
0.0
 10
112.8761420073712
 20
-155.4599337718989
 30
0.0
 10
112.8761420073712
 20
-155.6842094879887
 30
0.0
 10
112.8761420073712
 20
-155.6842094879887
 30
0.0
  0
HATCH
  5
8A
330
85
100
AcDbEntity
  8
_U+30EC_U+30A4_U+30E4_U+30FC 1
 62
   179
420
  2234388
100
AcDbHatch
 10
0.0
 20
0.0
 30
0.0
210
0.0
220
0.0
230
1.0
  2
SOLID
 70
     1
 71
     0
 91
        1
 92
        1
 93
        1
 72
     4
 94
        3
 73
     0
 74
     1
 95
       26
 96
       22
 40
0.0
 40
0.0
 40
0.0
 40
0.0
 40
1.0
 40
1.0
 40
1.0
 40
2.0
 40
2.0
 40
2.0
 40
3.0
 40
3.0
 40
3.0
 40
4.0
 40
4.0
 40
4.0
 40
5.0
 40
5.0
 40
5.0
 40
6.0
 40
6.0
 40
6.0
 40
7.0
 40
7.0
 40
7.0
 40
7.0
 10
112.8761420073712
 20
-155.6842094879887
 10
112.8761420073712
 20
-155.6842094879887
 10
111.7719889043487
 20
-155.6842094879887
 10
111.7719889043487
 20
-155.6842094879887
 10
111.7719889043487
 20
-155.6842094879887
 10
111.7719889043487
 20
-156.0142496354756
 10
111.7719889043487
 20
-156.0142496354756
 10
111.7719889043487
 20
-156.0142496354756
 10
111.6238497984829
 20
-156.0142496354756
 10
111.6238497984829
 20
-156.0142496354756
 10
111.6090358878964
 20
-155.6821424306975
 10
111.446082871444
 20
-155.6356336416466
 10
111.3320502108823
 20
-155.6060058204735
 10
111.3320502108823
 20
-155.6060058204735
 10
111.3320502108823
 20
-155.4599337718989
 10
111.3320502108823
 20
-155.4599337718989
 10
111.3320502108823
 20
-155.4599337718989
 10
112.8761420073712
 20
-155.4599337718989
 10
112.8761420073712
 20
-155.4599337718989
 10
112.8761420073712
 20
-155.4599337718989
 10
112.8761420073712
 20
-155.6842094879887
 10
112.8761420073712
 20
-155.6842094879887
 97
        0
 97
        0
 75
     2
 76
     1
 98
        0
  0
ENDBLK
  5
88
330
85
100
AcDbEntity
  8
0
100
AcDbBlockEnd
  0
BLOCK
  5
95
330
93
100
AcDbEntity
  8
0
100
AcDbBlockBegin
  2
block 5
 70
     0
 10
0.0
 20
0.0
 30
0.0
  3
block 5
  1

  0
SPLINE
  5
97
330
93
100
AcDbEntity
  8
_U+30EC_U+30A4_U+30E4_U+30FC 1
370
     0
100
AcDbSpline
210
0.0
220
0.0
230
1.0
 70
    11
 71
     3
 72
    62
 73
    58
 74
     0
 42
0.0000000001
 43
0.0000000001
 12
1.0
 22
0.0
 32
0.0
 13
1.0
 23
0.0
 33
0.0
 40
0.0
 40
0.0
 40
0.0
 40
0.0
 40
1.0
 40
1.0
 40
1.0
 40
2.0
 40
2.0
 40
2.0
 40
3.0
 40
3.0
 40
3.0
 40
4.0
 40
4.0
 40
4.0
 40
5.0
 40
5.0
 40
5.0
 40
6.0
 40
6.0
 40
6.0
 40
7.0
 40
7.0
 40
7.0
 40
8.0
 40
8.0
 40
8.0
 40
9.0
 40
9.0
 40
9.0
 40
10.0
 40
10.0
 40
10.0
 40
11.0
 40
11.0
 40
11.0
 40
12.0
 40
12.0
 40
12.0
 40
13.0
 40
13.0
 40
13.0
 40
14.0
 40
14.0
 40
14.0
 40
15.0
 40
15.0
 40
15.0
 40
16.0
 40
16.0
 40
16.0
 40
17.0
 40
17.0
 40
17.0
 40
18.0
 40
18.0
 40
18.0
 40
19.0
 40
19.0
 40
19.0
 40
19.0
 10
95.72611217224903
 20
-139.4691785675633
 30
0.0
 10
95.63068302730761
 20
-139.4691785675633
 30
0.0
 10
95.41295299263982
 20
-139.447991230329
 30
0.0
 10
95.28789602652525
 20
-139.2617838193512
 30
0.0
 10
95.2141709831409
 20
-139.1496459613063
 30
0.0
 10
95.20969235901008
 20
-139.0502549565569
 30
0.0
 10
95.20555824442778
 20
-138.965677862394
 30
0.0
 10
95.20555824442778
 20
-138.965677862394
 30
0.0
 10
95.42569984593524
 20
-138.965677862394
 30
0.0
 10
95.42569984593524
 20
-138.965677862394
 30
0.0
 10
95.4277669032264
 20
-139.0397474153269
 30
0.0
 10
95.43810218968214
 20
-139.2745306726466
 30
0.0
 10
95.7216335481182
 20
-139.2745306726466
 30
0.0
 10
95.85909285797968
 20
-139.2745306726466
 30
0.0
 10
96.01171058797624
 20
-139.2047674890703
 30
0.0
 10
96.01171058797624
 20
-138.976185403624
 30
0.0
 10
96.01171058797624
 20
-138.8599134309968
 30
0.0
 10
95.97347002808998
 20
-138.8111653298805
 30
0.0
 10
95.94177514962567
 20
-138.7794704514162
 30
0.0
 10
95.8677055966928
 20
-138.7054008984834
 30
0.0
 10
95.75126136929136
 20
-138.6928262999622
 30
0.0
 10
95.69648435107588
 20
-138.6928262999622
 30
0.0
 10
95.67719181635849
 20
-138.6928262999622
 30
0.0
 10
95.64136282331188
 20
-138.6948933572534
 30
0.0
 10
95.61380205942989
 20
-138.6990274718357
 30
0.0
 10
95.61380205942989
 20
-138.6990274718357
 30
0.0
 10
95.61380205942989
 20
-138.5043795769191
 30
0.0
 10
95.61380205942989
 20
-138.5043795769191
 30
0.0
 10
95.65204261931616
 20
-138.5107530035668
 30
0.0
 10
95.69407278423621
 20
-138.5129923156322
 30
0.0
 10
95.70061846565818
 20
-138.5129923156322
 30
0.0
 10
95.76607527987792
 20
-138.5129923156322
 30
0.0
 10
95.96485728937685
 20
-138.4918049783979
 30
0.0
 10
95.96485728937685
 20
-138.2547824090127
 30
0.0
 10
95.96485728937685
 20
-138.0771877367481
 30
0.0
 10
95.83394366093735
 20
-138.0220662089841
 30
0.0
 10
95.72370060540936
 20
-138.0220662089841
 30
0.0
 10
95.45946178169069
 20
-138.0220662089841
 30
0.0
 10
95.45084904297757
 20
-138.2547824090127
 30
0.0
 10
95.44671492839527
 20
-138.3267849046544
 30
0.0
 10
95.44671492839527
 20
-138.3267849046544
 30
0.0
 10
95.24345429476553
 20
-138.3267849046544
 30
0.0
 10
95.24345429476553
 20
-138.3267849046544
 30
0.0
 10
95.25206703347865
 20
-138.2019001933141
 30
0.0
 10
95.27962779736065
 20
-137.8253512567763
 30
0.0
 10
95.73644745870479
 20
-137.8253512567763
 30
0.0
 10
95.96072317479455
 20
-137.8253512567763
 30
0.0
 10
96.20187985876204
 20
-137.9523030254078
 30
0.0
 10
96.20187985876204
 20
-138.248408982365
 30
0.0
 10
96.20187985876204
 20
-138.4346163933427
 30
0.0
 10
96.10679522336913
 20
-138.5171264302145
 30
0.0
 10
96.00723196384541
 20
-138.5784491298519
 30
0.0
 10
96.06855466348287
 20
-138.6060098937339
 30
0.0
 10
96.25045570510406
 20
-138.6864528733145
 30
0.0
 10
96.25045570510406
 20
-138.9636108051029
 30
0.0
 10
96.25045570510406
 20
-139.3020914365287
 30
0.0
 10
96.00309784926311
 20
-139.4691785675633
 30
0.0
 10
95.72611217224903
 20
-139.4691785675633
 30
0.0
  0
HATCH
  5
98
330
93
100
AcDbEntity
  8
_U+30EC_U+30A4_U+30E4_U+30FC 1
 62
   179
420
  2234388
100
AcDbHatch
 10
0.0
 20
0.0
 30
0.0
210
0.0
220
0.0
230
1.0
  2
SOLID
 70
     1
 71
     0
 91
        1
 92
        1
 93
        1
 72
     4
 94
        3
 73
     0
 74
     1
 95
       62
 96
       58
 40
0.0
 40
0.0
 40
0.0
 40
0.0
 40
1.0
 40
1.0
 40
1.0
 40
2.0
 40
2.0
 40
2.0
 40
3.0
 40
3.0
 40
3.0
 40
4.0
 40
4.0
 40
4.0
 40
5.0
 40
5.0
 40
5.0
 40
6.0
 40
6.0
 40
6.0
 40
7.0
 40
7.0
 40
7.0
 40
8.0
 40
8.0
 40
8.0
 40
9.0
 40
9.0
 40
9.0
 40
10.0
 40
10.0
 40
10.0
 40
11.0
 40
11.0
 40
11.0
 40
12.0
 40
12.0
 40
12.0
 40
13.0
 40
13.0
 40
13.0
 40
14.0
 40
14.0
 40
14.0
 40
15.0
 40
15.0
 40
15.0
 40
16.0
 40
16.0
 40
16.0
 40
17.0
 40
17.0
 40
17.0
 40
18.0
 40
18.0
 40
18.0
 40
19.0
 40
19.0
 40
19.0
 40
19.0
 10
95.72611217224903
 20
-139.4691785675633
 10
95.63068302730761
 20
-139.4691785675633
 10
95.41295299263982
 20
-139.447991230329
 10
95.28789602652525
 20
-139.2617838193512
 10
95.2141709831409
 20
-139.1496459613063
 10
95.20969235901008
 20
-139.0502549565569
 10
95.20555824442778
 20
-138.965677862394
 10
95.20555824442778
 20
-138.965677862394
 10
95.42569984593524
 20
-138.965677862394
 10
95.42569984593524
 20
-138.965677862394
 10
95.4277669032264
 20
-139.0397474153269
 10
95.43810218968214
 20
-139.2745306726466
 10
95.7216335481182
 20
-139.2745306726466
 10
95.85909285797968
 20
-139.2745306726466
 10
96.01171058797624
 20
-139.2047674890703
 10
96.01171058797624
 20
-138.976185403624
 10
96.01171058797624
 20
-138.8599134309968
 10
95.97347002808998
 20
-138.8111653298805
 10
95.94177514962567
 20
-138.7794704514162
 10
95.8677055966928
 20
-138.7054008984834
 10
95.75126136929136
 20
-138.6928262999622
 10
95.69648435107588
 20
-138.6928262999622
 10
95.67719181635849
 20
-138.6928262999622
 10
95.64136282331188
 20
-138.6948933572534
 10
95.61380205942989
 20
-138.6990274718357
 10
95.61380205942989
 20
-138.6990274718357
 10
95.61380205942989
 20
-138.5043795769191
 10
95.61380205942989
 20
-138.5043795769191
 10
95.65204261931616
 20
-138.5107530035668
 10
95.69407278423621
 20
-138.5129923156322
 10
95.70061846565818
 20
-138.5129923156322
 10
95.76607527987792
 20
-138.5129923156322
 10
95.96485728937685
 20
-138.4918049783979
 10
95.96485728937685
 20
-138.2547824090127
 10
95.96485728937685
 20
-138.0771877367481
 10
95.83394366093735
 20
-138.0220662089841
 10
95.72370060540936
 20
-138.0220662089841
 10
95.45946178169069
 20
-138.0220662089841
 10
95.45084904297757
 20
-138.2547824090127
 10
95.44671492839527
 20
-138.3267849046544
 10
95.44671492839527
 20
-138.3267849046544
 10
95.24345429476553
 20
-138.3267849046544
 10
95.24345429476553
 20
-138.3267849046544
 10
95.25206703347865
 20
-138.2019001933141
 10
95.27962779736065
 20
-137.8253512567763
 10
95.73644745870479
 20
-137.8253512567763
 10
95.96072317479455
 20
-137.8253512567763
 10
96.20187985876204
 20
-137.9523030254078
 10
96.20187985876204
 20
-138.248408982365
 10
96.20187985876204
 20
-138.4346163933427
 10
96.10679522336913
 20
-138.5171264302145
 10
96.00723196384541
 20
-138.5784491298519
 10
96.06855466348287
 20
-138.6060098937339
 10
96.25045570510406
 20
-138.6864528733145
 10
96.25045570510406
 20
-138.9636108051029
 10
96.25045570510406
 20
-139.3020914365287
 10
96.00309784926311
 20
-139.4691785675633
 10
95.72611217224903
 20
-139.4691785675633
 97
        0
 97
        0
 75
     2
 76
     1
 98
        0
  0
ENDBLK
  5
96
330
93
100
AcDbEntity
  8
0
100
AcDbBlockEnd
  0
BLOCK
  5
9B
330
99
100
AcDbEntity
  8
0
100
AcDbBlockBegin
  2
block 6
 70
     0
 10
0.0
 20
0.0
 30
0.0
  3
block 6
  1

  0
SPLINE
  5
9D
330
99
100
AcDbEntity
  8
_U+30EC_U+30A4_U+30E4_U+30FC 1
370
     0
100
AcDbSpline
210
0.0
220
0.0
230
1.0
 70
    11
 71
     3
 72
    26
 73
    22
 74
     0
 42
0.0000000001
 43
0.0000000001
 12
1.0
 22
0.0
 32
0.0
 13
1.0
 23
0.0
 33
0.0
 40
0.0
 40
0.0
 40
0.0
 40
0.0
 40
1.0
 40
1.0
 40
1.0
 40
2.0
 40
2.0
 40
2.0
 40
3.0
 40
3.0
 40
3.0
 40
4.0
 40
4.0
 40
4.0
 40
5.0
 40
5.0
 40
5.0
 40
6.0
 40
6.0
 40
6.0
 40
7.0
 40
7.0
 40
7.0
 40
7.0
 10
101.1552381474543
 20
-159.742531969613
 30
0.0
 10
101.1552381474543
 20
-159.742531969613
 30
0.0
 10
101.1552381474543
 20
-158.6380343570419
 30
0.0
 10
101.1552381474543
 20
-158.6380343570419
 30
0.0
 10
101.1552381474543
 20
-158.6380343570419
 30
0.0
 10
100.8251979999673
 20
-158.6380343570419
 30
0.0
 10
100.8251979999673
 20
-158.6380343570419
 30
0.0
 10
100.8251979999673
 20
-158.6380343570419
 30
0.0
 10
100.8251979999673
 20
-158.4898952511761
 30
0.0
 10
100.8251979999673
 20
-158.4898952511761
 30
0.0
 10
101.1573052047454
 20
-158.4754258501381
 30
0.0
 10
101.2038139937963
 20
-158.3124728336858
 30
0.0
 10
101.2334418149694
 20
-158.1980956635755
 30
0.0
 10
101.2334418149694
 20
-158.1980956635755
 30
0.0
 10
101.379513863544
 20
-158.1980956635755
 30
0.0
 10
101.379513863544
 20
-158.1980956635755
 30
0.0
 10
101.379513863544
 20
-158.1980956635755
 30
0.0
 10
101.379513863544
 20
-159.742531969613
 30
0.0
 10
101.379513863544
 20
-159.742531969613
 30
0.0
 10
101.379513863544
 20
-159.742531969613
 30
0.0
 10
101.1552381474543
 20
-159.742531969613
 30
0.0
 10
101.1552381474543
 20
-159.742531969613
 30
0.0
  0
HATCH
  5
9E
330
99
100
AcDbEntity
  8
_U+30EC_U+30A4_U+30E4_U+30FC 1
 62
   179
420
  2234388
100
AcDbHatch
 10
0.0
 20
0.0
 30
0.0
210
0.0
220
0.0
230
1.0
  2
SOLID
 70
     1
 71
     0
 91
        1
 92
        1
 93
        1
 72
     4
 94
        3
 73
     0
 74
     1
 95
       26
 96
       22
 40
0.0
 40
0.0
 40
0.0
 40
0.0
 40
1.0
 40
1.0
 40
1.0
 40
2.0
 40
2.0
 40
2.0
 40
3.0
 40
3.0
 40
3.0
 40
4.0
 40
4.0
 40
4.0
 40
5.0
 40
5.0
 40
5.0
 40
6.0
 40
6.0
 40
6.0
 40
7.0
 40
7.0
 40
7.0
 40
7.0
 10
101.1552381474543
 20
-159.742531969613
 10
101.1552381474543
 20
-159.742531969613
 10
101.1552381474543
 20
-158.6380343570419
 10
101.1552381474543
 20
-158.6380343570419
 10
101.1552381474543
 20
-158.6380343570419
 10
100.8251979999673
 20
-158.6380343570419
 10
100.8251979999673
 20
-158.6380343570419
 10
100.8251979999673
 20
-158.6380343570419
 10
100.8251979999673
 20
-158.4898952511761
 10
100.8251979999673
 20
-158.4898952511761
 10
101.1573052047454
 20
-158.4754258501381
 10
101.2038139937963
 20
-158.3124728336858
 10
101.2334418149694
 20
-158.1980956635755
 10
101.2334418149694
 20
-158.1980956635755
 10
101.379513863544
 20
-158.1980956635755
 10
101.379513863544
 20
-158.1980956635755
 10
101.379513863544
 20
-158.1980956635755
 10
101.379513863544
 20
-159.742531969613
 10
101.379513863544
 20
-159.742531969613
 10
101.379513863544
 20
-159.742531969613
 10
101.1552381474543
 20
-159.742531969613
 10
101.1552381474543
 20
-159.742531969613
 97
        0
 97
        0
 75
     2
 76
     1
 98
        0
  0
SPLINE
  5
9F
330
99
100
AcDbEntity
  8
_U+30EC_U+30A4_U+30E4_U+30FC 1
370
     0
100
AcDbSpline
210
0.0
220
0.0
230
1.0
 70
    11
 71
     3
 72
    53
 73
    49
 74
     0
 42
0.0000000001
 43
0.0000000001
 12
1.0
 22
0.0
 32
0.0
 13
1.0
 23
0.0
 33
0.0
 40
0.0
 40
0.0
 40
0.0
 40
0.0
 40
1.0
 40
1.0
 40
1.0
 40
2.0
 40
2.0
 40
2.0
 40
3.0
 40
3.0
 40
3.0
 40
4.0
 40
4.0
 40
4.0
 40
5.0
 40
5.0
 40
5.0
 40
6.0
 40
6.0
 40
6.0
 40
7.0
 40
7.0
 40
7.0
 40
8.0
 40
8.0
 40
8.0
 40
9.0
 40
9.0
 40
9.0
 40
10.0
 40
10.0
 40
10.0
 40
11.0
 40
11.0
 40
11.0
 40
12.0
 40
12.0
 40
12.0
 40
13.0
 40
13.0
 40
13.0
 40
14.0
 40
14.0
 40
14.0
 40
15.0
 40
15.0
 40
15.0
 40
16.0
 40
16.0
 40
16.0
 40
16.0
 10
102.3617105863887
 20
-159.7931748732462
 30
0.0
 10
102.2835069188736
 20
-159.7931748732462
 30
0.0
 10
102.1818766020587
 20
-159.7762939053684
 30
0.0
 10
102.0802462852438
 20
-159.7129041484398
 30
0.0
 10
101.9069579823358
 20
-159.6026610929118
 30
0.0
 10
101.8855983903272
 20
-159.4717474644723
 30
0.0
 10
101.8666503651583
 20
-159.363915975784
 30
0.0
 10
101.8666503651583
 20
-159.363915975784
 30
0.0
 10
102.088859023957
 20
-159.363915975784
 30
0.0
 10
102.088859023957
 20
-159.363915975784
 30
0.0
 10
102.1436360421724
 20
-159.5626979852829
 30
0.0
 10
102.2707600655781
 20
-159.5923258064561
 30
0.0
 10
102.3637776436799
 20
-159.5923258064561
 30
0.0
 10
102.5033040108325
 20
-159.5923258064561
 30
0.0
 10
102.6555772312806
 20
-159.4927625469324
 30
0.0
 10
102.6555772312806
 20
-159.260218601678
 30
0.0
 10
102.6555772312806
 20
-159.0042480071239
 30
0.0
 10
102.4757432469505
 20
-158.9343125687734
 30
0.0
 10
102.3551649049668
 20
-158.9343125687734
 30
0.0
 10
102.3234700265025
 20
-158.9343125687734
 30
0.0
 10
102.1818766020587
 20
-158.9343125687734
 30
0.0
 10
102.0929931385393
 20
-159.0635036494702
 30
0.0
 10
102.0929931385393
 20
-159.0635036494702
 30
0.0
 10
101.9172932687915
 20
-159.0442111147528
 30
0.0
 10
101.9172932687915
 20
-159.0442111147528
 30
0.0
 10
101.9172932687915
 20
-159.0442111147528
 30
0.0
 10
102.0378716107753
 20
-158.1980956635755
 30
0.0
 10
102.0378716107753
 20
-158.1980956635755
 30
0.0
 10
102.0378716107753
 20
-158.1980956635755
 30
0.0
 10
102.8164631904417
 20
-158.1980956635755
 30
0.0
 10
102.8164631904417
 20
-158.1980956635755
 30
0.0
 10
102.8164631904417
 20
-158.1980956635755
 30
0.0
 10
102.8164631904417
 20
-158.3927435584921
 30
0.0
 10
102.8164631904417
 20
-158.3927435584921
 30
0.0
 10
102.8164631904417
 20
-158.3927435584921
 30
0.0
 10
102.2008246272276
 20
-158.3927435584921
 30
0.0
 10
102.2008246272276
 20
-158.3927435584921
 30
0.0
 10
102.2008246272276
 20
-158.3927435584921
 30
0.0
 10
102.1353678130078
 20
-158.8158012840808
 30
0.0
 10
102.1353678130078
 20
-158.8158012840808
 30
0.0
 10
102.1966905126453
 20
-158.7820393483253
 30
0.0
 10
102.2790282947427
 20
-158.7417317311479
 30
0.0
 10
102.3975395794353
 20
-158.7417317311479
 30
0.0
 10
102.6514431166983
 20
-158.7417317311479
 30
0.0
 10
102.8884656860834
 20
-158.9281113968999
 30
0.0
 10
102.8884656860834
 20
-159.2409260669606
 30
0.0
 10
102.8884656860834
 20
-159.5585638707007
 30
0.0
 10
102.6641899699937
 20
-159.7931748732462
 30
0.0
 10
102.3617105863887
 20
-159.7931748732462
 30
0.0
  0
HATCH
  5
A0
330
99
100
AcDbEntity
  8
_U+30EC_U+30A4_U+30E4_U+30FC 1
 62
   179
420
  2234388
100
AcDbHatch
 10
0.0
 20
0.0
 30
0.0
210
0.0
220
0.0
230
1.0
  2
SOLID
 70
     1
 71
     0
 91
        1
 92
        1
 93
        1
 72
     4
 94
        3
 73
     0
 74
     1
 95
       53
 96
       49
 40
0.0
 40
0.0
 40
0.0
 40
0.0
 40
1.0
 40
1.0
 40
1.0
 40
2.0
 40
2.0
 40
2.0
 40
3.0
 40
3.0
 40
3.0
 40
4.0
 40
4.0
 40
4.0
 40
5.0
 40
5.0
 40
5.0
 40
6.0
 40
6.0
 40
6.0
 40
7.0
 40
7.0
 40
7.0
 40
8.0
 40
8.0
 40
8.0
 40
9.0
 40
9.0
 40
9.0
 40
10.0
 40
10.0
 40
10.0
 40
11.0
 40
11.0
 40
11.0
 40
12.0
 40
12.0
 40
12.0
 40
13.0
 40
13.0
 40
13.0
 40
14.0
 40
14.0
 40
14.0
 40
15.0
 40
15.0
 40
15.0
 40
16.0
 40
16.0
 40
16.0
 40
16.0
 10
102.3617105863887
 20
-159.7931748732462
 10
102.2835069188736
 20
-159.7931748732462
 10
102.1818766020587
 20
-159.7762939053684
 10
102.0802462852438
 20
-159.7129041484398
 10
101.9069579823358
 20
-159.6026610929118
 10
101.8855983903272
 20
-159.4717474644723
 10
101.8666503651583
 20
-159.363915975784
 10
101.8666503651583
 20
-159.363915975784
 10
102.088859023957
 20
-159.363915975784
 10
102.088859023957
 20
-159.363915975784
 10
102.1436360421724
 20
-159.5626979852829
 10
102.2707600655781
 20
-159.5923258064561
 10
102.3637776436799
 20
-159.5923258064561
 10
102.5033040108325
 20
-159.5923258064561
 10
102.6555772312806
 20
-159.4927625469324
 10
102.6555772312806
 20
-159.260218601678
 10
102.6555772312806
 20
-159.0042480071239
 10
102.4757432469505
 20
-158.9343125687734
 10
102.3551649049668
 20
-158.9343125687734
 10
102.3234700265025
 20
-158.9343125687734
 10
102.1818766020587
 20
-158.9343125687734
 10
102.0929931385393
 20
-159.0635036494702
 10
102.0929931385393
 20
-159.0635036494702
 10
101.9172932687915
 20
-159.0442111147528
 10
101.9172932687915
 20
-159.0442111147528
 10
101.9172932687915
 20
-159.0442111147528
 10
102.0378716107753
 20
-158.1980956635755
 10
102.0378716107753
 20
-158.1980956635755
 10
102.0378716107753
 20
-158.1980956635755
 10
102.8164631904417
 20
-158.1980956635755
 10
102.8164631904417
 20
-158.1980956635755
 10
102.8164631904417
 20
-158.1980956635755
 10
102.8164631904417
 20
-158.3927435584921
 10
102.8164631904417
 20
-158.3927435584921
 10
102.8164631904417
 20
-158.3927435584921
 10
102.2008246272276
 20
-158.3927435584921
 10
102.2008246272276
 20
-158.3927435584921
 10
102.2008246272276
 20
-158.3927435584921
 10
102.1353678130078
 20
-158.8158012840808
 10
102.1353678130078
 20
-158.8158012840808
 10
102.1966905126453
 20
-158.7820393483253
 10
102.2790282947427
 20
-158.7417317311479
 10
102.3975395794353
 20
-158.7417317311479
 10
102.6514431166983
 20
-158.7417317311479
 10
102.8884656860834
 20
-158.9281113968999
 10
102.8884656860834
 20
-159.2409260669606
 10
102.8884656860834
 20
-159.5585638707007
 10
102.6641899699937
 20
-159.7931748732462
 10
102.3617105863887
 20
-159.7931748732462
 97
        0
 97
        0
 75
     2
 76
     1
 98
        0
  0
ENDBLK
  5
9C
330
99
100
AcDbEntity
  8
0
100
AcDbBlockEnd
  0
BLOCK
  5
B8
330
B6
100
AcDbEntity
  8
0
100
AcDbBlockBegin
  2
block 7
 70
     0
 10
0.0
 20
0.0
 30
0.0
  3
block 7
  1

  0
SPLINE
  5
BA
330
B6
100
AcDbEntity
  8
_U+30EC_U+30A4_U+30E4_U+30FC 1
370
     0
100
AcDbSpline
210
0.0
220
0.0
230
1.0
 70
    11
 71
     3
 72
    26
 73
    22
 74
     0
 42
0.0000000001
 43
0.0000000001
 12
1.0
 22
0.0
 32
0.0
 13
1.0
 23
0.0
 33
0.0
 40
0.0
 40
0.0
 40
0.0
 40
0.0
 40
1.0
 40
1.0
 40
1.0
 40
2.0
 40
2.0
 40
2.0
 40
3.0
 40
3.0
 40
3.0
 40
4.0
 40
4.0
 40
4.0
 40
5.0
 40
5.0
 40
5.0
 40
6.0
 40
6.0
 40
6.0
 40
7.0
 40
7.0
 40
7.0
 40
7.0
 10
100.303955053049
 20
-142.2235324080205
 30
0.0
 10
100.303955053049
 20
-142.2235324080205
 30
0.0
 10
100.303955053049
 20
-141.1192070502237
 30
0.0
 10
100.303955053049
 20
-141.1192070502237
 30
0.0
 10
100.303955053049
 20
-141.1192070502237
 30
0.0
 10
99.97391490556208
 20
-141.1192070502237
 30
0.0
 10
99.97391490556208
 20
-141.1192070502237
 30
0.0
 10
99.97391490556208
 20
-141.1192070502237
 30
0.0
 10
99.97391490556208
 20
-140.9710679443579
 30
0.0
 10
99.97391490556208
 20
-140.9710679443579
 30
0.0
 10
100.3060221103402
 20
-140.9564262885456
 30
0.0
 10
100.352530899391
 20
-140.7934732720933
 30
0.0
 10
100.3821587205642
 20
-140.6792683567573
 30
0.0
 10
100.3821587205642
 20
-140.6792683567573
 30
0.0
 10
100.5282307691388
 20
-140.6792683567573
 30
0.0
 10
100.5282307691388
 20
-140.6792683567573
 30
0.0
 10
100.5282307691388
 20
-140.6792683567573
 30
0.0
 10
100.5282307691388
 20
-142.2235324080205
 30
0.0
 10
100.5282307691388
 20
-142.2235324080205
 30
0.0
 10
100.5282307691388
 20
-142.2235324080205
 30
0.0
 10
100.303955053049
 20
-142.2235324080205
 30
0.0
 10
100.303955053049
 20
-142.2235324080205
 30
0.0
  0
HATCH
  5
BB
330
B6
100
AcDbEntity
  8
_U+30EC_U+30A4_U+30E4_U+30FC 1
 62
   179
420
  2234388
100
AcDbHatch
 10
0.0
 20
0.0
 30
0.0
210
0.0
220
0.0
230
1.0
  2
SOLID
 70
     1
 71
     0
 91
        1
 92
        1
 93
        1
 72
     4
 94
        3
 73
     0
 74
     1
 95
       26
 96
       22
 40
0.0
 40
0.0
 40
0.0
 40
0.0
 40
1.0
 40
1.0
 40
1.0
 40
2.0
 40
2.0
 40
2.0
 40
3.0
 40
3.0
 40
3.0
 40
4.0
 40
4.0
 40
4.0
 40
5.0
 40
5.0
 40
5.0
 40
6.0
 40
6.0
 40
6.0
 40
7.0
 40
7.0
 40
7.0
 40
7.0
 10
100.303955053049
 20
-142.2235324080205
 10
100.303955053049
 20
-142.2235324080205
 10
100.303955053049
 20
-141.1192070502237
 10
100.303955053049
 20
-141.1192070502237
 10
100.303955053049
 20
-141.1192070502237
 10
99.97391490556208
 20
-141.1192070502237
 10
99.97391490556208
 20
-141.1192070502237
 10
99.97391490556208
 20
-141.1192070502237
 10
99.97391490556208
 20
-140.9710679443579
 10
99.97391490556208
 20
-140.9710679443579
 10
100.3060221103402
 20
-140.9564262885456
 10
100.352530899391
 20
-140.7934732720933
 10
100.3821587205642
 20
-140.6792683567573
 10
100.3821587205642
 20
-140.6792683567573
 10
100.5282307691388
 20
-140.6792683567573
 10
100.5282307691388
 20
-140.6792683567573
 10
100.5282307691388
 20
-140.6792683567573
 10
100.5282307691388
 20
-142.2235324080205
 10
100.5282307691388
 20
-142.2235324080205
 10
100.5282307691388
 20
-142.2235324080205
 10
100.303955053049
 20
-142.2235324080205
 10
100.303955053049
 20
-142.2235324080205
 97
        0
 97
        0
 75
     2
 76
     1
 98
        0
  0
POLYLINE
  5
BC
330
B6
100
AcDbEntity
  8
_U+30EC_U+30A4_U+30E4_U+30FC 1
370
     0
100
AcDb2dPolyline
 66
     1
 10
0.0
 20
0.0
 30
0.0
  0
VERTEX
  5
BD
330
BC
100
AcDbEntity
  8
_U+30EC_U+30A4_U+30E4_U+30FC 1
370
     0
100
AcDbVertex
100
AcDb2dVertex
 10
101.089436823686
 20
-142.2235324080205
 30
0.0
  0
VERTEX
  5
BE
330
BC
100
AcDbEntity
  8
_U+30EC_U+30A4_U+30E4_U+30FC 1
370
     0
100
AcDbVertex
100
AcDb2dVertex
 10
101.089436823686
 20
-141.971868182823
 30
0.0
  0
VERTEX
  5
BF
330
BC
100
AcDbEntity
  8
_U+30EC_U+30A4_U+30E4_U+30FC 1
370
     0
100
AcDbVertex
100
AcDb2dVertex
 10
101.3412733036577
 20
-141.971868182823
 30
0.0
  0
VERTEX
  5
C0
330
BC
100
AcDbEntity
  8
_U+30EC_U+30A4_U+30E4_U+30FC 1
370
     0
100
AcDbVertex
100
AcDb2dVertex
 10
101.3412733036577
 20
-142.2235324080205
 30
0.0
  0
VERTEX
  5
C1
330
BC
100
AcDbEntity
  8
_U+30EC_U+30A4_U+30E4_U+30FC 1
370
     0
100
AcDbVertex
100
AcDb2dVertex
 10
101.089436823686
 20
-142.2235324080205
 30
0.0
  0
SEQEND
  5
C2
330
BC
100
AcDbEntity
  8
_U+30EC_U+30A4_U+30E4_U+30FC 1
370
     0
  0
HATCH
  5
C3
330
B6
100
AcDbEntity
  8
_U+30EC_U+30A4_U+30E4_U+30FC 1
 62
   179
420
  2234388
100
AcDbHatch
 10
0.0
 20
0.0
 30
0.0
210
0.0
220
0.0
230
1.0
  2
SOLID
 70
     1
 71
     0
 91
        1
 92
        1
 93
        4
 72
     1
 10
101.089436823686
 20
-142.2235324080205
 11
101.089436823686
 21
-141.971868182823
 72
     1
 10
101.089436823686
 20
-141.971868182823
 11
101.3412733036577
 21
-141.971868182823
 72
     1
 10
101.3412733036577
 20
-141.971868182823
 11
101.3412733036577
 21
-142.2235324080205
 72
     1
 10
101.3412733036577
 20
-142.2235324080205
 11
101.089436823686
 21
-142.2235324080205
 97
        0
 75
     2
 76
     1
 98
        0
  0
SPLINE
  5
C4
330
B6
100
AcDbEntity
  8
_U+30EC_U+30A4_U+30E4_U+30FC 1
370
     0
100
AcDbSpline
210
0.0
220
0.0
230
1.0
 70
    11
 71
     3
 72
    53
 73
    49
 74
     0
 42
0.0000000001
 43
0.0000000001
 12
1.0
 22
0.0
 32
0.0
 13
1.0
 23
0.0
 33
0.0
 40
0.0
 40
0.0
 40
0.0
 40
0.0
 40
1.0
 40
1.0
 40
1.0
 40
2.0
 40
2.0
 40
2.0
 40
3.0
 40
3.0
 40
3.0
 40
4.0
 40
4.0
 40
4.0
 40
5.0
 40
5.0
 40
5.0
 40
6.0
 40
6.0
 40
6.0
 40
7.0
 40
7.0
 40
7.0
 40
8.0
 40
8.0
 40
8.0
 40
9.0
 40
9.0
 40
9.0
 40
10.0
 40
10.0
 40
10.0
 40
11.0
 40
11.0
 40
11.0
 40
12.0
 40
12.0
 40
12.0
 40
13.0
 40
13.0
 40
13.0
 40
14.0
 40
14.0
 40
14.0
 40
15.0
 40
15.0
 40
15.0
 40
16.0
 40
16.0
 40
16.0
 40
16.0
 10
102.0585421836868
 20
-142.2743475664279
 30
0.0
 10
101.9803385161716
 20
-142.2743475664279
 30
0.0
 10
101.8787081993567
 20
-142.2574665985502
 30
0.0
 10
101.7770778825418
 20
-142.1939045868474
 30
0.0
 10
101.6037895796338
 20
-142.0838337860936
 30
0.0
 10
101.5824299876252
 20
-141.9527479028799
 30
0.0
 10
101.5634819624564
 20
-141.8449164141915
 30
0.0
 10
101.5634819624564
 20
-141.8449164141915
 30
0.0
 10
101.785690621255
 20
-141.8449164141915
 30
0.0
 10
101.785690621255
 20
-141.8449164141915
 30
0.0
 10
101.8404676394704
 20
-142.0436984236905
 30
0.0
 10
101.9675916628762
 20
-142.0733262448636
 30
0.0
 10
102.0606092409779
 20
-142.0733262448636
 30
0.0
 10
102.2001356081305
 20
-142.0733262448636
 30
0.0
 10
102.3524088285786
 20
-141.9739352401142
 30
0.0
 10
102.3524088285786
 20
-141.7412190400855
 30
0.0
 10
102.3524088285786
 20
-141.4852484455315
 30
0.0
 10
102.1725748442485
 20
-141.4154852619552
 30
0.0
 10
102.0519965022648
 20
-141.4154852619552
 30
0.0
 10
102.0203016238005
 20
-141.4154852619552
 30
0.0
 10
101.8787081993567
 20
-141.4154852619552
 30
0.0
 10
101.7898247358373
 20
-141.5445040878778
 30
0.0
 10
101.7898247358373
 20
-141.5445040878778
 30
0.0
 10
101.6141248660895
 20
-141.5253838079346
 30
0.0
 10
101.6141248660895
 20
-141.5253838079346
 30
0.0
 10
101.6141248660895
 20
-141.5253838079346
 30
0.0
 10
101.7347032080733
 20
-140.6792683567573
 30
0.0
 10
101.7347032080733
 20
-140.6792683567573
 30
0.0
 10
101.7347032080733
 20
-140.6792683567573
 30
0.0
 10
102.5132947877397
 20
-140.6792683567573
 30
0.0
 10
102.5132947877397
 20
-140.6792683567573
 30
0.0
 10
102.5132947877397
 20
-140.6792683567573
 30
0.0
 10
102.5132947877397
 20
-140.8739162516739
 30
0.0
 10
102.5132947877397
 20
-140.8739162516739
 30
0.0
 10
102.5132947877397
 20
-140.8739162516739
 30
0.0
 10
101.8976562245256
 20
-140.8739162516739
 30
0.0
 10
101.8976562245256
 20
-140.8739162516739
 30
0.0
 10
101.8976562245256
 20
-140.8739162516739
 30
0.0
 10
101.8321994103058
 20
-141.2969739772626
 30
0.0
 10
101.8321994103058
 20
-141.2969739772626
 30
0.0
 10
101.8935221099433
 20
-141.2630397867329
 30
0.0
 10
101.9758598920408
 20
-141.2229044243297
 30
0.0
 10
102.0943711767334
 20
-141.2229044243297
 30
0.0
 10
102.3482747139963
 20
-141.2229044243297
 30
0.0
 10
102.5852972833815
 20
-141.4091118353074
 30
0.0
 10
102.5852972833815
 20
-141.7220987601424
 30
0.0
 10
102.5852972833815
 20
-142.0395643091082
 30
0.0
 10
102.3610215672917
 20
-142.2743475664279
 30
0.0
 10
102.0585421836868
 20
-142.2743475664279
 30
0.0
  0
HATCH
  5
C5
330
B6
100
AcDbEntity
  8
_U+30EC_U+30A4_U+30E4_U+30FC 1
 62
   179
420
  2234388
100
AcDbHatch
 10
0.0
 20
0.0
 30
0.0
210
0.0
220
0.0
230
1.0
  2
SOLID
 70
     1
 71
     0
 91
        1
 92
        1
 93
        1
 72
     4
 94
        3
 73
     0
 74
     1
 95
       53
 96
       49
 40
0.0
 40
0.0
 40
0.0
 40
0.0
 40
1.0
 40
1.0
 40
1.0
 40
2.0
 40
2.0
 40
2.0
 40
3.0
 40
3.0
 40
3.0
 40
4.0
 40
4.0
 40
4.0
 40
5.0
 40
5.0
 40
5.0
 40
6.0
 40
6.0
 40
6.0
 40
7.0
 40
7.0
 40
7.0
 40
8.0
 40
8.0
 40
8.0
 40
9.0
 40
9.0
 40
9.0
 40
10.0
 40
10.0
 40
10.0
 40
11.0
 40
11.0
 40
11.0
 40
12.0
 40
12.0
 40
12.0
 40
13.0
 40
13.0
 40
13.0
 40
14.0
 40
14.0
 40
14.0
 40
15.0
 40
15.0
 40
15.0
 40
16.0
 40
16.0
 40
16.0
 40
16.0
 10
102.0585421836868
 20
-142.2743475664279
 10
101.9803385161716
 20
-142.2743475664279
 10
101.8787081993567
 20
-142.2574665985502
 10
101.7770778825418
 20
-142.1939045868474
 10
101.6037895796338
 20
-142.0838337860936
 10
101.5824299876252
 20
-141.9527479028799
 10
101.5634819624564
 20
-141.8449164141915
 10
101.5634819624564
 20
-141.8449164141915
 10
101.785690621255
 20
-141.8449164141915
 10
101.785690621255
 20
-141.8449164141915
 10
101.8404676394704
 20
-142.0436984236905
 10
101.9675916628762
 20
-142.0733262448636
 10
102.0606092409779
 20
-142.0733262448636
 10
102.2001356081305
 20
-142.0733262448636
 10
102.3524088285786
 20
-141.9739352401142
 10
102.3524088285786
 20
-141.7412190400855
 10
102.3524088285786
 20
-141.4852484455315
 10
102.1725748442485
 20
-141.4154852619552
 10
102.0519965022648
 20
-141.4154852619552
 10
102.0203016238005
 20
-141.4154852619552
 10
101.8787081993567
 20
-141.4154852619552
 10
101.7898247358373
 20
-141.5445040878778
 10
101.7898247358373
 20
-141.5445040878778
 10
101.6141248660895
 20
-141.5253838079346
 10
101.6141248660895
 20
-141.5253838079346
 10
101.6141248660895
 20
-141.5253838079346
 10
101.7347032080733
 20
-140.6792683567573
 10
101.7347032080733
 20
-140.6792683567573
 10
101.7347032080733
 20
-140.6792683567573
 10
102.5132947877397
 20
-140.6792683567573
 10
102.5132947877397
 20
-140.6792683567573
 10
102.5132947877397
 20
-140.6792683567573
 10
102.5132947877397
 20
-140.8739162516739
 10
102.5132947877397
 20
-140.8739162516739
 10
102.5132947877397
 20
-140.8739162516739
 10
101.8976562245256
 20
-140.8739162516739
 10
101.8976562245256
 20
-140.8739162516739
 10
101.8976562245256
 20
-140.8739162516739
 10
101.8321994103058
 20
-141.2969739772626
 10
101.8321994103058
 20
-141.2969739772626
 10
101.8935221099433
 20
-141.2630397867329
 10
101.9758598920408
 20
-141.2229044243297
 10
102.0943711767334
 20
-141.2229044243297
 10
102.3482747139963
 20
-141.2229044243297
 10
102.5852972833815
 20
-141.4091118353074
 10
102.5852972833815
 20
-141.7220987601424
 10
102.5852972833815
 20
-142.0395643091082
 10
102.3610215672917
 20
-142.2743475664279
 10
102.0585421836868
 20
-142.2743475664279
 97
        0
 97
        0
 75
     2
 76
     1
 98
        0
  0
SPLINE
  5
C6
330
B6
100
AcDbEntity
  8
_U+30EC_U+30A4_U+30E4_U+30FC 1
370
     0
100
AcDbSpline
210
0.0
220
0.0
230
1.0
 70
    11
 71
     3
 72
    44
 73
    40
 74
     0
 42
0.0000000001
 43
0.0000000001
 12
1.0
 22
0.0
 32
0.0
 13
1.0
 23
0.0
 33
0.0
 40
0.0
 40
0.0
 40
0.0
 40
0.0
 40
1.0
 40
1.0
 40
1.0
 40
2.0
 40
2.0
 40
2.0
 40
3.0
 40
3.0
 40
3.0
 40
4.0
 40
4.0
 40
4.0
 40
5.0
 40
5.0
 40
5.0
 40
6.0
 40
6.0
 40
6.0
 40
7.0
 40
7.0
 40
7.0
 40
8.0
 40
8.0
 40
8.0
 40
9.0
 40
9.0
 40
9.0
 40
10.0
 40
10.0
 40
10.0
 40
11.0
 40
11.0
 40
11.0
 40
12.0
 40
12.0
 40
12.0
 40
13.0
 40
13.0
 40
13.0
 40
13.0
 10
103.7683430730163
 20
-142.2235324080205
 30
0.0
 10
103.7452609332651
 20
-142.1790906762608
 30
0.0
 10
103.7239013412565
 20
-142.1262084605622
 30
0.0
 10
103.7218342839654
 20
-141.8955593178247
 30
0.0
 10
103.7177001693831
 20
-141.6523355765661
 30
0.0
 10
103.6584445270368
 20
-141.5825723929898
 30
0.0
 10
103.4806775999979
 20
-141.5825723929898
 30
0.0
 10
103.4806775999979
 20
-141.5825723929898
 30
0.0
 10
103.0724337849958
 20
-141.5825723929898
 30
0.0
 10
103.0724337849958
 20
-141.5825723929898
 30
0.0
 10
103.0724337849958
 20
-141.5825723929898
 30
0.0
 10
103.0724337849958
 20
-142.2235324080205
 30
0.0
 10
103.0724337849958
 20
-142.2235324080205
 30
0.0
 10
103.0724337849958
 20
-142.2235324080205
 30
0.0
 10
102.8374782729017
 20
-142.2235324080205
 30
0.0
 10
102.8374782729017
 20
-142.2235324080205
 30
0.0
 10
102.8374782729017
 20
-142.2235324080205
 30
0.0
 10
102.8374782729017
 20
-140.6792683567573
 30
0.0
 10
102.8374782729017
 20
-140.6792683567573
 30
0.0
 10
102.8374782729017
 20
-140.6792683567573
 30
0.0
 10
103.5123724784622
 20
-140.6792683567573
 30
0.0
 10
103.5123724784622
 20
-140.6792683567573
 30
0.0
 10
103.819330486198
 20
-140.6792683567573
 30
0.0
 10
103.9864176172326
 20
-140.8504896023742
 30
0.0
 10
103.9864176172326
 20
-141.1064601969283
 30
0.0
 10
103.9864176172326
 20
-141.1572753553357
 30
0.0
 10
103.9778048785194
 20
-141.2397853922074
 30
0.0
 10
103.9333631467597
 20
-141.320228371788
 30
0.0
 10
103.8741075044134
 20
-141.423925745894
 30
0.0
 10
103.8086506901937
 20
-141.4428737710629
 30
0.0
 10
103.7473279905562
 20
-141.4597547389406
 30
0.0
 10
103.8847873004177
 20
-141.5021294134092
 30
0.0
 10
103.9523111719286
 20
-141.5508775145255
 30
0.0
 10
103.9567897960594
 20
-141.8659314966516
 30
0.0
 10
103.9609239106417
 20
-142.1367160017922
 30
0.0
 10
103.9967529036883
 20
-142.1685831350308
 30
0.0
 10
104.0646212847477
 20
-142.2235324080205
 30
0.0
 10
104.0646212847477
 20
-142.2235324080205
 30
0.0
 10
103.7683430730163
 20
-142.2235324080205
 30
0.0
 10
103.7683430730163
 20
-142.2235324080205
 30
0.0
  0
SPLINE
  5
C7
330
B6
100
AcDbEntity
  8
_U+30EC_U+30A4_U+30E4_U+30FC 1
370
     0
100
AcDbSpline
210
0.0
220
0.0
230
1.0
 70
    11
 71
     3
 72
    20
 73
    16
 74
     0
 42
0.0000000001
 43
0.0000000001
 12
1.0
 22
0.0
 32
0.0
 13
1.0
 23
0.0
 33
0.0
 40
0.0
 40
0.0
 40
0.0
 40
0.0
 40
1.0
 40
1.0
 40
1.0
 40
2.0
 40
2.0
 40
2.0
 40
3.0
 40
3.0
 40
3.0
 40
4.0
 40
4.0
 40
4.0
 40
5.0
 40
5.0
 40
5.0
 40
5.0
 10
103.516851102593
 20
-140.8907972195516
 30
0.0
 10
103.516851102593
 20
-140.8907972195516
 30
0.0
 10
103.0724337849958
 20
-140.8907972195516
 30
0.0
 10
103.0724337849958
 20
-140.8907972195516
 30
0.0
 10
103.0724337849958
 20
-140.8907972195516
 30
0.0
 10
103.0724337849958
 20
-141.3710435301954
 30
0.0
 10
103.0724337849958
 20
-141.3710435301954
 30
0.0
 10
103.0724337849958
 20
-141.3710435301954
 30
0.0
 10
103.5144395357533
 20
-141.3710435301954
 30
0.0
 10
103.5144395357533
 20
-141.3710435301954
 30
0.0
 10
103.6140027952771
 20
-141.3710435301954
 30
0.0
 10
103.7493950478474
 20
-141.2949069199714
 30
0.0
 10
103.7493950478474
 20
-141.1235134195802
 30
0.0
 10
103.7493950478474
 20
-141.0451374972908
 30
0.0
 10
103.7156331120919
 20
-140.8907972195516
 30
0.0
 10
103.516851102593
 20
-140.8907972195516
 30
0.0
  0
HATCH
  5
C8
330
B6
100
AcDbEntity
  8
_U+30EC_U+30A4_U+30E4_U+30FC 1
 62
   179
420
  2234388
100
AcDbHatch
 10
0.0
 20
0.0
 30
0.0
210
0.0
220
0.0
230
1.0
  2
SOLID
 70
     1
 71
     0
 91
        2
 92
        1
 93
        1
 72
     4
 94
        3
 73
     0
 74
     1
 95
       44
 96
       40
 40
0.0
 40
0.0
 40
0.0
 40
0.0
 40
1.0
 40
1.0
 40
1.0
 40
2.0
 40
2.0
 40
2.0
 40
3.0
 40
3.0
 40
3.0
 40
4.0
 40
4.0
 40
4.0
 40
5.0
 40
5.0
 40
5.0
 40
6.0
 40
6.0
 40
6.0
 40
7.0
 40
7.0
 40
7.0
 40
8.0
 40
8.0
 40
8.0
 40
9.0
 40
9.0
 40
9.0
 40
10.0
 40
10.0
 40
10.0
 40
11.0
 40
11.0
 40
11.0
 40
12.0
 40
12.0
 40
12.0
 40
13.0
 40
13.0
 40
13.0
 40
13.0
 10
103.7683430730163
 20
-142.2235324080205
 10
103.7452609332651
 20
-142.1790906762608
 10
103.7239013412565
 20
-142.1262084605622
 10
103.7218342839654
 20
-141.8955593178247
 10
103.7177001693831
 20
-141.6523355765661
 10
103.6584445270368
 20
-141.5825723929898
 10
103.4806775999979
 20
-141.5825723929898
 10
103.4806775999979
 20
-141.5825723929898
 10
103.0724337849958
 20
-141.5825723929898
 10
103.0724337849958
 20
-141.5825723929898
 10
103.0724337849958
 20
-141.5825723929898
 10
103.0724337849958
 20
-142.2235324080205
 10
103.0724337849958
 20
-142.2235324080205
 10
103.0724337849958
 20
-142.2235324080205
 10
102.8374782729017
 20
-142.2235324080205
 10
102.8374782729017
 20
-142.2235324080205
 10
102.8374782729017
 20
-142.2235324080205
 10
102.8374782729017
 20
-140.6792683567573
 10
102.8374782729017
 20
-140.6792683567573
 10
102.8374782729017
 20
-140.6792683567573
 10
103.5123724784622
 20
-140.6792683567573
 10
103.5123724784622
 20
-140.6792683567573
 10
103.819330486198
 20
-140.6792683567573
 10
103.9864176172326
 20
-140.8504896023742
 10
103.9864176172326
 20
-141.1064601969283
 10
103.9864176172326
 20
-141.1572753553357
 10
103.9778048785194
 20
-141.2397853922074
 10
103.9333631467597
 20
-141.320228371788
 10
103.8741075044134
 20
-141.423925745894
 10
103.8086506901937
 20
-141.4428737710629
 10
103.7473279905562
 20
-141.4597547389406
 10
103.8847873004177
 20
-141.5021294134092
 10
103.9523111719286
 20
-141.5508775145255
 10
103.9567897960594
 20
-141.8659314966516
 10
103.9609239106417
 20
-142.1367160017922
 10
103.9967529036883
 20
-142.1685831350308
 10
104.0646212847477
 20
-142.2235324080205
 10
104.0646212847477
 20
-142.2235324080205
 10
103.7683430730163
 20
-142.2235324080205
 10
103.7683430730163
 20
-142.2235324080205
 97
        0
 97
        0
 92
        1
 93
        1
 72
     4
 94
        3
 73
     0
 74
     1
 95
       20
 96
       16
 40
0.0
 40
0.0
 40
0.0
 40
0.0
 40
1.0
 40
1.0
 40
1.0
 40
2.0
 40
2.0
 40
2.0
 40
3.0
 40
3.0
 40
3.0
 40
4.0
 40
4.0
 40
4.0
 40
5.0
 40
5.0
 40
5.0
 40
5.0
 10
103.516851102593
 20
-140.8907972195516
 10
103.516851102593
 20
-140.8907972195516
 10
103.0724337849958
 20
-140.8907972195516
 10
103.0724337849958
 20
-140.8907972195516
 10
103.0724337849958
 20
-140.8907972195516
 10
103.0724337849958
 20
-141.3710435301954
 10
103.0724337849958
 20
-141.3710435301954
 10
103.0724337849958
 20
-141.3710435301954
 10
103.5144395357533
 20
-141.3710435301954
 10
103.5144395357533
 20
-141.3710435301954
 10
103.6140027952771
 20
-141.3710435301954
 10
103.7493950478474
 20
-141.2949069199714
 10
103.7493950478474
 20
-141.1235134195802
 10
103.7493950478474
 20
-141.0451374972908
 10
103.7156331120919
 20
-140.8907972195516
 10
103.516851102593
 20
-140.8907972195516
 97
        0
 97
        0
 75
     2
 76
     1
 98
        0
  0
ENDBLK
  5
B9
330
B6
100
AcDbEntity
  8
0
100
AcDbBlockEnd
  0
ENDSEC
  0
SECTION
  2
ENTITIES
  0
POLYLINE
  5
41
330
1F
100
AcDbEntity
  8
_U+30EC_U+30A4_U+30E4_U+30FC 1
 62
   179
420
  2234388
370
     9
100
AcDb2dPolyline
 66
     1
 10
0.0
 20
0.0
 30
0.0
  0
VERTEX
  5
42
330
41
100
AcDbEntity
  8
_U+30EC_U+30A4_U+30E4_U+30FC 1
 62
   179
420
  2234388
370
     9
100
AcDbVertex
100
AcDb2dVertex
 10
110.9091432082211
 20
-153.6594192120734
 30
0.0
  0
VERTEX
  5
43
330
41
100
AcDbEntity
  8
_U+30EC_U+30A4_U+30E4_U+30FC 1
 62
   179
420
  2234388
370
     9
100
AcDbVertex
100
AcDb2dVertex
 10
113.3690490439234
 20
-153.6594192120734
 30
0.0
  0
SEQEND
  5
44
330
41
100
AcDbEntity
  8
_U+30EC_U+30A4_U+30E4_U+30FC 1
 62
   179
420
  2234388
370
     9
  0
SPLINE
  5
45
330
1F
100
AcDbEntity
  8
_U+30EC_U+30A4_U+30E4_U+30FC 1
 62
   179
420
  2234388
370
     9
100
AcDbSpline
210
0.0
220
0.0
230
1.0
 70
    11
 71
     3
 72
    17
 73
    13
 74
     0
 42
0.0000000001
 43
0.0000000001
 12
1.0
 22
0.0
 32
0.0
 13
1.0
 23
0.0
 33
0.0
 40
0.0
 40
0.0
 40
0.0
 40
0.0
 40
1.0
 40
1.0
 40
1.0
 40
2.0
 40
2.0
 40
2.0
 40
3.0
 40
3.0
 40
3.0
 40
4.0
 40
4.0
 40
4.0
 40
4.0
 10
97.29720490460397
 20
-140.6968814074259
 30
0.0
 10
97.29720490460397
 20
-140.6418675388955
 30
0.0
 10
97.25239713144862
 20
-140.5970597657408
 30
0.0
 10
97.19736173107175
 20
-140.5970597657408
 30
0.0
 10
97.14232633069489
 20
-140.5970597657408
 30
0.0
 10
97.09752932346325
 20
-140.6418675388955
 30
0.0
 10
97.09752932346325
 20
-140.6968814074259
 30
0.0
 10
97.09752932346325
 20
-140.7519168078028
 30
0.0
 10
97.14232633069489
 20
-140.7967245809575
 30
0.0
 10
97.19736173107175
 20
-140.7967245809575
 30
0.0
 10
97.25239713144862
 20
-140.7967245809575
 30
0.0
 10
97.29720490460397
 20
-140.7519168078028
 30
0.0
 10
97.29720490460397
 20
-140.6968814074259
 30
0.0
  0
SPLINE
  5
46
330
1F
100
AcDbEntity
  8
_U+30EC_U+30A4_U+30E4_U+30FC 1
 62
   179
420
  2234388
370
     9
100
AcDbSpline
210
0.0
220
0.0
230
1.0
 70
    11
 71
     3
 72
    17
 73
    13
 74
     0
 42
0.0000000001
 43
0.0000000001
 12
1.0
 22
0.0
 32
0.0
 13
1.0
 23
0.0
 33
0.0
 40
0.0
 40
0.0
 40
0.0
 40
0.0
 40
1.0
 40
1.0
 40
1.0
 40
2.0
 40
2.0
 40
2.0
 40
3.0
 40
3.0
 40
3.0
 40
4.0
 40
4.0
 40
4.0
 40
4.0
 10
94.29654826879784
 20
-140.6968814074259
 30
0.0
 10
94.29654826879784
 20
-140.6418675388955
 30
0.0
 10
94.25174049564312
 20
-140.5970597657408
 30
0.0
 10
94.19670509526625
 20
-140.5970597657408
 30
0.0
 10
94.14166969488939
 20
-140.5970597657408
 30
0.0
 10
94.09687268765742
 20
-140.6418675388955
 30
0.0
 10
94.09687268765742
 20
-140.6968814074259
 30
0.0
 10
94.09687268765742
 20
-140.7519168078028
 30
0.0
 10
94.14166969488939
 20
-140.7967245809575
 30
0.0
 10
94.19670509526625
 20
-140.7967245809575
 30
0.0
 10
94.25174049564312
 20
-140.7967245809575
 30
0.0
 10
94.29654826879784
 20
-140.7519168078028
 30
0.0
 10
94.29654826879784
 20
-140.6968814074259
 30
0.0
  0
SPLINE
  5
47
330
1F
100
AcDbEntity
  8
_U+30EC_U+30A4_U+30E4_U+30FC 1
 62
   179
420
  2234388
370
     9
100
AcDbSpline
210
0.0
220
0.0
230
1.0
 70
    11
 71
     3
 72
    17
 73
    13
 74
     0
 42
0.0000000001
 43
0.0000000001
 12
1.0
 22
0.0
 32
0.0
 13
1.0
 23
0.0
 33
0.0
 40
0.0
 40
0.0
 40
0.0
 40
0.0
 40
1.0
 40
1.0
 40
1.0
 40
2.0
 40
2.0
 40
2.0
 40
3.0
 40
3.0
 40
3.0
 40
4.0
 40
4.0
 40
4.0
 40
4.0
 10
112.1390207646085
 20
-145.1594858442443
 30
0.0
 10
112.1390207646085
 20
-145.1041059343189
 30
0.0
 10
112.0942129914534
 20
-145.0596642025592
 30
0.0
 10
112.0391775910766
 20
-145.0596642025592
 30
0.0
 10
111.9841421906997
 20
-145.0596642025592
 30
0.0
 10
111.9393344175447
 20
-145.1041059343189
 30
0.0
 10
111.9393344175447
 20
-145.1594858442443
 30
0.0
 10
111.9393344175447
 20
-145.2145212446212
 30
0.0
 10
111.9841421906997
 20
-145.2593290177759
 30
0.0
 10
112.0391775910766
 20
-145.2593290177759
 30
0.0
 10
112.0942129914534
 20
-145.2593290177759
 30
0.0
 10
112.1390207646085
 20
-145.2145212446212
 30
0.0
 10
112.1390207646085
 20
-145.1594858442443
 30
0.0
  0
SPLINE
  5
48
330
1F
100
AcDbEntity
  8
_U+30EC_U+30A4_U+30E4_U+30FC 1
 62
   179
420
  2234388
370
     9
100
AcDbSpline
210
0.0
220
0.0
230
1.0
 70
    11
 71
     3
 72
    17
 73
    13
 74
     0
 42
0.0000000001
 43
0.0000000001
 12
1.0
 22
0.0
 32
0.0
 13
1.0
 23
0.0
 33
0.0
 40
0.0
 40
0.0
 40
0.0
 40
0.0
 40
1.0
 40
1.0
 40
1.0
 40
2.0
 40
2.0
 40
2.0
 40
3.0
 40
3.0
 40
3.0
 40
4.0
 40
4.0
 40
4.0
 40
4.0
 10
112.1390207646085
 20
-143.6593836107323
 30
0.0
 10
112.1390207646085
 20
-143.6040037008069
 30
0.0
 10
112.0942129914534
 20
-143.5591959276519
 30
0.0
 10
112.0391775910766
 20
-143.5591959276519
 30
0.0
 10
111.9841421906997
 20
-143.5591959276519
 30
0.0
 10
111.9393344175447
 20
-143.6040037008069
 30
0.0
 10
111.9393344175447
 20
-143.6593836107323
 30
0.0
 10
111.9393344175447
 20
-143.7144190111092
 30
0.0
 10
111.9841421906997
 20
-143.7592267842645
 30
0.0
 10
112.0391775910766
 20
-143.7592267842645
 30
0.0
 10
112.0942129914534
 20
-143.7592267842645
 30
0.0
 10
112.1390207646085
 20
-143.7144190111092
 30
0.0
 10
112.1390207646085
 20
-143.6593836107323
 30
0.0
  0
POLYLINE
  5
49
330
1F
100
AcDbEntity
  8
_U+30EC_U+30A4_U+30E4_U+30FC 1
 62
   179
420
  2234388
370
     9
100
AcDb2dPolyline
 66
     1
 10
0.0
 20
0.0
 30
0.0
  0
VERTEX
  5
4A
330
49
100
AcDbEntity
  8
_U+30EC_U+30A4_U+30E4_U+30FC 1
 62
   179
420
  2234388
370
     9
100
AcDbVertex
100
AcDb2dVertex
 10
112.0391129955362
 20
-143.6593836107323
 30
0.0
  0
VERTEX
  5
4B
330
49
100
AcDbEntity
  8
_U+30EC_U+30A4_U+30E4_U+30FC 1
 62
   179
420
  2234388
370
     9
100
AcDbVertex
100
AcDb2dVertex
 10
112.0391129955362
 20
-153.7594131085328
 30
0.0
  0
SEQEND
  5
4C
330
49
100
AcDbEntity
  8
_U+30EC_U+30A4_U+30E4_U+30FC 1
 62
   179
420
  2234388
370
     9
  0
POLYLINE
  5
4D
330
1F
100
AcDbEntity
  8
_U+30EC_U+30A4_U+30E4_U+30FC 1
 62
   179
420
  2234388
370
     9
100
AcDb2dPolyline
 66
     1
 10
0.0
 20
0.0
 30
0.0
  0
VERTEX
  5
4E
330
4D
100
AcDbEntity
  8
_U+30EC_U+30A4_U+30E4_U+30FC 1
 62
   179
420
  2234388
370
     9
100
AcDbVertex
100
AcDb2dVertex
 10
112.0391129955362
 20
-153.6592900209927
 30
0.0
  0
VERTEX
  5
4F
330
4D
100
AcDbEntity
  8
_U+30EC_U+30A4_U+30E4_U+30FC 1
 62
   179
420
  2234388
370
     9
100
AcDbVertex
100
AcDb2dVertex
 10
112.0391129955362
 20
-154.659078262659
 30
0.0
  0
SEQEND
  5
50
330
4D
100
AcDbEntity
  8
_U+30EC_U+30A4_U+30E4_U+30FC 1
 62
   179
420
  2234388
370
     9
  0
POLYLINE
  5
51
330
1F
100
AcDbEntity
  8
_U+30EC_U+30A4_U+30E4_U+30FC 1
 62
   179
420
  2234388
370
     9
100
AcDb2dPolyline
 66
     1
 10
0.0
 20
0.0
 30
0.0
  0
VERTEX
  5
52
330
51
100
AcDbEntity
  8
_U+30EC_U+30A4_U+30E4_U+30FC 1
 62
   179
420
  2234388
370
     9
100
AcDbVertex
100
AcDb2dVertex
 10
97.772294337943
 20
-143.6593836107323
 30
0.0
  0
VERTEX
  5
53
330
51
100
AcDbEntity
  8
_U+30EC_U+30A4_U+30E4_U+30FC 1
 62
   179
420
  2234388
370
     9
100
AcDbVertex
100
AcDb2dVertex
 10
113.3689413846894
 20
-143.6593836107323
 30
0.0
  0
SEQEND
  5
54
330
51
100
AcDbEntity
  8
_U+30EC_U+30A4_U+30E4_U+30FC 1
 62
   179
420
  2234388
370
     9
  0
POLYLINE
  5
55
330
1F
100
AcDbEntity
  8
_U+30EC_U+30A4_U+30E4_U+30FC 1
 62
   179
420
  2234388
370
     9
100
AcDb2dPolyline
 66
     1
 10
0.0
 20
0.0
 30
0.0
  0
VERTEX
  5
56
330
55
100
AcDbEntity
  8
_U+30EC_U+30A4_U+30E4_U+30FC 1
 62
   179
420
  2234388
370
     9
100
AcDbVertex
100
AcDb2dVertex
 10
97.772294337943
 20
-145.1594858442443
 30
0.0
  0
VERTEX
  5
57
330
55
100
AcDbEntity
  8
_U+30EC_U+30A4_U+30E4_U+30FC 1
 62
   179
420
  2234388
370
     9
100
AcDbVertex
100
AcDb2dVertex
 10
113.3689413846894
 20
-145.1594858442443
 30
0.0
  0
SEQEND
  5
58
330
55
100
AcDbEntity
  8
_U+30EC_U+30A4_U+30E4_U+30FC 1
 62
   179
420
  2234388
370
     9
  0
SPLINE
  5
59
330
1F
100
AcDbEntity
  8
_U+30EC_U+30A4_U+30E4_U+30FC 1
370
     0
100
AcDbSpline
210
0.0
220
0.0
230
1.0
 70
    11
 71
     3
 72
    17
 73
    13
 74
     0
 42
0.0000000001
 43
0.0000000001
 12
1.0
 22
0.0
 32
0.0
 13
1.0
 23
0.0
 33
0.0
 40
0.0
 40
0.0
 40
0.0
 40
0.0
 40
1.0
 40
1.0
 40
1.0
 40
2.0
 40
2.0
 40
2.0
 40
3.0
 40
3.0
 40
3.0
 40
4.0
 40
4.0
 40
4.0
 40
4.0
 10
112.1390207646085
 20
-153.6594192120734
 30
0.0
 10
112.1390207646085
 20
-153.604039302148
 30
0.0
 10
112.0942129914534
 20
-153.5595975703883
 30
0.0
 10
112.0391775910766
 20
-153.5595975703883
 30
0.0
 10
111.9841421906997
 20
-153.5595975703883
 30
0.0
 10
111.9393344175447
 20
-153.604039302148
 30
0.0
 10
111.9393344175447
 20
-153.6594192120734
 30
0.0
 10
111.9393344175447
 20
-153.7144546124503
 30
0.0
 10
111.9841421906997
 20
-153.7592623856053
 30
0.0
 10
112.0391775910766
 20
-153.7592623856053
 30
0.0
 10
112.0942129914534
 20
-153.7592623856053
 30
0.0
 10
112.1390207646085
 20
-153.7144546124503
 30
0.0
 10
112.1390207646085
 20
-153.6594192120734
 30
0.0
  0
HATCH
  5
5A
330
1F
100
AcDbEntity
  8
_U+30EC_U+30A4_U+30E4_U+30FC 1
 62
   179
420
  2234388
100
AcDbHatch
 10
0.0
 20
0.0
 30
0.0
210
0.0
220
0.0
230
1.0
  2
SOLID
 70
     1
 71
     0
 91
        1
 92
        1
 93
        2
 72
     4
 94
        3
 73
     0
 74
     0
 95
       17
 96
       13
 40
0.0
 40
0.0
 40
0.0
 40
0.0
 40
0.3527777776895833
 40
0.3527777776895833
 40
0.3527777776895833
 40
0.7055555553791667
 40
0.7055555553791667
 40
0.7055555553791667
 40
1.05833333306875
 40
1.05833333306875
 40
1.05833333306875
 40
1.411111110758333
 40
1.411111110758333
 40
1.411111110758333
 40
1.411111110758333
 10
112.1390207646085
 20
-153.6594192120734
 10
112.1390207646085
 20
-153.604039302148
 10
112.0942129914534
 20
-153.5595975703883
 10
112.0391775910766
 20
-153.5595975703883
 10
111.9841421906997
 20
-153.5595975703883
 10
111.9393344175447
 20
-153.604039302148
 10
111.9393344175447
 20
-153.6594192120734
 10
111.9393344175447
 20
-153.7144546124503
 10
111.9841421906997
 20
-153.7592623856053
 10
112.0391775910766
 20
-153.7592623856053
 10
112.0942129914534
 20
-153.7592623856053
 10
112.1390207646085
 20
-153.7144546124503
 10
112.1390207646085
 20
-153.6594192120734
 97
        0
 72
     1
 10
112.1390207646085
 20
-153.6594192120734
 11
112.1390207646085
 21
-153.6594192120734
 97
        0
 75
     2
 76
     1
 98
        0
  0
SPLINE
  5
5B
330
1F
100
AcDbEntity
  8
_U+30EC_U+30A4_U+30E4_U+30FC 1
 62
   179
420
  2234388
370
     9
100
AcDbSpline
210
0.0
220
0.0
230
1.0
 70
    11
 71
     3
 72
    17
 73
    13
 74
     0
 42
0.0000000001
 43
0.0000000001
 12
1.0
 22
0.0
 32
0.0
 13
1.0
 23
0.0
 33
0.0
 40
0.0
 40
0.0
 40
0.0
 40
0.0
 40
1.0
 40
1.0
 40
1.0
 40
2.0
 40
2.0
 40
2.0
 40
3.0
 40
3.0
 40
3.0
 40
4.0
 40
4.0
 40
4.0
 40
4.0
 10
112.1390207646085
 20
-153.6594192120734
 30
0.0
 10
112.1390207646085
 20
-153.604039302148
 30
0.0
 10
112.0942129914534
 20
-153.5595975703883
 30
0.0
 10
112.0391775910766
 20
-153.5595975703883
 30
0.0
 10
111.9841421906997
 20
-153.5595975703883
 30
0.0
 10
111.9393344175447
 20
-153.604039302148
 30
0.0
 10
111.9393344175447
 20
-153.6594192120734
 30
0.0
 10
111.9393344175447
 20
-153.7144546124503
 30
0.0
 10
111.9841421906997
 20
-153.7592623856053
 30
0.0
 10
112.0391775910766
 20
-153.7592623856053
 30
0.0
 10
112.0942129914534
 20
-153.7592623856053
 30
0.0
 10
112.1390207646085
 20
-153.7144546124503
 30
0.0
 10
112.1390207646085
 20
-153.6594192120734
 30
0.0
  0
SPLINE
  5
5C
330
1F
100
AcDbEntity
  8
_U+30EC_U+30A4_U+30E4_U+30FC 1
370
     0
100
AcDbSpline
210
0.0
220
0.0
230
1.0
 70
    11
 71
     3
 72
    17
 73
    13
 74
     0
 42
0.0000000001
 43
0.0000000001
 12
1.0
 22
0.0
 32
0.0
 13
1.0
 23
0.0
 33
0.0
 40
0.0
 40
0.0
 40
0.0
 40
0.0
 40
1.0
 40
1.0
 40
1.0
 40
2.0
 40
2.0
 40
2.0
 40
3.0
 40
3.0
 40
3.0
 40
4.0
 40
4.0
 40
4.0
 40
4.0
 10
112.1390207646085
 20
-154.6594012403608
 30
0.0
 10
112.1390207646085
 20
-154.6040213304354
 30
0.0
 10
112.0942129914534
 20
-154.5595795986756
 30
0.0
 10
112.0391775910766
 20
-154.5595795986756
 30
0.0
 10
111.9841421906997
 20
-154.5595795986756
 30
0.0
 10
111.9393344175447
 20
-154.6040213304354
 30
0.0
 10
111.9393344175447
 20
-154.6594012403608
 30
0.0
 10
111.9393344175447
 20
-154.7144366407376
 30
0.0
 10
111.9841421906997
 20
-154.7592444138927
 30
0.0
 10
112.0391775910766
 20
-154.7592444138927
 30
0.0
 10
112.0942129914534
 20
-154.7592444138927
 30
0.0
 10
112.1390207646085
 20
-154.7144366407376
 30
0.0
 10
112.1390207646085
 20
-154.6594012403608
 30
0.0
  0
HATCH
  5
5D
330
1F
100
AcDbEntity
  8
_U+30EC_U+30A4_U+30E4_U+30FC 1
 62
   179
420
  2234388
100
AcDbHatch
 10
0.0
 20
0.0
 30
0.0
210
0.0
220
0.0
230
1.0
  2
SOLID
 70
     1
 71
     0
 91
        1
 92
        1
 93
        2
 72
     4
 94
        3
 73
     0
 74
     0
 95
       17
 96
       13
 40
0.0
 40
0.0
 40
0.0
 40
0.0
 40
0.3527777776895833
 40
0.3527777776895833
 40
0.3527777776895833
 40
0.7055555553791667
 40
0.7055555553791667
 40
0.7055555553791667
 40
1.05833333306875
 40
1.05833333306875
 40
1.05833333306875
 40
1.411111110758333
 40
1.411111110758333
 40
1.411111110758333
 40
1.411111110758333
 10
112.1390207646085
 20
-154.6594012403608
 10
112.1390207646085
 20
-154.6040213304354
 10
112.0942129914534
 20
-154.5595795986756
 10
112.0391775910766
 20
-154.5595795986756
 10
111.9841421906997
 20
-154.5595795986756
 10
111.9393344175447
 20
-154.6040213304354
 10
111.9393344175447
 20
-154.6594012403608
 10
111.9393344175447
 20
-154.7144366407376
 10
111.9841421906997
 20
-154.7592444138927
 10
112.0391775910766
 20
-154.7592444138927
 10
112.0942129914534
 20
-154.7592444138927
 10
112.1390207646085
 20
-154.7144366407376
 10
112.1390207646085
 20
-154.6594012403608
 97
        0
 72
     1
 10
112.1390207646085
 20
-154.6594012403608
 11
112.1390207646085
 21
-154.6594012403608
 97
        0
 75
     2
 76
     1
 98
        0
  0
SPLINE
  5
5E
330
1F
100
AcDbEntity
  8
_U+30EC_U+30A4_U+30E4_U+30FC 1
 62
   179
420
  2234388
370
     9
100
AcDbSpline
210
0.0
220
0.0
230
1.0
 70
    11
 71
     3
 72
    17
 73
    13
 74
     0
 42
0.0000000001
 43
0.0000000001
 12
1.0
 22
0.0
 32
0.0
 13
1.0
 23
0.0
 33
0.0
 40
0.0
 40
0.0
 40
0.0
 40
0.0
 40
1.0
 40
1.0
 40
1.0
 40
2.0
 40
2.0
 40
2.0
 40
3.0
 40
3.0
 40
3.0
 40
4.0
 40
4.0
 40
4.0
 40
4.0
 10
112.1390207646085
 20
-154.6594012403608
 30
0.0
 10
112.1390207646085
 20
-154.6040213304354
 30
0.0
 10
112.0942129914534
 20
-154.5595795986756
 30
0.0
 10
112.0391775910766
 20
-154.5595795986756
 30
0.0
 10
111.9841421906997
 20
-154.5595795986756
 30
0.0
 10
111.9393344175447
 20
-154.6040213304354
 30
0.0
 10
111.9393344175447
 20
-154.6594012403608
 30
0.0
 10
111.9393344175447
 20
-154.7144366407376
 30
0.0
 10
111.9841421906997
 20
-154.7592444138927
 30
0.0
 10
112.0391775910766
 20
-154.7592444138927
 30
0.0
 10
112.0942129914534
 20
-154.7592444138927
 30
0.0
 10
112.1390207646085
 20
-154.7144366407376
 30
0.0
 10
112.1390207646085
 20
-154.6594012403608
 30
0.0
  0
POLYLINE
  5
5F
330
1F
100
AcDbEntity
  8
_U+30EC_U+30A4_U+30E4_U+30FC 1
 62
   179
420
  2234388
370
     9
100
AcDb2dPolyline
 66
     1
 10
0.0
 20
0.0
 30
0.0
  0
VERTEX
  5
60
330
5F
100
AcDbEntity
  8
_U+30EC_U+30A4_U+30E4_U+30FC 1
 62
   179
420
  2234388
370
     9
100
AcDbVertex
100
AcDb2dVertex
 10
110.9091432082211
 20
-154.6594012403608
 30
0.0
  0
VERTEX
  5
61
330
5F
100
AcDbEntity
  8
_U+30EC_U+30A4_U+30E4_U+30FC 1
 62
   179
420
  2234388
370
     9
100
AcDbVertex
100
AcDb2dVertex
 10
113.3690490439234
 20
-154.6594012403608
 30
0.0
  0
SEQEND
  5
62
330
5F
100
AcDbEntity
  8
_U+30EC_U+30A4_U+30E4_U+30FC 1
 62
   179
420
  2234388
370
     9
  0
INSERT
  5
64
330
1F
100
AcDbEntity
  8
_U+30EC_U+30A4_U+30E4_U+30FC 1
100
AcDbBlockReference
  2
block 2
 10
0.0
 20
0.0
 30
0.0
  0
INSERT
  5
74
330
1F
100
AcDbEntity
  8
_U+30EC_U+30A4_U+30E4_U+30FC 1
100
AcDbBlockReference
  2
block 3
 10
0.0
 20
0.0
 30
0.0
  0
INSERT
  5
86
330
1F
100
AcDbEntity
  8
_U+30EC_U+30A4_U+30E4_U+30FC 1
100
AcDbBlockReference
  2
block 4
 10
0.0
 20
0.0
 30
0.0
  0
POLYLINE
  5
8B
330
1F
100
AcDbEntity
  8
_U+30EC_U+30A4_U+30E4_U+30FC 1
 62
   179
420
  2234388
370
     9
100
AcDb2dPolyline
 66
     1
 10
0.0
 20
0.0
 30
0.0
  0
VERTEX
  5
8C
330
8B
100
AcDbEntity
  8
_U+30EC_U+30A4_U+30E4_U+30FC 1
 62
   179
420
  2234388
370
     9
100
AcDbVertex
100
AcDb2dVertex
 10
94.19664049972559
 20
-139.2368714726235
 30
0.0
  0
VERTEX
  5
8D
330
8B
100
AcDbEntity
  8
_U+30EC_U+30A4_U+30E4_U+30FC 1
 62
   179
420
  2234388
370
     9
100
AcDbVertex
100
AcDb2dVertex
 10
94.19664049972559
 20
-141.6975093911167
 30
0.0
  0
SEQEND
  5
8E
330
8B
100
AcDbEntity
  8
_U+30EC_U+30A4_U+30E4_U+30FC 1
 62
   179
420
  2234388
370
     9
  0
POLYLINE
  5
8F
330
1F
100
AcDbEntity
  8
_U+30EC_U+30A4_U+30E4_U+30FC 1
 62
   179
420
  2234388
370
     9
100
AcDb2dPolyline
 66
     1
 10
0.0
 20
0.0
 30
0.0
  0
VERTEX
  5
90
330
8F
100
AcDbEntity
  8
_U+30EC_U+30A4_U+30E4_U+30FC 1
 62
   179
420
  2234388
370
     9
100
AcDbVertex
100
AcDb2dVertex
 10
97.19729713553173
 20
-139.2368714726235
 30
0.0
  0
VERTEX
  5
91
330
8F
100
AcDbEntity
  8
_U+30EC_U+30A4_U+30E4_U+30FC 1
 62
   179
420
  2234388
370
     9
100
AcDbVertex
100
AcDb2dVertex
 10
97.19729713553173
 20
-141.6975093911167
 30
0.0
  0
SEQEND
  5
92
330
8F
100
AcDbEntity
  8
_U+30EC_U+30A4_U+30E4_U+30FC 1
 62
   179
420
  2234388
370
     9
  0
INSERT
  5
94
330
1F
100
AcDbEntity
  8
_U+30EC_U+30A4_U+30E4_U+30FC 1
100
AcDbBlockReference
  2
block 5
 10
0.0
 20
0.0
 30
0.0
  0
INSERT
  5
9A
330
1F
100
AcDbEntity
  8
_U+30EC_U+30A4_U+30E4_U+30FC 1
100
AcDbBlockReference
  2
block 6
 10
0.0
 20
0.0
 30
0.0
  0
POLYLINE
  5
A1
330
1F
100
AcDbEntity
  8
_U+30EC_U+30A4_U+30E4_U+30FC 1
 62
   179
420
  2234388
370
     9
100
AcDb2dPolyline
 66
     1
 10
0.0
 20
0.0
 30
0.0
  0
VERTEX
  5
A2
330
A1
100
AcDbEntity
  8
_U+30EC_U+30A4_U+30E4_U+30FC 1
 62
   179
420
  2234388
370
     9
100
AcDbVertex
100
AcDb2dVertex
 10
97.1969418600595
 20
-140.6968814074259
 30
0.0
  0
VERTEX
  5
A3
330
A1
100
AcDbEntity
  8
_U+30EC_U+30A4_U+30E4_U+30FC 1
 62
   179
420
  2234388
370
     9
100
AcDbVertex
100
AcDb2dVertex
 10
94.19656513826185
 20
-140.6968814074259
 30
0.0
  0
SEQEND
  5
A4
330
A1
100
AcDbEntity
  8
_U+30EC_U+30A4_U+30E4_U+30FC 1
 62
   179
420
  2234388
370
     9
  0
SPLINE
  5
A5
330
1F
100
AcDbEntity
  8
_U+30EC_U+30A4_U+30E4_U+30FC 1
 62
   179
420
  2234388
370
     9
100
AcDbSpline
210
0.0
220
0.0
230
1.0
 70
    11
 71
     3
 72
    17
 73
    13
 74
     0
 42
0.0000000001
 43
0.0000000001
 12
1.0
 22
0.0
 32
0.0
 13
1.0
 23
0.0
 33
0.0
 40
0.0
 40
0.0
 40
0.0
 40
0.0
 40
1.0
 40
1.0
 40
1.0
 40
2.0
 40
2.0
 40
2.0
 40
3.0
 40
3.0
 40
3.0
 40
4.0
 40
4.0
 40
4.0
 40
4.0
 10
109.2971614988259
 20
-157.2251361030006
 30
0.0
 10
109.2971614988259
 20
-157.2801715033775
 30
0.0
 10
109.2523537256709
 20
-157.3249792765325
 30
0.0
 10
109.197318325294
 20
-157.3249792765325
 30
0.0
 10
109.1422829249171
 20
-157.3249792765325
 30
0.0
 10
109.0974751517621
 20
-157.2801715033775
 30
0.0
 10
109.0974751517621
 20
-157.2251361030006
 30
0.0
 10
109.0974751517621
 20
-157.1701222344705
 30
0.0
 10
109.1422829249171
 20
-157.1253144613155
 30
0.0
 10
109.197318325294
 20
-157.1253144613155
 30
0.0
 10
109.2523537256709
 20
-157.1253144613155
 30
0.0
 10
109.2971614988259
 20
-157.1701222344705
 30
0.0
 10
109.2971614988259
 20
-157.2251361030006
 30
0.0
  0
SPLINE
  5
A6
330
1F
100
AcDbEntity
  8
_U+30EC_U+30A4_U+30E4_U+30FC 1
 62
   179
420
  2234388
370
     9
100
AcDbSpline
210
0.0
220
0.0
230
1.0
 70
    11
 71
     3
 72
    17
 73
    13
 74
     0
 42
0.0000000001
 43
0.0000000001
 12
1.0
 22
0.0
 32
0.0
 13
1.0
 23
0.0
 33
0.0
 40
0.0
 40
0.0
 40
0.0
 40
0.0
 40
1.0
 40
1.0
 40
1.0
 40
2.0
 40
2.0
 40
2.0
 40
3.0
 40
3.0
 40
3.0
 40
4.0
 40
4.0
 40
4.0
 40
4.0
 10
94.29654826879784
 20
-157.2251361030006
 30
0.0
 10
94.29654826879784
 20
-157.2801715033775
 30
0.0
 10
94.25174049564312
 20
-157.3249792765325
 30
0.0
 10
94.19670509526625
 20
-157.3249792765325
 30
0.0
 10
94.14166969488939
 20
-157.3249792765325
 30
0.0
 10
94.09687268765742
 20
-157.2801715033775
 30
0.0
 10
94.09687268765742
 20
-157.2251361030006
 30
0.0
 10
94.09687268765742
 20
-157.1701222344705
 30
0.0
 10
94.14166969488939
 20
-157.1253144613155
 30
0.0
 10
94.19670509526625
 20
-157.1253144613155
 30
0.0
 10
94.25174049564312
 20
-157.1253144613155
 30
0.0
 10
94.29654826879784
 20
-157.1701222344705
 30
0.0
 10
94.29654826879784
 20
-157.2251361030006
 30
0.0
  0
POLYLINE
  5
A7
330
1F
100
AcDbEntity
  8
_U+30EC_U+30A4_U+30E4_U+30FC 1
 62
   179
420
  2234388
370
     9
100
AcDb2dPolyline
 66
     1
 10
0.0
 20
0.0
 30
0.0
  0
VERTEX
  5
A8
330
A7
100
AcDbEntity
  8
_U+30EC_U+30A4_U+30E4_U+30FC 1
 62
   179
420
  2234388
370
     9
100
AcDbVertex
100
AcDb2dVertex
 10
94.19664049972559
 20
-158.6851245059559
 30
0.0
  0
VERTEX
  5
A9
330
A7
100
AcDbEntity
  8
_U+30EC_U+30A4_U+30E4_U+30FC 1
 62
   179
420
  2234388
370
     9
100
AcDbVertex
100
AcDb2dVertex
 10
94.19664049972559
 20
-156.2245081193098
 30
0.0
  0
SEQEND
  5
AA
330
A7
100
AcDbEntity
  8
_U+30EC_U+30A4_U+30E4_U+30FC 1
 62
   179
420
  2234388
370
     9
  0
POLYLINE
  5
AB
330
1F
100
AcDbEntity
  8
_U+30EC_U+30A4_U+30E4_U+30FC 1
 62
   179
420
  2234388
370
     9
100
AcDb2dPolyline
 66
     1
 10
0.0
 20
0.0
 30
0.0
  0
VERTEX
  5
AC
330
AB
100
AcDbEntity
  8
_U+30EC_U+30A4_U+30E4_U+30FC 1
 62
   179
420
  2234388
370
     9
100
AcDbVertex
100
AcDb2dVertex
 10
109.1972537297536
 20
-158.6851245059559
 30
0.0
  0
VERTEX
  5
AD
330
AB
100
AcDbEntity
  8
_U+30EC_U+30A4_U+30E4_U+30FC 1
 62
   179
420
  2234388
370
     9
100
AcDbVertex
100
AcDb2dVertex
 10
109.1972537297536
 20
-156.2245081193098
 30
0.0
  0
SEQEND
  5
AE
330
AB
100
AcDbEntity
  8
_U+30EC_U+30A4_U+30E4_U+30FC 1
 62
   179
420
  2234388
370
     9
  0
POLYLINE
  5
AF
330
1F
100
AcDbEntity
  8
_U+30EC_U+30A4_U+30E4_U+30FC 1
 62
   179
420
  2234388
370
     9
100
AcDb2dPolyline
 66
     1
 10
0.0
 20
0.0
 30
0.0
  0
VERTEX
  5
B0
330
AF
100
AcDbEntity
  8
_U+30EC_U+30A4_U+30E4_U+30FC 1
 62
   179
420
  2234388
370
     9
100
AcDbVertex
100
AcDb2dVertex
 10
109.1968876883583
 20
-157.2251361030006
 30
0.0
  0
VERTEX
  5
B1
330
AF
100
AcDbEntity
  8
_U+30EC_U+30A4_U+30E4_U+30FC 1
 62
   179
420
  2234388
370
     9
100
AcDbVertex
100
AcDb2dVertex
 10
94.19641441533436
 20
-157.2251361030006
 30
0.0
  0
SEQEND
  5
B2
330
AF
100
AcDbEntity
  8
_U+30EC_U+30A4_U+30E4_U+30FC 1
 62
   179
420
  2234388
370
     9
  0
SPLINE
  5
B3
330
1F
100
AcDbEntity
  8
_U+30EC_U+30A4_U+30E4_U+30FC 1
370
     0
100
AcDbSpline
210
0.0
220
0.0
230
1.0
 70
    11
 71
     3
 72
    41
 73
    37
 74
     0
 42
0.0000000001
 43
0.0000000001
 12
1.0
 22
0.0
 32
0.0
 13
1.0
 23
0.0
 33
0.0
 40
0.0
 40
0.0
 40
0.0
 40
0.0
 40
1.0
 40
1.0
 40
1.0
 40
2.0
 40
2.0
 40
2.0
 40
3.0
 40
3.0
 40
3.0
 40
4.0
 40
4.0
 40
4.0
 40
5.0
 40
5.0
 40
5.0
 40
6.0
 40
6.0
 40
6.0
 40
7.0
 40
7.0
 40
7.0
 40
8.0
 40
8.0
 40
8.0
 40
9.0
 40
9.0
 40
9.0
 40
10.0
 40
10.0
 40
10.0
 40
11.0
 40
11.0
 40
11.0
 40
12.0
 40
12.0
 40
12.0
 40
12.0
 10
108.5936730007379
 20
-153.6594192120734
 30
0.0
 10
108.5936730007379
 20
-153.6594192120734
 30
0.0
 10
95.09674705671084
 20
-153.6594192120734
 30
0.0
 10
95.09674705671084
 20
-153.6594192120734
 30
0.0
 10
95.09674705671084
 20
-153.6594192120734
 30
0.0
 10
95.09674705671084
 20
-153.6590747025249
 30
0.0
 10
95.09674705671084
 20
-153.6590747025249
 30
0.0
 10
95.09674705671084
 20
-153.6590747025249
 30
0.0
 10
95.09674705671084
 20
-145.1592489939294
 30
0.0
 10
95.09674705671084
 20
-145.1592489939294
 30
0.0
 10
95.09674705671084
 20
-145.1592489939294
 30
0.0
 10
97.09699102729368
 20
-145.1592489939294
 30
0.0
 10
97.09699102729368
 20
-145.1592489939294
 30
0.0
 10
97.09699102729368
 20
-145.1592489939294
 30
0.0
 10
97.19612364988174
 20
-143.6592328878051
 30
0.0
 10
95.89542784942567
 20
-143.6592328878051
 30
0.0
 10
95.89542784942567
 20
-143.6592328878051
 30
0.0
 10
94.09661430549603
 20
-143.6592328878051
 30
0.0
 10
94.09661430549603
 20
-143.6592328878051
 30
0.0
 10
94.09661430549603
 20
-143.6592328878051
 30
0.0
 10
94.09661430549603
 20
-144.1591162427149
 30
0.0
 10
94.09661430549603
 20
-144.1591162427149
 30
0.0
 10
94.09661430549603
 20
-144.1591162427149
 30
0.0
 10
94.09661430549603
 20
-154.15932409883
 30
0.0
 10
94.09661430549603
 20
-154.15932409883
 30
0.0
 10
94.09661430549603
 20
-154.15932409883
 30
0.0
 10
94.09661430549603
 20
-154.6592074537397
 30
0.0
 10
94.09661430549603
 20
-154.6592074537397
 30
0.0
 10
94.09661430549603
 20
-154.6592074537397
 30
0.0
 10
109.0970660466732
 20
-154.6592074537397
 30
0.0
 10
109.0970660466732
 20
-154.6592074537397
 30
0.0
 10
109.0970660466732
 20
-154.6592074537397
 30
0.0
 10
109.0970660466732
 20
-154.15932409883
 30
0.0
 10
109.0970660466732
 20
-154.15932409883
 30
0.0
 10
109.0970660466732
 20
-154.15932409883
 30
0.0
 10
109.0787424450611
 20
-153.6594192120734
 30
0.0
 10
108.5936730007379
 20
-153.6594192120734
 30
0.0
  0
HATCH
  5
B4
330
1F
100
AcDbEntity
  8
_U+30EC_U+30A4_U+30E4_U+30FC 1
 62
     9
420
 13224394
100
AcDbHatch
 10
0.0
 20
0.0
 30
0.0
210
0.0
220
0.0
230
1.0
  2
SOLID
 70
     1
 71
     0
 91
        1
 92
        1
 93
        2
 72
     4
 94
        3
 73
     0
 74
     0
 95
       41
 96
       37
 40
0.0
 40
0.0
 40
0.0
 40
0.0
 40
0.3527777776895833
 40
0.3527777776895833
 40
0.3527777776895833
 40
0.7055555553791667
 40
0.7055555553791667
 40
0.7055555553791667
 40
1.05833333306875
 40
1.05833333306875
 40
1.05833333306875
 40
1.411111110758333
 40
1.411111110758333
 40
1.411111110758333
 40
1.763888888447917
 40
1.763888888447917
 40
1.763888888447917
 40
2.1166666661375
 40
2.1166666661375
 40
2.1166666661375
 40
2.469444443827083
 40
2.469444443827083
 40
2.469444443827083
 40
2.822222221516667
 40
2.822222221516667
 40
2.822222221516667
 40
3.17499999920625
 40
3.17499999920625
 40
3.17499999920625
 40
3.527777776895833
 40
3.527777776895833
 40
3.527777776895833
 40
3.880555554585417
 40
3.880555554585417
 40
3.880555554585417
 40
4.233333332275
 40
4.233333332275
 40
4.233333332275
 40
4.233333332275
 10
108.5936730007379
 20
-153.6594192120734
 10
108.5936730007379
 20
-153.6594192120734
 10
95.09674705671084
 20
-153.6594192120734
 10
95.09674705671084
 20
-153.6594192120734
 10
95.09674705671084
 20
-153.6594192120734
 10
95.09674705671084
 20
-153.6590747025249
 10
95.09674705671084
 20
-153.6590747025249
 10
95.09674705671084
 20
-153.6590747025249
 10
95.09674705671084
 20
-145.1592489939294
 10
95.09674705671084
 20
-145.1592489939294
 10
95.09674705671084
 20
-145.1592489939294
 10
97.09699102729368
 20
-145.1592489939294
 10
97.09699102729368
 20
-145.1592489939294
 10
97.09699102729368
 20
-145.1592489939294
 10
97.19612364988174
 20
-143.6592328878051
 10
95.89542784942567
 20
-143.6592328878051
 10
95.89542784942567
 20
-143.6592328878051
 10
94.09661430549603
 20
-143.6592328878051
 10
94.09661430549603
 20
-143.6592328878051
 10
94.09661430549603
 20
-143.6592328878051
 10
94.09661430549603
 20
-144.1591162427149
 10
94.09661430549603
 20
-144.1591162427149
 10
94.09661430549603
 20
-144.1591162427149
 10
94.09661430549603
 20
-154.15932409883
 10
94.09661430549603
 20
-154.15932409883
 10
94.09661430549603
 20
-154.15932409883
 10
94.09661430549603
 20
-154.6592074537397
 10
94.09661430549603
 20
-154.6592074537397
 10
94.09661430549603
 20
-154.6592074537397
 10
109.0970660466732
 20
-154.6592074537397
 10
109.0970660466732
 20
-154.6592074537397
 10
109.0970660466732
 20
-154.6592074537397
 10
109.0970660466732
 20
-154.15932409883
 10
109.0970660466732
 20
-154.15932409883
 10
109.0970660466732
 20
-154.15932409883
 10
109.0787424450611
 20
-153.6594192120734
 10
108.5936730007379
 20
-153.6594192120734
 97
        0
 72
     1
 10
108.5936730007379
 20
-153.6594192120734
 11
108.5936730007379
 21
-153.6594192120734
 97
        0
 75
     2
 76
     1
 98
        0
  0
SPLINE
  5
B5
330
1F
100
AcDbEntity
  8
_U+30EC_U+30A4_U+30E4_U+30FC 1
 62
   179
420
  2234388
370
    25
100
AcDbSpline
210
0.0
220
0.0
230
1.0
 70
    11
 71
     3
 72
    41
 73
    37
 74
     0
 42
0.0000000001
 43
0.0000000001
 12
1.0
 22
0.0
 32
0.0
 13
1.0
 23
0.0
 33
0.0
 40
0.0
 40
0.0
 40
0.0
 40
0.0
 40
1.0
 40
1.0
 40
1.0
 40
2.0
 40
2.0
 40
2.0
 40
3.0
 40
3.0
 40
3.0
 40
4.0
 40
4.0
 40
4.0
 40
5.0
 40
5.0
 40
5.0
 40
6.0
 40
6.0
 40
6.0
 40
7.0
 40
7.0
 40
7.0
 40
8.0
 40
8.0
 40
8.0
 40
9.0
 40
9.0
 40
9.0
 40
10.0
 40
10.0
 40
10.0
 40
11.0
 40
11.0
 40
11.0
 40
12.0
 40
12.0
 40
12.0
 40
12.0
 10
108.5936730007379
 20
-153.6594192120734
 30
0.0
 10
108.5936730007379
 20
-153.6594192120734
 30
0.0
 10
95.09674705671084
 20
-153.6594192120734
 30
0.0
 10
95.09674705671084
 20
-153.6594192120734
 30
0.0
 10
95.09674705671084
 20
-153.6594192120734
 30
0.0
 10
95.09674705671084
 20
-153.6590747025249
 30
0.0
 10
95.09674705671084
 20
-153.6590747025249
 30
0.0
 10
95.09674705671084
 20
-153.6590747025249
 30
0.0
 10
95.09674705671084
 20
-145.1592489939294
 30
0.0
 10
95.09674705671084
 20
-145.1592489939294
 30
0.0
 10
95.09674705671084
 20
-145.1592489939294
 30
0.0
 10
97.09699102729368
 20
-145.1592489939294
 30
0.0
 10
97.09699102729368
 20
-145.1592489939294
 30
0.0
 10
97.09699102729368
 20
-145.1592489939294
 30
0.0
 10
97.19612364988174
 20
-143.6592328878051
 30
0.0
 10
95.89542784942567
 20
-143.6592328878051
 30
0.0
 10
95.89542784942567
 20
-143.6592328878051
 30
0.0
 10
94.09661430549603
 20
-143.6592328878051
 30
0.0
 10
94.09661430549603
 20
-143.6592328878051
 30
0.0
 10
94.09661430549603
 20
-143.6592328878051
 30
0.0
 10
94.09661430549603
 20
-144.1591162427149
 30
0.0
 10
94.09661430549603
 20
-144.1591162427149
 30
0.0
 10
94.09661430549603
 20
-144.1591162427149
 30
0.0
 10
94.09661430549603
 20
-154.15932409883
 30
0.0
 10
94.09661430549603
 20
-154.15932409883
 30
0.0
 10
94.09661430549603
 20
-154.15932409883
 30
0.0
 10
94.09661430549603
 20
-154.6592074537397
 30
0.0
 10
94.09661430549603
 20
-154.6592074537397
 30
0.0
 10
94.09661430549603
 20
-154.6592074537397
 30
0.0
 10
109.0970660466732
 20
-154.6592074537397
 30
0.0
 10
109.0970660466732
 20
-154.6592074537397
 30
0.0
 10
109.0970660466732
 20
-154.6592074537397
 30
0.0
 10
109.0970660466732
 20
-154.15932409883
 30
0.0
 10
109.0970660466732
 20
-154.15932409883
 30
0.0
 10
109.0970660466732
 20
-154.15932409883
 30
0.0
 10
109.0787424450611
 20
-153.6594192120734
 30
0.0
 10
108.5936730007379
 20
-153.6594192120734
 30
0.0
  0
INSERT
  5
B7
330
1F
100
AcDbEntity
  8
_U+30EC_U+30A4_U+30E4_U+30FC 1
100
AcDbBlockReference
  2
block 7
 10
0.0
 20
0.0
 30
0.0
  0
POLYLINE
  5
C9
330
1F
100
AcDbEntity
  8
_U+30EC_U+30A4_U+30E4_U+30FC 1
 62
   179
420
  2234388
370
     9
100
AcDb2dPolyline
 66
     1
 10
0.0
 20
0.0
 30
0.0
  0
VERTEX
  5
CA
330
C9
100
AcDbEntity
  8
_U+30EC_U+30A4_U+30E4_U+30FC 1
 62
   179
420
  2234388
370
     9
100
AcDbVertex
100
AcDb2dVertex
 10
97.07019464397247
 20
-143.0962612218214
 30
0.0
  0
VERTEX
  5
CB
330
C9
100
AcDbEntity
  8
_U+30EC_U+30A4_U+30E4_U+30FC 1
 62
   179
420
  2234388
370
     9
100
AcDbVertex
100
AcDb2dVertex
 10
99.557273670315
 20
-141.4657405923466
 30
0.0
  0
SEQEND
  5
CC
330
C9
100
AcDbEntity
  8
_U+30EC_U+30A4_U+30E4_U+30FC 1
 62
   179
420
  2234388
370
     9
  0
POLYLINE
  5
CD
330
1F
100
AcDbEntity
  8
_U+30EC_U+30A4_U+30E4_U+30FC 1
370
     0
100
AcDb2dPolyline
 66
     1
 10
0.0
 20
0.0
 30
0.0
  0
VERTEX
  5
CE
330
CD
100
AcDbEntity
  8
_U+30EC_U+30A4_U+30E4_U+30FC 1
370
     0
100
AcDbVertex
100
AcDb2dVertex
 10
97.07845210721368
 20
-142.7475744950209
 30
0.0
  0
VERTEX
  5
CF
330
CD
100
AcDbEntity
  8
_U+30EC_U+30A4_U+30E4_U+30FC 1
370
     0
100
AcDbVertex
100
AcDb2dVertex
 10
96.33126472607995
 20
-143.5850772074851
 30
0.0
  0
VERTEX
  5
D0
330
CD
100
AcDbEntity
  8
_U+30EC_U+30A4_U+30E4_U+30FC 1
370
     0
100
AcDbVertex
100
AcDb2dVertex
 10
97.39700501444199
 20
-143.2333544902876
 30
0.0
  0
VERTEX
  5
D1
330
CD
100
AcDbEntity
  8
_U+30EC_U+30A4_U+30E4_U+30FC 1
370
     0
100
AcDbVertex
100
AcDb2dVertex
 10
97.07845210721368
 20
-142.7475744950209
 30
0.0
  0
SEQEND
  5
D3
330
CD
100
AcDbEntity
  8
_U+30EC_U+30A4_U+30E4_U+30FC 1
370
     0
  0
HATCH
  5
D2
330
1F
100
AcDbEntity
  8
_U+30EC_U+30A4_U+30E4_U+30FC 1
 62
   179
420
  2234388
100
AcDbHatch
 10
0.0
 20
0.0
 30
0.0
210
0.0
220
0.0
230
1.0
  2
SOLID
 70
     1
 71
     0
 91
        1
 92
        1
 93
        3
 72
     1
 10
97.07845210721368
 20
-142.7475744950209
 11
96.33126472607995
 21
-143.5850772074851
 72
     1
 10
96.33126472607995
 20
-143.5850772074851
 11
97.39700501444199
 21
-143.2333544902876
 72
     1
 10
97.39700501444199
 20
-143.2333544902876
 11
97.07845210721368
 21
-142.7475744950209
 97
        0
 75
     2
 76
     1
 98
        0
  0
ENDSEC
  0
SECTION
  2
OBJECTS
  0
DICTIONARY
  5
C
330
0
100
AcDbDictionary
281
     1
  3
ACAD_GROUP
350
D
  3
ACAD_LAYOUT
350
1A
  3
ACAD_MATERIAL
350
3B
  3
ACAD_MLEADERSTYLE
350
D5
  3
ACAD_MLINESTYLE
350
17
  3
ACAD_PLOTSETTINGS
350
19
  3
ACAD_PLOTSTYLENAME
350
E
  3
ACAD_TABLESTYLE
350
D4
  3
ACAD_VISUALSTYLE
350
2A
  0
SUN
  5
3F
330
29
100
AcDbSun
 90
        1
290
     0
 63
     7
421
 16777215
 40
1.0
291
     1
 91
  2455826
 92
 54000000
292
     0
 70
     2
 71
   256
280
     1
  0
DICTIONARY
  5
D
102
{ACAD_REACTORS
330
C
102
}
330
C
100
AcDbDictionary
281
     1
  0
DICTIONARY
  5
1A
102
{ACAD_REACTORS
330
C
102
}
330
C
100
AcDbDictionary
281
     1
  3
Layout1
350
1E
  3
Layout2
350
26
  3
Model
350
22
  0
DICTIONARY
  5
3B
102
{ACAD_REACTORS
330
C
102
}
330
C
100
AcDbDictionary
281
     1
  3
ByBlock
350
3D
  3
ByLayer
350
3C
  3
Global
350
3E
  0
DICTIONARY
  5
D5
102
{ACAD_REACTORS
330
C
102
}
330
C
100
AcDbDictionary
281
     1
  0
DICTIONARY
  5
17
102
{ACAD_REACTORS
330
C
102
}
330
C
100
AcDbDictionary
281
     1
  3
Standard
350
18
  0
DICTIONARY
  5
19
102
{ACAD_REACTORS
330
C
102
}
330
C
100
AcDbDictionary
281
     1
  0
ACDBDICTIONARYWDFLT
  5
E
102
{ACAD_REACTORS
330
C
102
}
330
C
100
AcDbDictionary
281
     1
  3
Normal
350
F
100
AcDbDictionaryWithDefault
340
F
  0
DICTIONARY
  5
D4
102
{ACAD_REACTORS
330
C
102
}
330
C
100
AcDbDictionary
281
     1
  0
DICTIONARY
  5
2A
102
{ACAD_REACTORS
330
C
102
}
330
C
100
AcDbDictionary
281
     1
  3
2dWireframe
350
2F
  3
3D Hidden
350
31
  3
3dWireframe
350
30
  3
Basic
350
32
  3
Brighten
350
36
  3
ColorChange
350
3A
  3
Conceptual
350
34
  3
Dim
350
35
  3
Facepattern
350
39
  3
Flat
350
2B
  3
FlatWithEdges
350
2C
  3
Gouraud
350
2D
  3
GouraudWithEdges
350
2E
  3
Linepattern
350
38
  3
Realistic
350
33
  3
Thicken
350
37
  0
LAYOUT
  5
1E
102
{ACAD_REACTORS
330
1A
102
}
330
1A
100
AcDbPlotSettings
  1

  2
none_device
  4

  6

 40
0.0
 41
0.0
 42
0.0
 43
0.0
 44
0.0
 45
0.0
 46
0.0
 47
0.0
 48
0.0
 49
0.0
140
0.0
141
0.0
142
1.0
143
1.0
 70
   688
 72
     0
 73
     0
 74
     5
  7

 75
    16
 76
     0
 77
     2
 78
   300
147
1.0
148
0.0
149
0.0
100
AcDbLayout
  1
Layout1
 70
     1
 71
     1
 10
0.0
 20
0.0
 11
12.0
 21
9.0
 12
0.0
 22
0.0
 32
0.0
 14
1.000000000000000E+20
 24
1.000000000000000E+20
 34
1.000000000000000E+20
 15
-1.000000000000000E+20
 25
-1.000000000000000E+20
 35
-1.000000000000000E+20
146
0.0
 13
0.0
 23
0.0
 33
0.0
 16
1.0
 26
0.0
 36
0.0
 17
0.0
 27
1.0
 37
0.0
 76
     0
330
1B
  0
LAYOUT
  5
26
102
{ACAD_REACTORS
330
1A
102
}
330
1A
100
AcDbPlotSettings
  1

  2
none_device
  4

  6

 40
0.0
 41
0.0
 42
0.0
 43
0.0
 44
0.0
 45
0.0
 46
0.0
 47
0.0
 48
0.0
 49
0.0
140
0.0
141
0.0
142
1.0
143
1.0
 70
   688
 72
     0
 73
     0
 74
     5
  7

 75
    16
 76
     0
 77
     2
 78
   300
147
1.0
148
0.0
149
0.0
100
AcDbLayout
  1
Layout2
 70
     1
 71
     2
 10
0.0
 20
0.0
 11
0.0
 21
0.0
 12
0.0
 22
0.0
 32
0.0
 14
0.0
 24
0.0
 34
0.0
 15
0.0
 25
0.0
 35
0.0
146
0.0
 13
0.0
 23
0.0
 33
0.0
 16
1.0
 26
0.0
 36
0.0
 17
0.0
 27
1.0
 37
0.0
 76
     0
330
23
  0
LAYOUT
  5
22
102
{ACAD_REACTORS
330
1A
102
}
330
1A
100
AcDbPlotSettings
  1

  2
none_device
  4

  6

 40
0.0
 41
0.0
 42
0.0
 43
0.0
 44
0.0
 45
0.0
 46
0.0
 47
0.0
 48
0.0
 49
0.0
140
0.0
141
0.0
142
1.0
143
1.0
 70
  1712
 72
     0
 73
     0
 74
     0
  7

 75
     0
 76
     0
 77
     2
 78
   300
147
1.0
148
0.0
149
0.0
100
AcDbLayout
  1
Model
 70
     1
 71
     0
 10
0.0
 20
0.0
 11
12.0
 21
9.0
 12
0.0
 22
0.0
 32
0.0
 14
1.000000000000000E+20
 24
1.000000000000000E+20
 34
1.000000000000000E+20
 15
-1.000000000000000E+20
 25
-1.000000000000000E+20
 35
-1.000000000000000E+20
146
0.0
 13
0.0
 23
0.0
 33
0.0
 16
1.0
 26
0.0
 36
0.0
 17
0.0
 27
1.0
 37
0.0
 76
     0
330
1F
331
29
  0
MATERIAL
  5
3D
102
{ACAD_REACTORS
330
3B
102
}
330
3B
100
AcDbMaterial
  1
ByBlock
 72
     1
 94
      127
  0
MATERIAL
  5
3C
102
{ACAD_REACTORS
330
3B
102
}
330
3B
100
AcDbMaterial
  1
ByLayer
 72
     1
 94
      127
  0
MATERIAL
  5
3E
102
{ACAD_REACTORS
330
3B
102
}
330
3B
100
AcDbMaterial
  1
Global
 72
     1
 94
      127
  0
MLINESTYLE
  5
18
102
{ACAD_REACTORS
330
17
102
}
330
17
100
AcDbMlineStyle
  2
Standard
 70
     0
  3

 62
   256
 51
90.0
 52
90.0
 71
     2
 49
0.5
 62
   256
  6
BYLAYER
 49
-0.5
 62
   256
  6
BYLAYER
  0
ACDBPLACEHOLDER
  5
F
102
{ACAD_REACTORS
330
E
102
}
330
E
  0
VISUALSTYLE
  5
2F
102
{ACAD_REACTORS
330
2A
102
}
330
2A
100
AcDbVisualStyle
  2
2dWireframe
 70
     4
177
     2
291
     0
 71
     0
176
     1
 72
     2
176
     1
 73
     0
176
     1
 90
        0
176
     1
 40
-0.6
176
     1
 41
-30.0
176
     1
 62
     5
 63
     7
421
 16777215
176
     1
 74
     1
176
     1
 91
        4
176
     1
 64
     7
176
     1
 65
   257
176
     1
 75
     1
176
     1
175
     1
176
     1
 42
1.0
176
     1
 92
        0
176
     1
 66
   257
176
     1
 43
1.0
176
     1
 76
     1
176
     1
 77
     6
176
     1
 78
     2
176
     1
 67
     7
176
     1
 79
     5
176
     1
170
     0
176
     1
171
     0
176
     1
290
     0
176
     1
 93
        1
176
     1
 44
0.0
176
     1
173
     0
176
     1
  0
VISUALSTYLE
  5
31
102
{ACAD_REACTORS
330
2A
102
}
330
2A
100
AcDbVisualStyle
  2
3D Hidden
 70
     6
177
     2
291
     0
 71
     1
176
     1
 72
     2
176
     1
 73
     2
176
     1
 90
        0
176
     1
 40
-0.6
176
     1
 41
-30.0
176
     1
 62
     5
 63
     7
421
 16777215
176
     1
 74
     2
176
     1
 91
        2
176
     1
 64
     7
176
     1
 65
   257
176
     1
 75
     2
176
     1
175
     1
176
     1
 42
40.0
176
     1
 92
        0
176
     1
 66
   257
176
     1
 43
1.0
176
     1
 76
     1
176
     1
 77
     6
176
     1
 78
     2
176
     1
 67
     7
176
     1
 79
     3
176
     1
170
     0
176
     1
171
     0
176
     1
290
     0
176
     1
 93
        1
176
     1
 44
0.0
176
     1
173
     0
176
     1
  0
VISUALSTYLE
  5
30
102
{ACAD_REACTORS
330
2A
102
}
330
2A
100
AcDbVisualStyle
  2
3dWireframe
 70
     5
177
     2
291
     0
 71
     0
176
     1
 72
     2
176
     1
 73
     0
176
     1
 90
        0
176
     1
 40
-0.6
176
     1
 41
-30.0
176
     1
 62
     5
 63
     7
421
 16777215
176
     1
 74
     1
176
     1
 91
        4
176
     1
 64
     7
176
     1
 65
   257
176
     1
 75
     1
176
     1
175
     1
176
     1
 42
1.0
176
     1
 92
        0
176
     1
 66
   257
176
     1
 43
1.0
176
     1
 76
     1
176
     1
 77
     6
176
     1
 78
     2
176
     1
 67
     7
176
     1
 79
     5
176
     1
170
     0
176
     1
171
     0
176
     1
290
     0
176
     1
 93
        1
176
     1
 44
0.0
176
     1
173
     0
176
     1
  0
VISUALSTYLE
  5
32
102
{ACAD_REACTORS
330
2A
102
}
330
2A
100
AcDbVisualStyle
  2
Basic
 70
     7
177
     2
291
     1
 71
     1
176
     1
 72
     0
176
     1
 73
     1
176
     1
 90
        0
176
     1
 40
-0.6
176
     1
 41
-30.0
176
     1
 62
     5
 63
     7
421
 16777215
176
     1
 74
     0
176
     1
 91
        4
176
     1
 64
     7
176
     1
 65
   257
176
     1
 75
     1
176
     1
175
     1
176
     1
 42
1.0
176
     1
 92
        8
176
     1
 66
     7
176
     1
 43
1.0
176
     1
 76
     1
176
     1
 77
     6
176
     1
 78
     2
176
     1
 67
     7
176
     1
 79
     5
176
     1
170
     0
176
     1
171
     0
176
     1
290
     0
176
     1
 93
        1
176
     1
 44
0.0
176
     1
173
     0
176
     1
  0
VISUALSTYLE
  5
36
102
{ACAD_REACTORS
330
2A
102
}
330
2A
100
AcDbVisualStyle
  2
Brighten
 70
    12
177
     2
291
     1
 71
     2
176
     1
 72
     2
176
     1
 73
     0
176
     1
 90
        0
176
     1
 40
-0.6
176
     1
 41
-30.0
176
     1
 62
     5
 63
     7
421
 16777215
176
     1
 74
     1
176
     1
 91
        4
176
     1
 64
     7
176
     1
 65
   257
176
     1
 75
     1
176
     1
175
     1
176
     1
 42
1.0
176
     1
 92
        8
176
     1
 66
     7
176
     1
 43
1.0
176
     1
 76
     1
176
     1
 77
     6
176
     1
 78
     2
176
     1
 67
     7
176
     1
 79
     5
176
     1
170
     0
176
     1
171
     0
176
     1
290
     0
176
     1
 93
        1
176
     1
 44
50.0
176
     1
173
     0
176
     1
  0
VISUALSTYLE
  5
3A
102
{ACAD_REACTORS
330
2A
102
}
330
2A
100
AcDbVisualStyle
  2
ColorChange
 70
    16
177
     2
291
     1
 71
     2
176
     1
 72
     2
176
     1
 73
     3
176
     1
 90
        0
176
     1
 40
-0.6
176
     1
 41
-30.0
176
     1
 62
     5
 63
     8
421
  8421504
176
     1
 74
     1
176
     1
 91
        4
176
     1
 64
     7
176
     1
 65
   257
176
     1
 75
     1
176
     1
175
     1
176
     1
 42
1.0
176
     1
 92
        8
176
     1
 66
     8
424
  8421504
176
     1
 43
1.0
176
     1
 76
     1
176
     1
 77
     6
176
     1
 78
     2
176
     1
 67
     7
176
     1
 79
     5
176
     1
170
     0
176
     1
171
     0
176
     1
290
     0
176
     1
 93
        1
176
     1
 44
0.0
176
     1
173
     0
176
     1
  0
VISUALSTYLE
  5
34
102
{ACAD_REACTORS
330
2A
102
}
330
2A
100
AcDbVisualStyle
  2
Conceptual
 70
     9
177
     2
291
     0
 71
     3
176
     1
 72
     2
176
     1
 73
     0
176
     1
 90
        0
176
     1
 40
-0.6
176
     1
 41
-30.0
176
     1
 62
     5
 63
     7
421
 16777215
176
     1
 74
     2
176
     1
 91
        2
176
     1
 64
     7
176
     1
 65
   257
176
     1
 75
     1
176
     1
175
     1
176
     1
 42
40.0
176
     1
 92
        8
176
     1
 66
     7
176
     1
 43
1.0
176
     1
 76
     1
176
     1
 77
     6
176
     1
 78
     2
176
     1
 67
     7
176
     1
 79
     3
176
     1
170
     0
176
     1
171
     0
176
     1
290
     0
176
     1
 93
        1
176
     1
 44
0.0
176
     1
173
     0
176
     1
  0
VISUALSTYLE
  5
35
102
{ACAD_REACTORS
330
2A
102
}
330
2A
100
AcDbVisualStyle
  2
Dim
 70
    11
177
     2
291
     1
 71
     2
176
     1
 72
     2
176
     1
 73
     0
176
     1
 90
        0
176
     1
 40
-0.6
176
     1
 41
-30.0
176
     1
 62
     5
 63
     7
421
 16777215
176
     1
 74
     1
176
     1
 91
        4
176
     1
 64
     7
176
     1
 65
   257
176
     1
 75
     1
176
     1
175
     1
176
     1
 42
1.0
176
     1
 92
        8
176
     1
 66
     7
176
     1
 43
1.0
176
     1
 76
     1
176
     1
 77
     6
176
     1
 78
     2
176
     1
 67
     7
176
     1
 79
     5
176
     1
170
     0
176
     1
171
     0
176
     1
290
     0
176
     1
 93
        1
176
     1
 44
-50.0
176
     1
173
     0
176
     1
  0
VISUALSTYLE
  5
39
102
{ACAD_REACTORS
330
2A
102
}
330
2A
100
AcDbVisualStyle
  2
Facepattern
 70
    15
177
     2
291
     1
 71
     2
176
     1
 72
     2
176
     1
 73
     0
176
     1
 90
        0
176
     1
 40
-0.6
176
     1
 41
-30.0
176
     1
 62
     5
 63
     7
421
 16777215
176
     1
 74
     1
176
     1
 91
        4
176
     1
 64
     7
176
     1
 65
   257
176
     1
 75
     1
176
     1
175
     1
176
     1
 42
1.0
176
     1
 92
        8
176
     1
 66
     7
176
     1
 43
1.0
176
     1
 76
     1
176
     1
 77
     6
176
     1
 78
     2
176
     1
 67
     7
176
     1
 79
     5
176
     1
170
     0
176
     1
171
     0
176
     1
290
     0
176
     1
 93
        1
176
     1
 44
0.0
176
     1
173
     0
176
     1
  0
VISUALSTYLE
  5
2B
102
{ACAD_REACTORS
330
2A
102
}
330
2A
100
AcDbVisualStyle
  2
Flat
 70
     0
177
     2
291
     1
 71
     2
176
     1
 72
     1
176
     1
 73
     1
176
     1
 90
        2
176
     1
 40
-0.6
176
     1
 41
30.0
176
     1
 62
     5
 63
     7
421
 16777215
176
     1
 74
     0
176
     1
 91
        4
176
     1
 64
     7
176
     1
 65
   257
176
     1
 75
     1
176
     1
175
     1
176
     1
 42
1.0
176
     1
 92
        8
176
     1
 66
     7
176
     1
 43
1.0
176
     1
 76
     1
176
     1
 77
     6
176
     1
 78
     2
176
     1
 67
     7
176
     1
 79
     5
176
     1
170
     0
176
     1
171
     0
176
     1
290
     0
176
     1
 93
       13
176
     1
 44
0.0
176
     1
173
     0
176
     1
  0
VISUALSTYLE
  5
2C
102
{ACAD_REACTORS
330
2A
102
}
330
2A
100
AcDbVisualStyle
  2
FlatWithEdges
 70
     1
177
     2
291
     1
 71
     2
176
     1
 72
     1
176
     1
 73
     1
176
     1
 90
        2
176
     1
 40
-0.6
176
     1
 41
30.0
176
     1
 62
     5
 63
     7
421
 16777215
176
     1
 74
     1
176
     1
 91
        4
176
     1
 64
     7
176
     1
 65
   257
176
     1
 75
     1
176
     1
175
     1
176
     1
 42
1.0
176
     1
 92
        0
176
     1
 66
   257
176
     1
 43
1.0
176
     1
 76
     1
176
     1
 77
     6
176
     1
 78
     2
176
     1
 67
     7
176
     1
 79
     5
176
     1
170
     0
176
     1
171
     0
176
     1
290
     0
176
     1
 93
       13
176
     1
 44
0.0
176
     1
173
     0
176
     1
  0
VISUALSTYLE
  5
2D
102
{ACAD_REACTORS
330
2A
102
}
330
2A
100
AcDbVisualStyle
  2
Gouraud
 70
     2
177
     2
291
     1
 71
     2
176
     1
 72
     2
176
     1
 73
     1
176
     1
 90
        2
176
     1
 40
-0.6
176
     1
 41
30.0
176
     1
 62
     5
 63
     7
421
 16777215
176
     1
 74
     0
176
     1
 91
        4
176
     1
 64
     7
176
     1
 65
   257
176
     1
 75
     1
176
     1
175
     1
176
     1
 42
1.0
176
     1
 92
        0
176
     1
 66
     7
176
     1
 43
1.0
176
     1
 76
     1
176
     1
 77
     6
176
     1
 78
     2
176
     1
 67
     7
176
     1
 79
     5
176
     1
170
     0
176
     1
171
     0
176
     1
290
     0
176
     1
 93
       13
176
     1
 44
0.0
176
     1
173
     0
176
     1
  0
VISUALSTYLE
  5
2E
102
{ACAD_REACTORS
330
2A
102
}
330
2A
100
AcDbVisualStyle
  2
GouraudWithEdges
 70
     3
177
     2
291
     1
 71
     2
176
     1
 72
     2
176
     1
 73
     1
176
     1
 90
        2
176
     1
 40
-0.6
176
     1
 41
30.0
176
     1
 62
     5
 63
     7
421
 16777215
176
     1
 74
     1
176
     1
 91
        4
176
     1
 64
     7
176
     1
 65
   257
176
     1
 75
     1
176
     1
175
     1
176
     1
 42
1.0
176
     1
 92
        0
176
     1
 66
   257
176
     1
 43
1.0
176
     1
 76
     1
176
     1
 77
     6
176
     1
 78
     2
176
     1
 67
     7
176
     1
 79
     5
176
     1
170
     0
176
     1
171
     0
176
     1
290
     0
176
     1
 93
       13
176
     1
 44
0.0
176
     1
173
     0
176
     1
  0
VISUALSTYLE
  5
38
102
{ACAD_REACTORS
330
2A
102
}
330
2A
100
AcDbVisualStyle
  2
Linepattern
 70
    14
177
     2
291
     1
 71
     2
176
     1
 72
     2
176
     1
 73
     0
176
     1
 90
        0
176
     1
 40
-0.6
176
     1
 41
-30.0
176
     1
 62
     5
 63
     7
421
 16777215
176
     1
 74
     1
176
     1
 91
        4
176
     1
 64
     7
176
     1
 65
   257
176
     1
 75
     7
176
     1
175
     7
176
     1
 42
1.0
176
     1
 92
        8
176
     1
 66
     7
176
     1
 43
1.0
176
     1
 76
     1
176
     1
 77
     6
176
     1
 78
     2
176
     1
 67
     7
176
     1
 79
     5
176
     1
170
     0
176
     1
171
     0
176
     1
290
     0
176
     1
 93
        1
176
     1
 44
0.0
176
     1
173
     0
176
     1
  0
VISUALSTYLE
  5
33
102
{ACAD_REACTORS
330
2A
102
}
330
2A
100
AcDbVisualStyle
  2
Realistic
 70
     8
177
     2
291
     0
 71
     2
176
     1
 72
     2
176
     1
 73
     0
176
     1
 90
        0
176
     1
 40
-0.6
176
     1
 41
-30.0
176
     1
 62
     5
 63
     7
421
 16777215
176
     1
 74
     1
176
     1
 91
        0
176
     1
 64
     7
176
     1
 65
   257
176
     1
 75
     1
176
     1
175
     1
176
     1
 42
1.0
176
     1
 92
        8
176
     1
 66
     8
424
  7895160
176
     1
 43
1.0
176
     1
 76
     1
176
     1
 77
     6
176
     1
 78
     2
176
     1
 67
     7
176
     1
 79
     5
176
     1
170
     0
176
     1
171
     0
176
     1
290
     0
176
     1
 93
       13
176
     1
 44
0.0
176
     1
173
     0
176
     1
  0
VISUALSTYLE
  5
37
102
{ACAD_REACTORS
330
2A
102
}
330
2A
100
AcDbVisualStyle
  2
Thicken
 70
    13
177
     2
291
     1
 71
     2
176
     1
 72
     2
176
     1
 73
     0
176
     1
 90
        0
176
     1
 40
-0.6
176
     1
 41
-30.0
176
     1
 62
     5
 63
     7
421
 16777215
176
     1
 74
     1
176
     1
 91
        4
176
     1
 64
     7
176
     1
 65
   257
176
     1
 75
     1
176
     1
175
     1
176
     1
 42
1.0
176
     1
 92
       12
176
     1
 66
     7
176
     1
 43
1.0
176
     1
 76
     1
176
     1
 77
     6
176
     1
 78
     2
176
     1
 67
     7
176
     1
 79
     5
176
     1
170
     0
176
     1
171
     0
176
     1
290
     0
176
     1
 93
        1
176
     1
 44
0.0
176
     1
173
     0
176
     1
  0
ENDSEC
  0
EOF
